  0
SECTION
  2
HEADER
  9
$ACADVER
  1
AC1015
  9
$ACADMAINTVER
 70
     6
  9
$DWGCODEPAGE
  3
DOS932
  9
$INSBASE
 10
0.0
 20
0.0
 30
0.0
  9
$EXTMIN
 10
0.0
 20
0.0
 30
0.0
  9
$EXTMAX
 10
431.8
 20
279.4
 30
0.0
  9
$LIMMIN
 10
0.0
 20
0.0
  9
$LIMMAX
 10
431.8
 20
279.4
  9
$ORTHOMODE
 70
     0
  9
$REGENMODE
 70
     1
  9
$FILLMODE
 70
     1
  9
$QTEXTMODE
 70
     0
  9
$MIRRTEXT
 70
     1
  9
$LTSCALE
 40
1.0
  9
$ATTMODE
 70
     1
  9
$TEXTSIZE
 40
3.5
  9
$TRACEWID
 40
1.0
  9
$TEXTSTYLE
  7
Standard
  9
$CLAYER
  8
0
  9
$CELTYPE
  6
ByLayer
  9
$CECOLOR
 62
   256
  9
$CELTSCALE
 40
1.0
  9
$DISPSILH
 70
     0
  9
$DIMSCALE
 40
1.0
  9
$DIMASZ
 40
3.556
  9
$DIMEXO
 40
1.0
  9
$DIMDLI
 40
3.75
  9
$DIMRND
 40
0.0
  9
$DIMDLE
 40
0.0
  9
$DIMEXE
 40
1.0
  9
$DIMTP
 40
0.0
  9
$DIMTM
 40
0.0
  9
$DIMTXT
 40
3.5
  9
$DIMCEN
 40
2.5
  9
$DIMTSZ
 40
0.0
  9
$DIMTOL
 70
     0
  9
$DIMLIM
 70
     0
  9
$DIMTIH
 70
     1
  9
$DIMTOH
 70
     1
  9
$DIMSE1
 70
     0
  9
$DIMSE2
 70
     0
  9
$DIMTAD
 70
     1
  9
$DIMZIN
 70
     0
  9
$DIMBLK
  1

  9
$DIMASO
 70
     1
  9
$DIMSHO
 70
     1
  9
$DIMPOST
  1

  9
$DIMAPOST
  1

  9
$DIMALT
 70
     0
  9
$DIMALTD
 70
     3
  9
$DIMALTF
 40
0.0393700787
  9
$DIMLFAC
 40
1.0
  9
$DIMTOFL
 70
     1
  9
$DIMTVP
 40
0.0
  9
$DIMTIX
 70
     0
  9
$DIMSOXD
 70
     0
  9
$DIMSAH
 70
     0
  9
$DIMBLK1
  1

  9
$DIMBLK2
  1

  9
$DIMSTYLE
  2
ISO-25
  9
$DIMCLRD
 70
     0
  9
$DIMCLRE
 70
     0
  9
$DIMCLRT
 70
     0
  9
$DIMTFAC
 40
1.0
  9
$DIMGAP
 40
1.524
  9
$DIMJUST
 70
     0
  9
$DIMSD1
 70
     0
  9
$DIMSD2
 70
     0
  9
$DIMTOLJ
 70
     0
  9
$DIMTZIN
 70
     0
  9
$DIMALTZ
 70
     0
  9
$DIMALTTZ
 70
     0
  9
$DIMUPT
 70
     0
  9
$DIMDEC
 70
     3
  9
$DIMTDEC
 70
     3
  9
$DIMALTU
 70
     2
  9
$DIMALTTD
 70
     3
  9
$DIMTXSTY
  7
Standard
  9
$DIMAUNIT
 70
     0
  9
$DIMADEC
 70
     2
  9
$DIMALTRND
 40
0.0
  9
$DIMAZIN
 70
     0
  9
$DIMDSEP
 70
    44
  9
$DIMATFIT
 70
     3
  9
$DIMFRAC
 70
     0
  9
$DIMLDRBLK
  1

  9
$DIMLUNIT
 70
     2
  9
$DIMLWD
 70
    -2
  9
$DIMLWE
 70
    -2
  9
$DIMTMOVE
 70
     0
  9
$LUNITS
 70
     2
  9
$LUPREC
 70
     3
  9
$SKETCHINC
 40
1.0
  9
$FILLETRAD
 40
0.0
  9
$AUNITS
 70
     0
  9
$AUPREC
 70
     2
  9
$MENU
  1
.
  9
$ELEVATION
 40
0.0
  9
$PELEVATION
 40
0.0
  9
$THICKNESS
 40
0.0
  9
$LIMCHECK
 70
     0
  9
$CHAMFERA
 40
0.0
  9
$CHAMFERB
 40
0.0
  9
$CHAMFERC
 40
0.0
  9
$CHAMFERD
 40
0.0
  9
$SKPOLY
 70
     0
  9
$TDCREATE
 40
2460389.726114317
  9
$TDUCREATE
 40
2460389.351114317
  9
$TDUPDATE
 40
2460389.726114826
  9
$TDUUPDATE
 40
2460389.351114826
  9
$TDINDWG
 40
0.0000000116
  9
$TDUSRTIMER
 40
0.0000000116
  9
$USRTIMER
 70
     1
  9
$ANGBASE
 50
0.0
  9
$ANGDIR
 70
     0
  9
$PDMODE
 70
     0
  9
$PDSIZE
 40
-1.0
  9
$PLINEWID
 40
0.0
  9
$SPLFRAME
 70
     0
  9
$SPLINETYPE
 70
     6
  9
$SPLINESEGS
 70
     8
  9
$HANDSEED
  5
307
  9
$SURFTAB1
 70
     6
  9
$SURFTAB2
 70
     6
  9
$SURFTYPE
 70
     6
  9
$SURFU
 70
     6
  9
$SURFV
 70
     6
  9
$UCSBASE
  2

  9
$UCSNAME
  2

  9
$UCSORG
 10
0.0
 20
0.0
 30
0.0
  9
$UCSXDIR
 10
1.0
 20
0.0
 30
0.0
  9
$UCSYDIR
 10
0.0
 20
1.0
 30
0.0
  9
$UCSORTHOREF
  2

  9
$UCSORTHOVIEW
 70
     0
  9
$UCSORGTOP
 10
0.0
 20
0.0
 30
0.0
  9
$UCSORGBOTTOM
 10
0.0
 20
0.0
 30
0.0
  9
$UCSORGLEFT
 10
0.0
 20
0.0
 30
0.0
  9
$UCSORGRIGHT
 10
0.0
 20
0.0
 30
0.0
  9
$UCSORGFRONT
 10
0.0
 20
0.0
 30
0.0
  9
$UCSORGBACK
 10
0.0
 20
0.0
 30
0.0
  9
$PUCSBASE
  2

  9
$PUCSNAME
  2

  9
$PUCSORG
 10
0.0
 20
0.0
 30
0.0
  9
$PUCSXDIR
 10
1.0
 20
0.0
 30
0.0
  9
$PUCSYDIR
 10
0.0
 20
1.0
 30
0.0
  9
$PUCSORTHOREF
  2

  9
$PUCSORTHOVIEW
 70
     0
  9
$PUCSORGTOP
 10
0.0
 20
0.0
 30
0.0
  9
$PUCSORGBOTTOM
 10
0.0
 20
0.0
 30
0.0
  9
$PUCSORGLEFT
 10
0.0
 20
0.0
 30
0.0
  9
$PUCSORGRIGHT
 10
0.0
 20
0.0
 30
0.0
  9
$PUCSORGFRONT
 10
0.0
 20
0.0
 30
0.0
  9
$PUCSORGBACK
 10
0.0
 20
0.0
 30
0.0
  9
$USERI1
 70
     0
  9
$USERI2
 70
     0
  9
$USERI3
 70
     0
  9
$USERI4
 70
     0
  9
$USERI5
 70
     0
  9
$USERR1
 40
0.0
  9
$USERR2
 40
0.0
  9
$USERR3
 40
0.0
  9
$USERR4
 40
0.0
  9
$USERR5
 40
0.0
  9
$WORLDVIEW
 70
     1
  9
$SHADEDGE
 70
     3
  9
$SHADEDIF
 70
    70
  9
$TILEMODE
 70
     1
  9
$MAXACTVP
 70
    64
  9
$PINSBASE
 10
0.0
 20
0.0
 30
0.0
  9
$PLIMCHECK
 70
     0
  9
$PEXTMIN
 10
1.0000000000E+20
 20
1.0000000000E+20
 30
1.0000000000E+20
  9
$PEXTMAX
 10
-1.0000000000E+20
 20
-1.0000000000E+20
 30
-1.0000000000E+20
  9
$PLIMMIN
 10
0.0
 20
0.0
  9
$PLIMMAX
 10
420.0
 20
297.0
  9
$UNITMODE
 70
     0
  9
$VISRETAIN
 70
     1
  9
$PLINEGEN
 70
     0
  9
$PSLTSCALE
 70
     1
  9
$TREEDEPTH
 70
  3020
  9
$CMLSTYLE
  2
Standard
  9
$CMLJUST
 70
     0
  9
$CMLSCALE
 40
20.0
  9
$PROXYGRAPHICS
 70
     1
  9
$MEASUREMENT
 70
     1
  9
$CELWEIGHT
370
    -1
  9
$ENDCAPS
280
     0
  9
$JOINSTYLE
280
     0
  9
$LWDISPLAY
290
     1
  9
$INSUNITS
 70
     4
  9
$HYPERLINKBASE
  1

  9
$STYLESHEET
  1

  9
$XEDIT
290
     1
  9
$CEPSNTYPE
380
     0
  9
$PSTYLEMODE
290
     1
  9
$FINGERPRINTGUID
  2
{e1e8deab-5888-4b3c-8f26-cabafc147db2}
  9
$VERSIONGUID
  2
{FAEB1C32-E019-11D5-929B-00C0DF256EC4}
  9
$EXTNAMES
290
     1
  9
$PSVPSCALE
 40
0.0
  9
$OLESTARTUP
290
     0
  0
ENDSEC
  0
SECTION
  2
CLASSES
  0
CLASS
  1
ACDBDICTIONARYWDFLT
  2
AcDbDictionaryWithDefault
  3
ObjectDBX Classes
 90
        0
280
     0
281
     0
  0
CLASS
  1
VISUALSTYLE
  2
AcDbVisualStyle
  3
ObjectDBX Classes
 90
     4095
280
     0
281
     0
  0
CLASS
  1
MATERIAL
  2
AcDbMaterial
  3
ObjectDBX Classes
 90
     1153
280
     0
281
     0
  0
CLASS
  1
SCALE
  2
AcDbScale
  3
ObjectDBX Classes
 90
     1153
280
     0
281
     0
  0
CLASS
  1
TABLESTYLE
  2
AcDbTableStyle
  3
ObjectDBX Classes
 90
     4095
280
     0
281
     0
  0
CLASS
  1
MLEADERSTYLE
  2
AcDbMLeaderStyle
  3
ACDB_MLEADERSTYLE_CLASS
 90
     4095
280
     0
281
     0
  0
CLASS
  1
SUN
  2
AcDbSun
  3
SCENEOE
 90
     1153
280
     0
281
     0
  0
CLASS
  1
ACDBPLACEHOLDER
  2
AcDbPlaceHolder
  3
ObjectDBX Classes
 90
        0
280
     0
281
     0
  0
CLASS
  1
LAYOUT
  2
AcDbLayout
  3
ObjectDBX Classes
 90
        0
280
     0
281
     0
  0
ENDSEC
  0
SECTION
  2
TABLES
  0
TABLE
  2
VPORT
  5
8
330
0
100
AcDbSymbolTable
 70
     1
  0
VPORT
  5
29
330
8
100
AcDbSymbolTableRecord
100
AcDbViewportTableRecord
  2
*Active
 70
     0
 10
0.0
 20
0.0
 11
1.0
 21
1.0
 12
215.9
 22
139.7
 13
0.0
 23
0.0
 14
10.0
 24
10.0
 15
10.0
 25
10.0
 16
0.0
 26
0.0
 36
1.0
 17
0.0
 27
0.0
 37
0.0
 40
279.4
 41
1.5454545455
 42
50.0
 43
0.0
 44
0.0
 50
0.0
 51
0.0
 71
     0
 72
  2000
 73
     1
 74
     3
 75
     0
 76
     0
 77
     0
 78
     0
281
     0
 65
     1
110
0.0
120
0.0
130
0.0
111
1.0
121
0.0
131
0.0
112
0.0
122
1.0
132
0.0
 79
     0
146
0.0
  0
ENDTAB
  0
TABLE
  2
LTYPE
  5
5
330
0
100
AcDbSymbolTable
 70
     6
  0
LTYPE
  5
14
330
5
100
AcDbSymbolTableRecord
100
AcDbLinetypeTableRecord
  2
ByBlock
 70
     0
  3

 72
    65
 73
     0
 40
0.0
  0
LTYPE
  5
15
330
5
100
AcDbSymbolTableRecord
100
AcDbLinetypeTableRecord
  2
ByLayer
 70
     0
  3

 72
    65
 73
     0
 40
0.0
  0
LTYPE
  5
16
330
5
100
AcDbSymbolTableRecord
100
AcDbLinetypeTableRecord
  2
Continuous
 70
     0
  3
Solid line
 72
    65
 73
     0
 40
0.0
  0
LTYPE
  5
5E
330
5
100
AcDbSymbolTableRecord
100
AcDbLinetypeTableRecord
  2
HIDDEN
 70
     0
  3
Hidden __ __ __ __ __ __ __ __ __ __ __ __ __ __
 72
    65
 73
     2
 40
1.905
 49
1.27
 74
     0
 49
-0.635
 74
     0
  0
LTYPE
  5
5F
330
5
100
AcDbSymbolTableRecord
100
AcDbLinetypeTableRecord
  2
PHANTOM
 70
     0
  3
Phantom ______  __  __  ______  __  __  ______
 72
    65
 73
     6
 40
12.7
 49
6.35
 74
     0
 49
-1.27
 74
     0
 49
1.27
 74
     0
 49
-1.27
 74
     0
 49
1.27
 74
     0
 49
-1.27
 74
     0
  0
LTYPE
  5
60
330
5
100
AcDbSymbolTableRecord
100
AcDbLinetypeTableRecord
  2
CENTER
 70
     0
  3
Center ____ _ ____ _ ____ _ ____ _ ____ _ ____
 72
    65
 73
     4
 40
10.16
 49
6.35
 74
     0
 49
-1.27
 74
     0
 49
1.27
 74
     0
 49
-1.27
 74
     0
  0
LTYPE
  5
61
330
5
100
AcDbSymbolTableRecord
100
AcDbLinetypeTableRecord
  2
CENTERX2
 70
     0
  3
Center (2x) ________  __  ________  __  _____
 72
    65
 73
     4
 40
20.32
 49
12.7
 74
     0
 49
-2.54
 74
     0
 49
2.54
 74
     0
 49
-2.54
 74
     0
  0
LTYPE
  5
62
330
5
100
AcDbSymbolTableRecord
100
AcDbLinetypeTableRecord
  2
DOT2
 70
     0
  3
Dot (.5x) ........................................
 72
    65
 73
     2
 40
0.635
 49
0.0
 74
     0
 49
-0.635
 74
     0
  0
ENDTAB
  0
TABLE
  2
LAYER
  5
2
330
0
100
AcDbSymbolTable
 70
     1
  0
LAYER
  5
10
330
2
100
AcDbSymbolTableRecord
100
AcDbLayerTableRecord
  2
0
 70
     0
 62
     7
  6
Continuous
370
    -3
390
F
  0
ENDTAB
  0
TABLE
  2
STYLE
  5
3
330
0
100
AcDbSymbolTable
 70
     2
  0
STYLE
  5
11
330
3
100
AcDbSymbolTableRecord
100
AcDbTextStyleTableRecord
  2
Standard
 70
     0
 40
0.0
 41
1.0
 50
0.0
 71
     0
 42
3.5
  3
txt
  4
bigfont
  0
STYLE
  5
2F8
330
3
100
AcDbSymbolTableRecord
100
AcDbTextStyleTableRecord
  2
SLDTEXTSTYLE0
 70
     0
 40
0.0
 41
0.75
 50
0.0
 71
     0
 42
3.5
  3
TXT
  4
bigfont
  0
ENDTAB
  0
TABLE
  2
VIEW
  5
6
330
0
100
AcDbSymbolTable
 70
     0
  0
ENDTAB
  0
TABLE
  2
UCS
  5
7
330
0
100
AcDbSymbolTable
 70
     0
  0
ENDTAB
  0
TABLE
  2
APPID
  5
9
330
0
100
AcDbSymbolTable
 70
     1
  0
APPID
  5
12
330
9
100
AcDbSymbolTableRecord
100
AcDbRegAppTableRecord
  2
ACAD
 70
     0
  0
ENDTAB
  0
TABLE
  2
DIMSTYLE
  5
A
330
0
100
AcDbSymbolTable
 70
     1
100
AcDbDimStyleTable
  0
DIMSTYLE
105
27
330
A
100
AcDbSymbolTableRecord
100
AcDbDimStyleTableRecord
  2
ISO-25
 70
     0
 41
2.5
 42
0.625
 43
3.75
 44
1.25
 73
     0
 74
     0
 77
     1
 78
     8
140
2.5
141
2.5
143
0.0393700787
147
0.625
171
     3
172
     1
178
     0
271
     2
272
     2
274
     3
278
    44
283
     0
284
     8
340
11
  0
ENDTAB
  0
TABLE
  2
BLOCK_RECORD
  5
1
330
0
100
AcDbSymbolTable
 70
     3
  0
BLOCK_RECORD
  5
1F
330
1
100
AcDbSymbolTableRecord
100
AcDbBlockTableRecord
  2
*Model_Space
340
22
  0
BLOCK_RECORD
  5
1B
330
1
100
AcDbSymbolTableRecord
100
AcDbBlockTableRecord
  2
*Paper_Space
340
1E
  0
BLOCK_RECORD
  5
23
330
1
100
AcDbSymbolTableRecord
100
AcDbBlockTableRecord
  2
*Paper_Space0
340
26
  0
BLOCK_RECORD
  5
1FA
330
1
100
AcDbSymbolTableRecord
100
AcDbBlockTableRecord
  2
SW_CENTERMARKSYMBOL_0
340
0
102
{BLKREFS
331
205
102
}
  0
BLOCK_RECORD
  5
2FA
330
1
100
AcDbSymbolTableRecord
100
AcDbBlockTableRecord
  2
SW_CENTERMARKSYMBOL_1
340
0
102
{BLKREFS
331
305
102
}
  0
ENDTAB
  0
ENDSEC
  0
SECTION
  2
BLOCKS
  0
BLOCK
  5
20
330
1F
100
AcDbEntity
  8
0
100
AcDbBlockBegin
  2
*Model_Space
 70
     0
 10
0.0
 20
0.0
 30
0.0
  3
*Model_Space
  1

  0
ENDBLK
  5
21
330
1F
100
AcDbEntity
  8
0
100
AcDbBlockEnd
  0
BLOCK
  5
1C
330
1B
100
AcDbEntity
 67
     1
  8
0
100
AcDbBlockBegin
  2
*Paper_Space
 70
     0
 10
0.0
 20
0.0
 30
0.0
  3
*Paper_Space
  1

  0
ENDBLK
  5
1D
330
1B
100
AcDbEntity
 67
     1
  8
0
100
AcDbBlockEnd
  0
BLOCK
  5
24
330
23
100
AcDbEntity
  8
0
100
AcDbBlockBegin
  2
*Paper_Space0
 70
     0
 10
0.0
 20
0.0
 30
0.0
  3
*Paper_Space0
  1

  0
ENDBLK
  5
25
330
23
100
AcDbEntity
  8
0
100
AcDbBlockEnd
  0
BLOCK
  5
1FB
330
1FA
100
AcDbEntity
  8
0
100
AcDbBlockBegin
  2
SW_CENTERMARKSYMBOL_0
 70
     0
 10
0.0
 20
0.0
 30
0.0
  3
SW_CENTERMARKSYMBOL_0
  1

  0
LINE
  5
1FD
330
1FA
100
AcDbEntity
  8
0
  6
Continuous
 62
     0
370
    18
100
AcDbLine
 10
0.0
 20
0.0
 30
0.0
 11
0.0
 21
2.5
 31
0.0
  0
LINE
  5
1FE
330
1FA
100
AcDbEntity
  8
0
  6
Continuous
 62
     0
370
    18
100
AcDbLine
 10
0.0
 20
0.0
 30
0.0
 11
-2.5
 21
0.0
 31
0.0
  0
LINE
  5
1FF
330
1FA
100
AcDbEntity
  8
0
  6
Continuous
 62
     0
370
    18
100
AcDbLine
 10
0.0
 20
0.0
 30
0.0
 11
0.0
 21
-2.5
 31
0.0
  0
LINE
  5
200
330
1FA
100
AcDbEntity
  8
0
  6
Continuous
 62
     0
370
    18
100
AcDbLine
 10
0.0
 20
0.0
 30
0.0
 11
2.5
 21
0.0
 31
0.0
  0
LINE
  5
201
330
1FA
100
AcDbEntity
  8
0
  6
Continuous
 62
     0
370
    18
100
AcDbLine
 10
0.0
 20
5.0
 30
0.0
 11
0.0
 21
32.7669361413
 31
0.0
  0
LINE
  5
202
330
1FA
100
AcDbEntity
  8
0
  6
Continuous
 62
     0
370
    18
100
AcDbLine
 10
-5.0
 20
0.0
 30
0.0
 11
-10.75
 21
0.0
 31
0.0
  0
LINE
  5
203
330
1FA
100
AcDbEntity
  8
0
  6
Continuous
 62
     0
370
    18
100
AcDbLine
 10
0.0
 20
-5.0
 30
0.0
 11
0.0
 21
-25.5311503434
 31
0.0
  0
LINE
  5
204
330
1FA
100
AcDbEntity
  8
0
  6
Continuous
 62
     0
370
    18
100
AcDbLine
 10
5.0
 20
0.0
 30
0.0
 11
10.75
 21
0.0
 31
0.0
  0
ENDBLK
  5
1FC
330
1FA
100
AcDbEntity
  8
0
100
AcDbBlockEnd
  0
BLOCK
  5
2FB
330
2FA
100
AcDbEntity
  8
0
100
AcDbBlockBegin
  2
SW_CENTERMARKSYMBOL_1
 70
     0
 10
0.0
 20
0.0
 30
0.0
  3
SW_CENTERMARKSYMBOL_1
  1

  0
LINE
  5
2FD
330
2FA
100
AcDbEntity
  8
0
  6
Continuous
 62
     0
370
    18
100
AcDbLine
 10
0.0
 20
0.0
 30
0.0
 11
0.0
 21
2.5
 31
0.0
  0
LINE
  5
2FE
330
2FA
100
AcDbEntity
  8
0
  6
Continuous
 62
     0
370
    18
100
AcDbLine
 10
0.0
 20
0.0
 30
0.0
 11
-2.5
 21
0.0
 31
0.0
  0
LINE
  5
2FF
330
2FA
100
AcDbEntity
  8
0
  6
Continuous
 62
     0
370
    18
100
AcDbLine
 10
0.0
 20
0.0
 30
0.0
 11
0.0
 21
-2.5
 31
0.0
  0
LINE
  5
300
330
2FA
100
AcDbEntity
  8
0
  6
Continuous
 62
     0
370
    18
100
AcDbLine
 10
0.0
 20
0.0
 30
0.0
 11
2.5
 21
0.0
 31
0.0
  0
LINE
  5
301
330
2FA
100
AcDbEntity
  8
0
  6
Continuous
 62
     0
370
    18
100
AcDbLine
 10
0.0
 20
5.0
 30
0.0
 11
0.0
 21
10.5000000325
 31
0.0
  0
LINE
  5
302
330
2FA
100
AcDbEntity
  8
0
  6
Continuous
 62
     0
370
    18
100
AcDbLine
 10
-5.0
 20
0.0
 30
0.0
 11
-35.3883382876
 21
0.0
 31
0.0
  0
LINE
  5
303
330
2FA
100
AcDbEntity
  8
0
  6
Continuous
 62
     0
370
    18
100
AcDbLine
 10
0.0
 20
-5.0
 30
0.0
 11
0.0
 21
-10.5000000325
 31
0.0
  0
LINE
  5
304
330
2FA
100
AcDbEntity
  8
0
  6
Continuous
 62
     0
370
    18
100
AcDbLine
 10
5.0
 20
0.0
 30
0.0
 11
35.4037712956
 21
0.0
 31
0.0
  0
ENDBLK
  5
2FC
330
2FA
100
AcDbEntity
  8
0
100
AcDbBlockEnd
  0
ENDSEC
  0
SECTION
  2
ENTITIES
  0
LINE
  5
63
330
1F
100
AcDbEntity
  8
0
  6
Continuous
 62
     7
370
    25
100
AcDbLine
 10
60.21923125
 20
31.354625
 30
0.0
 11
60.41923125
 21
31.554625
 31
0.0
  0
LINE
  5
64
330
1F
100
AcDbEntity
  8
0
  6
Continuous
 62
     7
370
    25
100
AcDbLine
 10
60.41923125
 20
48.154625
 30
0.0
 11
60.21923125
 21
48.354625
 31
0.0
  0
LINE
  5
65
330
1F
100
AcDbEntity
  8
0
  6
Continuous
 62
     7
370
    25
100
AcDbLine
 10
57.41923125
 20
31.354625
 30
0.0
 11
60.21923125
 21
31.354625
 31
0.0
  0
LINE
  5
66
330
1F
100
AcDbEntity
  8
0
  6
Continuous
 62
     7
370
    25
100
AcDbLine
 10
60.21923125
 20
48.354625
 30
0.0
 11
57.41923125
 21
48.354625
 31
0.0
  0
LINE
  5
67
330
1F
100
AcDbEntity
  8
0
  6
Continuous
 62
     7
370
    25
100
AcDbLine
 10
60.41923125
 20
33.276125
 30
0.0
 11
65.6675652002
 21
33.276125
 31
0.0
  0
LINE
  5
68
330
1F
100
AcDbEntity
  8
0
  6
Continuous
 62
     7
370
    25
100
AcDbLine
 10
65.6675652002
 20
46.433125
 30
0.0
 11
60.41923125
 21
46.433125
 31
0.0
  0
LINE
  5
69
330
1F
100
AcDbEntity
  8
0
  6
Continuous
 62
     7
370
    25
100
AcDbLine
 10
31.61923125
 20
48.354625
 30
0.0
 11
31.41923125
 21
48.154625
 31
0.0
  0
LINE
  5
6A
330
1F
100
AcDbEntity
  8
0
  6
Continuous
 62
     7
370
    25
100
AcDbLine
 10
31.41923125
 20
31.554625
 30
0.0
 11
31.61923125
 21
31.354625
 31
0.0
  0
LINE
  5
6B
330
1F
100
AcDbEntity
  8
0
  6
Continuous
 62
     7
370
    25
100
AcDbLine
 10
34.41923125
 20
48.354625
 30
0.0
 11
31.61923125
 21
48.354625
 31
0.0
  0
LINE
  5
6C
330
1F
100
AcDbEntity
  8
0
  6
Continuous
 62
     7
370
    25
100
AcDbLine
 10
31.61923125
 20
31.354625
 30
0.0
 11
34.41923125
 21
31.354625
 31
0.0
  0
LINE
  5
6D
330
1F
100
AcDbEntity
  8
0
  6
Continuous
 62
     7
370
    25
100
AcDbLine
 10
31.41923125
 20
46.433125
 30
0.0
 11
26.1708972998
 21
46.433125
 31
0.0
  0
LINE
  5
6E
330
1F
100
AcDbEntity
  8
0
  6
Continuous
 62
     7
370
    25
100
AcDbLine
 10
26.1708972998
 20
33.276125
 30
0.0
 11
31.41923125
 21
33.276125
 31
0.0
  0
LINE
  5
6F
330
1F
100
AcDbEntity
  8
0
  6
Continuous
 62
     7
370
    25
100
AcDbLine
 10
66.571092146
 20
49.6695795762
 30
0.0
 11
65.6675652002
 21
48.104625
 31
0.0
  0
LINE
  5
70
330
1F
100
AcDbEntity
  8
0
  6
Continuous
 62
     7
370
    25
100
AcDbLine
 10
65.6675652002
 20
31.604625
 30
0.0
 11
66.571092146
 21
30.0396704238
 31
0.0
  0
LINE
  5
71
330
1F
100
AcDbEntity
  8
0
  6
Continuous
 62
     7
370
    25
100
AcDbLine
 10
77.7640382543
 20
30.0396704238
 30
0.0
 11
78.6675652002
 21
31.604625
 31
0.0
  0
LINE
  5
72
330
1F
100
AcDbEntity
  8
0
  6
Continuous
 62
     7
370
    25
100
AcDbLine
 10
78.6675652002
 20
48.104625
 30
0.0
 11
77.7640382543
 21
49.6695795762
 31
0.0
  0
LINE
  5
73
330
1F
100
AcDbEntity
  8
0
  6
Continuous
 62
     7
370
    25
100
AcDbLine
 10
14.0744242457
 20
49.6695795762
 30
0.0
 11
13.1708972998
 21
48.104625
 31
0.0
  0
LINE
  5
74
330
1F
100
AcDbEntity
  8
0
  6
Continuous
 62
     7
370
    25
100
AcDbLine
 10
13.1708972998
 20
31.604625
 30
0.0
 11
14.0744242457
 21
30.0396704238
 31
0.0
  0
LINE
  5
75
330
1F
100
AcDbEntity
  8
0
  6
Continuous
 62
     7
370
    25
100
AcDbLine
 10
25.267370354
 20
30.0396704238
 30
0.0
 11
26.1708972998
 21
31.604625
 31
0.0
  0
LINE
  5
76
330
1F
100
AcDbEntity
  8
0
  6
Continuous
 62
     7
370
    25
100
AcDbLine
 10
26.1708972998
 20
48.104625
 30
0.0
 11
25.267370354
 21
49.6695795762
 31
0.0
  0
LINE
  5
77
330
1F
100
AcDbEntity
  8
0
  6
Continuous
 62
     7
370
    25
100
AcDbLine
 10
39.16916875
 20
27.854625
 30
0.0
 11
39.4632691358
 21
18.4434126538
 31
0.0
  0
LINE
  5
78
330
1F
100
AcDbEntity
  8
0
  6
Continuous
 62
     7
370
    25
100
AcDbLine
 10
52.3751933642
 20
18.4434126538
 30
0.0
 11
52.66929375
 21
27.854625
 31
0.0
  0
SPLINE
  5
79
330
1F
100
AcDbEntity
  8
0
  6
Continuous
 62
     7
370
    25
100
AcDbSpline
210
0.0
220
0.0
230
1.0
 70
     8
 71
     3
 72
    11
 73
     7
 74
     0
 42
0.00000001
 43
0.00000001
 40
0.0
 40
0.0
 40
0.0
 40
0.0
 40
0.3348418873215799
 40
0.6915924305538924
 40
0.9989608161633732
 40
1.0
 40
1.0
 40
1.0
 40
1.0
 10
52.08430837022672
 20
48.64025409607547
 30
0.0
 10
52.0266257041541
 20
48.70761106857217
 30
0.0
 10
51.9074862035704
 20
48.84673217046406
 30
0.0
 10
51.82249853722383
 20
49.09799986658074
 30
0.0
 10
51.79065530075452
 20
49.27380877982045
 30
0.0
 10
51.8008841830497
 20
49.35405892212723
 30
0.0
 10
51.80091864941889
 20
49.35432932616083
 30
0.0
  0
SPLINE
  5
7A
330
1F
100
AcDbEntity
  8
0
  6
Continuous
 62
     7
370
    25
100
AcDbSpline
210
0.0
220
0.0
230
1.0
 70
     8
 71
     3
 72
    11
 73
     7
 74
     0
 42
0.00000001
 43
0.00000001
 40
0.0
 40
0.0
 40
0.0
 40
0.0
 40
0.1531469238363103
 40
0.5012986820649145
 40
0.8622156104660483
 40
1.0
 40
1.0
 40
1.0
 40
1.0
 10
40.02562988971759
 20
49.35417916632404
 30
0.0
 10
40.02778028315012
 20
49.31403417133802
 30
0.0
 10
40.03481920607883
 20
49.18262681052477
 30
0.0
 10
39.96896832370169
 20
48.96329237696779
 30
0.0
 10
39.86900410920036
 20
48.75972990853104
 30
0.0
 10
39.77128657457222
 20
48.67255652228994
 30
0.0
 10
39.74428854915842
 20
48.648471701627
 30
0.0
  0
LINE
  5
7B
330
1F
100
AcDbEntity
  8
0
  6
Continuous
 62
     7
370
    25
100
AcDbLine
 10
39.4632691358
 20
18.4434126538
 30
0.0
 11
40.66923125
 21
16.354625
 31
0.0
  0
LINE
  5
7C
330
1F
100
AcDbEntity
  8
0
  6
Continuous
 62
     7
370
    25
100
AcDbLine
 10
51.16923125
 20
16.354625
 30
0.0
 11
52.3751933642
 21
18.4434126538
 31
0.0
  0
LINE
  5
7D
330
1F
100
AcDbEntity
  8
0
  6
Continuous
 62
     7
370
    25
100
AcDbLine
 10
51.81923125
 20
49.3500941799
 30
0.0
 11
51.81923125
 21
50.354625
 31
0.0
  0
LINE
  5
7E
330
1F
100
AcDbEntity
  8
0
  6
Continuous
 62
     7
370
    25
100
AcDbLine
 10
40.01923125
 20
50.354625
 30
0.0
 11
40.01923125
 21
49.354625
 31
0.0
  0
LINE
  5
7F
330
1F
100
AcDbEntity
  8
0
  6
Continuous
 62
     7
370
    25
100
AcDbLine
 10
39.7490643427
 20
48.6493627293
 30
0.0
 11
39.2047000702
 21
49.592229307
 31
0.0
  0
LINE
  5
80
330
1F
100
AcDbEntity
  8
0
  6
Continuous
 62
     7
370
    25
100
AcDbLine
 10
56.7047000702
 20
30.117020693
 30
0.0
 11
57.41923125
 21
31.354625
 31
0.0
  0
LINE
  5
81
330
1F
100
AcDbEntity
  8
0
  6
Continuous
 62
     7
370
    25
100
AcDbLine
 10
35.1337624298
 20
49.592229307
 30
0.0
 11
34.41923125
 21
48.354625
 31
0.0
  0
LINE
  5
82
330
1F
100
AcDbEntity
  8
0
  6
Continuous
 62
     7
370
    25
100
AcDbLine
 10
52.6337624298
 20
49.592229307
 30
0.0
 11
52.0893981573
 21
48.6493627293
 31
0.0
  0
LINE
  5
83
330
1F
100
AcDbEntity
  8
0
  6
Continuous
 62
     7
370
    25
100
AcDbLine
 10
57.41923125
 20
48.354625
 30
0.0
 11
56.7047000702
 21
49.592229307
 31
0.0
  0
LINE
  5
84
330
1F
100
AcDbEntity
  8
0
  6
Continuous
 62
     7
370
    25
100
AcDbLine
 10
34.41923125
 20
31.354625
 30
0.0
 11
35.1337624298
 21
30.117020693
 31
0.0
  0
LINE
  5
85
330
1F
100
AcDbEntity
  8
0
  6
Continuous
 62
     7
370
    25
100
AcDbLine
 10
55.656835557
 20
30.117020693
 30
0.0
 11
56.7072604515
 21
30.117020693
 31
0.0
  0
LINE
  5
86
330
1F
100
AcDbEntity
  8
0
  6
Continuous
 62
     7
370
    25
100
AcDbLine
 10
55.656835557
 20
27.854625
 30
0.0
 11
55.656835557
 21
30.117020693
 31
0.0
  0
LINE
  5
87
330
1F
100
AcDbEntity
  8
0
  6
Continuous
 62
     7
370
    25
100
AcDbLine
 10
39.2072681256
 20
49.592229307
 30
0.0
 11
35.1312020485
 21
49.592229307
 31
0.0
  0
LINE
  5
88
330
1F
100
AcDbEntity
  8
0
  6
Continuous
 62
     7
370
    25
100
AcDbLine
 10
56.7072604515
 20
49.592229307
 30
0.0
 11
52.6311943744
 21
49.592229307
 31
0.0
  0
LINE
  5
89
330
1F
100
AcDbEntity
  8
0
  6
Continuous
 62
     7
370
    25
100
AcDbLine
 10
36.181626943
 20
30.117020693
 30
0.0
 11
36.181626943
 21
27.854625
 31
0.0
  0
LINE
  5
8A
330
1F
100
AcDbEntity
  8
0
  6
Continuous
 62
     7
370
    25
100
AcDbLine
 10
35.1312020485
 20
30.117020693
 30
0.0
 11
36.181626943
 21
30.117020693
 31
0.0
  0
LINE
  5
8B
330
1F
100
AcDbEntity
  8
0
  6
Continuous
 62
     7
370
    25
100
AcDbLine
 10
37.9227555264
 20
57.3052851308
 30
0.0
 11
38.3860615018
 21
50.819001475
 31
0.0
  0
LINE
  5
8C
330
1F
100
AcDbEntity
  8
0
  6
Continuous
 62
     7
370
    25
100
AcDbLine
 10
37.9192311504
 20
57.3546263948
 30
0.0
 11
37.9227555264
 21
57.3052851308
 31
0.0
  0
LINE
  5
8D
330
1F
100
AcDbEntity
  8
0
  6
Continuous
 62
     7
370
    25
100
AcDbLine
 10
53.4524009982
 20
50.819001475
 30
0.0
 11
53.9192313496
 21
57.3546263948
 31
0.0
  0
ARC
  5
8E
330
1F
100
AcDbEntity
  8
0
  6
Continuous
 62
     7
370
    25
100
AcDbCircle
 10
52.9536716483
 20
50.854625
 30
0.0
 40
0.5
100
AcDbArc
 50
270.0
 51
355.91438322
  0
ARC
  5
8F
330
1F
100
AcDbEntity
  8
0
  6
Continuous
 62
     7
370
    25
100
AcDbCircle
 10
38.8847908517
 20
50.854625
 30
0.0
 40
0.5000000000000034
100
AcDbArc
 50
184.08561678
 51
270.0
  0
LINE
  5
90
330
1F
100
AcDbEntity
  8
0
  6
Continuous
 62
     7
370
    25
100
AcDbLine
 10
51.8443443733
 20
66.854625
 30
0.0
 11
51.5034130338
 21
68.4585808454
 31
0.0
  0
LINE
  5
91
330
1F
100
AcDbEntity
  8
0
  6
Continuous
 62
     7
370
    25
100
AcDbLine
 10
40.3350494662
 20
68.4585808454
 30
0.0
 11
39.9941181267
 21
66.854625
 31
0.0
  0
ARC
  5
92
330
1F
100
AcDbEntity
  8
0
  6
Continuous
 62
     7
370
    25
100
AcDbCircle
 10
40.8241232666
 20
68.354625
 30
0.0
 40
0.5000000000000022
100
AcDbArc
 50
90.0
 51
168.0
  0
ARC
  5
93
330
1F
100
AcDbEntity
  8
0
  6
Continuous
 62
     7
370
    25
100
AcDbCircle
 10
51.0143392334
 20
68.354625
 30
0.0
 40
0.5000000000000092
100
AcDbArc
 50
12.0
 51
90.0
  0
ARC
  5
94
330
1F
100
AcDbEntity
  8
0
  6
Continuous
 62
     7
370
    25
100
AcDbCircle
 10
45.91923125
 20
48.854625
 30
0.0
 40
20.5
100
AcDbArc
 50
96.3582831464
 51
102.6803834918
  0
ARC
  5
95
330
1F
100
AcDbEntity
  8
0
  6
Continuous
 62
     7
370
    25
100
AcDbCircle
 10
45.91923125
 20
48.854625
 30
0.0
 40
20.5
100
AcDbArc
 50
77.3196165082
 51
83.6417168446
  0
ARC
  5
96
330
1F
100
AcDbEntity
  8
0
  6
Continuous
 62
     7
370
    25
100
AcDbCircle
 10
45.91923125
 20
48.854625
 30
0.0
 40
20.6
100
AcDbArc
 50
90.4875693076
 51
93.3558231766
  0
ARC
  5
97
330
1F
100
AcDbEntity
  8
0
  6
Continuous
 62
     7
370
    25
100
AcDbCircle
 10
45.91923125
 20
48.854625
 30
0.0
 40
20.6
100
AcDbArc
 50
86.6441768145
 51
89.5032576116
  0
LINE
  5
98
330
1F
100
AcDbEntity
  8
0
  6
Continuous
 62
     7
370
    25
100
AcDbLine
 10
60.41923125
 20
48.154625
 30
0.0
 11
60.41923125
 21
31.554625
 31
0.0
  0
LINE
  5
99
330
1F
100
AcDbEntity
  8
0
  6
Continuous
 62
     7
370
    25
100
AcDbLine
 10
60.21923125
 20
31.354625
 30
0.0
 11
60.21923125
 21
48.354625
 31
0.0
  0
LINE
  5
9A
330
1F
100
AcDbEntity
  8
0
  6
Continuous
 62
     7
370
    25
100
AcDbLine
 10
57.41923125
 20
48.354625
 30
0.0
 11
57.41923125
 21
31.354625
 31
0.0
  0
LINE
  5
9B
330
1F
100
AcDbEntity
  8
0
  6
Continuous
 62
     7
370
    25
100
AcDbLine
 10
31.41923125
 20
31.554625
 30
0.0
 11
31.41923125
 21
48.154625
 31
0.0
  0
LINE
  5
9C
330
1F
100
AcDbEntity
  8
0
  6
Continuous
 62
     7
370
    25
100
AcDbLine
 10
31.61923125
 20
48.354625
 30
0.0
 11
31.61923125
 21
31.354625
 31
0.0
  0
LINE
  5
9D
330
1F
100
AcDbEntity
  8
0
  6
Continuous
 62
     7
370
    25
100
AcDbLine
 10
34.41923125
 20
31.354625
 30
0.0
 11
34.41923125
 21
48.354625
 31
0.0
  0
LINE
  5
9E
330
1F
100
AcDbEntity
  8
0
  6
Continuous
 62
     7
370
    25
100
AcDbLine
 10
77.7640382543
 20
34.9471477119
 30
0.0
 11
66.571092146
 21
34.9471477119
 31
0.0
  0
SPLINE
  5
9F
330
1F
100
AcDbEntity
  8
0
  6
Continuous
 62
     7
370
    25
100
AcDbSpline
210
0.0
220
0.0
230
1.0
 70
     8
 71
     3
 72
    14
 73
    10
 74
     0
 42
0.00000001
 43
0.00000001
 40
0.0
 40
0.0
 40
0.0
 40
0.0
 40
0.1885762799860082
 40
0.378895556583529
 40
0.5044823954484108
 40
0.6300701228213249
 40
0.7590052913537331
 40
0.887976329628691
 40
1.0
 40
1.0
 40
1.0
 40
1.0
 10
66.5710921460127
 20
44.76210228811181
 30
0.0
 10
66.41004310692334
 20
44.15656389557636
 30
0.0
 10
66.08645646438518
 20
42.93989016392018
 30
0.0
 10
65.85299674431238
 20
41.27580561253484
 30
0.0
 10
65.79475968913975
 20
39.80955307824646
 30
0.0
 10
65.8516254306972
 20
38.54691255785298
 30
0.0
 10
66.01670946186896
 20
37.28297394736742
 30
0.0
 10
66.26015824701665
 20
36.07767635743841
 30
0.0
 10
66.47242318519164
 20
35.30589948194299
 30
0.0
 10
66.57109214601269
 20
34.94714771188814
 30
0.0
  0
LINE
  5
A0
330
1F
100
AcDbEntity
  8
0
  6
Continuous
 62
     7
370
    25
100
AcDbLine
 10
77.7640382543
 20
44.7621022881
 30
0.0
 11
66.571092146
 21
44.7621022881
 31
0.0
  0
SPLINE
  5
A1
330
1F
100
AcDbEntity
  8
0
  6
Continuous
 62
     7
370
    25
100
AcDbSpline
210
0.0
220
0.0
230
1.0
 70
     8
 71
     3
 72
    14
 73
    10
 74
     0
 42
0.00000001
 43
0.00000001
 40
0.0
 40
0.0
 40
0.0
 40
0.0
 40
0.1885762799860082
 40
0.378895556583529
 40
0.5044823954484108
 40
0.6300701228213249
 40
0.759005291353733
 40
0.887976329628691
 40
1.0
 40
1.0
 40
1.0
 40
1.0
 10
77.76403825430818
 20
44.76210228811181
 30
0.0
 10
77.92508729339754
 20
44.15656389557636
 30
0.0
 10
78.2486739359357
 20
42.93989016392018
 30
0.0
 10
78.48213365600849
 20
41.27580561253484
 30
0.0
 10
78.54037071118113
 20
39.80955307824646
 30
0.0
 10
78.48350496962365
 20
38.54691255785298
 30
0.0
 10
78.31842093845192
 20
37.28297394736742
 30
0.0
 10
78.07497215330422
 20
36.07767635743841
 30
0.0
 10
77.86270721512923
 20
35.30589948194299
 30
0.0
 10
77.76403825430818
 20
34.94714771188814
 30
0.0
  0
SPLINE
  5
A2
330
1F
100
AcDbEntity
  8
0
  6
Continuous
 62
     7
370
    25
100
AcDbSpline
210
0.0
220
0.0
230
1.0
 70
     8
 71
     3
 72
    13
 73
     9
 74
     0
 42
0.00000001
 43
0.00000001
 40
0.0
 40
0.0
 40
0.0
 40
0.0
 40
0.1323374700420661
 40
0.2646375235775794
 40
0.3998971812287823
 40
0.535132430788464
 40
0.7654363136792479
 40
1.0
 40
1.0
 40
1.0
 40
1.0
 10
66.5710921460127
 20
49.66957957622365
 30
0.0
 10
66.45551677721933
 20
49.45755574202681
 30
0.0
 10
66.22439871689737
 20
49.03356802030717
 30
0.0
 10
65.97581761401841
 20
48.38068793010936
 30
0.0
 10
65.82598719266272
 20
47.71540540135175
 30
0.0
 10
65.78900827328505
 20
46.88335796556422
 30
0.0
 10
65.98469080343428
 20
45.88688210425108
 30
0.0
 10
66.37443456245367
 20
45.13931233968724
 30
0.0
 10
66.5710921460127
 20
44.76210228811181
 30
0.0
  0
SPLINE
  5
A3
330
1F
100
AcDbEntity
  8
0
  6
Continuous
 62
     7
370
    25
100
AcDbSpline
210
0.0
220
0.0
230
1.0
 70
     8
 71
     3
 72
    13
 73
     9
 74
     0
 42
0.00000001
 43
0.00000001
 40
0.0
 40
0.0
 40
0.0
 40
0.0
 40
0.1323374700420661
 40
0.2646375235775792
 40
0.3998971812287823
 40
0.5351324307884638
 40
0.7654363136792477
 40
1.0
 40
1.0
 40
1.0
 40
1.0
 10
66.57109214601269
 20
34.94714771188814
 30
0.0
 10
66.45551677721933
 20
34.7351238776913
 30
0.0
 10
66.22439871689737
 20
34.31113615597167
 30
0.0
 10
65.97581761401841
 20
33.65825606577386
 30
0.0
 10
65.82598719266272
 20
32.99297353701626
 30
0.0
 10
65.78900827328505
 20
32.16092610122874
 30
0.0
 10
65.98469080343428
 20
31.16445023991561
 30
0.0
 10
66.37443456245367
 20
30.41688047535179
 30
0.0
 10
66.5710921460127
 20
30.03967042377636
 30
0.0
  0
LINE
  5
A4
330
1F
100
AcDbEntity
  8
0
  6
Continuous
 62
     7
370
    25
100
AcDbLine
 10
65.6675652002
 20
48.104625
 30
0.0
 11
65.6675652002
 21
31.604625
 31
0.0
  0
SPLINE
  5
A5
330
1F
100
AcDbEntity
  8
0
  6
Continuous
 62
     7
370
    25
100
AcDbSpline
210
0.0
220
0.0
230
1.0
 70
     8
 71
     3
 72
    13
 73
     9
 74
     0
 42
0.00000001
 43
0.00000001
 40
0.0
 40
0.0
 40
0.0
 40
0.0
 40
0.1323374700420661
 40
0.2646375235775792
 40
0.3998971812287824
 40
0.535132430788464
 40
0.7654363136792478
 40
1.0
 40
1.0
 40
1.0
 40
1.0
 10
77.76403825430818
 20
34.94714771188814
 30
0.0
 10
77.87961362310153
 20
34.7351238776913
 30
0.0
 10
78.1107316834235
 20
34.31113615597167
 30
0.0
 10
78.35931278630245
 20
33.65825606577386
 30
0.0
 10
78.50914320765814
 20
32.99297353701626
 30
0.0
 10
78.54612212703583
 20
32.16092610122874
 30
0.0
 10
78.35043959688662
 20
31.16445023991561
 30
0.0
 10
77.9606958378672
 20
30.41688047535179
 30
0.0
 10
77.76403825430818
 20
30.03967042377636
 30
0.0
  0
SPLINE
  5
A6
330
1F
100
AcDbEntity
  8
0
  6
Continuous
 62
     7
370
    25
100
AcDbSpline
210
0.0
220
0.0
230
1.0
 70
     8
 71
     3
 72
    13
 73
     9
 74
     0
 42
0.00000001
 43
0.00000001
 40
0.0
 40
0.0
 40
0.0
 40
0.0
 40
0.1323374700420661
 40
0.2646375235775794
 40
0.3998971812287823
 40
0.535132430788464
 40
0.7654363136792479
 40
1.0
 40
1.0
 40
1.0
 40
1.0
 10
77.76403825430818
 20
49.66957957622365
 30
0.0
 10
77.87961362310153
 20
49.45755574202681
 30
0.0
 10
78.1107316834235
 20
49.03356802030717
 30
0.0
 10
78.35931278630248
 20
48.38068793010936
 30
0.0
 10
78.50914320765814
 20
47.71540540135175
 30
0.0
 10
78.54612212703584
 20
46.88335796556422
 30
0.0
 10
78.35043959688659
 20
45.88688210425108
 30
0.0
 10
77.96069583786719
 20
45.13931233968724
 30
0.0
 10
77.76403825430818
 20
44.76210228811181
 30
0.0
  0
LINE
  5
A7
330
1F
100
AcDbEntity
  8
0
  6
Continuous
 62
     7
370
    25
100
AcDbLine
 10
78.6675652002
 20
48.104625
 30
0.0
 11
78.6675652002
 21
31.604625
 31
0.0
  0
LINE
  5
A8
330
1F
100
AcDbEntity
  8
0
  6
Continuous
 62
     7
370
    25
100
AcDbLine
 10
77.7640382543
 20
49.6695795762
 30
0.0
 11
66.571092146
 21
49.6695795762
 31
0.0
  0
LINE
  5
A9
330
1F
100
AcDbEntity
  8
0
  6
Continuous
 62
     7
370
    25
100
AcDbLine
 10
77.7640382543
 20
30.0396704238
 30
0.0
 11
66.571092146
 21
30.0396704238
 31
0.0
  0
LINE
  5
AA
330
1F
100
AcDbEntity
  8
0
  6
Continuous
 62
     7
370
    25
100
AcDbLine
 10
14.0744242457
 20
44.7621022881
 30
0.0
 11
25.267370354
 21
44.7621022881
 31
0.0
  0
SPLINE
  5
AB
330
1F
100
AcDbEntity
  8
0
  6
Continuous
 62
     7
370
    25
100
AcDbSpline
210
0.0
220
0.0
230
1.0
 70
     8
 71
     3
 72
    14
 73
    10
 74
     0
 42
0.00000001
 43
0.00000001
 40
0.0
 40
0.0
 40
0.0
 40
0.0
 40
0.1120237311809919
 40
0.2377726069116395
 40
0.363488949183057
 40
0.4922970128128267
 40
0.6211033992438478
 40
0.809515368839787
 40
1.0
 40
1.0
 40
1.0
 40
1.0
 10
25.26737035398727
 20
34.94714771188826
 30
0.0
 10
25.36604590290401
 20
35.30589829122513
 30
0.0
 10
25.57548672635297
 20
36.06735356128902
 30
0.0
 10
25.81566419613482
 20
37.25141477715232
 30
0.0
 10
25.98295564397333
 20
38.5041771734704
 30
0.0
 10
26.04443096491128
 20
39.77740751922364
 30
0.0
 10
25.98723532646784
 20
41.25886528570484
 30
0.0
 10
25.75329408724425
 20
42.93362255407956
 30
0.0
 10
25.42993455159862
 20
44.15039036612107
 30
0.0
 10
25.26737035398726
 20
44.76210228811193
 30
0.0
  0
LINE
  5
AC
330
1F
100
AcDbEntity
  8
0
  6
Continuous
 62
     7
370
    25
100
AcDbLine
 10
14.0744242457
 20
34.9471477119
 30
0.0
 11
25.267370354
 21
34.9471477119
 31
0.0
  0
SPLINE
  5
AD
330
1F
100
AcDbEntity
  8
0
  6
Continuous
 62
     7
370
    25
100
AcDbSpline
210
0.0
220
0.0
230
1.0
 70
     8
 71
     3
 72
    14
 73
    10
 74
     0
 42
0.00000001
 43
0.00000001
 40
0.0
 40
0.0
 40
0.0
 40
0.0
 40
0.1120237311809921
 40
0.2377726069116395
 40
0.3634889491830571
 40
0.4922970128128267
 40
0.6211033992438478
 40
0.8095153688397871
 40
1.0
 40
1.0
 40
1.0
 40
1.0
 10
14.07442424569177
 20
34.94714771188826
 30
0.0
 10
13.97574869677502
 20
35.30589829122513
 30
0.0
 10
13.76630787332606
 20
36.06735356128902
 30
0.0
 10
13.52613040354422
 20
37.25141477715232
 30
0.0
 10
13.35883895570572
 20
38.5041771734704
 30
0.0
 10
13.29736363476777
 20
39.77740751922364
 30
0.0
 10
13.3545592732112
 20
41.25886528570484
 30
0.0
 10
13.58850051243481
 20
42.93362255407956
 30
0.0
 10
13.91186004808041
 20
44.15039036612107
 30
0.0
 10
14.07442424569177
 20
44.76210228811193
 30
0.0
  0
SPLINE
  5
AE
330
1F
100
AcDbEntity
  8
0
  6
Continuous
 62
     7
370
    25
100
AcDbSpline
210
0.0
220
0.0
230
1.0
 70
     8
 71
     3
 72
    13
 73
     9
 74
     0
 42
0.00000001
 43
0.00000001
 40
0.0
 40
0.0
 40
0.0
 40
0.0
 40
0.1323374700420661
 40
0.2646375235775792
 40
0.3998971812287822
 40
0.535132430788464
 40
0.7654363136792478
 40
1.0
 40
1.0
 40
1.0
 40
1.0
 10
25.26737035398727
 20
30.03967042377636
 30
0.0
 10
25.38294572278062
 20
30.25169425797321
 30
0.0
 10
25.61406378310259
 20
30.67568197969285
 30
0.0
 10
25.86264488598154
 20
31.32856206989067
 30
0.0
 10
26.01247530733724
 20
31.99384459864829
 30
0.0
 10
26.04945422671492
 20
32.82589203443583
 30
0.0
 10
25.85377169656568
 20
33.82236789574898
 30
0.0
 10
25.46402793754629
 20
34.56993766031282
 30
0.0
 10
25.26737035398727
 20
34.94714771188826
 30
0.0
  0
LINE
  5
AF
330
1F
100
AcDbEntity
  8
0
  6
Continuous
 62
     7
370
    25
100
AcDbLine
 10
14.0744242457
 20
30.0396704238
 30
0.0
 11
25.267370354
 21
30.0396704238
 31
0.0
  0
SPLINE
  5
B0
330
1F
100
AcDbEntity
  8
0
  6
Continuous
 62
     7
370
    25
100
AcDbSpline
210
0.0
220
0.0
230
1.0
 70
     8
 71
     3
 72
    13
 73
     9
 74
     0
 42
0.00000001
 43
0.00000001
 40
0.0
 40
0.0
 40
0.0
 40
0.0
 40
0.1323374700420661
 40
0.2646375235775793
 40
0.3998971812287823
 40
0.535132430788464
 40
0.7654363136792478
 40
1.0
 40
1.0
 40
1.0
 40
1.0
 10
14.07442424569177
 20
30.03967042377636
 30
0.0
 10
13.95884887689843
 20
30.25169425797321
 30
0.0
 10
13.72773081657646
 20
30.67568197969285
 30
0.0
 10
13.47914971369749
 20
31.32856206989067
 30
0.0
 10
13.32931929234182
 20
31.9938445986483
 30
0.0
 10
13.29234037296412
 20
32.82589203443583
 30
0.0
 10
13.48802290311334
 20
33.82236789574898
 30
0.0
 10
13.87776666213275
 20
34.56993766031282
 30
0.0
 10
14.07442424569177
 20
34.94714771188826
 30
0.0
  0
SPLINE
  5
B1
330
1F
100
AcDbEntity
  8
0
  6
Continuous
 62
     7
370
    25
100
AcDbSpline
210
0.0
220
0.0
230
1.0
 70
     8
 71
     3
 72
    13
 73
     9
 74
     0
 42
0.00000001
 43
0.00000001
 40
0.0
 40
0.0
 40
0.0
 40
0.0
 40
0.1323374700420676
 40
0.2646375235775826
 40
0.3998971812287874
 40
0.5351324307884706
 40
0.7654363136792514
 40
1.0
 40
1.0
 40
1.0
 40
1.0
 10
14.07442424569177
 20
44.76210228811193
 30
0.0
 10
13.95884887689843
 20
44.97412612230877
 30
0.0
 10
13.72773081657646
 20
45.39811384402841
 30
0.0
 10
13.47914971369751
 20
46.05099393422621
 30
0.0
 10
13.32931929234183
 20
46.71627646298382
 30
0.0
 10
13.29234037296415
 20
47.54832389877132
 30
0.0
 10
13.48802290311337
 20
48.54479976008444
 30
0.0
 10
13.87776666213276
 20
49.29236952464824
 30
0.0
 10
14.07442424569177
 20
49.66957957622365
 30
0.0
  0
LINE
  5
B2
330
1F
100
AcDbEntity
  8
0
  6
Continuous
 62
     7
370
    25
100
AcDbLine
 10
13.1708972998
 20
39.854625
 30
0.0
 11
13.1708972998
 21
48.104625
 31
0.0
  0
LINE
  5
B3
330
1F
100
AcDbEntity
  8
0
  6
Continuous
 62
     7
370
    25
100
AcDbLine
 10
13.1708972998
 20
31.604625
 30
0.0
 11
13.1708972998
 21
39.854625
 31
0.0
  0
SPLINE
  5
B4
330
1F
100
AcDbEntity
  8
0
  6
Continuous
 62
     7
370
    25
100
AcDbSpline
210
0.0
220
0.0
230
1.0
 70
     8
 71
     3
 72
    13
 73
     9
 74
     0
 42
0.00000001
 43
0.00000001
 40
0.0
 40
0.0
 40
0.0
 40
0.0
 40
0.1323374700420676
 40
0.2646375235775826
 40
0.3998971812287874
 40
0.5351324307884706
 40
0.7654363136792514
 40
1.0
 40
1.0
 40
1.0
 40
1.0
 10
25.26737035398727
 20
44.76210228811193
 30
0.0
 10
25.38294572278062
 20
44.97412612230877
 30
0.0
 10
25.61406378310258
 20
45.39811384402841
 30
0.0
 10
25.86264488598154
 20
46.05099393422621
 30
0.0
 10
26.01247530733722
 20
46.71627646298382
 30
0.0
 10
26.0494542267149
 20
47.54832389877132
 30
0.0
 10
25.85377169656566
 20
48.54479976008444
 30
0.0
 10
25.46402793754628
 20
49.29236952464824
 30
0.0
 10
25.26737035398726
 20
49.66957957622365
 30
0.0
  0
LINE
  5
B5
330
1F
100
AcDbEntity
  8
0
  6
Continuous
 62
     7
370
    25
100
AcDbLine
 10
26.1708972998
 20
39.854625
 30
0.0
 11
26.1708972998
 21
48.104625
 31
0.0
  0
LINE
  5
B6
330
1F
100
AcDbEntity
  8
0
  6
Continuous
 62
     7
370
    25
100
AcDbLine
 10
26.1708972998
 20
31.604625
 30
0.0
 11
26.1708972998
 21
39.854625
 31
0.0
  0
LINE
  5
B7
330
1F
100
AcDbEntity
  8
0
  6
Continuous
 62
     7
370
    25
100
AcDbLine
 10
14.0744242457
 20
49.6695795762
 30
0.0
 11
25.267370354
 21
49.6695795762
 31
0.0
  0
SPLINE
  5
B8
330
1F
100
AcDbEntity
  8
0
  6
Continuous
 62
     7
370
    25
100
AcDbSpline
210
0.0
220
0.0
230
1.0
 70
     8
 71
     3
 72
     8
 73
     4
 74
     0
 42
0.00000001
 43
0.00000001
 40
0.0
 40
0.0
 40
0.0
 40
0.0
 40
1.0
 40
1.0
 40
1.0
 40
1.0
 10
41.30042909648294
 20
31.88822846014501
 30
0.0
 10
41.50561491902624
 20
31.94478942726923
 30
0.0
 10
41.71183811973355
 20
31.99872949868306
 30
0.0
 10
41.91923124999999
 20
32.04971378842603
 30
0.0
  0
SPLINE
  5
B9
330
1F
100
AcDbEntity
  8
0
  6
Continuous
 62
     7
370
    25
100
AcDbSpline
210
0.0
220
0.0
230
1.0
 70
     8
 71
     3
 72
     8
 73
     4
 74
     0
 42
0.00000001
 43
0.00000001
 40
0.0
 40
0.0
 40
0.0
 40
0.0
 40
1.0
 40
1.0
 40
1.0
 40
1.0
 10
39.2415098447398
 20
35.23582284648297
 30
0.0
 10
39.29807321420803
 20
35.44101738399273
 30
0.0
 10
39.35201313702927
 20
35.64724103750989
 30
0.0
 10
39.40299517302081
 20
35.854625
 30
0.0
  0
LINE
  5
BA
330
1F
100
AcDbEntity
  8
0
  6
Continuous
 62
     7
370
    25
100
AcDbLine
 10
35.0969526553
 20
35.2358228465
 30
0.0
 11
39.2415098447
 21
35.2358228465
 31
0.0
  0
SPLINE
  5
BB
330
1F
100
AcDbEntity
  8
0
  6
Continuous
 62
     7
370
    25
100
AcDbSpline
210
0.0
220
0.0
230
1.0
 70
     8
 71
     3
 72
    10
 73
     6
 74
     0
 42
0.00000001
 43
0.00000001
 40
0.0
 40
0.0
 40
0.0
 40
0.0
 40
0.5
 40
0.5
 40
1.0
 40
1.0
 40
1.0
 40
1.0
 10
35.09695265526017
 20
35.235822846483
 30
0.0
 10
34.88814731603628
 20
35.99330450668855
 30
0.0
 10
34.71760047187712
 20
36.75577205513201
 30
0.0
 10
34.4828181444953
 20
38.29423618947138
 30
0.0
 10
34.41923124999997
 20
39.07035886791395
 30
0.0
 10
34.41923124999997
 20
39.85462500000001
 30
0.0
  0
SPLINE
  5
BC
330
1F
100
AcDbEntity
  8
0
  6
Continuous
 62
     7
370
    25
100
AcDbSpline
210
0.0
220
0.0
230
1.0
 70
     8
 71
     3
 72
    12
 73
     8
 74
     0
 42
0.00000001
 43
0.00000001
 40
0.0
 40
0.0
 40
0.0
 40
0.0
 40
0.25
 40
0.25
 40
0.5
 40
0.5
 40
1.0
 40
1.0
 40
1.0
 40
1.0
 10
34.41923124999997
 20
39.85462500000001
 30
0.0
 10
34.41923124999997
 20
40.24629692637494
 30
0.0
 10
34.43513705566816
 20
40.64119981789653
 30
0.0
 10
34.49698192656057
 20
41.42213584814382
 30
0.0
 10
34.54279526742678
 20
41.80954398007511
 30
0.0
 10
34.71962844132914
 20
42.96367360673508
 30
0.0
 10
34.88990670483278
 20
43.72232801567161
 30
0.0
 10
35.09695265526017
 20
44.47342715351702
 30
0.0
  0
LINE
  5
BD
330
1F
100
AcDbEntity
  8
0
  6
Continuous
 62
     7
370
    25
100
AcDbLine
 10
39.2415098447
 20
44.4734271535
 30
0.0
 11
35.0969526553
 21
44.4734271535
 31
0.0
  0
SPLINE
  5
BE
330
1F
100
AcDbEntity
  8
0
  6
Continuous
 62
     7
370
    25
100
AcDbSpline
210
0.0
220
0.0
230
1.0
 70
     8
 71
     3
 72
     8
 73
     4
 74
     0
 42
0.00000001
 43
0.00000001
 40
0.0
 40
0.0
 40
0.0
 40
0.0
 40
1.0
 40
1.0
 40
1.0
 40
1.0
 10
39.40299517302081
 20
43.85462500000001
 30
0.0
 10
39.35209645609829
 20
44.061670038429
 30
0.0
 10
39.29816231984753
 20
44.26790936810563
 30
0.0
 10
39.24150984473979
 20
44.47342715351702
 30
0.0
  0
LINE
  5
BF
330
1F
100
AcDbEntity
  8
0
  6
Continuous
 62
     7
370
    25
100
AcDbLine
 10
52.435467327
 20
43.854625
 30
0.0
 11
39.402995173
 21
43.854625
 31
0.0
  0
SPLINE
  5
C0
330
1F
100
AcDbEntity
  8
0
  6
Continuous
 62
     7
370
    25
100
AcDbSpline
210
0.0
220
0.0
230
1.0
 70
     8
 71
     3
 72
     8
 73
     4
 74
     0
 42
0.00000001
 43
0.00000001
 40
0.0
 40
0.0
 40
0.0
 40
0.0
 40
1.0
 40
1.0
 40
1.0
 40
1.0
 10
52.43546732697916
 20
43.85462500000008
 30
0.0
 10
52.48636356023425
 20
44.06165993540383
 30
0.0
 10
52.5402975151979
 20
44.26789970046883
 30
0.0
 10
52.59695265526017
 20
44.47342715351703
 30
0.0
  0
LINE
  5
C1
330
1F
100
AcDbEntity
  8
0
  6
Continuous
 62
     7
370
    25
100
AcDbLine
 10
56.7415098447
 20
44.4734271535
 30
0.0
 11
52.5969526553
 21
44.4734271535
 31
0.0
  0
SPLINE
  5
C2
330
1F
100
AcDbEntity
  8
0
  6
Continuous
 62
     7
370
    25
100
AcDbSpline
210
0.0
220
0.0
230
1.0
 70
     8
 71
     3
 72
    12
 73
     8
 74
     0
 42
0.00000001
 43
0.00000001
 40
0.0
 40
0.0
 40
0.0
 40
0.0
 40
0.2500000000000001
 40
0.2500000000000001
 40
0.5000000000000001
 40
0.5000000000000001
 40
1.0
 40
1.0
 40
1.0
 40
1.0
 10
57.41923124999998
 20
39.85462500000001
 30
0.0
 10
57.41923124999998
 20
40.24629692637494
 30
0.0
 10
57.4033254443318
 20
40.64119981789653
 30
0.0
 10
57.34148057343938
 20
41.42213584814383
 30
0.0
 10
57.29566723257318
 20
41.80954398007511
 30
0.0
 10
57.11883405867081
 20
42.96367360673509
 30
0.0
 10
56.94855579516718
 20
43.72232801567161
 30
0.0
 10
56.74150984473979
 20
44.47342715351702
 30
0.0
  0
SPLINE
  5
C3
330
1F
100
AcDbEntity
  8
0
  6
Continuous
 62
     7
370
    25
100
AcDbSpline
210
0.0
220
0.0
230
1.0
 70
     8
 71
     3
 72
    10
 73
     6
 74
     0
 42
0.00000001
 43
0.00000001
 40
0.0
 40
0.0
 40
0.0
 40
0.0
 40
0.5
 40
0.5
 40
1.0
 40
1.0
 40
1.0
 40
1.0
 10
56.74150984473979
 20
35.23582284648301
 30
0.0
 10
56.95031518396367
 20
35.99330450668855
 30
0.0
 10
57.12086202812283
 20
36.75577205513201
 30
0.0
 10
57.35564435550465
 20
38.29423618947139
 30
0.0
 10
57.41923124999998
 20
39.07035886791395
 30
0.0
 10
57.41923124999998
 20
39.85462500000001
 30
0.0
  0
LINE
  5
C4
330
1F
100
AcDbEntity
  8
0
  6
Continuous
 62
     7
370
    25
100
AcDbLine
 10
52.5969526553
 20
35.2358228465
 30
0.0
 11
56.7415098447
 21
35.2358228465
 31
0.0
  0
SPLINE
  5
C5
330
1F
100
AcDbEntity
  8
0
  6
Continuous
 62
     7
370
    25
100
AcDbSpline
210
0.0
220
0.0
230
1.0
 70
     8
 71
     3
 72
     8
 73
     4
 74
     0
 42
0.00000001
 43
0.00000001
 40
0.0
 40
0.0
 40
0.0
 40
0.0
 40
1.0
 40
1.0
 40
1.0
 40
1.0
 10
52.59695265526016
 20
35.23582284648298
 30
0.0
 10
52.54039081182322
 20
35.44101184801979
 30
0.0
 10
52.48645079456684
 20
35.64723521408449
 30
0.0
 10
52.43546732697916
 20
35.85462499999995
 30
0.0
  0
LINE
  5
C6
330
1F
100
AcDbEntity
  8
0
  6
Continuous
 62
     7
370
    25
100
AcDbLine
 10
52.435467327
 20
35.854625
 30
0.0
 11
49.91923125
 21
35.854625
 31
0.0
  0
SPLINE
  5
C7
330
1F
100
AcDbEntity
  8
0
  6
Continuous
 62
     7
370
    25
100
AcDbSpline
210
0.0
220
0.0
230
1.0
 70
     8
 71
     3
 72
     8
 73
     4
 74
     0
 42
0.00000001
 43
0.00000001
 40
0.0
 40
0.0
 40
0.0
 40
0.0
 40
1.0
 40
1.0
 40
1.0
 40
1.0
 10
49.91923124999998
 20
32.04971378842603
 30
0.0
 10
50.12626031333537
 20
31.9988189987252
 30
0.0
 10
50.33250033060471
 20
31.94488514936376
 30
0.0
 10
50.53803340351698
 20
31.888228460145
 30
0.0
  0
LINE
  5
C8
330
1F
100
AcDbEntity
  8
0
  6
Continuous
 62
     7
370
    25
100
AcDbLine
 10
50.5380334035
 20
27.854625
 30
0.0
 11
50.5380334035
 21
31.8882284601
 31
0.0
  0
LINE
  5
C9
330
1F
100
AcDbEntity
  8
0
  6
Continuous
 62
     7
370
    25
100
AcDbLine
 10
41.3004290965
 20
27.854625
 30
0.0
 11
50.5380334035
 21
27.854625
 31
0.0
  0
LINE
  5
CA
330
1F
100
AcDbEntity
  8
0
  6
Continuous
 62
     7
370
    25
100
AcDbLine
 10
41.3004290965
 20
31.8882284601
 30
0.0
 11
41.3004290965
 21
27.854625
 31
0.0
  0
ARC
  5
CB
330
1F
100
AcDbEntity
  8
0
  6
Continuous
 62
     7
370
    25
100
AcDbCircle
 10
47.4699626057
 20
39.2777060067
 30
0.0
 40
0.889000000000007
100
AcDbArc
 50
45.0
 51
315.0
  0
LINE
  5
CC
330
1F
100
AcDbEntity
  8
0
  6
Continuous
 62
     7
370
    25
100
AcDbLine
 10
48.0985805342
 20
39.9063239352
 30
0.0
 11
48.5651909198
 21
40.3729343208
 31
0.0
  0
ARC
  5
CD
330
1F
100
AcDbEntity
  8
0
  6
Continuous
 62
     7
370
    25
100
AcDbCircle
 10
47.4699626057
 20
39.2777060067
 30
0.0
 40
1.548886735692404
100
AcDbArc
 50
45.0
 51
315.0
  0
LINE
  5
CE
330
1F
100
AcDbEntity
  8
0
  6
Continuous
 62
     7
370
    25
100
AcDbLine
 10
48.5651909198
 20
38.1824776926
 30
0.0
 11
48.0985805342
 21
38.6490880782
 31
0.0
  0
ARC
  5
CF
330
1F
100
AcDbEntity
  8
0
  6
Continuous
 62
     7
370
    25
100
AcDbCircle
 10
50.8121072021
 20
39.2777060067
 30
0.0
 40
0.8889999999999868
100
AcDbArc
 50
45.0
 51
159.0751675724
  0
LINE
  5
D0
330
1F
100
AcDbEntity
  8
0
  6
Continuous
 62
     7
370
    25
100
AcDbLine
 10
51.4407251306
 20
39.9063239352
 30
0.0
 11
51.9073355162
 21
40.3729343208
 31
0.0
  0
ARC
  5
D1
330
1F
100
AcDbEntity
  8
0
  6
Continuous
 62
     7
370
    25
100
AcDbCircle
 10
50.8121072021
 20
39.2777060067
 30
0.0
 40
1.548886735692384
100
AcDbArc
 50
45.0
 51
315.0
  0
LINE
  5
D2
330
1F
100
AcDbEntity
  8
0
  6
Continuous
 62
     7
370
    25
100
AcDbLine
 10
51.9073355162
 20
38.1824776926
 30
0.0
 11
51.4407251306
 21
38.6490880782
 31
0.0
  0
ARC
  5
D3
330
1F
100
AcDbEntity
  8
0
  6
Continuous
 62
     7
370
    25
100
AcDbCircle
 10
50.8121072021
 20
39.2777060067
 30
0.0
 40
0.8890000000000007
100
AcDbArc
 50
200.9248324276
 51
315.0
  0
LINE
  5
D4
330
1F
100
AcDbEntity
  8
0
  6
Continuous
 62
     7
370
    25
100
AcDbLine
 10
49.9817369533
 20
38.9602060067
 30
0.0
 11
51.9073355162
 21
38.9602060067
 31
0.0
  0
LINE
  5
D5
330
1F
100
AcDbEntity
  8
0
  6
Continuous
 62
     7
370
    25
100
AcDbLine
 10
51.9073355162
 20
38.9602060067
 30
0.0
 11
51.9073355162
 21
39.5952060067
 31
0.0
  0
LINE
  5
D6
330
1F
100
AcDbEntity
  8
0
  6
Continuous
 62
     7
370
    25
100
AcDbLine
 10
51.9073355162
 20
39.5952060067
 30
0.0
 11
49.9817369533
 21
39.5952060067
 31
0.0
  0
LINE
  5
D7
330
1F
100
AcDbEntity
  8
0
  6
Continuous
 62
     7
370
    25
100
AcDbLine
 10
45.017472336
 20
38.4322519824
 30
0.0
 11
44.9758220167
 21
38.4084470526
 31
0.0
  0
ELLIPSE
  5
D8
330
1F
100
AcDbEntity
  8
0
  6
Continuous
 62
     7
370
    25
100
AcDbEllipse
 10
44.6269788372
 20
38.9631295238
 30
0.0
 11
0.678412947925267
 21
6.110667527536863E-13
 31
0.0
210
0.0
220
0.0
230
1.0
 40
0.9533039403
 41
3.470145824140272
 42
5.252469180536294
  0
LINE
  5
D9
330
1F
100
AcDbEntity
  8
0
  6
Continuous
 62
     7
370
    25
100
AcDbLine
 10
43.9848540702
 20
38.7544454088
 30
0.0
 11
42.7251998653
 21
42.2768898055
 31
0.0
  0
ELLIPSE
  5
DA
330
1F
100
AcDbEntity
  8
0
  6
Continuous
 62
     7
370
    25
100
AcDbEllipse
 10
42.1342173073
 20
42.0145505694
 30
0.0
 11
0.6519124952381574
 21
6.110667527536862E-13
 31
0.0
210
0.0
220
0.0
230
1.0
 40
0.9533023292
 41
0.4357905044354907
 42
2.705800116361516
  0
LINE
  5
DB
330
1F
100
AcDbEntity
  8
0
  6
Continuous
 62
     7
370
    25
100
AcDbLine
 10
41.5432353088
 20
42.2768909507
 30
0.0
 11
40.2838705072
 21
38.755267549
 31
0.0
  0
ELLIPSE
  5
DC
330
1F
100
AcDbEntity
  8
0
  6
Continuous
 62
     7
370
    25
100
AcDbEllipse
 10
39.6417493232
 20
38.9639503826
 30
0.0
 11
-0.6784085062757867
 21
3.268496584496461E-13
 31
0.0
210
0.0
220
0.0
230
1.0
 40
0.9533122623
 41
1.047193771187958
 42
2.813042320199935
  0
LINE
  5
DD
330
1F
100
AcDbEntity
  8
0
  6
Continuous
 62
     7
370
    25
100
AcDbLine
 10
39.3025428492
 20
38.4038625374
 30
0.0
 11
39.2509622787
 21
38.4322519824
 31
0.0
  0
LINE
  5
DE
330
1F
100
AcDbEntity
  8
0
  6
Continuous
 62
     7
370
    25
100
AcDbLine
 10
39.2509622787
 20
38.4322519824
 30
0.0
 11
40.0472309382
 21
36.914079881
 31
0.0
  0
ELLIPSE
  5
DF
330
1F
100
AcDbEntity
  8
0
  6
Continuous
 62
     7
370
    25
100
AcDbEllipse
 10
40.1230798116
 20
36.9502333959
 30
0.0
 11
0.08480161849065837
 21
-2.131628207280301E-14
 31
0.0
210
0.0
220
0.0
230
1.0
 40
0.9533039403
 41
3.605240262590937
 42
5.462183310215314
  0
ELLIPSE
  5
E0
330
1F
100
AcDbEntity
  8
0
  6
Continuous
 62
     7
370
    25
100
AcDbEllipse
 10
42.1342173073
 20
34.8913847754
 30
0.0
 11
2.866293551216209
 21
-1.485034317738610E-12
 31
0.0
210
0.0
220
0.0
230
1.0
 40
0.9533046568
 41
0.8210016221243773
 42
2.320591031466438
  0
ELLIPSE
  5
E1
330
1F
100
AcDbEntity
  8
0
  6
Continuous
 62
     7
370
    25
100
AcDbEllipse
 10
44.1453548031
 20
36.9502333959
 30
0.0
 11
0.08480161849060863
 21
0.0
 31
0.0
210
0.0
220
0.0
230
1.0
 40
0.9533039403
 41
3.962594650556406
 42
5.81953769817725
  0
LINE
  5
E2
330
1F
100
AcDbEntity
  8
0
  6
Continuous
 62
     7
370
    25
100
AcDbLine
 10
44.2212036765
 20
36.914079881
 30
0.0
 11
45.017472336
 21
38.4322519824
 31
0.0
  0
LINE
  5
E3
330
1F
100
AcDbEntity
  8
0
  6
Continuous
 62
     7
370
    25
100
AcDbLine
 10
41.91923125
 20
35.854625
 30
0.0
 11
39.402995173
 21
35.854625
 31
0.0
  0
LINE
  5
E4
330
1F
100
AcDbEntity
  8
0
  6
Continuous
 62
     7
370
    25
100
AcDbLine
 10
41.91923125
 20
32.0497137884
 30
0.0
 11
41.91923125
 21
35.854625
 31
0.0
  0
LINE
  5
E5
330
1F
100
AcDbEntity
  8
0
  6
Continuous
 62
     7
370
    25
100
AcDbLine
 10
49.91923125
 20
32.0497137884
 30
0.0
 11
49.91923125
 21
35.854625
 31
0.0
  0
LINE
  5
E6
330
1F
100
AcDbEntity
  8
0
  6
Continuous
 62
     7
370
    25
100
AcDbLine
 10
39.91923125
 20
47.2158409322
 30
0.0
 11
39.91923125
 21
43.854625
 31
0.0
  0
SPLINE
  5
E7
330
1F
100
AcDbEntity
  8
0
  6
Continuous
 62
     7
370
    25
100
AcDbSpline
210
0.0
220
0.0
230
1.0
 70
     8
 71
     3
 72
    10
 73
     6
 74
     0
 42
0.00000001
 43
0.00000001
 40
0.0
 40
0.0
 40
0.0
 40
0.0
 40
0.5
 40
0.5
 40
1.0
 40
1.0
 40
1.0
 40
1.0
 10
39.24150984473979
 20
44.90643985540924
 30
0.0
 10
39.2178344503154
 20
44.86349632450801
 30
0.0
 10
39.20474334043076
 20
44.80005387988388
 30
0.0
 10
39.20465701914247
 20
44.64757504276492
 30
0.0
 10
39.21782595308632
 20
44.55934504065765
 30
0.0
 10
39.24150984473979
 20
44.47342715351702
 30
0.0
  0
SPLINE
  5
E8
330
1F
100
AcDbEntity
  8
0
  6
Continuous
 62
     7
370
    25
100
AcDbSpline
210
0.0
220
0.0
230
1.0
 70
     8
 71
     3
 72
    12
 73
     8
 74
     0
 42
0.00000001
 43
0.00000001
 40
0.0
 40
0.0
 40
0.0
 40
0.0
 40
0.2500000000000001
 40
0.2500000000000001
 40
0.5000000000000002
 40
0.5000000000000002
 40
1.0
 40
1.0
 40
1.0
 40
1.0
 10
39.91923124999998
 20
47.21584093216774
 30
0.0
 10
39.91923124999998
 20
47.02009866928822
 30
0.0
 10
39.90338831391103
 20
46.82343206009766
 30
0.0
 10
39.84188545367336
 20
46.43416383276938
 30
0.0
 10
39.79628181262967
 20
46.24075979981646
 30
0.0
 10
39.61983079514045
 20
45.6638307485597
 30
0.0
 10
39.44943342788859
 20
45.2835813153567
 30
0.0
 10
39.24150984473979
 20
44.90643985540924
 30
0.0
  0
LINE
  5
E9
330
1F
100
AcDbEntity
  8
0
  6
Continuous
 62
     7
370
    25
100
AcDbLine
 10
57.41923125
 20
32.4934090678
 30
0.0
 11
57.41923125
 21
39.854625
 31
0.0
  0
SPLINE
  5
EA
330
1F
100
AcDbEntity
  8
0
  6
Continuous
 62
     7
370
    25
100
AcDbSpline
210
0.0
220
0.0
230
1.0
 70
     8
 71
     3
 72
    12
 73
     8
 74
     0
 42
0.00000001
 43
0.00000001
 40
0.0
 40
0.0
 40
0.0
 40
0.0
 40
0.2499999999999998
 40
0.2499999999999998
 40
0.4999999999999996
 40
0.4999999999999996
 40
1.0
 40
1.0
 40
1.0
 40
1.0
 10
57.41923124999998
 20
32.49340906783228
 30
0.0
 10
57.41923124999998
 20
32.68841254783808
 30
0.0
 10
57.40348491997801
 20
32.88494720686248
 30
0.0
 10
57.34203989539259
 20
33.27436689446803
 30
0.0
 10
57.29645113613886
 20
33.46785158752829
 30
0.0
 10
57.12000013388226
 20
34.04503518628389
 30
0.0
 10
56.94954243191877
 20
34.42547096806685
 30
0.0
 10
56.74150984473993
 20
34.80281014459079
 30
0.0
  0
SPLINE
  5
EB
330
1F
100
AcDbEntity
  8
0
  6
Continuous
 62
     7
370
    25
100
AcDbSpline
210
0.0
220
0.0
230
1.0
 70
     8
 71
     3
 72
    10
 73
     6
 74
     0
 42
0.00000001
 43
0.00000001
 40
0.0
 40
0.0
 40
0.0
 40
0.0
 40
0.5
 40
0.5
 40
1.0
 40
1.0
 40
1.0
 40
1.0
 10
56.74150984473979
 20
35.23582284648301
 30
0.0
 10
56.71783594418384
 20
35.14994120397655
 30
0.0
 10
56.7047433870047
 20
35.06253199801111
 30
0.0
 10
56.70465697302242
 20
34.90988951293618
 30
0.0
 10
56.71782736462104
 20
34.84576652785381
 30
0.0
 10
56.74150984473979
 20
34.80281014459079
 30
0.0
  0
LINE
  5
EC
330
1F
100
AcDbEntity
  8
0
  6
Continuous
 62
     7
370
    25
100
AcDbLine
 10
40.8674163946
 20
27.854625
 30
0.0
 11
40.8674163946
 21
31.8882284601
 31
0.0
  0
SPLINE
  5
ED
330
1F
100
AcDbEntity
  8
0
  6
Continuous
 62
     7
370
    25
100
AcDbSpline
210
0.0
220
0.0
230
1.0
 70
     8
 71
     3
 72
    10
 73
     6
 74
     0
 42
0.00000001
 43
0.00000001
 40
0.0
 40
0.0
 40
0.0
 40
0.0
 40
0.5
 40
0.5
 40
1.0
 40
1.0
 40
1.0
 40
1.0
 10
40.86741639459076
 20
31.88822846014501
 30
0.0
 10
40.91035992549198
 20
31.86455306572062
 30
0.0
 10
40.9738023701161
 20
31.85146195583598
 30
0.0
 10
41.12628120723506
 20
31.85137563454769
 30
0.0
 10
41.21451120934234
 20
31.86454456849153
 30
0.0
 10
41.30042909648296
 20
31.888228460145
 30
0.0
  0
LINE
  5
EE
330
1F
100
AcDbEntity
  8
0
  6
Continuous
 62
     7
370
    25
100
AcDbLine
 10
41.3004290965
 20
27.854625
 30
0.0
 11
40.8674163946
 21
27.854625
 31
0.0
  0
SPLINE
  5
EF
330
1F
100
AcDbEntity
  8
0
  6
Continuous
 62
     7
370
    25
100
AcDbSpline
210
0.0
220
0.0
230
1.0
 70
     8
 71
     3
 72
    10
 73
     6
 74
     0
 42
0.00000001
 43
0.00000001
 40
0.0
 40
0.0
 40
0.0
 40
0.0
 40
0.5
 40
0.5
 40
1.0
 40
1.0
 40
1.0
 40
1.0
 10
52.59695265526019
 20
44.47342715351702
 30
0.0
 10
52.62062804968457
 20
44.55931421531947
 30
0.0
 10
52.6337191595692
 20
44.64672142429958
 30
0.0
 10
52.63380548085748
 20
44.79935786689331
 30
0.0
 10
52.62063654691364
 20
44.86348091183888
 30
0.0
 10
52.59695265526019
 20
44.90643985540921
 30
0.0
  0
LINE
  5
F0
330
1F
100
AcDbEntity
  8
0
  6
Continuous
 62
     7
370
    25
100
AcDbLine
 10
52.5969526553
 20
44.9064398554
 30
0.0
 11
56.7415098447
 21
44.9064398554
 31
0.0
  0
SPLINE
  5
F1
330
1F
100
AcDbEntity
  8
0
  6
Continuous
 62
     7
370
    25
100
AcDbSpline
210
0.0
220
0.0
230
1.0
 70
     8
 71
     3
 72
    10
 73
     6
 74
     0
 42
0.00000001
 43
0.00000001
 40
0.0
 40
0.0
 40
0.0
 40
0.0
 40
0.5
 40
0.5
 40
1.0
 40
1.0
 40
1.0
 40
1.0
 10
56.74150984473979
 20
44.90643985540924
 30
0.0
 10
56.71783760482822
 20
44.86350204631
 30
0.0
 10
56.70474361489296
 20
44.8000614564178
 30
0.0
 10
56.70465674743152
 20
44.64757231090896
 30
0.0
 10
56.71782653719087
 20
44.55934292170564
 30
0.0
 10
56.74150984473979
 20
44.47342715351702
 30
0.0
  0
LINE
  5
F2
330
1F
100
AcDbEntity
  8
0
  6
Continuous
 62
     7
370
    25
100
AcDbLine
 10
41.8654702435
 20
39.2801931435
 30
0.0
 11
42.4728186023
 21
39.2801931435
 31
0.0
  0
LINE
  5
F3
330
1F
100
AcDbEntity
  8
0
  6
Continuous
 62
     7
370
    25
100
AcDbLine
 10
42.0892831864
 20
40.1988074895
 30
0.0
 11
41.7856090052
 21
39.3882248726
 31
0.0
  0
ELLIPSE
  5
F4
330
1F
100
AcDbEntity
  8
0
  6
Continuous
 62
     7
370
    25
100
AcDbEllipse
 10
42.1691444247
 20
40.1716174776
 30
0.0
 11
0.08480161849065837
 21
7.105427357601002E-15
 31
0.0
210
0.0
220
0.0
230
1.0
 40
0.9533039403
 41
0.3430239404205502
 42
2.798568713169125
  0
LINE
  5
F5
330
1F
100
AcDbEntity
  8
0
  6
Continuous
 62
     7
370
    25
100
AcDbLine
 10
42.5526798406
 20
39.3882248723
 30
0.0
 11
42.249005663
 21
40.1988074895
 31
0.0
  0
ELLIPSE
  5
F6
330
1F
100
AcDbEntity
  8
0
  6
Continuous
 62
     7
370
    25
100
AcDbEllipse
 10
42.4728186023
 20
39.3610348606
 30
0.0
 11
-0.08480161849066548
 21
-4.263256414560601E-14
 31
0.0
210
0.0
220
0.0
230
1.0
 40
0.9533039403
 41
1.570796326794417
 42
3.484616592149282
  0
ELLIPSE
  5
F7
330
1F
100
AcDbEntity
  8
0
  6
Continuous
 62
     7
370
    25
100
AcDbEllipse
 10
41.8654702435
 20
39.3610348606
 30
0.0
 11
0.08480161849065837
 21
-1.421085471520200E-14
 31
0.0
210
0.0
220
0.0
230
1.0
 40
0.9533039403
 41
2.798568711308413
 42
4.712388980384862
  0
SPLINE
  5
F8
330
1F
100
AcDbEntity
  8
0
  6
Continuous
 62
     7
370
    25
100
AcDbSpline
210
0.0
220
0.0
230
1.0
 70
     8
 71
     3
 72
    10
 73
     6
 74
     0
 42
0.00000001
 43
0.00000001
 40
0.0
 40
0.0
 40
0.0
 40
0.0
 40
0.5
 40
0.5
 40
1.0
 40
1.0
 40
1.0
 40
1.0
 10
56.74150984474025
 20
44.90643985540921
 30
0.0
 10
56.95031976940651
 20
45.2851890028005
 30
0.0
 10
57.12085390915377
 20
45.6663942792118
 30
0.0
 10
57.35563971417268
 20
46.43562490039958
 30
0.0
 10
57.41923124999997
 20
46.82369260519791
 30
0.0
 10
57.41923124999997
 20
47.21584093216774
 30
0.0
  0
LINE
  5
F9
330
1F
100
AcDbEntity
  8
0
  6
Continuous
 62
     7
370
    25
100
AcDbLine
 10
57.41923125
 20
39.854625
 30
0.0
 11
57.41923125
 21
47.2158409322
 31
0.0
  0
SPLINE
  5
FA
330
1F
100
AcDbEntity
  8
0
  6
Continuous
 62
     7
370
    25
100
AcDbSpline
210
0.0
220
0.0
230
1.0
 70
     8
 71
     3
 72
    10
 73
     6
 74
     0
 42
0.00000001
 43
0.00000001
 40
0.0
 40
0.0
 40
0.0
 40
0.0
 40
0.5
 40
0.5
 40
1.0
 40
1.0
 40
1.0
 40
1.0
 10
50.53803340351698
 20
31.88822846014499
 30
0.0
 10
50.62392046531954
 20
31.86455306572057
 30
0.0
 10
50.71132767429974
 20
31.85146195583595
 30
0.0
 10
50.86396411689361
 20
31.85137563454773
 30
0.0
 10
50.92808716183936
 20
31.86454456849167
 30
0.0
 10
50.97104610540959
 20
31.88822846014522
 30
0.0
  0
LINE
  5
FB
330
1F
100
AcDbEntity
  8
0
  6
Continuous
 62
     7
370
    25
100
AcDbLine
 10
50.9710461054
 20
31.8882284601
 30
0.0
 11
50.9710461054
 21
27.854625
 31
0.0
  0
LINE
  5
FC
330
1F
100
AcDbEntity
  8
0
  6
Continuous
 62
     7
370
    25
100
AcDbLine
 10
50.9710461054
 20
27.854625
 30
0.0
 11
50.5380334035
 21
27.854625
 31
0.0
  0
LINE
  5
FD
330
1F
100
AcDbEntity
  8
0
  6
Continuous
 62
     7
370
    25
100
AcDbLine
 10
56.7415098447
 20
34.8028101446
 30
0.0
 11
52.5969526553
 21
34.8028101446
 31
0.0
  0
SPLINE
  5
FE
330
1F
100
AcDbEntity
  8
0
  6
Continuous
 62
     7
370
    25
100
AcDbSpline
210
0.0
220
0.0
230
1.0
 70
     8
 71
     3
 72
    10
 73
     6
 74
     0
 42
0.00000001
 43
0.00000001
 40
0.0
 40
0.0
 40
0.0
 40
0.0
 40
0.5
 40
0.5
 40
1.0
 40
1.0
 40
1.0
 40
1.0
 10
52.59695265525691
 20
34.80281014459079
 30
0.0
 10
52.62062804968125
 20
34.84575367549194
 30
0.0
 10
52.63371915956916
 20
34.90919612011573
 30
0.0
 10
52.63380548085752
 20
35.06167495723482
 30
0.0
 10
52.62063654691367
 20
35.14990495934224
 30
0.0
 10
52.59695265526017
 20
35.23582284648299
 30
0.0
  0
SPLINE
  5
FF
330
1F
100
AcDbEntity
  8
0
  6
Continuous
 62
     7
370
    25
100
AcDbSpline
210
0.0
220
0.0
230
1.0
 70
     8
 71
     3
 72
    10
 73
     6
 74
     0
 42
0.00000001
 43
0.00000001
 40
0.0
 40
0.0
 40
0.0
 40
0.0
 40
0.5
 40
0.5
 40
1.0
 40
1.0
 40
1.0
 40
1.0
 10
35.09695265526017
 20
35.235822846483
 30
0.0
 10
35.12062655581612
 20
35.14994120397655
 30
0.0
 10
35.13371911299526
 20
35.06253199801111
 30
0.0
 10
35.13380552697754
 20
34.90988951293618
 30
0.0
 10
35.12063513537892
 20
34.84576652785381
 30
0.0
 10
35.09695265526017
 20
34.80281014459079
 30
0.0
  0
SPLINE
  5
100
330
1F
100
AcDbEntity
  8
0
  6
Continuous
 62
     7
370
    25
100
AcDbSpline
210
0.0
220
0.0
230
1.0
 70
     8
 71
     3
 72
    12
 73
     8
 74
     0
 42
0.00000001
 43
0.00000001
 40
0.0
 40
0.0
 40
0.0
 40
0.0
 40
0.2499999999999999
 40
0.2499999999999999
 40
0.4999999999999998
 40
0.4999999999999998
 40
1.0
 40
1.0
 40
1.0
 40
1.0
 10
34.41923124999998
 20
32.49340906783227
 30
0.0
 10
34.41923124999998
 20
32.68841254783808
 30
0.0
 10
34.43497758002194
 20
32.88494720686248
 30
0.0
 10
34.49642260460737
 20
33.27436689446803
 30
0.0
 10
34.54201136386109
 20
33.46785158752829
 30
0.0
 10
34.71846236611769
 20
34.04503518628389
 30
0.0
 10
34.88892006808118
 20
34.42547096806685
 30
0.0
 10
35.09695265526003
 20
34.80281014459079
 30
0.0
  0
LINE
  5
101
330
1F
100
AcDbEntity
  8
0
  6
Continuous
 62
     7
370
    25
100
AcDbLine
 10
34.41923125
 20
32.4934090678
 30
0.0
 11
34.41923125
 21
39.854625
 31
0.0
  0
SPLINE
  5
102
330
1F
100
AcDbEntity
  8
0
  6
Continuous
 62
     7
370
    25
100
AcDbSpline
210
0.0
220
0.0
230
1.0
 70
     8
 71
     3
 72
     8
 73
     4
 74
     0
 42
0.00000001
 43
0.00000001
 40
0.0
 40
0.0
 40
0.0
 40
0.0
 40
1.0
 40
1.0
 40
1.0
 40
1.0
 10
52.04061474149614
 20
33.44450346667477
 30
0.0
 10
51.99949946585487
 20
33.58053386116432
 30
0.0
 10
51.95901048298703
 20
33.71723792580175
 30
0.0
 10
51.91923124999997
 20
33.85462500000001
 30
0.0
  0
LINE
  5
103
330
1F
100
AcDbEntity
  8
0
  6
Continuous
 62
     7
370
    25
100
AcDbLine
 10
51.91923125
 20
35.854625
 30
0.0
 11
51.91923125
 21
33.854625
 31
0.0
  0
SPLINE
  5
104
330
1F
100
AcDbEntity
  8
0
  6
Continuous
 62
     7
370
    25
100
AcDbSpline
210
0.0
220
0.0
230
1.0
 70
     8
 71
     3
 72
     8
 73
     4
 74
     0
 42
0.00000001
 43
0.00000001
 40
0.0
 40
0.0
 40
0.0
 40
0.0
 40
1.0
 40
1.0
 40
1.0
 40
1.0
 10
52.04061474149614
 20
33.44450346667477
 30
0.0
 10
52.1562473515252
 20
33.90305439873252
 30
0.0
 10
52.35013675634562
 20
34.35512399449077
 30
0.0
 10
52.59695265526003
 20
34.80281014459052
 30
0.0
  0
SPLINE
  5
105
330
1F
100
AcDbEntity
  8
0
  6
Continuous
 62
     7
370
    25
100
AcDbSpline
210
0.0
220
0.0
230
1.0
 70
     8
 71
     3
 72
     8
 73
     4
 74
     0
 42
0.00000001
 43
0.00000001
 40
0.0
 40
0.0
 40
0.0
 40
0.0
 40
1.0
 40
1.0
 40
1.0
 40
1.0
 10
38.62985506538335
 20
32.56524881537128
 30
0.0
 10
38.93887220802511
 20
32.6662539232014
 30
0.0
 10
39.25418996434309
 20
32.76291071226733
 30
0.0
 10
39.57666929118611
 20
32.85462500000001
 30
0.0
  0
SPLINE
  5
106
330
1F
100
AcDbEntity
  8
0
  6
Continuous
 62
     7
370
    25
100
AcDbSpline
210
0.0
220
0.0
230
1.0
 70
     8
 71
     3
 72
    12
 73
     8
 74
     0
 42
0.00000001
 43
0.00000001
 40
0.0
 40
0.0
 40
0.0
 40
0.0
 40
0.2500000000000002
 40
0.2500000000000002
 40
0.5000000000000004
 40
0.5000000000000004
 40
1.0
 40
1.0
 40
1.0
 40
1.0
 10
38.62985506537811
 20
32.56524881536514
 30
0.0
 10
38.81988124068133
 20
32.56154032950872
 30
0.0
 10
39.01009630336714
 20
32.54295782667104
 30
0.0
 10
39.38703306249955
 20
32.47809078970489
 30
0.0
 10
39.57435585375905
 20
32.43182523645462
 30
0.0
 10
40.13326581007313
 20
32.25610070614766
 30
0.0
 10
40.50180146818346
 20
32.08979729737091
 30
0.0
 10
40.86741639459076
 20
31.88822846014501
 30
0.0
  0
LINE
  5
107
330
1F
100
AcDbEntity
  8
0
  6
Continuous
 62
     7
370
    25
100
AcDbLine
 10
51.91923125
 20
47.2158409322
 30
0.0
 11
51.91923125
 21
43.854625
 31
0.0
  0
SPLINE
  5
108
330
1F
100
AcDbEntity
  8
0
  6
Continuous
 62
     7
370
    25
100
AcDbSpline
210
0.0
220
0.0
230
1.0
 70
     8
 71
     3
 72
    10
 73
     6
 74
     0
 42
0.00000001
 43
0.00000001
 40
0.0
 40
0.0
 40
0.0
 40
0.0
 40
0.5
 40
0.5
 40
1.0
 40
1.0
 40
1.0
 40
1.0
 10
52.59695265526018
 20
44.90643985540922
 30
0.0
 10
52.38853190244276
 20
45.28448310481137
 30
0.0
 10
52.21806806716533
 20
45.66525260960722
 30
0.0
 10
51.98308563222694
 20
46.43440113516477
 30
0.0
 10
51.91923124999997
 20
46.82282786334001
 30
0.0
 10
51.91923124999997
 20
47.21584093216774
 30
0.0
  0
SPLINE
  5
109
330
1F
100
AcDbEntity
  8
0
  6
Continuous
 62
     7
370
    25
100
AcDbSpline
210
0.0
220
0.0
230
1.0
 70
     8
 71
     3
 72
    10
 73
     6
 74
     0
 42
0.00000001
 43
0.00000001
 40
0.0
 40
0.0
 40
0.0
 40
0.0
 40
0.5
 40
0.5
 40
1.0
 40
1.0
 40
1.0
 40
1.0
 10
39.24150984473973
 20
35.235822846483
 30
0.0
 10
39.21783445031534
 20
35.14993578468054
 30
0.0
 10
39.20474334043075
 20
35.06252857570041
 30
0.0
 10
39.20465701914247
 20
34.90989213310667
 30
0.0
 10
39.21782595308632
 20
34.8457690881611
 30
0.0
 10
39.24150984473979
 20
34.80281014459079
 30
0.0
  0
LINE
  5
10A
330
1F
100
AcDbEntity
  8
0
  6
Continuous
 62
     7
370
    25
100
AcDbLine
 10
39.2415098447
 20
34.8028101446
 30
0.0
 11
35.0969526553
 21
34.8028101446
 31
0.0
  0
SPLINE
  5
10B
330
1F
100
AcDbEntity
  8
0
  6
Continuous
 62
     7
370
    25
100
AcDbSpline
210
0.0
220
0.0
230
1.0
 70
     8
 71
     3
 72
    10
 73
     6
 74
     0
 42
0.00000001
 43
0.00000001
 40
0.0
 40
0.0
 40
0.0
 40
0.0
 40
0.5
 40
0.5
 40
1.0
 40
1.0
 40
1.0
 40
1.0
 10
35.09695265526017
 20
44.90643985540924
 30
0.0
 10
35.12062489517173
 20
44.86350204631
 30
0.0
 10
35.13371888510699
 20
44.8000614564178
 30
0.0
 10
35.13380575256843
 20
44.64757231090896
 30
0.0
 10
35.12063596280908
 20
44.55934292170564
 30
0.0
 10
35.09695265526017
 20
44.47342715351702
 30
0.0
  0
LINE
  5
10C
330
1F
100
AcDbEntity
  8
0
  6
Continuous
 62
     7
370
    25
100
AcDbLine
 10
35.0969526553
 20
44.9064398554
 30
0.0
 11
39.2415098447
 21
44.9064398554
 31
0.0
  0
SPLINE
  5
10D
330
1F
100
AcDbEntity
  8
0
  6
Continuous
 62
     7
370
    25
100
AcDbSpline
210
0.0
220
0.0
230
1.0
 70
     8
 71
     3
 72
    10
 73
     6
 74
     0
 42
0.00000001
 43
0.00000001
 40
0.0
 40
0.0
 40
0.0
 40
0.0
 40
0.5
 40
0.5
 40
1.0
 40
1.0
 40
1.0
 40
1.0
 10
35.0969526552597
 20
44.90643985540921
 30
0.0
 10
34.88814273059344
 20
45.28518900280049
 30
0.0
 10
34.71760859084619
 20
45.6663942792118
 30
0.0
 10
34.48282278582727
 20
46.43562490039957
 30
0.0
 10
34.41923124999997
 20
46.8236926051979
 30
0.0
 10
34.41923124999997
 20
47.21584093216774
 30
0.0
  0
LINE
  5
10E
330
1F
100
AcDbEntity
  8
0
  6
Continuous
 62
     7
370
    25
100
AcDbLine
 10
34.41923125
 20
39.854625
 30
0.0
 11
34.41923125
 21
47.2158409322
 31
0.0
  0
SPLINE
  5
10F
330
1F
100
AcDbEntity
  8
0
  6
Continuous
 62
     7
370
    25
100
AcDbSpline
210
0.0
220
0.0
230
1.0
 70
     8
 71
     3
 72
     8
 73
     4
 74
     0
 42
0.00000001
 43
0.00000001
 40
0.0
 40
0.0
 40
0.0
 40
0.0
 40
1.0
 40
1.0
 40
1.0
 40
1.0
 10
52.26179320881384
 20
32.85462500000001
 30
0.0
 10
52.58427253566312
 20
32.76291071226555
 30
0.0
 10
52.89959029198708
 20
32.66625392319765
 30
0.0
 10
53.20860743463459
 20
32.56524881536539
 30
0.0
  0
SPLINE
  5
110
330
1F
100
AcDbEntity
  8
0
  6
Continuous
 62
     7
370
    25
100
AcDbSpline
210
0.0
220
0.0
230
1.0
 70
     8
 71
     3
 72
    10
 73
     6
 74
     0
 42
0.00000001
 43
0.00000001
 40
0.0
 40
0.0
 40
0.0
 40
0.0
 40
0.5
 40
0.5
 40
1.0
 40
1.0
 40
1.0
 40
1.0
 10
50.97104610540948
 20
31.88822846014516
 30
0.0
 10
51.33756405225002
 20
32.09029514569608
 30
0.0
 10
51.70664427771584
 20
32.25668791796673
 30
0.0
 10
52.45189662594325
 20
32.49073489183678
 30
0.0
 10
52.82810939789101
 20
32.55782314579561
 30
0.0
 10
53.20860743463459
 20
32.56524881536539
 30
0.0
  0
LINE
  5
111
330
1F
100
AcDbEntity
  8
0
  6
Continuous
 62
     7
370
    25
100
AcDbLine
 10
39.91923125
 20
35.854625
 30
0.0
 11
39.91923125
 21
33.854625
 31
0.0
  0
SPLINE
  5
112
330
1F
100
AcDbEntity
  8
0
  6
Continuous
 62
     7
370
    25
100
AcDbSpline
210
0.0
220
0.0
230
1.0
 70
     8
 71
     3
 72
     8
 73
     4
 74
     0
 42
0.00000001
 43
0.00000001
 40
0.0
 40
0.0
 40
0.0
 40
0.0
 40
1.0
 40
1.0
 40
1.0
 40
1.0
 10
39.91923124999998
 20
33.85462500000001
 30
0.0
 10
39.8794525918098
 20
33.7172399109999
 30
0.0
 10
39.83896362898157
 20
33.58053582918813
 30
0.0
 10
39.79784775850381
 20
33.44450346667476
 30
0.0
  0
SPLINE
  5
113
330
1F
100
AcDbEntity
  8
0
  6
Continuous
 62
     7
370
    25
100
AcDbSpline
210
0.0
220
0.0
230
1.0
 70
     8
 71
     3
 72
     8
 73
     4
 74
     0
 42
0.00000001
 43
0.00000001
 40
0.0
 40
0.0
 40
0.0
 40
0.0
 40
1.0
 40
1.0
 40
1.0
 40
1.0
 10
39.24150984473979
 20
34.80281014459079
 30
0.0
 10
39.48868362562371
 20
34.35447485153946
 30
0.0
 10
39.68240529392771
 20
33.90230036079586
 30
0.0
 10
39.79784775850381
 20
33.44450346667476
 30
0.0
  0
SPLINE
  5
114
330
1F
100
AcDbEntity
  8
0
  6
Continuous
 62
     7
370
    25
100
AcDbSpline
210
0.0
220
0.0
230
1.0
 70
     8
 71
     3
 72
    12
 73
     8
 74
     0
 42
0.00000001
 43
0.00000001
 40
0.0
 40
0.0
 40
0.0
 40
0.0
 40
0.2499999999999999
 40
0.2499999999999999
 40
0.4999999999999998
 40
0.4999999999999998
 40
1.0
 40
1.0
 40
1.0
 40
1.0
 10
51.91923124999997
 20
47.21584093216774
 30
0.0
 10
51.91923124999997
 20
47.41158319504726
 30
0.0
 10
51.93507418608893
 20
47.60824980423781
 30
0.0
 10
51.9965770463266
 20
47.99751803156609
 30
0.0
 10
52.04218068737028
 20
48.19092206451901
 30
0.0
 10
52.21863170485951
 20
48.76785111577578
 30
0.0
 10
52.38902907211137
 20
49.14810054897878
 30
0.0
 10
52.59695265526017
 20
49.52524200892625
 30
0.0
  0
LINE
  5
115
330
1F
100
AcDbEntity
  8
0
  6
Continuous
 62
     7
370
    25
100
AcDbLine
 10
56.7415098447
 20
49.5252420089
 30
0.0
 11
52.5969526553
 21
49.5252420089
 31
0.0
  0
SPLINE
  5
116
330
1F
100
AcDbEntity
  8
0
  6
Continuous
 62
     7
370
    25
100
AcDbSpline
210
0.0
220
0.0
230
1.0
 70
     8
 71
     3
 72
    12
 73
     8
 74
     0
 42
0.00000001
 43
0.00000001
 40
0.0
 40
0.0
 40
0.0
 40
0.0
 40
0.2500000000000002
 40
0.2500000000000002
 40
0.5
 40
0.5
 40
1.0
 40
1.0
 40
1.0
 40
1.0
 10
57.41923124999997
 20
47.21584093216774
 30
0.0
 10
57.41923124999997
 20
47.41084441217353
 30
0.0
 10
57.40348491997801
 20
47.60737907119795
 30
0.0
 10
57.34203989539258
 20
47.99679875880349
 30
0.0
 10
57.29645113613886
 20
48.19028345186376
 30
0.0
 10
57.12000013388226
 20
48.76746705061935
 30
0.0
 10
56.94954243191877
 20
49.14790283240232
 30
0.0
 10
56.74150984473992
 20
49.52524200892626
 30
0.0
  0
ELLIPSE
  5
117
330
1F
100
AcDbEntity
  8
0
  6
Continuous
 62
     7
370
    25
100
AcDbEllipse
 10
45.91923125
 20
30.0396704238
 30
0.0
 11
8.5
 21
0.0
 31
0.0
210
0.0
220
0.0
230
1.0
 40
0.5773502692
 41
2.374833212873084
 42
2.530692279913056
  0
LINE
  5
118
330
1F
100
AcDbEntity
  8
0
  6
Continuous
 62
     7
370
    25
100
AcDbLine
 10
38.6298550654
 20
32.5652488154
 30
0.0
 11
36.2486142411
 21
30.1840079911
 31
0.0
  0
LINE
  5
119
330
1F
100
AcDbEntity
  8
0
  6
Continuous
 62
     7
370
    25
100
AcDbLine
 10
35.0969526553
 20
30.1840079911
 30
0.0
 11
36.2486142411
 21
30.1840079911
 31
0.0
  0
SPLINE
  5
11A
330
1F
100
AcDbEntity
  8
0
  6
Continuous
 62
     7
370
    25
100
AcDbSpline
210
0.0
220
0.0
230
1.0
 70
     8
 71
     3
 72
    10
 73
     6
 74
     0
 42
0.00000001
 43
0.00000001
 40
0.0
 40
0.0
 40
0.0
 40
0.0
 40
0.5
 40
0.5
 40
1.0
 40
1.0
 40
1.0
 40
1.0
 10
35.0969526552597
 20
30.18400799107374
 30
0.0
 10
34.88814273059344
 20
30.56275713846503
 30
0.0
 10
34.71760859084619
 20
30.94396241487634
 30
0.0
 10
34.48282278582727
 20
31.71319303606412
 30
0.0
 10
34.41923124999998
 20
32.10126074086244
 30
0.0
 10
34.41923124999998
 20
32.49340906783227
 30
0.0
  0
LINE
  5
11B
330
1F
100
AcDbEntity
  8
0
  6
Continuous
 62
     7
370
    25
100
AcDbLine
 10
36.2486142411
 20
30.1840079911
 30
0.0
 11
36.2486142411
 21
27.854625
 31
0.0
  0
LINE
  5
11C
330
1F
100
AcDbEntity
  8
0
  6
Continuous
 62
     7
370
    25
100
AcDbLine
 10
36.2486142411
 20
27.854625
 30
0.0
 11
40.8674163946
 21
27.854625
 31
0.0
  0
SPLINE
  5
11D
330
1F
100
AcDbEntity
  8
0
  6
Continuous
 62
     7
370
    25
100
AcDbSpline
210
0.0
220
0.0
230
1.0
 70
     8
 71
     3
 72
    12
 73
     8
 74
     0
 42
0.00000001
 43
0.00000001
 40
0.0
 40
0.0
 40
0.0
 40
0.0
 40
0.2499999999999999
 40
0.2499999999999999
 40
0.5
 40
0.5
 40
1.0
 40
1.0
 40
1.0
 40
1.0
 10
34.41923124999997
 20
47.21584093216774
 30
0.0
 10
34.41923124999998
 20
47.41084441217353
 30
0.0
 10
34.43497758002194
 20
47.60737907119794
 30
0.0
 10
34.49642260460736
 20
47.99679875880349
 30
0.0
 10
34.54201136386109
 20
48.19028345186376
 30
0.0
 10
34.71846236611769
 20
48.76746705061935
 30
0.0
 10
34.88892006808118
 20
49.14790283240232
 30
0.0
 10
35.09695265526003
 20
49.52524200892626
 30
0.0
  0
LINE
  5
11E
330
1F
100
AcDbEntity
  8
0
  6
Continuous
 62
     7
370
    25
100
AcDbLine
 10
39.2415098447
 20
49.5252420089
 30
0.0
 11
35.0969526553
 21
49.5252420089
 31
0.0
  0
SPLINE
  5
11F
330
1F
100
AcDbEntity
  8
0
  6
Continuous
 62
     7
370
    25
100
AcDbSpline
210
0.0
220
0.0
230
1.0
 70
     8
 71
     3
 72
    10
 73
     6
 74
     0
 42
0.00000001
 43
0.00000001
 40
0.0
 40
0.0
 40
0.0
 40
0.0
 40
0.5
 40
0.5
 40
1.0
 40
1.0
 40
1.0
 40
1.0
 10
39.24150984473977
 20
49.52524200892627
 30
0.0
 10
39.4499305975572
 20
49.14719875952411
 30
0.0
 10
39.62039443283463
 20
48.76642925472825
 30
0.0
 10
39.85537686777302
 20
47.99728072917071
 30
0.0
 10
39.91923124999998
 20
47.60885400099547
 30
0.0
 10
39.91923124999998
 20
47.21584093216774
 30
0.0
  0
LINE
  5
120
330
1F
100
AcDbEntity
  8
0
  6
Continuous
 62
     7
370
    25
100
AcDbLine
 10
55.5898482589
 20
30.1840079911
 30
0.0
 11
53.2086074346
 21
32.5652488154
 31
0.0
  0
ELLIPSE
  5
121
330
1F
100
AcDbEntity
  8
0
  6
Continuous
 62
     7
370
    25
100
AcDbEllipse
 10
45.91923125
 20
30.0396704238
 30
0.0
 11
8.5
 21
0.0
 31
0.0
210
0.0
220
0.0
230
1.0
 40
0.5773502692
 41
0.6109003736767349
 42
0.7667594407167089
  0
SPLINE
  5
122
330
1F
100
AcDbEntity
  8
0
  6
Continuous
 62
     7
370
    25
100
AcDbSpline
210
0.0
220
0.0
230
1.0
 70
     8
 71
     3
 72
    10
 73
     6
 74
     0
 42
0.00000001
 43
0.00000001
 40
0.0
 40
0.0
 40
0.0
 40
0.0
 40
0.5000000000000001
 40
0.5000000000000001
 40
1.0
 40
1.0
 40
1.0
 40
1.0
 10
56.74150984474025
 20
30.18400799107374
 30
0.0
 10
56.95031976940651
 20
30.56275713846503
 30
0.0
 10
57.12085390915377
 20
30.94396241487633
 30
0.0
 10
57.35563971417269
 20
31.71319303606412
 30
0.0
 10
57.41923124999998
 20
32.10126074086244
 30
0.0
 10
57.41923124999998
 20
32.49340906783228
 30
0.0
  0
LINE
  5
123
330
1F
100
AcDbEntity
  8
0
  6
Continuous
 62
     7
370
    25
100
AcDbLine
 10
55.5898482589
 20
30.1840079911
 30
0.0
 11
56.7415098447
 21
30.1840079911
 31
0.0
  0
LINE
  5
124
330
1F
100
AcDbEntity
  8
0
  6
Continuous
 62
     7
370
    25
100
AcDbLine
 10
55.5898482589
 20
27.854625
 30
0.0
 11
55.5898482589
 21
30.1840079911
 31
0.0
  0
LINE
  5
125
330
1F
100
AcDbEntity
  8
0
  6
Continuous
 62
     7
370
    25
100
AcDbLine
 10
50.9710461054
 20
27.854625
 30
0.0
 11
55.5898482589
 21
27.854625
 31
0.0
  0
LINE
  5
126
330
1F
100
AcDbEntity
  8
0
  6
Continuous
 62
     7
370
    25
100
AcDbLine
 10
51.91923125
 20
33.854625
 30
0.0
 11
49.91923125
 21
35.854625
 31
0.0
  0
LINE
  5
127
330
1F
100
AcDbEntity
  8
0
  6
Continuous
 62
     7
370
    25
100
AcDbLine
 10
49.91923125
 20
32.854625
 30
0.0
 11
52.8818523227
 21
32.854625
 31
0.0
  0
LINE
  5
128
330
1F
100
AcDbEntity
  8
0
  6
Continuous
 62
     7
370
    25
100
AcDbLine
 10
41.91923125
 20
35.854625
 30
0.0
 11
39.91923125
 21
33.854625
 31
0.0
  0
LINE
  5
129
330
1F
100
AcDbEntity
  8
0
  6
Continuous
 62
     7
370
    25
100
AcDbLine
 10
38.9566101773
 20
32.854625
 30
0.0
 11
41.91923125
 21
32.854625
 31
0.0
  0
LINE
  5
12A
330
1F
100
AcDbEntity
  8
0
  6
Continuous
 62
     7
370
    25
100
AcDbLine
 10
39.91923125
 20
47.7890794782
 30
0.0
 11
39.91923125
 21
47.2158409322
 31
0.0
  0
SPLINE
  5
12B
330
1F
100
AcDbEntity
  8
0
  6
Continuous
 62
     7
370
    25
100
AcDbSpline
210
0.0
220
0.0
230
1.0
 70
     8
 71
     3
 72
    32
 73
    28
 74
     0
 42
0.00000001
 43
0.00000001
 40
0.0
 40
0.0
 40
0.0
 40
0.0
 40
0.0625000000000001
 40
0.0625000000000001
 40
0.1250000000000001
 40
0.1250000000000001
 40
0.1875000000000002
 40
0.1875000000000002
 40
0.2500000000000003
 40
0.2500000000000003
 40
0.3750000000000003
 40
0.3750000000000003
 40
0.4375000000000003
 40
0.4375000000000003
 40
0.5000000000000002
 40
0.5000000000000002
 40
0.5625000000000002
 40
0.5625000000000002
 40
0.6250000000000001
 40
0.6250000000000001
 40
0.7500000000000001
 40
0.7500000000000001
 40
0.8750000000000002
 40
0.8750000000000002
 40
0.9375000000000001
 40
0.9375000000000001
 40
1.0
 40
1.0
 40
1.0
 40
1.0
 10
51.9192312499915
 20
47.78907947822066
 30
0.0
 10
51.76237491407461
 20
47.69412250032497
 30
0.0
 10
51.58937647991898
 20
47.59136932569978
 30
0.0
 10
51.21267189329318
 20
47.37465812405151
 30
0.0
 10
51.00981911283649
 20
47.2612394135615
 30
0.0
 10
50.58383785003389
 20
47.03314927686333
 30
0.0
 10
50.35965988974587
 20
46.91784239441148
 30
0.0
 10
49.88830879616948
 20
46.68951929203671
 30
0.0
 10
49.63962328080439
 20
46.57586927590295
 30
0.0
 10
48.86905079611275
 20
46.25280524466891
 30
0.0
 10
48.32341338603057
 20
46.05990672050541
 30
0.0
 10
47.44063363753423
 20
45.8483127952317
 30
0.0
 10
47.14199453766139
 20
45.79267040911397
 30
0.0
 10
46.53549293694562
 20
45.71700233975012
 30
0.0
 10
46.2253456982797
 20
45.69702909397381
 30
0.0
 10
45.60526020959593
 20
45.69736286022705
 30
0.0
 10
45.29868917212789
 20
45.71736182554984
 30
0.0
 10
44.6920344248197
 20
45.79340061174631
 30
0.0
 10
44.3896613601944
 20
45.85005371187786
 30
0.0
 10
43.51302505744143
 20
46.0608322619237
 30
0.0
 10
42.96497092546452
 20
46.25437809249546
 30
0.0
 10
41.93447365822124
 20
46.68699738577125
 30
0.0
 10
41.46691362294177
 20
46.91947403046168
 30
0.0
 10
40.82870001931384
 20
47.26121203138072
 30
0.0
 10
40.62549028112402
 20
47.37482954680911
 30
0.0
 10
40.24915335472957
 20
47.59133193916534
 30
0.0
 10
40.07617474623807
 20
47.69406973560974
 30
0.0
 10
39.91923124999999
 20
47.78907947822582
 30
0.0
  0
LINE
  5
12C
330
1F
100
AcDbEntity
  8
0
  6
Continuous
 62
     7
370
    25
100
AcDbLine
 10
51.91923125
 20
47.7890794782
 30
0.0
 11
51.91923125
 21
47.2158409322
 31
0.0
  0
LINE
  5
12D
330
1F
100
AcDbEntity
  8
0
  6
Continuous
 62
     7
370
    25
100
AcDbLine
 10
39.4632691358
 20
18.4434126538
 30
0.0
 11
52.3751933642
 21
18.4434126538
 31
0.0
  0
SPLINE
  5
12E
330
1F
100
AcDbEntity
  8
0
  6
Continuous
 62
     7
370
    25
100
AcDbSpline
210
0.0
220
0.0
230
1.0
 70
     8
 71
     3
 72
    11
 73
     7
 74
     0
 42
0.00000001
 43
0.00000001
 40
0.0
 40
0.0
 40
0.0
 40
0.0
 40
0.0860363962994498
 40
0.3126240132839471
 40
0.544481681962628
 40
1.0
 40
1.0
 40
1.0
 40
1.0
 10
52.092578437467
 20
48.64752659370112
 30
0.0
 10
52.0937672544871
 20
48.65154021923948
 30
0.0
 10
52.09808696990838
 20
48.66612422993248
 30
0.0
 10
52.06690746158863
 20
48.55956800583021
 30
0.0
 10
51.98447985268078
 20
48.27902007397125
 30
0.0
 10
51.94523709640575
 20
47.98435293017939
 30
0.0
 10
51.91923124999997
 20
47.78907947821868
 30
0.0
  0
SPLINE
  5
12F
330
1F
100
AcDbEntity
  8
0
  6
Continuous
 62
     7
370
    25
100
AcDbSpline
210
0.0
220
0.0
230
1.0
 70
     8
 71
     3
 72
    11
 73
     7
 74
     0
 42
0.00000001
 43
0.00000001
 40
0.0
 40
0.0
 40
0.0
 40
0.0
 40
0.3176290865441333
 40
0.6359452909399851
 40
0.8656695599866019
 40
1.0
 40
1.0
 40
1.0
 40
1.0
 10
39.91923124999998
 20
47.78907947822572
 30
0.0
 10
39.90559251688189
 20
47.92034402670882
 30
0.0
 10
39.8782855463673
 20
48.18315708449089
 30
0.0
 10
39.79028056915802
 20
48.49480273101438
 30
0.0
 10
39.74571952808478
 20
48.64855151987628
 30
0.0
 10
39.74606858342267
 20
48.64703696470843
 30
0.0
 10
39.74619737933153
 20
48.64647811776302
 30
0.0
  0
LINE
  5
130
330
1F
100
AcDbEntity
  8
0
  6
Continuous
 62
     7
370
    25
100
AcDbLine
 10
51.16923125
 20
16.354625
 30
0.0
 11
40.66923125
 21
16.354625
 31
0.0
  0
SPLINE
  5
131
330
1F
100
AcDbEntity
  8
0
  6
Continuous
 62
     7
370
    25
100
AcDbSpline
210
0.0
220
0.0
230
1.0
 70
     8
 71
     3
 72
    10
 73
     6
 74
     0
 42
0.00000001
 43
0.00000001
 40
0.0
 40
0.0
 40
0.0
 40
0.0
 40
0.1601790552921523
 40
0.7197651707804853
 40
1.0
 40
1.0
 40
1.0
 40
1.0
 10
39.20728041162288
 20
49.58752028767599
 30
0.0
 10
39.20651762152963
 20
49.58891251570236
 30
0.0
 10
39.20309002145589
 20
49.59516849743069
 30
0.0
 10
39.21759748625418
 20
49.56866123270277
 30
0.0
 10
39.23552703937201
 20
49.53610537755762
 30
0.0
 10
39.24150984473977
 20
49.52524200892627
 30
0.0
  0
SPLINE
  5
132
330
1F
100
AcDbEntity
  8
0
  6
Continuous
 62
     7
370
    25
100
AcDbSpline
210
0.0
220
0.0
230
1.0
 70
     8
 71
     3
 72
     9
 73
     5
 74
     0
 42
0.00000001
 43
0.00000001
 40
0.0
 40
0.0
 40
0.0
 40
0.0
 40
0.5789479223839301
 40
1.0
 40
1.0
 40
1.0
 40
1.0
 10
56.74150984473979
 20
30.18400799107377
 30
0.0
 10
56.72916895442552
 20
30.16156662388141
 30
0.0
 10
56.70785289155161
 20
30.12280429945685
 30
0.0
 10
56.70744471763707
 20
30.1220383965975
 30
0.0
 10
56.70727285516233
 20
30.12171591160731
 30
0.0
  0
LINE
  5
133
330
1F
100
AcDbEntity
  8
0
  6
Continuous
 62
     7
370
    25
100
AcDbLine
 10
57.41923125
 20
31.354625
 30
0.0
 11
57.41923125
 21
32.4934090678
 31
0.0
  0
SPLINE
  5
134
330
1F
100
AcDbEntity
  8
0
  6
Continuous
 62
     7
370
    25
100
AcDbSpline
210
0.0
220
0.0
230
1.0
 70
     8
 71
     3
 72
    10
 73
     6
 74
     0
 42
0.00000001
 43
0.00000001
 40
0.0
 40
0.0
 40
0.0
 40
0.0
 40
0.1593935212994522
 40
0.7189934545690309
 40
1.0
 40
1.0
 40
1.0
 40
1.0
 10
35.13118964483762
 20
49.58753408839271
 30
0.0
 10
35.13195117183507
 20
49.58892400721931
 30
0.0
 10
35.135386273351
 20
49.59519366316626
 30
0.0
 10
35.1208916508845
 20
49.56870972134246
 30
0.0
 10
35.10295028039179
 20
49.53613231729559
 30
0.0
 10
35.09695265526017
 20
49.52524200892625
 30
0.0
  0
LINE
  5
135
330
1F
100
AcDbEntity
  8
0
  6
Continuous
 62
     7
370
    25
100
AcDbLine
 10
34.41923125
 20
47.2158409322
 30
0.0
 11
34.41923125
 21
48.354625
 31
0.0
  0
SPLINE
  5
136
330
1F
100
AcDbEntity
  8
0
  6
Continuous
 62
     7
370
    25
100
AcDbSpline
210
0.0
220
0.0
230
1.0
 70
     8
 71
     3
 72
     9
 73
     5
 74
     0
 42
0.00000001
 43
0.00000001
 40
0.0
 40
0.0
 40
0.0
 40
0.0
 40
0.5797912171256431
 40
1.0
 40
1.0
 40
1.0
 40
1.0
 10
52.59695265526017
 20
49.52524200892625
 30
0.0
 10
52.60931125860665
 20
49.54771565716737
 30
0.0
 10
52.63062686840104
 20
49.58647727958819
 30
0.0
 10
52.63101781090382
 20
49.58721168434641
 30
0.0
 10
52.63118208837708
 20
49.58752028767599
 30
0.0
  0
SPLINE
  5
137
330
1F
100
AcDbEntity
  8
0
  6
Continuous
 62
     7
370
    25
100
AcDbSpline
210
0.0
220
0.0
230
1.0
 70
     8
 71
     3
 72
    10
 73
     6
 74
     0
 42
0.00000001
 43
0.00000001
 40
0.0
 40
0.0
 40
0.0
 40
0.0
 40
0.1593935212994524
 40
0.7189934545690356
 40
1.0
 40
1.0
 40
1.0
 40
1.0
 10
56.70727285516233
 20
49.58753408839272
 30
0.0
 10
56.70651132816489
 20
49.58892400721932
 30
0.0
 10
56.70307622664895
 20
49.59519366316626
 30
0.0
 10
56.71757084911546
 20
49.56870972134247
 30
0.0
 10
56.73551221960817
 20
49.53613231729559
 30
0.0
 10
56.74150984473979
 20
49.52524200892625
 30
0.0
  0
LINE
  5
138
330
1F
100
AcDbEntity
  8
0
  6
Continuous
 62
     7
370
    25
100
AcDbLine
 10
57.41923125
 20
47.2158409322
 30
0.0
 11
57.41923125
 21
48.354625
 31
0.0
  0
SPLINE
  5
139
330
1F
100
AcDbEntity
  8
0
  6
Continuous
 62
     7
370
    25
100
AcDbSpline
210
0.0
220
0.0
230
1.0
 70
     8
 71
     3
 72
     9
 73
     5
 74
     0
 42
0.00000001
 43
0.00000001
 40
0.0
 40
0.0
 40
0.0
 40
0.0
 40
0.5789479223839474
 40
0.9999999999999999
 40
0.9999999999999999
 40
0.9999999999999999
 40
0.9999999999999999
 10
35.09695265526017
 20
30.18400799107377
 30
0.0
 10
35.10929354557442
 20
30.1615666238814
 30
0.0
 10
35.13060960844834
 20
30.12280429945685
 30
0.0
 10
35.13101778236287
 20
30.12203839659749
 30
0.0
 10
35.13118964483762
 20
30.1217159116073
 30
0.0
  0
LINE
  5
13A
330
1F
100
AcDbEntity
  8
0
  6
Continuous
 62
     7
370
    25
100
AcDbLine
 10
34.41923125
 20
31.354625
 30
0.0
 11
34.41923125
 21
32.4934090678
 31
0.0
  0
LINE
  5
13B
330
1F
100
AcDbEntity
  8
0
  6
Continuous
 62
     7
370
    25
100
AcDbLine
 10
55.656835557
 20
30.117020693
 30
0.0
 11
55.5898482589
 21
30.1840079911
 31
0.0
  0
LINE
  5
13C
330
1F
100
AcDbEntity
  8
0
  6
Continuous
 62
     7
370
    25
100
AcDbLine
 10
55.656835557
 20
27.854625
 30
0.0
 11
55.5898482589
 21
27.854625
 31
0.0
  0
LINE
  5
13D
330
1F
100
AcDbEntity
  8
0
  6
Continuous
 62
     7
370
    25
100
AcDbLine
 10
36.2486142411
 20
30.1840079911
 30
0.0
 11
36.181626943
 21
30.117020693
 31
0.0
  0
LINE
  5
13E
330
1F
100
AcDbEntity
  8
0
  6
Continuous
 62
     7
370
    25
100
AcDbLine
 10
36.2486142411
 20
27.854625
 30
0.0
 11
36.181626943
 21
27.854625
 31
0.0
  0
LWPOLYLINE
  5
13F
330
1F
100
AcDbEntity
  8
0
  6
Continuous
 62
     7
370
    25
100
AcDbPolyline
 90
       29
 70
   128
 43
0.0
 10
53.9192311939
 20
57.3546248349
 10
53.8688050788
 20
57.354624836
 10
53.7184273865
 20
57.3546248391
 10
53.4699888459
 20
57.3546248442
 10
53.1266131242
 20
57.3546248513
 10
52.6926175529
 20
57.3546248602
 10
52.1734588448
 20
57.3546248709
 10
51.5756644858
 20
57.3546248833
 10
50.9067506638
 20
57.3546248971
 10
50.1751277655
 20
57.3546249122
 10
49.3899946316
 20
57.3546249284
 10
48.5612228975
 20
57.3546249455
 10
47.6992328755
 20
57.3546249632
 10
46.8148625382
 20
57.3546249815
 10
45.91923125
 20
57.354625
 10
45.0235999618
 20
57.3546250185
 10
44.1392296245
 20
57.3546250367
 10
43.2772396025
 20
57.3546250545
 10
42.4484678684
 20
57.3546250716
 10
41.6633347345
 20
57.3546250878
 10
40.9317118362
 20
57.3546251029
 10
40.2627980142
 20
57.3546251167
 10
39.6650036552
 20
57.354625129
 10
39.1458449471
 20
57.3546251397
 10
38.7118493758
 20
57.3546251487
 10
38.3684736541
 20
57.3546251558
 10
38.1200351135
 20
57.3546251609
 10
37.9696574212
 20
57.354625164
 10
37.9192313061
 20
57.3546248349
  0
LINE
  5
140
330
1F
100
AcDbEntity
  8
0
  6
Continuous
 62
     7
370
    25
100
AcDbLine
 10
51.0116821826
 20
66.854625
 30
0.0
 11
40.8267803174
 21
66.854625
 31
0.0
  0
SPLINE
  5
141
330
1F
100
AcDbEntity
  8
0
  6
Continuous
 62
     7
370
    25
100
AcDbSpline
210
0.0
220
0.0
230
1.0
 70
     8
 71
     3
 72
    11
 73
     7
 74
     0
 42
0.00000001
 43
0.00000001
 40
0.0
 40
0.0
 40
0.0
 40
0.0
 40
0.2460416072901215
 40
0.4920717926348666
 40
0.7460790582811393
 40
1.0
 40
1.0
 40
1.0
 40
1.0
 10
52.88225845933736
 20
59.08780097571692
 30
0.0
 10
52.63266934064527
 20
59.69824354508449
 30
0.0
 10
52.13350268989197
 20
60.91910034535379
 30
0.0
 10
51.58032087611493
 20
62.84110194608662
 30
0.0
 10
51.16699158258555
 20
64.8204046839188
 30
0.0
 10
51.06344611662553
 20
66.17662839273986
 30
0.0
 10
51.0116821825773
 20
66.85462500000001
 30
0.0
  0
SPLINE
  5
142
330
1F
100
AcDbEntity
  8
0
  6
Continuous
 62
     7
370
    25
100
AcDbSpline
210
0.0
220
0.0
230
1.0
 70
     8
 71
     3
 72
    13
 73
     9
 74
     0
 42
0.00000001
 43
0.00000001
 40
0.0
 40
0.0
 40
0.0
 40
0.0
 40
0.0164940201989931
 40
0.1958803672654719
 40
0.3763143282056555
 40
0.5827472646165622
 40
0.8280062032403762
 40
1.0
 40
1.0
 40
1.0
 40
1.0
 10
53.91923119389448
 20
57.35462483492829
 30
0.0
 10
53.91912657594783
 20
57.35476211022983
 30
0.0
 10
53.9178841498101
 20
57.35639236993353
 30
0.0
 10
53.86870110730003
 20
57.42192413113739
 30
0.0
 10
53.69562827442725
 20
57.66047075367504
 30
0.0
 10
53.43020106133586
 20
58.05531388096475
 30
0.0
 10
53.13369333380999
 20
58.54845939062702
 30
0.0
 10
52.9556491987636
 20
58.93037381762642
 30
0.0
 10
52.88225845933736
 20
59.08780097571692
 30
0.0
  0
SPLINE
  5
143
330
1F
100
AcDbEntity
  8
0
  6
Continuous
 62
     7
370
    25
100
AcDbSpline
210
0.0
220
0.0
230
1.0
 70
     8
 71
     3
 72
    12
 73
     8
 74
     0
 42
0.00000001
 43
0.00000001
 40
0.0
 40
0.0
 40
0.0
 40
0.0
 40
0.0816308004991864
 40
0.3246136178761986
 40
0.5946331315519718
 40
0.8003997370011067
 40
1.0
 40
1.0
 40
1.0
 40
1.0
 10
38.9562040406626
 20
59.08780097571692
 30
0.0
 10
38.92225762577597
 20
59.01254162149825
 30
0.0
 10
38.78726607255231
 20
58.71326474190678
 30
0.0
 10
38.50730934859877
 20
58.20893962206964
 30
0.0
 10
38.18858100631328
 20
57.7238799485739
 30
0.0
 10
37.96229322584276
 20
57.41170875506268
 30
0.0
 10
37.93343897137859
 20
57.37345885892655
 30
0.0
 10
37.91923130610557
 20
57.35462483492829
 30
0.0
  0
SPLINE
  5
144
330
1F
100
AcDbEntity
  8
0
  6
Continuous
 62
     7
370
    25
100
AcDbSpline
210
0.0
220
0.0
230
1.0
 70
     8
 71
     3
 72
    11
 73
     7
 74
     0
 42
0.00000001
 43
0.00000001
 40
0.0
 40
0.0
 40
0.0
 40
0.0
 40
0.2456902021794779
 40
0.49145723969932
 40
0.7457216020119218
 40
1.0
 40
1.0
 40
1.0
 40
1.0
 10
40.82678031742265
 20
66.85462500000001
 30
0.0
 10
40.77736324756543
 20
66.19858542855827
 30
0.0
 10
40.67851365352133
 20
64.88630112070153
 30
0.0
 10
40.27932299659522
 20
62.92699733774607
 30
0.0
 10
39.72857080331602
 20
60.98106779467706
 30
0.0
 10
39.21366436531763
 20
59.71890152721334
 30
0.0
 10
38.9562040406626
 20
59.08780097571692
 30
0.0
  0
LINE
  5
145
330
1F
100
AcDbEntity
  8
0
  6
Continuous
 62
     7
370
    25
100
AcDbLine
 10
52.9536716483
 20
50.354625
 30
0.0
 11
38.8847908517
 21
50.354625
 31
0.0
  0
LINE
  5
146
330
1F
100
AcDbEntity
  8
0
  6
Continuous
 62
     7
370
    25
100
AcDbLine
 10
45.91923125
 20
68.854625
 30
0.0
 11
51.0143392334
 21
68.854625
 31
0.0
  0
LINE
  5
147
330
1F
100
AcDbEntity
  8
0
  6
Continuous
 62
     7
370
    25
100
AcDbLine
 10
40.8241232666
 20
68.854625
 30
0.0
 11
45.91923125
 21
68.854625
 31
0.0
  0
LINE
  5
148
330
1F
100
AcDbEntity
  8
0
  6
Continuous
 62
     7
370
    25
100
AcDbLine
 10
51.1288494806
 20
66.854625
 30
0.0
 11
51.0116821826
 21
66.854625
 31
0.0
  0
ARC
  5
149
330
1F
100
AcDbEntity
  8
0
  6
Continuous
 62
     7
370
    25
100
AcDbCircle
 10
53.1934742039
 20
68.2643500625
 30
0.0
 40
2.500000000000008
100
AcDbArc
 50
214.3252481179
 51
328.221357821
  0
ARC
  5
14A
330
1F
100
AcDbEntity
  8
0
  6
Continuous
 62
     7
370
    25
100
AcDbCircle
 10
60.41923125
 20
63.7879189939
 30
0.0
 40
6.000000000000001
100
AcDbArc
 50
115.1026742168
 51
148.221357821
  0
LINE
  5
14B
330
1F
100
AcDbEntity
  8
0
  6
Continuous
 62
     7
370
    25
100
AcDbLine
 10
57.8737811178
 20
69.2212129879
 30
0.0
 11
62.9646813822
 21
69.2212129879
 31
0.0
  0
ARC
  5
14C
330
1F
100
AcDbEntity
  8
0
  6
Continuous
 62
     7
370
    25
100
AcDbCircle
 10
60.41923125
 20
63.7879189939
 30
0.0
 40
6.000000000000012
100
AcDbArc
 50
308.4313932617
 51
64.8973257832
  0
LINE
  5
14D
330
1F
100
AcDbEntity
  8
0
  6
Continuous
 62
     7
370
    25
100
AcDbLine
 10
52.8822584593
 20
59.0878009757
 30
0.0
 11
64.1486937602
 21
59.0878009757
 31
0.0
  0
LINE
  5
14E
330
1F
100
AcDbEntity
  8
0
  6
Continuous
 62
     7
370
    25
100
AcDbLine
 10
27.6897687398
 20
59.0878009757
 30
0.0
 11
38.9562040407
 21
59.0878009757
 31
0.0
  0
ARC
  5
14F
330
1F
100
AcDbEntity
  8
0
  6
Continuous
 62
     7
370
    25
100
AcDbCircle
 10
31.41923125
 20
63.7879189939
 30
0.0
 40
6.000000000000009
100
AcDbArc
 50
115.1026742168
 51
231.5686067383
  0
LINE
  5
150
330
1F
100
AcDbEntity
  8
0
  6
Continuous
 62
     7
370
    25
100
AcDbLine
 10
28.8737811178
 20
69.2212129879
 30
0.0
 11
33.9646813822
 21
69.2212129879
 31
0.0
  0
ARC
  5
151
330
1F
100
AcDbEntity
  8
0
  6
Continuous
 62
     7
370
    25
100
AcDbCircle
 10
31.41923125
 20
63.7879189939
 30
0.0
 40
6.000000000000004
100
AcDbArc
 50
31.778642179
 51
64.8973257832
  0
ARC
  5
152
330
1F
100
AcDbEntity
  8
0
  6
Continuous
 62
     7
370
    25
100
AcDbCircle
 10
38.6449882961
 20
68.2643500625
 30
0.0
 40
2.500000000000008
100
AcDbArc
 50
211.778642179
 51
325.6747518821
  0
LINE
  5
153
330
1F
100
AcDbEntity
  8
0
  6
Continuous
 62
     7
370
    25
100
AcDbLine
 10
40.8267803174
 20
66.854625
 30
0.0
 11
40.7096130194
 21
66.854625
 31
0.0
  0
ARC
  5
154
330
1F
100
AcDbEntity
  8
0
  6
Continuous
 62
     7
370
    25
100
AcDbCircle
 10
60.7019560042
 20
70.4482057913
 30
0.0
 40
2.573992516660431
100
AcDbArc
 50
331.5306505147
 51
344.0457565706
  0
SPLINE
  5
155
330
1F
100
AcDbEntity
  8
0
  6
Continuous
 62
     7
370
    25
100
AcDbSpline
210
0.0
220
0.0
230
1.0
 70
     8
 71
     3
 72
    17
 73
    13
 74
     0
 42
0.00000001
 43
0.00000001
 40
0.0
 40
0.0
 40
0.0
 40
0.0
 40
0.1643985251551221
 40
0.3825210752049389
 40
0.7105911790613392
 40
0.8150577891621212
 40
0.8799902898774138
 40
0.9216743917957921
 40
0.9487595491592884
 40
0.9664454853042477
 40
0.9948962613988782
 40
1.0
 40
1.0
 40
1.0
 40
1.0
 10
62.96468138220304
 20
69.22121298785846
 30
0.0
 10
62.83870166810604
 20
69.33321749867171
 30
0.0
 10
62.54557315223322
 20
69.593828631671
 30
0.0
 10
61.95015348046402
 20
69.986767220157
 30
0.0
 10
61.38210609052031
 20
70.21946780053719
 30
0.0
 10
60.94440831035075
 20
70.31142123877265
 30
0.0
 10
60.75807239932272
 20
70.336607926915
 30
0.0
 10
60.63992419037238
 20
70.3469733628909
 30
0.0
 10
60.56348833767082
 20
70.35135658803883
 30
0.0
 10
60.49874006030442
 20
70.3537789447168
 30
0.0
 10
60.45342114324902
 20
70.35457582464907
 30
0.0
 10
60.42374506692293
 20
70.3546185077735
 30
0.0
 10
60.41923124999998
 20
70.354625
 30
0.0
  0
SPLINE
  5
156
330
1F
100
AcDbEntity
  8
0
  6
Continuous
 62
     7
370
    25
100
AcDbSpline
210
0.0
220
0.0
230
1.0
 70
     8
 71
     3
 72
    11
 73
     7
 74
     0
 42
0.00000001
 43
0.00000001
 40
0.0
 40
0.0
 40
0.0
 40
0.0
 40
0.0055682347466183
 40
0.1918263368321047
 40
0.6296575784328776
 40
1.0
 40
1.0
 40
1.0
 40
1.0
 10
60.41923124999998
 20
70.354625
 30
0.0
 10
60.42442517333527
 20
70.35462098092641
 30
0.0
 10
60.60335643836516
 20
70.3544825233725
 30
0.0
 10
61.19019413790755
 20
70.3282437473191
 30
0.0
 10
62.12031988346553
 20
70.17417078389776
 30
0.0
 10
62.84480826028511
 20
69.87691143013886
 30
0.0
 10
63.17680222655331
 20
69.74069349342334
 30
0.0
  0
SPLINE
  5
157
330
1F
100
AcDbEntity
  8
0
  6
Continuous
 62
     7
370
    25
100
AcDbSpline
210
0.0
220
0.0
230
1.0
 70
     8
 71
     3
 72
    17
 73
    13
 74
     0
 42
0.00000001
 43
0.00000001
 40
0.0
 40
0.0
 40
0.0
 40
0.0
 40
0.0051037386011219
 40
0.0335545146957463
 40
0.0512404508406915
 40
0.0783256082042153
 40
0.1200097101225738
 40
0.184942210837869
 40
0.2894088209386605
 40
0.6174789247950602
 40
0.8356014748448779
 40
1.0
 40
1.0
 40
1.0
 40
1.0
 10
31.41923124999997
 20
70.354625
 30
0.0
 10
31.41471743307706
 20
70.3546185077735
 30
0.0
 10
31.38504135675127
 20
70.35457582464906
 30
0.0
 10
31.33972243969555
 20
70.35377894471678
 30
0.0
 10
31.27497416232917
 20
70.35135658803883
 30
0.0
 10
31.1985383096276
 20
70.3469733628909
 30
0.0
 10
31.08039010067724
 20
70.336607926915
 30
0.0
 10
30.89405418964923
 20
70.31142123877267
 30
0.0
 10
30.45635640947965
 20
70.21946780053719
 30
0.0
 10
29.88830901953594
 20
69.986767220157
 30
0.0
 10
29.29288934776674
 20
69.59382863167099
 30
0.0
 10
28.99976083189392
 20
69.33321749867171
 30
0.0
 10
28.87378111779691
 20
69.22121298785846
 30
0.0
  0
SPLINE
  5
158
330
1F
100
AcDbEntity
  8
0
  6
Continuous
 62
     7
370
    25
100
AcDbSpline
210
0.0
220
0.0
230
1.0
 70
     8
 71
     3
 72
    17
 73
    13
 74
     0
 42
0.00000001
 43
0.00000001
 40
0.0
 40
0.0
 40
0.0
 40
0.0
 40
0.164398525155122
 40
0.3825210752049397
 40
0.7105911790613394
 40
0.8150577891621317
 40
0.8799902898774276
 40
0.9216743917957886
 40
0.9487595491592797
 40
0.9664454853042047
 40
0.9948962613988785
 40
1.0
 40
1.0
 40
1.0
 40
1.0
 10
33.96468138220304
 20
69.22121298785846
 30
0.0
 10
33.83870166810603
 20
69.33321749867171
 30
0.0
 10
33.54557315223322
 20
69.59382863167102
 30
0.0
 10
32.95015348046401
 20
69.986767220157
 30
0.0
 10
32.3821060905203
 20
70.21946780053716
 30
0.0
 10
31.94440831035072
 20
70.31142123877268
 30
0.0
 10
31.7580723993227
 20
70.336607926915
 30
0.0
 10
31.63992419037237
 20
70.34697336289089
 30
0.0
 10
31.56348833767085
 20
70.35135658803883
 30
0.0
 10
31.49874006030447
 20
70.3537789447168
 30
0.0
 10
31.45342114324876
 20
70.35457582464906
 30
0.0
 10
31.42374506692289
 20
70.3546185077735
 30
0.0
 10
31.41923124999997
 20
70.354625
 30
0.0
  0
SPLINE
  5
159
330
1F
100
AcDbEntity
  8
0
  6
Continuous
 62
     7
370
    25
100
AcDbSpline
210
0.0
220
0.0
230
1.0
 70
     8
 71
     3
 72
    11
 73
     7
 74
     0
 42
0.00000001
 43
0.00000001
 40
0.0
 40
0.0
 40
0.0
 40
0.0
 40
0.0055682347466179
 40
0.1918263368321036
 40
0.6296575784328765
 40
1.0
 40
1.0
 40
1.0
 40
1.0
 10
31.41923124999997
 20
70.354625
 30
0.0
 10
31.42442517333527
 20
70.35462098092641
 30
0.0
 10
31.60335643836518
 20
70.35448252337244
 30
0.0
 10
32.1901941379075
 20
70.32824374731918
 30
0.0
 10
33.12031988346554
 20
70.17417078389774
 30
0.0
 10
33.84480826028512
 20
69.87691143013885
 30
0.0
 10
34.1768022265533
 20
69.74069349342334
 30
0.0
  0
ARC
  5
15A
330
1F
100
AcDbEntity
  8
0
  6
Continuous
 62
     7
370
    25
100
AcDbCircle
 10
31.7019560042
 20
70.4482057913
 30
0.0
 40
2.573992516659493
100
AcDbArc
 50
331.5306505147
 51
344.0457565706
  0
ARC
  5
15B
330
1F
100
AcDbEntity
  8
0
  6
Continuous
 62
     7
370
    25
100
AcDbCircle
 10
31.1365064958
 20
70.4482057913
 30
0.0
 40
2.573992516659248
100
AcDbArc
 50
195.9542434294
 51
208.4693494853
  0
SPLINE
  5
15C
330
1F
100
AcDbEntity
  8
0
  6
Continuous
 62
     7
370
    25
100
AcDbSpline
210
0.0
220
0.0
230
1.0
 70
     8
 71
     3
 72
    11
 73
     7
 74
     0
 42
0.00000001
 43
0.00000001
 40
0.0
 40
0.0
 40
0.0
 40
0.0
 40
0.3703424215671234
 40
0.8081736631678964
 40
0.9944317652533821
 40
1.0
 40
1.0
 40
1.0
 40
1.0
 10
28.66166027344665
 20
69.74069349342334
 30
0.0
 10
28.99365423971485
 20
69.87691143013885
 30
0.0
 10
29.71814261653443
 20
70.17417078389774
 30
0.0
 10
30.64826836209237
 20
70.32824374731919
 30
0.0
 10
31.23510606163482
 20
70.35448252337243
 30
0.0
 10
31.41403732666468
 20
70.35462098092641
 30
0.0
 10
31.41923124999997
 20
70.354625
 30
0.0
  0
ARC
  5
15D
330
1F
100
AcDbEntity
  8
0
  6
Continuous
 62
     7
370
    25
100
AcDbCircle
 10
60.1365064958
 20
70.4482057913
 30
0.0
 40
2.573992516658991
100
AcDbArc
 50
195.9542434294
 51
208.4693494853
  0
SPLINE
  5
15E
330
1F
100
AcDbEntity
  8
0
  6
Continuous
 62
     7
370
    25
100
AcDbSpline
210
0.0
220
0.0
230
1.0
 70
     8
 71
     3
 72
    11
 73
     7
 74
     0
 42
0.00000001
 43
0.00000001
 40
0.0
 40
0.0
 40
0.0
 40
0.0
 40
0.3703424215671233
 40
0.808173663167896
 40
0.9944317652533816
 40
1.0
 40
1.0
 40
1.0
 40
1.0
 10
57.66166027344666
 20
69.74069349342334
 30
0.0
 10
57.99365423971485
 20
69.87691143013886
 30
0.0
 10
58.71814261653445
 20
70.17417078389776
 30
0.0
 10
59.64826836209232
 20
70.32824374731909
 30
0.0
 10
60.23510606163487
 20
70.3544825233725
 30
0.0
 10
60.41403732666468
 20
70.35462098092641
 30
0.0
 10
60.41923124999998
 20
70.354625
 30
0.0
  0
SPLINE
  5
15F
330
1F
100
AcDbEntity
  8
0
  6
Continuous
 62
     7
370
    25
100
AcDbSpline
210
0.0
220
0.0
230
1.0
 70
     8
 71
     3
 72
    17
 73
    13
 74
     0
 42
0.00000001
 43
0.00000001
 40
0.0
 40
0.0
 40
0.0
 40
0.0
 40
0.0051037386011221
 40
0.0335545146957983
 40
0.0512404508407057
 40
0.0783256082042157
 40
0.1200097101225869
 40
0.1849422108378776
 40
0.2894088209386603
 40
0.6174789247950605
 40
0.835601474844878
 40
1.0
 40
1.0
 40
1.0
 40
1.0
 10
60.41923124999998
 20
70.354625
 30
0.0
 10
60.41471743307707
 20
70.3546185077735
 30
0.0
 10
60.3850413567512
 20
70.35457582464906
 30
0.0
 10
60.33972243969551
 20
70.35377894471678
 30
0.0
 10
60.27497416232912
 20
70.35135658803881
 30
0.0
 10
60.19853830962759
 20
70.3469733628909
 30
0.0
 10
60.08039010067723
 20
70.33660792691498
 30
0.0
 10
59.8940541896492
 20
70.31142123877267
 30
0.0
 10
59.45635640947966
 20
70.21946780053717
 30
0.0
 10
58.88830901953594
 20
69.986767220157
 30
0.0
 10
58.29288934776673
 20
69.593828631671
 30
0.0
 10
57.99976083189392
 20
69.33321749867171
 30
0.0
 10
57.87378111779691
 20
69.22121298785846
 30
0.0
  0
ARC
  5
160
330
1F
100
AcDbEntity
  8
0
  6
Continuous
 62
     7
370
    25
100
AcDbCircle
 10
26.5891879625
 20
59.8292535954
 30
0.0
 40
1.327038068258337
100
AcDbArc
 50
306.5236230253
 51
326.0321607238
  0
ARC
  5
161
330
1F
100
AcDbEntity
  8
0
  6
Continuous
 62
     7
370
    25
100
AcDbCircle
 10
31.41923125
 20
63.854625
 30
0.0
 40
6.5
100
AcDbArc
 50
115.1026742168
 51
231.5686067383
  0
ARC
  5
162
330
1F
100
AcDbEntity
  8
0
  6
Continuous
 62
     7
370
    25
100
AcDbCircle
 10
60.41923125
 20
63.854625
 30
0.0
 40
6.500000000000002
100
AcDbArc
 50
308.4313932617
 51
64.8973257832
  0
ARC
  5
163
330
1F
100
AcDbEntity
  8
0
  6
Continuous
 62
     7
370
    25
100
AcDbCircle
 10
65.2492745375
 20
59.8292535954
 30
0.0
 40
1.327038068258617
100
AcDbArc
 50
213.9678392762
 51
233.4763769747
  0
ARC
  5
164
330
1F
100
AcDbEntity
  8
0
  6
Continuous
 62
     7
370
    25
100
AcDbCircle
 10
55.8562882857
 20
68.0788475654
 30
0.0
 40
1.25234985318356
100
AcDbArc
 50
219.7659527059
 51
244.5790017319
  0
ARC
  5
165
330
1F
100
AcDbEntity
  8
0
  6
Continuous
 62
     7
370
    25
100
AcDbCircle
 10
60.41923125
 20
63.854625
 30
0.0
 40
6.499999999999999
100
AcDbArc
 50
115.1026742168
 51
148.221357821
  0
ARC
  5
166
330
1F
100
AcDbEntity
  8
0
  6
Continuous
 62
     7
370
    25
100
AcDbCircle
 10
31.41923125
 20
63.854625
 30
0.0
 40
6.500000000000002
100
AcDbArc
 50
31.778642179
 51
64.8973257832
  0
ARC
  5
167
330
1F
100
AcDbEntity
  8
0
  6
Continuous
 62
     7
370
    25
100
AcDbCircle
 10
35.9821742143
 20
68.0788475654
 30
0.0
 40
1.252349853183891
100
AcDbArc
 50
295.4209982681
 51
320.2340472941
  0
ARC
  5
168
330
1F
100
AcDbEntity
  8
0
  6
Continuous
 62
     7
370
    25
100
AcDbCircle
 10
53.1934742039
 20
68.3310560685
 30
0.0
 40
2.000000000000001
100
AcDbArc
 50
227.5796275115
 51
328.221357821
  0
SPLINE
  5
169
330
1F
100
AcDbEntity
  8
0
  6
Continuous
 62
     7
370
    25
100
AcDbSpline
210
0.0
220
0.0
230
1.0
 70
    24
 71
     3
 72
    12
 73
     8
 74
     0
 42
0.00000001
 43
0.00000001
 40
0.0
 40
0.0
 40
0.0
 40
0.0
 40
0.2571943124574416
 40
0.524550343975796
 40
0.7385170215182983
 40
0.8882338470637771
 40
1.0
 40
1.0
 40
1.0
 40
1.0
 10
51.12884948060645
 20
66.854625
 30
0.0
 10
51.21354775812759
 20
66.854625
 30
0.0
 10
51.38629073281999
 20
66.854625
 30
0.0
 10
51.60551576158483
 20
66.85462500000001
 30
0.0
 10
51.75489553696421
 20
66.854625
 30
0.0
 10
51.83229205355826
 20
66.854625
 30
0.0
 10
51.84073541272209
 20
66.854625
 30
0.0
 10
51.84434437334002
 20
66.854625
 30
0.0
  0
ARC
  5
16A
330
1F
100
AcDbEntity
  8
0
  6
Continuous
 62
     7
370
    25
100
AcDbCircle
 10
38.6449882961
 20
68.3310560685
 30
0.0
 40
2.000000000000001
100
AcDbArc
 50
211.778642179
 51
312.4203724885
  0
SPLINE
  5
16B
330
1F
100
AcDbEntity
  8
0
  6
Continuous
 62
     7
370
    25
100
AcDbSpline
210
0.0
220
0.0
230
1.0
 70
    24
 71
     3
 72
    12
 73
     8
 74
     0
 42
0.00000001
 43
0.00000001
 40
0.0
 40
0.0
 40
0.0
 40
0.0
 40
0.144300502635625
 40
0.2873275205918761
 40
0.5201185386439748
 40
0.7602843466484799
 40
1.0
 40
1.0
 40
1.0
 40
1.0
 10
39.99411812665993
 20
66.854625
 30
0.0
 10
40.00010238668443
 20
66.85462500000001
 30
0.0
 10
40.0120180942808
 20
66.85462500000001
 30
0.0
 10
40.10540331647717
 20
66.854625
 30
0.0
 10
40.25816125987885
 20
66.854625
 30
0.0
 10
40.47262717506712
 20
66.854625
 30
0.0
 10
40.63066715462187
 20
66.854625
 30
0.0
 10
40.7096130193935
 20
66.854625
 30
0.0
  0
SPLINE
  5
16C
330
1F
100
AcDbEntity
  8
0
  6
Continuous
 62
     7
370
    25
100
AcDbSpline
210
0.0
220
0.0
230
1.0
 70
     8
 71
     3
 72
    16
 73
    12
 74
     0
 42
0.00000001
 43
0.00000001
 40
0.0
 40
0.0
 40
0.0
 40
0.0
 40
0.0400879241033624
 40
0.1620524644868242
 40
0.2736894189461807
 40
0.3878458116547636
 40
0.5157289207825608
 40
0.651286669717973
 40
0.784517668940776
 40
0.9073172229945056
 40
1.0
 40
1.0
 40
1.0
 40
1.0
 10
53.91923119389448
 20
57.35462483492829
 30
0.0
 10
53.9198542085614
 20
57.35642610241405
 30
0.0
 10
53.92237269921525
 20
57.36370759283285
 30
0.0
 10
53.95789795813816
 20
57.46879964951592
 30
0.0
 10
54.08019973138672
 20
57.72966765330259
 30
0.0
 10
54.32779422107861
 20
58.08063965165572
 30
0.0
 10
54.75307906772034
 20
58.44325105147556
 30
0.0
 10
55.32861891879722
 20
58.68623824458931
 30
0.0
 10
55.94539484366744
 20
58.73576588246353
 30
0.0
 10
56.48806627782196
 20
58.62127576080051
 30
0.0
 10
56.77379977502807
 20
58.46086068076443
 30
0.0
 10
56.89669882607497
 20
58.391863306278
 30
0.0
  0
SPLINE
  5
16D
330
1F
100
AcDbEntity
  8
0
  6
Continuous
 62
     7
370
    25
100
AcDbSpline
210
0.0
220
0.0
230
1.0
 70
     8
 71
     3
 72
    15
 73
    11
 74
     0
 42
0.00000001
 43
0.00000001
 40
0.0
 40
0.0
 40
0.0
 40
0.0
 40
0.0032940745595593
 40
0.0389546595689614
 40
0.0923144308921413
 40
0.2214788780354806
 40
0.4512478393974725
 40
0.6896098766067238
 40
0.8424208092306287
 40
0.9999999999999999
 40
0.9999999999999999
 40
0.9999999999999999
 40
0.9999999999999999
 10
60.41923124999998
 20
57.35462500000001
 30
0.0
 10
60.42353686473004
 20
57.35462902267976
 30
0.0
 10
60.47445367095643
 20
57.35467659358855
 30
0.0
 10
60.59511891887774
 20
57.35693364064139
 30
0.0
 10
60.88019935765704
 20
57.37321728381511
 30
0.0
 10
61.41794682672771
 20
57.44706058243587
 30
0.0
 10
62.19091772312186
 20
57.67675697446445
 30
0.0
 10
62.97103762175324
 20
58.08943438765014
 30
0.0
 10
63.63095965460541
 20
58.57454636713035
 30
0.0
 10
63.97435728357884
 20
58.91497287901909
 30
0.0
 10
64.14869376018505
 20
59.08780097571692
 30
0.0
  0
SPLINE
  5
16E
330
1F
100
AcDbEntity
  8
0
  6
Continuous
 62
     7
370
    25
100
AcDbSpline
210
0.0
220
0.0
230
1.0
 70
     8
 71
     3
 72
    12
 73
     8
 74
     0
 42
0.00000001
 43
0.00000001
 40
0.0
 40
0.0
 40
0.0
 40
0.0
 40
0.2353653050919987
 40
0.4767533333124098
 40
0.7341407436541076
 40
0.9960857492732753
 40
1.0
 40
1.0
 40
1.0
 40
1.0
 10
56.89669882607497
 20
58.391863306278
 30
0.0
 10
57.16139734377008
 20
58.23645659807419
 30
0.0
 10
57.69756770492279
 20
57.92166650559936
 30
0.0
 10
58.56014020981093
 20
57.6053181921903
 30
0.0
 10
59.46612316505813
 20
57.40140208059913
 30
0.0
 10
60.0952943107409
 20
57.35485974883495
 30
0.0
 10
60.41453112057042
 20
57.35462840606388
 30
0.0
 10
60.41923124999998
 20
57.35462500000001
 30
0.0
  0
SPLINE
  5
16F
330
1F
100
AcDbEntity
  8
0
  6
Continuous
 62
     7
370
    25
100
AcDbSpline
210
0.0
220
0.0
230
1.0
 70
     8
 71
     3
 72
    15
 73
    11
 74
     0
 42
0.00000001
 43
0.00000001
 40
0.0
 40
0.0
 40
0.0
 40
0.0
 40
0.1525119975281636
 40
0.3103908680493853
 40
0.5397217434700959
 40
0.7785238912153802
 40
0.9076867233570571
 40
0.9610458274988164
 40
0.9967059666277488
 40
1.0
 40
1.0
 40
1.0
 40
1.0
 10
27.6897687398149
 20
59.08780097571692
 30
0.0
 10
27.85834758342677
 20
58.920365058227
 30
0.0
 10
28.20143753340784
 20
58.57960117987871
 30
0.0
 10
28.85026904911731
 20
58.10076699585976
 30
0.0
 10
29.63569784102249
 20
57.6815679258615
 30
0.0
 10
30.40875919837589
 20
57.44866463964318
 30
0.0
 10
30.95826096262442
 20
57.37321835321215
 30
0.0
 10
31.24334382574798
 20
57.35693352062496
 30
0.0
 10
31.3640088257526
 20
57.3546765952031
 30
0.0
 10
31.41492563501333
 20
57.35462902280565
 30
0.0
 10
31.41923124999997
 20
57.35462500000001
 30
0.0
  0
SPLINE
  5
170
330
1F
100
AcDbEntity
  8
0
  6
Continuous
 62
     7
370
    25
100
AcDbSpline
210
0.0
220
0.0
230
1.0
 70
     8
 71
     3
 72
    14
 73
    10
 74
     0
 42
0.00000001
 43
0.00000001
 40
0.0
 40
0.0
 40
0.0
 40
0.0
 40
0.0034863124123955
 40
0.0203208135699722
 40
0.2238589767031064
 40
0.4593718547945684
 40
0.6945922354894416
 40
0.8474054947372496
 40
0.9999999999999999
 40
0.9999999999999999
 40
0.9999999999999999
 40
0.9999999999999999
 10
31.41923124999997
 20
57.35462500000001
 30
0.0
 10
31.41435052153353
 20
57.35462850511713
 30
0.0
 10
31.38590201734909
 20
57.35464893553853
 30
0.0
 10
31.07251894275591
 20
57.35711078226166
 30
0.0
 10
30.43391714501404
 20
57.40741643071998
 30
0.0
 10
29.49830371847534
 20
57.61730569756681
 30
0.0
 10
28.65208852834288
 20
57.9530550555903
 30
0.0
 10
27.94320324933454
 20
58.34395900743034
 30
0.0
 10
27.56696471869878
 20
58.62327334401763
 30
0.0
 10
27.37898019729948
 20
58.76283048027
 30
0.0
  0
SPLINE
  5
171
330
1F
100
AcDbEntity
  8
0
  6
Continuous
 62
     7
370
    25
100
AcDbSpline
210
0.0
220
0.0
230
1.0
 70
     8
 71
     3
 72
    16
 73
    12
 74
     0
 42
0.00000001
 43
0.00000001
 40
0.0
 40
0.0
 40
0.0
 40
0.0
 40
0.0093770372722067
 40
0.1449784074793553
 40
0.2782522792466382
 40
0.4010913490990482
 40
0.5131542856948399
 40
0.6266888454485823
 40
0.7537408321063427
 40
0.8891748694388529
 40
1.0
 40
1.0
 40
1.0
 40
1.0
 10
34.94176367392499
 20
58.39186330627796
 30
0.0
 10
34.95359141095267
 20
58.39937813476791
 30
0.0
 10
35.13646009629317
 20
58.51556492547008
 30
0.0
 10
35.54157833241081
 20
58.68599970447766
 30
0.0
 10
36.1593849167106
 20
58.73695088136928
 30
0.0
 10
36.72654344171024
 20
58.61095542154331
 30
0.0
 10
37.20069173412826
 20
58.35610491434636
 30
0.0
 10
37.57192300990449
 20
58.0092487748294
 30
0.0
 10
37.80682868733413
 20
57.64575395534169
 30
0.0
 10
37.90550756137717
 20
57.39708406979609
 30
0.0
 10
37.91497198748559
 20
57.36780253629492
 30
0.0
 10
37.91923130610557
 20
57.35462483492829
 30
0.0
  0
SPLINE
  5
172
330
1F
100
AcDbEntity
  8
0
  6
Continuous
 62
     7
370
    25
100
AcDbSpline
210
0.0
220
0.0
230
1.0
 70
     8
 71
     3
 72
    12
 73
     8
 74
     0
 42
0.00000001
 43
0.00000001
 40
0.0
 40
0.0
 40
0.0
 40
0.0
 40
0.0039142694629097
 40
0.2613995162853428
 40
0.5232483696209407
 40
0.758964717915055
 40
1.0
 40
1.0
 40
1.0
 40
1.0
 10
31.41923124999997
 20
57.35462500000001
 30
0.0
 10
31.42393138079663
 20
57.35462840625483
 30
0.0
 10
31.73781164079587
 20
57.35485587995669
 30
0.0
 10
32.36693078933737
 20
57.40061973511411
 30
0.0
 10
33.26635336982767
 20
57.60190003093916
 30
0.0
 10
34.13421407530701
 20
57.91870175679799
 30
0.0
 10
34.6705857770861
 20
58.23297405158376
 30
0.0
 10
34.94176367392499
 20
58.39186330627796
 30
0.0
  0
SPLINE
  5
173
330
1F
100
AcDbEntity
  8
0
  6
Continuous
 62
     7
370
    25
100
AcDbSpline
210
0.0
220
0.0
230
1.0
 70
     8
 71
     3
 72
    14
 73
    10
 74
     0
 42
0.00000001
 43
0.00000001
 40
0.0
 40
0.0
 40
0.0
 40
0.0
 40
0.1525945052627499
 40
0.3054077645105583
 40
0.5406281452054325
 40
0.7761410232968943
 40
0.9796791864300268
 40
0.9965136875876045
 40
0.9999999999999999
 40
0.9999999999999999
 40
0.9999999999999999
 40
0.9999999999999999
 10
64.45948230270048
 20
58.76283048027
 30
0.0
 10
64.27149778130118
 20
58.62327334401764
 30
0.0
 10
63.89525925066542
 20
58.34395900743034
 30
0.0
 10
63.18637397165708
 20
57.9530550555903
 30
0.0
 10
62.34015878152462
 20
57.61730569756681
 30
0.0
 10
61.40454535498591
 20
57.40741643071998
 30
0.0
 10
60.76594355724406
 20
57.35711078226164
 30
0.0
 10
60.45256048265087
 20
57.35464893553853
 30
0.0
 10
60.42411197846642
 20
57.35462850511713
 30
0.0
 10
60.41923124999998
 20
57.35462500000001
 30
0.0
  0
ARC
  5
174
330
1F
100
AcDbEntity
  8
0
  6
Continuous
 62
     7
370
    25
100
AcDbCircle
 10
43.7450565027
 20
64.7984500361
 30
0.0
 40
4.408657033480448
100
AcDbArc
 50
83.0838156236
 51
91.2490959636
  0
SPLINE
  5
175
330
1F
100
AcDbEntity
  8
0
  6
Continuous
 62
     7
370
    25
100
AcDbSpline
210
0.0
220
0.0
230
1.0
 70
     8
 71
     3
 72
    15
 73
    11
 74
     0
 42
0.00000001
 43
0.00000001
 40
0.0
 40
0.0
 40
0.0
 40
0.0
 40
0.1246337044934918
 40
0.2519069547896618
 40
0.3765407248366567
 40
0.4994048858686675
 40
0.6264509366402855
 40
0.7526069675388761
 40
0.8746808545492513
 40
1.0
 40
1.0
 40
1.0
 40
1.0
 10
44.38116338672754
 20
69.18133651064802
 30
0.0
 10
44.37714910323145
 20
69.18070014635012
 30
0.0
 10
44.36903552002959
 20
69.17941394055958
 30
0.0
 10
44.35459743511809
 20
69.177704214662
 30
0.0
 10
44.33946422668652
 20
69.17626065618975
 30
0.0
 10
44.32410160042097
 20
69.17515581518585
 30
0.0
 10
44.30917071807655
 20
69.17442246733945
 30
0.0
 10
44.29566837836135
 20
69.17415108101082
 30
0.0
 10
44.2839823523849
 20
69.17429736369213
 30
0.0
 10
44.2786407395316
 20
69.17478159795807
 30
0.0
 10
44.27593489793436
 20
69.17502689114116
 30
0.0
  0
SPLINE
  5
176
330
1F
100
AcDbEntity
  8
0
  6
Continuous
 62
     7
370
    25
100
AcDbSpline
210
0.0
220
0.0
230
1.0
 70
     8
 71
     3
 72
    11
 73
     7
 74
     0
 42
0.00000001
 43
0.00000001
 40
0.0
 40
0.0
 40
0.0
 40
0.0
 40
0.250625429633313
 40
0.5000000000003831
 40
0.7493745703670929
 40
1.0
 40
1.0
 40
1.0
 40
1.0
 10
47.45729911645645
 20
69.18133651040709
 30
0.0
 10
47.22757961685095
 20
69.21269456519492
 30
0.0
 10
46.76928713643151
 20
69.27525416825222
 30
0.0
 10
45.91923125160005
 20
69.30129822816083
 30
0.0
 10
45.06917536676264
 20
69.27525416838559
 30
0.0
 10
44.61088288633643
 20
69.21269456539993
 30
0.0
 10
44.38116338672756
 20
69.18133651064802
 30
0.0
  0
SPLINE
  5
177
330
1F
100
AcDbEntity
  8
0
  6
Continuous
 62
     7
370
    25
100
AcDbSpline
210
0.0
220
0.0
230
1.0
 70
     8
 71
     3
 72
    15
 73
    11
 74
     0
 42
0.00000001
 43
0.00000001
 40
0.0
 40
0.0
 40
0.0
 40
0.0
 40
0.1253187789994368
 40
0.2473923090486592
 40
0.3734477209264249
 40
0.500593709173434
 40
0.6235467583552695
 40
0.7480937818221101
 40
0.8753666599534677
 40
1.0
 40
1.0
 40
1.0
 40
1.0
 10
47.56252760524959
 20
69.17502689088367
 30
0.0
 10
47.55982176732202
 20
69.17478159680148
 30
0.0
 10
47.55448016171304
 20
69.17429736076058
 30
0.0
 10
47.54279721811938
 20
69.17415113053416
 30
0.0
 10
47.52929579848578
 20
69.17442229636067
 30
0.0
 10
47.51436146819274
 20
69.17515577329752
 30
0.0
 10
47.49899437298742
 20
69.17626068587556
 30
0.0
 10
47.48386187822083
 20
69.17770467886352
 30
0.0
 10
47.46942695302335
 20
69.17941392253958
 30
0.0
 10
47.46131338997925
 20
69.1807001402244
 30
0.0
 10
47.45729911645644
 20
69.18133651040709
 30
0.0
  0
ARC
  5
178
330
1F
100
AcDbEntity
  8
0
  6
Continuous
 62
     7
370
    25
100
AcDbCircle
 10
48.0934059998
 20
64.7984500359
 30
0.0
 40
4.408657033328089
100
AcDbArc
 50
88.7509040274
 51
96.9161843676
  0
LINE
  5
179
330
1F
100
AcDbEntity
  8
0
  6
Continuous
 62
     7
370
    25
100
AcDbLine
 10
44.2759348979
 20
69.1750268911
 30
0.0
 11
44.2759348979
 21
69.2759063755
 31
0.0
  0
SPLINE
  5
17A
330
1F
100
AcDbEntity
  8
0
  6
Continuous
 62
     7
370
    25
100
AcDbSpline
210
0.0
220
0.0
230
1.0
 70
     8
 71
     3
 72
    15
 73
    11
 74
     0
 42
0.00000001
 43
0.00000001
 40
0.0
 40
0.0
 40
0.0
 40
0.0
 40
0.1253191957979138
 40
0.2473928354984065
 40
0.3734492416489706
 40
0.5005950046079967
 40
0.6235484391777611
 40
0.7480947836179483
 40
0.8753671458153899
 40
1.0
 40
1.0
 40
1.0
 40
1.0
 10
44.27593489793436
 20
69.27590637550368
 30
0.0
 10
44.27864069426678
 20
69.27566229636999
 30
0.0
 10
44.28398221136396
 20
69.27518045934106
 30
0.0
 10
44.29566478395304
 20
69.27503494278756
 30
0.0
 10
44.30916576394031
 20
69.2753047371431
 30
0.0
 10
44.32409979279037
 20
69.2760345477088
 30
0.0
 10
44.33946680397942
 20
69.27713396450102
 30
0.0
 10
44.35459954041763
 20
69.27857081977945
 30
0.0
 10
44.36903497019932
 20
69.28027165536241
 30
0.0
 10
44.37714892102855
 20
69.28155157927972
 30
0.0
 10
44.38116338672754
 20
69.28218483560225
 30
0.0
  0
LINE
  5
17B
330
1F
100
AcDbEntity
  8
0
  6
Continuous
 62
     7
370
    25
100
AcDbLine
 10
44.3811633867
 20
69.1813365106
 30
0.0
 11
44.3811633867
 21
69.2821848356
 31
0.0
  0
ARC
  5
17C
330
1F
100
AcDbEntity
  8
0
  6
Continuous
 62
     7
370
    25
100
AcDbCircle
 10
44.9503156444
 20
53.8647094433
 30
0.0
 40
15.49681490759904
100
AcDbArc
 50
94.6954834627
 51
94.8171561264
  0
SPLINE
  5
17D
330
1F
100
AcDbEntity
  8
0
  6
Continuous
 62
     7
370
    25
100
AcDbSpline
210
0.0
220
0.0
230
1.0
 70
     8
 71
     3
 72
    15
 73
    11
 74
     0
 42
0.00000001
 43
0.00000001
 40
0.0
 40
0.0
 40
0.0
 40
0.0
 40
0.1241930067305288
 40
0.2496556654892299
 40
0.3743703853151211
 40
0.4998404796364204
 40
0.6240146704162364
 40
0.7475381382242064
 40
0.8745858500551822
 40
1.0
 40
1.0
 40
1.0
 40
1.0
 10
44.4620369501305
 20
69.39099787095648
 30
0.0
 10
44.44647655502081
 20
69.3886021906088
 30
0.0
 10
44.41519668750929
 20
69.38378633835399
 30
0.0
 10
44.33776032802091
 20
69.37418203863102
 30
0.0
 10
44.244406324282
 20
69.36347899232479
 30
0.0
 10
44.13718071826103
 20
69.35205673478463
 30
0.0
 10
44.02279480754009
 20
69.34046063171853
 30
0.0
 10
43.90512404465477
 20
69.32917602449314
 30
0.0
 10
43.78824031942955
 20
69.31846579823973
 30
0.0
 10
43.71709146853483
 20
69.31248543678451
 30
0.0
 10
43.68174722845141
 20
69.30951460410907
 30
0.0
  0
ARC
  5
17E
330
1F
100
AcDbEntity
  8
0
  6
Continuous
 62
     7
370
    25
100
AcDbCircle
 10
44.8522795808
 20
67.0557010507
 30
0.0
 40
2.367678303593738
100
AcDbArc
 50
93.3632881502
 51
99.4868245016
  0
ARC
  5
17F
330
1F
100
AcDbEntity
  8
0
  6
Continuous
 62
     7
370
    25
100
AcDbCircle
 10
46.9861866058
 20
67.0557423015
 30
0.0
 40
2.367636907566209
100
AcDbArc
 50
80.5187694297
 51
86.6367422681
  0
SPLINE
  5
180
330
1F
100
AcDbEntity
  8
0
  6
Continuous
 62
     7
370
    25
100
AcDbSpline
210
0.0
220
0.0
230
1.0
 70
     8
 71
     3
 72
    15
 73
    11
 74
     0
 42
0.00000001
 43
0.00000001
 40
0.0
 40
0.0
 40
0.0
 40
0.0
 40
0.1253320172137758
 40
0.2522975129251762
 40
0.3758847553984062
 40
0.5001929511416486
 40
0.6255758307380151
 40
0.7502289462456482
 40
0.8757444935777826
 40
1.0
 40
1.0
 40
1.0
 40
1.0
 10
48.14889617926548
 20
69.31019596615101
 30
0.0
 10
48.11364526263749
 20
69.31317555829082
 30
0.0
 10
48.04268399678309
 20
69.31917357622045
 30
0.0
 10
47.92669710599472
 20
69.32983394854438
 30
0.0
 10
47.81010073975434
 20
69.34104306975547
 30
0.0
 10
47.69698013317286
 20
69.35253349698401
 30
0.0
 10
47.59110441883342
 20
69.36383125769636
 30
0.0
 10
47.49899533421426
 20
69.37440627129332
 30
0.0
 10
47.42256367034587
 20
69.3838973333219
 30
0.0
 10
47.39159876284657
 20
69.38866471487951
 30
0.0
 10
47.37619441472533
 20
69.39103638045421
 30
0.0
  0
ARC
  5
181
330
1F
100
AcDbEntity
  8
0
  6
Continuous
 62
     7
370
    25
100
AcDbCircle
 10
46.8489815309
 20
53.584532605
 30
0.0
 40
15.77929866130297
100
AcDbArc
 50
85.1265666158
 51
85.2745602135
  0
ARC
  5
182
330
1F
100
AcDbEntity
  8
0
  6
Continuous
 62
     7
370
    25
100
AcDbCircle
 10
48.0934036764
 20
64.877529029
 30
0.0
 40
4.430299389721568
100
AcDbArc
 50
88.7569768639
 51
96.8822041625
  0
SPLINE
  5
183
330
1F
100
AcDbEntity
  8
0
  6
Continuous
 62
     7
370
    25
100
AcDbSpline
210
0.0
220
0.0
230
1.0
 70
     8
 71
     3
 72
    15
 73
    11
 74
     0
 42
0.00000001
 43
0.00000001
 40
0.0
 40
0.0
 40
0.0
 40
0.0
 40
0.124633218643854
 40
0.2519059530189772
 40
0.3765391000744918
 40
0.4994035903146518
 40
0.6264494152300148
 40
0.7526064410610419
 40
0.874680437736327
 40
1.0
 40
1.0
 40
1.0
 40
1.0
 10
47.45729911645643
 20
69.28218483536253
 30
0.0
 10
47.46131359212458
 20
69.28155158489542
 30
0.0
 10
47.46942756310327
 20
69.28027167281299
 30
0.0
 10
47.4838661549398
 20
69.27857035710875
 30
0.0
 10
47.49899960487289
 20
69.277133934322
 30
0.0
 10
47.51436214715466
 20
69.27603458877756
 30
0.0
 10
47.52929272599135
 20
69.27530490676013
 30
0.0
 10
47.54279462602065
 20
69.27503489300115
 30
0.0
 10
47.55448028090706
 20
69.27518046174794
 30
0.0
 10
47.55982180524785
 20
69.27566229700919
 30
0.0
 10
47.56252760524959
 20
69.27590637524746
 30
0.0
  0
SPLINE
  5
184
330
1F
100
AcDbEntity
  8
0
  6
Continuous
 62
     7
370
    25
100
AcDbSpline
210
0.0
220
0.0
230
1.0
 70
     8
 71
     3
 72
    11
 73
     7
 74
     0
 42
0.00000001
 43
0.00000001
 40
0.0
 40
0.0
 40
0.0
 40
0.0
 40
0.2506252605986011
 40
0.4999999999996215
 40
0.7493747394010042
 40
1.0
 40
1.0
 40
1.0
 40
1.0
 10
44.38116338672756
 20
69.28218483560225
 30
0.0
 10
44.61089108090086
 20
69.31338925847089
 30
0.0
 10
45.06920021866385
 20
69.37564240644583
 30
0.0
 10
45.91923125159997
 20
69.40155699224405
 30
0.0
 10
46.7692622845302
 20
69.37564240631313
 30
0.0
 10
47.22757142228648
 20
69.3133892582669
 30
0.0
 10
47.45729911645644
 20
69.28218483536253
 30
0.0
  0
ARC
  5
185
330
1F
100
AcDbEntity
  8
0
  6
Continuous
 62
     7
370
    25
100
AcDbCircle
 10
43.7450588261
 20
64.8775290292
 30
0.0
 40
4.430299389884317
100
AcDbArc
 50
83.1177958287
 51
91.2430231272
  0
SPLINE
  5
186
330
1F
100
AcDbEntity
  8
0
  6
Continuous
 62
     7
370
    25
100
AcDbSpline
210
0.0
220
0.0
230
1.0
 70
     8
 71
     3
 72
    15
 73
    11
 74
     0
 42
0.00000001
 43
0.00000001
 40
0.0
 40
0.0
 40
0.0
 40
0.0
 40
0.1233867499278388
 40
0.2487396502211602
 40
0.3739317114754985
 40
0.4999973617625659
 40
0.6259591330513601
 40
0.7512551380600303
 40
0.8765613478174267
 40
1.0
 40
1.0
 40
1.0
 40
1.0
 10
45.8563483851939
 20
69.45451789730448
 30
0.0
 10
45.85922658638576
 20
69.45451855637663
 30
0.0
 10
45.8650288524974
 20
69.45451988502313
 30
0.0
 10
45.88055825721815
 20
69.45452383465026
 30
0.0
 10
45.89891283909159
 20
69.45452561699966
 30
0.0
 10
45.91922565557451
 20
69.45452717057762
 30
0.0
 10
45.93954407328961
 20
69.45452561644268
 30
0.0
 10
45.95789694245372
 20
69.45452383956211
 30
0.0
 10
45.97343504684923
 20
69.45451987204396
 30
0.0
 10
45.97923560888051
 20
69.454518552248
 30
0.0
 10
45.98211411480606
 20
69.45451789730448
 30
0.0
  0
ARC
  5
187
330
1F
100
AcDbEntity
  8
0
  6
Continuous
 62
     7
370
    25
100
AcDbCircle
 10
45.8572428129
 20
66.9101684845
 30
0.0
 40
2.544349570059732
100
AcDbArc
 50
90.0201414662
 51
95.4127462174
  0
SPLINE
  5
188
330
1F
100
AcDbEntity
  8
0
  6
Continuous
 62
     7
370
    25
100
AcDbSpline
210
0.0
220
0.0
230
1.0
 70
     8
 71
     3
 72
    15
 73
    11
 74
     0
 42
0.00000001
 43
0.00000001
 40
0.0
 40
0.0
 40
0.0
 40
0.0
 40
0.1261585224210642
 40
0.25131214515488
 40
0.3762846848783792
 40
0.4993062783340877
 40
0.6261594278645743
 40
0.7521171342021308
 40
0.8758196922692789
 40
1.0
 40
1.0
 40
1.0
 40
1.0
 10
45.68011772432221
 20
69.44127476589377
 30
0.0
 10
45.67488662783354
 20
69.44122384014328
 30
0.0
 10
45.66446610249088
 20
69.44112239428495
 30
0.0
 10
45.64967955197648
 20
69.44111821264767
 30
0.0
 10
45.63648919935098
 20
69.44121755146831
 30
0.0
 10
45.62561862450971
 20
69.44143809367135
 30
0.0
 10
45.61761103718118
 20
69.44176196107286
 30
0.0
 10
45.61344441014848
 20
69.4421818309203
 30
0.0
 10
45.61282335863687
 20
69.44266054798605
 30
0.0
 10
45.61576247099163
 20
69.4430018372316
 30
0.0
 10
45.61723485947437
 20
69.44317281074122
 30
0.0
  0
ARC
  5
189
330
1F
100
AcDbEntity
  8
0
  6
Continuous
 62
     7
370
    25
100
AcDbCircle
 10
45.91923125
 20
48.854625
 30
0.0
 40
20.58803836847347
100
AcDbArc
 50
89.3345405821
 51
90.66545941
  0
SPLINE
  5
18A
330
1F
100
AcDbEntity
  8
0
  6
Continuous
 62
     7
370
    25
100
AcDbSpline
210
0.0
220
0.0
230
1.0
 70
     8
 71
     3
 72
    15
 73
    11
 74
     0
 42
0.00000001
 43
0.00000001
 40
0.0
 40
0.0
 40
0.0
 40
0.0
 40
0.1241186784437694
 40
0.2478474916628982
 40
0.3736574149478942
 40
0.5005082335853296
 40
0.6234527658309922
 40
0.7484986612277523
 40
0.8736976492452769
 40
1.0
 40
1.0
 40
1.0
 40
1.0
 10
46.22122764325156
 20
69.44317281070792
 30
0.0
 10
46.22269871586038
 20
69.44300193042943
 30
0.0
 10
46.22563624033876
 20
69.44266070661905
 30
0.0
 10
46.22501950583867
 20
69.44218217033156
 30
0.0
 10
46.22085754424405
 20
69.44176238045968
 30
0.0
 10
46.21285879644567
 20
69.44143859261324
 30
0.0
 10
46.20199270490885
 20
69.44121789440757
 30
0.0
 10
46.18880498708422
 20
69.44111830249739
 30
0.0
 10
46.174010540509
 20
69.44112221689599
 30
0.0
 10
46.16358194960168
 20
69.44122376770142
 30
0.0
 10
46.15834477848726
 20
69.44127476586112
 30
0.0
  0
ARC
  5
18B
330
1F
100
AcDbEntity
  8
0
  6
Continuous
 62
     7
370
    25
100
AcDbCircle
 10
45.9812196871
 20
66.9101684322
 30
0.0
 40
2.544349622300839
100
AcDbArc
 50
84.5872538302
 51
89.9798585321
  0
LINE
  5
18C
330
1F
100
AcDbEntity
  8
0
  6
Continuous
 62
     7
370
    25
100
AcDbLine
 10
47.4572991165
 20
69.1813365104
 30
0.0
 11
47.4572991165
 21
69.2821848354
 31
0.0
  0
LINE
  5
18D
330
1F
100
AcDbEntity
  8
0
  6
Continuous
 62
     7
370
    25
100
AcDbLine
 10
47.5625276052
 20
69.1750268909
 30
0.0
 11
47.5625276052
 21
69.2759063752
 31
0.0
  0
LINE
  5
18E
330
1F
100
AcDbEntity
  8
0
  6
Continuous
 62
     7
370
    25
100
AcDbLine
 10
43.6489517014
 20
69.2060594455
 30
0.0
 11
43.6489517014
 21
69.3067858636
 31
0.0
  0
LINE
  5
18F
330
1F
100
AcDbEntity
  8
0
  6
Continuous
 62
     7
370
    25
100
AcDbLine
 10
48.1895108017
 20
69.2060594451
 30
0.0
 11
48.1895108017
 21
69.3067858632
 31
0.0
  0
SPLINE
  5
190
330
1F
100
AcDbEntity
  8
0
  6
Continuous
 62
     7
370
    25
100
AcDbSpline
210
0.0
220
0.0
230
1.0
 70
     8
 71
     3
 72
    30
 73
    26
 74
     0
 42
0.00000001
 43
0.00000001
 40
0.0
 40
0.0
 40
0.0
 40
0.0
 40
0.0110313356036689
 40
0.0532779326511218
 40
0.0955516684693652
 40
0.1522062499584998
 40
0.2089605027950316
 40
0.2161900448086716
 40
0.2769264466260534
 40
0.337662074680723
 40
0.3847658146781689
 40
0.4317747979850777
 40
0.4687737553083203
 40
0.5057339727807744
 40
0.5426521114573694
 40
0.5796193277075338
 40
0.6291546867826627
 40
0.6787817980318614
 40
0.7318177016515258
 40
0.7848449218245989
 40
0.8294840742953757
 40
0.8740884264764937
 40
0.9165690036134387
 40
0.9590145720954445
 40
1.0
 40
1.0
 40
1.0
 40
1.0
 10
40.01923124999998
 20
49.35462500000001
 30
0.0
 10
40.02005529734622
 20
49.3539271681023
 30
0.0
 10
40.02403519067843
 20
49.35055685627572
 30
0.0
 10
40.09481689960764
 20
49.29020721267037
 30
0.0
 10
40.3161056297069
 20
49.10467711701246
 30
0.0
 10
40.70666864510341
 20
48.78413117207081
 30
0.0
 10
41.10991073118963
 20
48.47045426853047
 30
0.0
 10
41.57672497027851
 20
48.12406498064055
 30
0.0
 10
42.11235280435655
 20
47.74364003363712
 30
0.0
 10
42.92810318235907
 20
47.24561648337648
 30
0.0
 10
43.76966298812344
 20
46.83349861030258
 30
0.0
 10
44.5530699067505
 20
46.55649949408784
 30
0.0
 10
45.32605478385413
 20
46.40508234162496
 30
0.0
 10
46.05664508813358
 20
46.36693287109278
 30
0.0
 10
46.78136755057566
 20
46.44626476751971
 30
0.0
 10
47.5547371403498
 20
46.63876795082697
 30
0.0
 10
48.34513210876868
 20
46.95592754346621
 30
0.0
 10
49.14193606678065
 20
47.3812055832222
 30
0.0
 10
49.86930551239201
 20
47.84366827248443
 30
0.0
 10
50.48350296964192
 20
48.28407455905253
 30
0.0
 10
50.97698774324526
 20
48.66255620076169
 30
0.0
 10
51.35196236790699
 20
48.96424783636404
 30
0.0
 10
51.62248534978351
 20
49.18811998320845
 30
0.0
 10
51.79365496142604
 20
49.33290359307457
 30
0.0
 10
51.80906666174324
 20
49.3459193312712
 30
0.0
 10
51.8166376504596
 20
49.35231330500504
 30
0.0
  0
LINE
  5
191
330
1F
100
AcDbEntity
  8
0
  6
Continuous
 62
     7
370
    25
100
AcDbLine
 10
38.3860615018
 20
50.819001475
 30
0.0
 11
53.4524009982
 21
50.819001475
 31
0.0
  0
LINE
  5
192
330
1F
100
AcDbEntity
  8
0
  6
Continuous
 62
     7
370
    25
100
AcDbLine
 10
45.91923125
 20
68.4585808454
 30
0.0
 11
40.3350494662
 21
68.4585808454
 31
0.0
  0
LINE
  5
193
330
1F
100
AcDbEntity
  8
0
  6
Continuous
 62
     7
370
    25
100
AcDbLine
 10
51.5034130338
 20
68.4585808454
 30
0.0
 11
45.91923125
 21
68.4585808454
 31
0.0
  0
LINE
  5
194
330
1F
100
AcDbEntity
  8
0
  6
Continuous
 62
     7
370
    25
100
AcDbLine
 10
45.8563483852
 20
69.4425673354
 30
0.0
 11
45.8563483852
 21
69.4545178973
 31
0.0
  0
LINE
  5
195
330
1F
100
AcDbEntity
  8
0
  6
Continuous
 62
     7
370
    25
100
AcDbLine
 10
45.9821141148
 20
69.4425673354
 30
0.0
 11
45.9821141148
 21
69.4545178973
 31
0.0
  0
LINE
  5
196
330
1F
100
AcDbEntity
  8
0
  6
Continuous
 62
     7
370
    18
100
AcDbLine
 10
39.85298125
 20
27.354625
 30
0.0
 11
40.1696929462
 21
17.2198507226
 31
0.0
  0
LINE
  5
197
330
1F
100
AcDbEntity
  8
0
  6
Continuous
 62
     7
370
    18
100
AcDbLine
 10
51.6687695538
 20
17.2198507226
 30
0.0
 11
51.98548125
 21
27.354625
 31
0.0
  0
LINE
  5
198
330
1F
100
AcDbEntity
  8
0
  6
Continuous
 62
     7
370
    18
100
AcDbLine
 10
30.41923125
 20
45.933125
 30
0.0
 11
26.1708972998
 21
45.933125
 31
0.0
  0
LINE
  5
199
330
1F
100
AcDbEntity
  8
0
  6
Continuous
 62
     7
370
    18
100
AcDbLine
 10
26.1708972998
 20
33.776125
 30
0.0
 11
30.41923125
 21
33.776125
 31
0.0
  0
LINE
  5
19A
330
1F
100
AcDbEntity
  8
0
  6
Continuous
 62
     7
370
    25
100
AcDbLine
 10
30.41923125
 20
46.433125
 30
0.0
 11
30.41923125
 21
46.4219952192
 31
0.0
  0
SPLINE
  5
19B
330
1F
100
AcDbEntity
  8
0
  6
Continuous
 62
     7
370
     0
100
AcDbSpline
210
0.0
220
0.0
230
1.0
 70
     8
 71
     3
 72
    34
 73
    30
 74
     0
 42
0.00000001
 43
0.00000001
 40
0.0
 40
0.0
 40
0.0
 40
0.0
 40
0.0377355477212119
 40
0.0754710954424038
 40
0.1132066431635956
 40
0.1509421908847876
 40
0.1886777386059794
 40
0.2264132863271713
 40
0.2641488340483631
 40
0.3018843817695549
 40
0.3396199294907467
 40
0.3773554772119386
 40
0.4150910249331305
 40
0.4528265726543225
 40
0.4905621203755144
 40
0.5282976680967063
 40
0.566033215817898
 40
0.6037687635390901
 40
0.641504311260282
 40
0.6792398589814737
 40
0.7169754067026657
 40
0.7547109544238574
 40
0.7924465021450494
 40
0.8301820498662413
 40
0.867917597587433
 40
0.905653145308625
 40
0.9433886930298169
 40
0.9811242407510086
 40
1.0
 40
1.0
 40
1.0
 40
1.0
 10
30.41923046112061
 20
46.42199521918754
 30
0.0
 10
30.41923124999997
 20
46.33318280319081
 30
0.0
 10
30.41923124999997
 20
46.15675900676744
 30
0.0
 10
30.41923124999997
 20
45.89510965911187
 30
0.0
 10
30.41923124999997
 20
45.55177311879591
 30
0.0
 10
30.41923124999997
 20
45.13139242353903
 30
0.0
 10
30.41923124999997
 20
44.63965250108828
 30
0.0
 10
30.41923124999997
 20
44.08320329032287
 30
0.0
 10
30.41923124999997
 20
43.46956981223877
 30
0.0
 10
30.41923124999997
 20
42.80705040694871
 30
0.0
 10
30.41923124999997
 20
42.10460451286788
 30
0.0
 10
30.41923124999997
 20
41.37173150567911
 30
0.0
 10
30.41923124999997
 20
40.61834223557278
 30
0.0
 10
30.41923124999997
 20
39.85462499999996
 30
0.0
 10
30.41923124999997
 20
39.09090776442713
 30
0.0
 10
30.41923124999997
 20
38.33751849432081
 30
0.0
 10
30.41923124999997
 20
37.60464548713204
 30
0.0
 10
30.41923124999997
 20
36.90219959305121
 30
0.0
 10
30.41923124999997
 20
36.23968018776117
 30
0.0
 10
30.41923124999997
 20
35.62604670967706
 30
0.0
 10
30.41923124999997
 20
35.06959749891167
 30
0.0
 10
30.41923124999997
 20
34.57785757646091
 30
0.0
 10
30.41923124999997
 20
34.15747688120405
 30
0.0
 10
30.41923124999997
 20
33.8141403408881
 30
0.0
 10
30.41923124999997
 20
33.55249099323255
 30
0.0
 10
30.41923124999997
 20
33.37606719680919
 30
0.0
 10
30.41923124999997
 20
33.28725478081248
 30
0.0
 10
30.41923124999997
 20
33.276125
 30
0.0
 10
30.41923124999997
 20
33.27837127090374
 30
0.0
 10
30.41923124999997
 20
33.276125
 30
0.0
  0
LINE
  5
19C
330
1F
100
AcDbEntity
  8
0
  6
Continuous
 62
     7
370
    18
100
AcDbLine
 10
61.41923125
 20
33.776125
 30
0.0
 11
65.6675652002
 21
33.776125
 31
0.0
  0
LINE
  5
19D
330
1F
100
AcDbEntity
  8
0
  6
Continuous
 62
     7
370
    18
100
AcDbLine
 10
65.6675652002
 20
45.933125
 30
0.0
 11
61.41923125
 21
45.933125
 31
0.0
  0
LINE
  5
19E
330
1F
100
AcDbEntity
  8
0
  6
Continuous
 62
     7
370
    25
100
AcDbLine
 10
61.41923125
 20
33.276125
 30
0.0
 11
61.41923125
 21
33.2872547808
 31
0.0
  0
SPLINE
  5
19F
330
1F
100
AcDbEntity
  8
0
  6
Continuous
 62
     7
370
     0
100
AcDbSpline
210
0.0
220
0.0
230
1.0
 70
     8
 71
     3
 72
    34
 73
    30
 74
     0
 42
0.00000001
 43
0.00000001
 40
0.0
 40
0.0
 40
0.0
 40
0.0
 40
0.0377355477260178
 40
0.0754710954470212
 40
0.1132066431680246
 40
0.1509421908890281
 40
0.1886777386100315
 40
0.2264132863310349
 40
0.2641488340520384
 40
0.3018843817730417
 40
0.3396199294940453
 40
0.3773554772150485
 40
0.4150910249360519
 40
0.4528265726570554
 40
0.4905621203780589
 40
0.5282976680990623
 40
0.5660332158200656
 40
0.6037687635410689
 40
0.6415043112620722
 40
0.6792398589830758
 40
0.7169754067040791
 40
0.7547109544250826
 40
0.7924465021460859
 40
0.8301820498670893
 40
0.8679175975880926
 40
0.9056531453090961
 40
0.9433886930300996
 40
0.9811242407511029
 40
1.0
 40
1.0
 40
1.0
 40
1.0
 10
61.41921877861023
 20
33.28725478081248
 30
0.0
 10
61.41923124999998
 20
33.3760671968092
 30
0.0
 10
61.41923124999998
 20
33.55249099323257
 30
0.0
 10
61.41923124999998
 20
33.81414034088814
 30
0.0
 10
61.41923124999998
 20
34.1574768812041
 30
0.0
 10
61.41923124999998
 20
34.57785757646097
 30
0.0
 10
61.41923124999998
 20
35.06959749891173
 30
0.0
 10
61.41923124999998
 20
35.62604670967714
 30
0.0
 10
61.41923124999998
 20
36.23968018776124
 30
0.0
 10
61.41923124999998
 20
36.90219959305131
 30
0.0
 10
61.41923124999998
 20
37.60464548713213
 30
0.0
 10
61.41923124999998
 20
38.3375184943209
 30
0.0
 10
61.41923124999998
 20
39.09090776442722
 30
0.0
 10
61.41923124999998
 20
39.85462500000006
 30
0.0
 10
61.41923124999998
 20
40.61834223557288
 30
0.0
 10
61.41923124999998
 20
41.37173150567919
 30
0.0
 10
61.41923124999998
 20
42.10460451286796
 30
0.0
 10
61.41923124999998
 20
42.80705040694879
 30
0.0
 10
61.41923124999998
 20
43.46956981223884
 30
0.0
 10
61.41923124999998
 20
44.08320329032294
 30
0.0
 10
61.41923124999998
 20
44.63965250108834
 30
0.0
 10
61.41923124999998
 20
45.13139242353908
 30
0.0
 10
61.41923124999998
 20
45.55177311879596
 30
0.0
 10
61.41923124999998
 20
45.8951096591119
 30
0.0
 10
61.41923124999998
 20
46.15675900676746
 30
0.0
 10
61.41923124999998
 20
46.33318280319082
 30
0.0
 10
61.41923124999998
 20
46.42199521918754
 30
0.0
 10
61.41923124999998
 20
46.433125
 30
0.0
 10
61.41923124999999
 20
46.43087872909627
 30
0.0
 10
61.41923124999998
 20
46.433125
 30
0.0
  0
LINE
  5
1A0
330
1F
100
AcDbEntity
  8
0
  6
CENTERX2
 62
     7
370
    18
100
AcDbLine
 10
82.0995345983
 20
39.854625
 30
0.0
 11
9.666497562
 21
39.854625
 31
0.0
  0
LINE
  5
1A1
330
1F
100
AcDbEntity
  8
0
  6
CENTERX2
 62
     7
370
    18
100
AcDbLine
 10
45.91923125
 20
72.7006009145
 30
0.0
 11
45.91923125
 21
13.3804412728
 31
0.0
  0
LINE
  5
1A2
330
1F
100
AcDbEntity
  8
0
  6
CENTERX2
 62
     7
370
    18
100
AcDbLine
 10
35.5754410087
 20
39.854625
 30
0.0
 11
56.2630214913
 21
39.854625
 31
0.0
  0
LINE
  5
1A3
330
1F
100
AcDbEntity
  8
0
  6
Continuous
 62
     7
370
    25
100
AcDbLine
 10
105.92275
 20
27.854625
 30
0.0
 11
106.2168503858
 21
18.4434126538
 31
0.0
  0
LINE
  5
1A4
330
1F
100
AcDbEntity
  8
0
  6
Continuous
 62
     7
370
    25
100
AcDbLine
 10
119.1287746142
 20
18.4434126538
 30
0.0
 11
119.422875
 21
27.854625
 31
0.0
  0
LINE
  5
1A5
330
1F
100
AcDbEntity
  8
0
  6
Continuous
 62
     7
370
    25
100
AcDbLine
 10
106.2168503858
 20
18.4434126538
 30
0.0
 11
107.4228125
 21
16.354625
 31
0.0
  0
LINE
  5
1A6
330
1F
100
AcDbEntity
  8
0
  6
Continuous
 62
     7
370
    25
100
AcDbLine
 10
117.9228125
 20
16.354625
 30
0.0
 11
119.1287746142
 21
18.4434126538
 31
0.0
  0
LINE
  5
1A7
330
1F
100
AcDbEntity
  8
0
  6
Continuous
 62
     7
370
    25
100
AcDbLine
 10
118.5728125
 20
46.3931536639
 30
0.0
 11
118.5728125
 21
50.354625
 31
0.0
  0
LINE
  5
1A8
330
1F
100
AcDbEntity
  8
0
  6
Continuous
 62
     7
370
    25
100
AcDbLine
 10
106.7728125
 20
50.354625
 30
0.0
 11
106.7728125
 21
46.3878512532
 31
0.0
  0
LINE
  5
1A9
330
1F
100
AcDbEntity
  8
0
  6
Continuous
 62
     7
370
    25
100
AcDbLine
 10
112.6716216727
 20
57.354625
 30
0.0
 11
112.6740033273
 21
57.354625
 31
0.0
  0
LINE
  5
1AA
330
1F
100
AcDbEntity
  8
0
  6
Continuous
 62
     7
370
    25
100
AcDbLine
 10
115.0291771444
 20
70.354625
 30
0.0
 11
110.3164478556
 21
70.354625
 31
0.0
  0
ARC
  5
1AB
330
1F
100
AcDbEntity
  8
0
  6
Continuous
 62
     7
370
    25
100
AcDbCircle
 10
86.7570174535
 20
66.2441856108
 30
0.0
 40
20.0
100
AcDbArc
 50
333.6100518522
 51
1.749051671
  0
ARC
  5
1AC
330
1F
100
AcDbEntity
  8
0
  6
Continuous
 62
     7
370
    25
100
AcDbCircle
 10
138.5886075465
 20
66.2441856108
 30
0.0
 40
19.99999999999999
100
AcDbArc
 50
178.250948329
 51
206.3899481478
  0
LINE
  5
1AD
330
1F
100
AcDbEntity
  8
0
  6
Continuous
 62
     7
370
    25
100
AcDbLine
 10
104.6728125118
 20
57.3546248349
 30
0.0
 11
105.1396427518
 21
50.819001475
 31
0.0
  0
LINE
  5
1AE
330
1F
100
AcDbEntity
  8
0
  6
Continuous
 62
     7
370
    25
100
AcDbLine
 10
120.2059822482
 20
50.819001475
 30
0.0
 11
120.6728124882
 21
57.3546248349
 31
0.0
  0
ARC
  5
1AF
330
1F
100
AcDbEntity
  8
0
  6
Continuous
 62
     7
370
    25
100
AcDbCircle
 10
119.7072528983
 20
50.854625
 30
0.0
 40
0.5
100
AcDbArc
 50
270.0
 51
355.91438322
  0
ARC
  5
1B0
330
1F
100
AcDbEntity
  8
0
  6
Continuous
 62
     7
370
    25
100
AcDbCircle
 10
105.6383721017
 20
50.854625
 30
0.0
 40
0.5000000000000105
100
AcDbArc
 50
184.08561678
 51
270.0
  0
LINE
  5
1B1
330
1F
100
AcDbEntity
  8
0
  6
Continuous
 62
     7
370
    25
100
AcDbLine
 10
118.5979256233
 20
66.854625
 30
0.0
 11
118.2569942838
 21
68.4585808454
 31
0.0
  0
LINE
  5
1B2
330
1F
100
AcDbEntity
  8
0
  6
Continuous
 62
     7
370
    25
100
AcDbLine
 10
107.0886307162
 20
68.4585808454
 30
0.0
 11
106.7476993767
 21
66.854625
 31
0.0
  0
ARC
  5
1B3
330
1F
100
AcDbEntity
  8
0
  6
Continuous
 62
     7
370
    25
100
AcDbCircle
 10
107.5777045166
 20
68.354625
 30
0.0
 40
0.5
100
AcDbArc
 50
90.0
 51
168.0
  0
ARC
  5
1B4
330
1F
100
AcDbEntity
  8
0
  6
Continuous
 62
     7
370
    25
100
AcDbCircle
 10
117.7679204834
 20
68.354625
 30
0.0
 40
0.5000000000000092
100
AcDbArc
 50
12.0
 51
90.0
  0
ARC
  5
1B5
330
1F
100
AcDbEntity
  8
0
  6
Continuous
 62
     7
370
    25
100
AcDbCircle
 10
112.6728125
 20
48.854625
 30
0.0
 40
20.5
100
AcDbArc
 50
99.3449833975
 51
102.6803834918
  0
ARC
  5
1B6
330
1F
100
AcDbEntity
  8
0
  6
Continuous
 62
     7
370
    25
100
AcDbCircle
 10
112.6728125
 20
48.854625
 30
0.0
 40
20.5
100
AcDbArc
 50
77.3196165082
 51
80.6550166025
  0
CIRCLE
  5
1B7
330
1F
100
AcDbEntity
  8
0
  6
Continuous
 62
     7
370
    25
100
AcDbCircle
 10
112.6728125
 20
39.854625
 30
0.0
 40
2.999999999999996
  0
CIRCLE
  5
1B8
330
1F
100
AcDbEntity
  8
0
  6
Continuous
 62
     7
370
    25
100
AcDbCircle
 10
112.6728125
 20
39.854625
 30
0.0
 40
4.049999999999994
  0
SPLINE
  5
1B9
330
1F
100
AcDbEntity
  8
0
  6
Continuous
 62
     7
370
    25
100
AcDbSpline
210
0.0
220
0.0
230
1.0
 70
    24
 71
     3
 72
    14
 73
    10
 74
     0
 42
0.00000001
 43
0.00000001
 40
0.0
 40
0.0
 40
0.0
 40
0.0
 40
0.1120237311809921
 40
0.2377726069116395
 40
0.3634889491830571
 40
0.4922970128128267
 40
0.6211033992438478
 40
0.8095153688397871
 40
1.0
 40
1.0
 40
1.0
 40
1.0
 10
121.1728125000001
 20
34.94714771188826
 30
0.0
 10
121.1728125000001
 20
35.30589829122513
 30
0.0
 10
121.1728125000001
 20
36.06735356128902
 30
0.0
 10
121.1728125
 20
37.25141477715232
 30
0.0
 10
121.1728125
 20
38.5041771734704
 30
0.0
 10
121.1728125
 20
39.77740751922364
 30
0.0
 10
121.1728125
 20
41.25886528570484
 30
0.0
 10
121.1728125
 20
42.93362255407956
 30
0.0
 10
121.1728125
 20
44.15039036612107
 30
0.0
 10
121.1728125
 20
44.76210228811193
 30
0.0
  0
SPLINE
  5
1BA
330
1F
100
AcDbEntity
  8
0
  6
Continuous
 62
     7
370
    25
100
AcDbSpline
210
0.0
220
0.0
230
1.0
 70
    24
 71
     3
 72
    13
 73
     9
 74
     0
 42
0.00000001
 43
0.00000001
 40
0.0
 40
0.0
 40
0.0
 40
0.0
 40
0.1323374700420661
 40
0.2646375235775793
 40
0.3998971812287823
 40
0.535132430788464
 40
0.7654363136792478
 40
1.0
 40
1.0
 40
1.0
 40
1.0
 10
112.6728125000001
 20
30.03967042377636
 30
0.0
 10
113.0400485532446
 20
30.25169425797321
 30
0.0
 10
113.7744168290484
 20
30.67568197969285
 30
0.0
 10
114.9052383165211
 20
31.32856206989067
 30
0.0
 10
116.0575414577172
 20
31.9938445986483
 30
0.0
 10
117.4986898908086
 20
32.82589203443583
 30
0.0
 10
119.2246367111189
 20
33.82236789574898
 30
0.0
 10
120.5194655255457
 20
34.56993766031282
 30
0.0
 10
121.1728125000001
 20
34.94714771188826
 30
0.0
  0
SPLINE
  5
1BB
330
1F
100
AcDbEntity
  8
0
  6
Continuous
 62
     7
370
    25
100
AcDbSpline
210
0.0
220
0.0
230
1.0
 70
    24
 71
     3
 72
    13
 73
     9
 74
     0
 42
0.00000001
 43
0.00000001
 40
0.0
 40
0.0
 40
0.0
 40
0.0
 40
0.1323374700420661
 40
0.2646375235775793
 40
0.3998971812287824
 40
0.5351324307884638
 40
0.7654363136792477
 40
1.0
 40
1.0
 40
1.0
 40
1.0
 10
104.1728125
 20
34.94714771188814
 30
0.0
 10
104.5400485532445
 20
34.7351238776913
 30
0.0
 10
105.2744168290483
 20
34.31113615597167
 30
0.0
 10
106.4052383165211
 20
33.65825606577386
 30
0.0
 10
107.5575414577172
 20
32.99297353701626
 30
0.0
 10
108.9986898908086
 20
32.16092610122874
 30
0.0
 10
110.7246367111189
 20
31.16445023991561
 30
0.0
 10
112.0194655255458
 20
30.41688047535179
 30
0.0
 10
112.6728125000001
 20
30.03967042377636
 30
0.0
  0
SPLINE
  5
1BC
330
1F
100
AcDbEntity
  8
0
  6
Continuous
 62
     7
370
    25
100
AcDbSpline
210
0.0
220
0.0
230
1.0
 70
    24
 71
     3
 72
    14
 73
    10
 74
     0
 42
0.00000001
 43
0.00000001
 40
0.0
 40
0.0
 40
0.0
 40
0.0
 40
0.188576279986008
 40
0.3788955565835289
 40
0.5044823954484107
 40
0.6300701228213248
 40
0.7590052913537331
 40
0.887976329628691
 40
1.0
 40
1.0
 40
1.0
 40
1.0
 10
104.1728125
 20
44.76210228811181
 30
0.0
 10
104.1728125
 20
44.15656389557636
 30
0.0
 10
104.1728125
 20
42.93989016392018
 30
0.0
 10
104.1728125
 20
41.27580561253484
 30
0.0
 10
104.1728125
 20
39.80955307824646
 30
0.0
 10
104.1728125
 20
38.54691255785298
 30
0.0
 10
104.1728125
 20
37.28297394736742
 30
0.0
 10
104.1728125
 20
36.07767635743841
 30
0.0
 10
104.1728125
 20
35.30589948194299
 30
0.0
 10
104.1728125
 20
34.94714771188814
 30
0.0
  0
SPLINE
  5
1BD
330
1F
100
AcDbEntity
  8
0
  6
Continuous
 62
     7
370
    25
100
AcDbSpline
210
0.0
220
0.0
230
1.0
 70
    24
 71
     3
 72
    13
 73
     9
 74
     0
 42
0.00000001
 43
0.00000001
 40
0.0
 40
0.0
 40
0.0
 40
0.0
 40
0.1323374700420661
 40
0.2646375235775794
 40
0.3998971812287823
 40
0.535132430788464
 40
0.7654363136792478
 40
1.0
 40
1.0
 40
1.0
 40
1.0
 10
112.6728125
 20
49.66957957622365
 30
0.0
 10
112.3055764467555
 20
49.45755574202681
 30
0.0
 10
111.5712081709517
 20
49.03356802030717
 30
0.0
 10
110.440386683479
 20
48.38068793010935
 30
0.0
 10
109.2880835422829
 20
47.71540540135175
 30
0.0
 10
107.8469351091915
 20
46.88335796556422
 30
0.0
 10
106.1209882888812
 20
45.88688210425109
 30
0.0
 10
104.8261594744543
 20
45.13931233968724
 30
0.0
 10
104.1728125
 20
44.76210228811181
 30
0.0
  0
SPLINE
  5
1BE
330
1F
100
AcDbEntity
  8
0
  6
Continuous
 62
     7
370
    25
100
AcDbSpline
210
0.0
220
0.0
230
1.0
 70
    24
 71
     3
 72
    13
 73
     9
 74
     0
 42
0.00000001
 43
0.00000001
 40
0.0
 40
0.0
 40
0.0
 40
0.0
 40
0.1323374700420676
 40
0.2646375235775826
 40
0.3998971812287874
 40
0.5351324307884706
 40
0.7654363136792514
 40
1.0
 40
1.0
 40
1.0
 40
1.0
 10
121.1728125
 20
44.76210228811193
 30
0.0
 10
120.8055764467555
 20
44.97412612230877
 30
0.0
 10
120.0712081709517
 20
45.39811384402841
 30
0.0
 10
118.9403866834789
 20
46.05099393422621
 30
0.0
 10
117.7880835422828
 20
46.71627646298382
 30
0.0
 10
116.3469351091914
 20
47.54832389877132
 30
0.0
 10
114.6209882888812
 20
48.54479976008444
 30
0.0
 10
113.3261594744543
 20
49.29236952464824
 30
0.0
 10
112.6728125
 20
49.66957957622365
 30
0.0
  0
CIRCLE
  5
1BF
330
1F
100
AcDbEntity
  8
0
  6
Continuous
 62
     7
370
    25
100
AcDbCircle
 10
112.6728125
 20
39.854625
 30
0.0
 40
8.250000000000014
  0
CIRCLE
  5
1C0
330
1F
100
AcDbEntity
  8
0
  6
Continuous
 62
     7
370
    25
100
AcDbCircle
 10
112.6728125
 20
39.854625
 30
0.0
 40
4.174999999999997
  0
CIRCLE
  5
1C1
330
1F
100
AcDbEntity
  8
0
  6
Continuous
 62
     7
370
    25
100
AcDbCircle
 10
112.6728125
 20
39.854625
 30
0.0
 40
4.075000000000003
  0
LINE
  5
1C2
330
1F
100
AcDbEntity
  8
0
  6
Continuous
 62
     7
370
    25
100
AcDbLine
 10
112.4228125
 20
27.854625
 30
0.0
 11
112.4228125
 21
30.1840079911
 31
0.0
  0
LINE
  5
1C3
330
1F
100
AcDbEntity
  8
0
  6
Continuous
 62
     7
370
    25
100
AcDbLine
 10
112.9228125
 20
30.1840079911
 30
0.0
 11
112.9228125
 21
27.854625
 31
0.0
  0
LINE
  5
1C4
330
1F
100
AcDbEntity
  8
0
  6
Continuous
 62
     7
370
    25
100
AcDbLine
 10
112.9228125
 20
27.854625
 30
0.0
 11
112.4228125
 21
27.854625
 31
0.0
  0
SPLINE
  5
1C5
330
1F
100
AcDbEntity
  8
0
  6
Continuous
 62
     7
370
    25
100
AcDbSpline
210
0.0
220
0.0
230
1.0
 70
     8
 71
     3
 72
    10
 73
     6
 74
     0
 42
0.00000001
 43
0.00000001
 40
0.0
 40
0.0
 40
0.0
 40
0.0
 40
0.5
 40
0.5
 40
1.0
 40
1.0
 40
1.0
 40
1.0
 10
104.4228125000005
 20
31.88822846014516
 30
0.0
 10
105.0576402058141
 20
32.09029514569608
 30
0.0
 10
105.6969059083899
 20
32.25668791796673
 30
0.0
 10
106.9877208399798
 20
32.49073489183678
 30
0.0
 10
107.6393404754496
 20
32.55782314579561
 30
0.0
 10
108.2983824072697
 20
32.56524881536539
 30
0.0
  0
LINE
  5
1C6
330
1F
100
AcDbEntity
  8
0
  6
Continuous
 62
     7
370
    25
100
AcDbLine
 10
104.4228125
 20
31.8882284601
 30
0.0
 11
104.4228125
 21
27.854625
 31
0.0
  0
LINE
  5
1C7
330
1F
100
AcDbEntity
  8
0
  6
Continuous
 62
     7
370
    25
100
AcDbLine
 10
104.4228125
 20
27.854625
 30
0.0
 11
112.4228125
 21
27.854625
 31
0.0
  0
SPLINE
  5
1C8
330
1F
100
AcDbEntity
  8
0
  6
Continuous
 62
     7
370
    25
100
AcDbSpline
210
0.0
220
0.0
230
1.0
 70
     8
 71
     3
 72
    12
 73
     8
 74
     0
 42
0.00000001
 43
0.00000001
 40
0.0
 40
0.0
 40
0.0
 40
0.0
 40
0.2500000000000002
 40
0.2500000000000002
 40
0.5000000000000004
 40
0.5000000000000004
 40
1.0
 40
1.0
 40
1.0
 40
1.0
 10
117.0472425927524
 20
32.56524881536514
 30
0.0
 10
117.3763775831455
 20
32.56154032950872
 30
0.0
 10
117.7058397360823
 20
32.54295782667104
 30
0.0
 10
118.3587133541399
 20
32.47809078970489
 30
0.0
 10
118.683165946017
 20
32.43182523645462
 30
0.0
 10
119.6512263872091
 20
32.25610070614766
 30
0.0
 10
120.289548871457
 20
32.08979729737091
 30
0.0
 10
120.9228125
 20
31.88822846014501
 30
0.0
  0
LINE
  5
1C9
330
1F
100
AcDbEntity
  8
0
  6
Continuous
 62
     7
370
    25
100
AcDbLine
 10
120.9228125
 20
27.854625
 30
0.0
 11
120.9228125
 21
31.8882284601
 31
0.0
  0
LINE
  5
1CA
330
1F
100
AcDbEntity
  8
0
  6
Continuous
 62
     7
370
    25
100
AcDbLine
 10
112.9228125
 20
27.854625
 30
0.0
 11
120.9228125
 21
27.854625
 31
0.0
  0
SPLINE
  5
1CB
330
1F
100
AcDbEntity
  8
0
  6
Continuous
 62
     7
370
    25
100
AcDbSpline
210
0.0
220
0.0
230
1.0
 70
     8
 71
     3
 72
     8
 73
     4
 74
     0
 42
0.00000001
 43
0.00000001
 40
0.0
 40
0.0
 40
0.0
 40
0.0
 40
1.0
 40
1.0
 40
1.0
 40
1.0
 10
105.7446092697245
 20
32.85462500000001
 30
0.0
 10
105.2181884085153
 20
32.5914145693954
 30
0.0
 10
104.6946439518016
 20
32.3223171410087
 30
0.0
 10
104.1728125
 20
32.04971378842604
 30
0.0
  0
SPLINE
  5
1CC
330
1F
100
AcDbEntity
  8
0
  6
Continuous
 62
     7
370
    25
100
AcDbSpline
210
0.0
220
0.0
230
1.0
 70
     8
 71
     3
 72
    10
 73
     6
 74
     0
 42
0.00000001
 43
0.00000001
 40
0.0
 40
0.0
 40
0.0
 40
0.0
 40
0.5
 40
0.5
 40
1.0
 40
1.0
 40
1.0
 40
1.0
 10
104.1728125
 20
31.88822846014495
 30
0.0
 10
104.1728125
 20
31.86455306572053
 30
0.0
 10
104.1956049493299
 20
31.85146195583595
 30
0.0
 10
104.2835476534231
 20
31.85137563454773
 30
0.0
 10
104.3484054270973
 20
31.86454456849167
 30
0.0
 10
104.4228125000007
 20
31.88822846014522
 30
0.0
  0
SPLINE
  5
1CD
330
1F
100
AcDbEntity
  8
0
  6
Continuous
 62
     7
370
    25
100
AcDbSpline
210
0.0
220
0.0
230
1.0
 70
    24
 71
     3
 72
     8
 73
     4
 74
     0
 42
0.00000001
 43
0.00000001
 40
0.0
 40
0.0
 40
0.0
 40
0.0
 40
1.0
 40
1.0
 40
1.0
 40
1.0
 10
104.1728125
 20
31.88822846014501
 30
0.0
 10
104.1728125
 20
31.94478942726923
 30
0.0
 10
104.1728125
 20
31.99872949868306
 30
0.0
 10
104.1728125
 20
32.04971378842603
 30
0.0
  0
SPLINE
  5
1CE
330
1F
100
AcDbEntity
  8
0
  6
Continuous
 62
     7
370
    25
100
AcDbSpline
210
0.0
220
0.0
230
1.0
 70
     8
 71
     3
 72
     8
 73
     4
 74
     0
 42
0.00000001
 43
0.00000001
 40
0.0
 40
0.0
 40
0.0
 40
0.0
 40
1.0
 40
1.0
 40
1.0
 40
1.0
 10
121.1728125
 20
32.04971378842603
 30
0.0
 10
120.6510063486982
 20
32.32230392409537
 30
0.0
 10
120.127352879842
 20
32.59145642521677
 30
0.0
 10
119.6010157302755
 20
32.85462500000001
 30
0.0
  0
SPLINE
  5
1CF
330
1F
100
AcDbEntity
  8
0
  6
Continuous
 62
     7
370
    25
100
AcDbSpline
210
0.0
220
0.0
230
1.0
 70
     8
 71
     3
 72
    10
 73
     6
 74
     0
 42
0.00000001
 43
0.00000001
 40
0.0
 40
0.0
 40
0.0
 40
0.0
 40
0.5
 40
0.5
 40
1.0
 40
1.0
 40
1.0
 40
1.0
 10
120.9228125
 20
31.88822846014501
 30
0.0
 10
120.9971928773773
 20
31.86455306572062
 30
0.0
 10
121.0614935161631
 20
31.85146195583598
 30
0.0
 10
121.149709200946
 20
31.85137563454769
 30
0.0
 10
121.1728125
 20
31.86454456849153
 30
0.0
 10
121.1728125
 20
31.888228460145
 30
0.0
  0
SPLINE
  5
1D0
330
1F
100
AcDbEntity
  8
0
  6
Continuous
 62
     7
370
    25
100
AcDbSpline
210
0.0
220
0.0
230
1.0
 70
    24
 71
     3
 72
     8
 73
     4
 74
     0
 42
0.00000001
 43
0.00000001
 40
0.0
 40
0.0
 40
0.0
 40
0.0
 40
1.0
 40
1.0
 40
1.0
 40
1.0
 10
121.1728125
 20
31.88822846014501
 30
0.0
 10
121.1728125
 20
31.94478942726923
 30
0.0
 10
121.1728125
 20
31.99872949868306
 30
0.0
 10
121.1728125
 20
32.04971378842603
 30
0.0
  0
LINE
  5
1D1
330
1F
100
AcDbEntity
  8
0
  6
Continuous
 62
     7
370
    25
100
AcDbLine
 10
105.1728125
 20
34.3697974427
 30
0.0
 11
105.1728125
 21
32.854625
 31
0.0
  0
LINE
  5
1D2
330
1F
100
AcDbEntity
  8
0
  6
Continuous
 62
     7
370
    25
100
AcDbLine
 10
105.1728125
 20
32.854625
 30
0.0
 11
107.797168153
 21
32.854625
 31
0.0
  0
LINE
  5
1D3
330
1F
100
AcDbEntity
  8
0
  6
Continuous
 62
     7
370
    25
100
AcDbLine
 10
120.1728125
 20
32.854625
 30
0.0
 11
120.1728125
 21
34.3697974427
 31
0.0
  0
LINE
  5
1D4
330
1F
100
AcDbEntity
  8
0
  6
Continuous
 62
     7
370
    25
100
AcDbLine
 10
117.548456847
 20
32.854625
 30
0.0
 11
120.1728125
 21
32.854625
 31
0.0
  0
LINE
  5
1D5
330
1F
100
AcDbEntity
  8
0
  6
Continuous
 62
     7
370
    25
100
AcDbLine
 10
106.2168503858
 20
18.4434126538
 30
0.0
 11
119.1287746142
 21
18.4434126538
 31
0.0
  0
LINE
  5
1D6
330
1F
100
AcDbEntity
  8
0
  6
Continuous
 62
     7
370
    25
100
AcDbLine
 10
112.6728125
 20
16.354625
 30
0.0
 11
107.4228125
 21
16.354625
 31
0.0
  0
LINE
  5
1D7
330
1F
100
AcDbEntity
  8
0
  6
Continuous
 62
     7
370
    25
100
AcDbLine
 10
117.9228125
 20
16.354625
 30
0.0
 11
112.6728125
 21
16.354625
 31
0.0
  0
LINE
  5
1D8
330
1F
100
AcDbEntity
  8
0
  6
Continuous
 62
     7
370
    25
100
AcDbLine
 10
104.4228125
 20
27.854625
 30
0.0
 11
104.1728125
 21
27.854625
 31
0.0
  0
LINE
  5
1D9
330
1F
100
AcDbEntity
  8
0
  6
Continuous
 62
     7
370
    25
100
AcDbLine
 10
104.1728125
 20
27.854625
 30
0.0
 11
104.1728125
 21
31.8882284601
 31
0.0
  0
LINE
  5
1DA
330
1F
100
AcDbEntity
  8
0
  6
Continuous
 62
     7
370
    25
100
AcDbLine
 10
121.1728125
 20
27.854625
 30
0.0
 11
120.9228125
 21
27.854625
 31
0.0
  0
LINE
  5
1DB
330
1F
100
AcDbEntity
  8
0
  6
Continuous
 62
     7
370
    25
100
AcDbLine
 10
121.1728125
 20
31.8882284601
 30
0.0
 11
121.1728125
 21
27.854625
 31
0.0
  0
LINE
  5
1DC
330
1F
100
AcDbEntity
  8
0
  6
Continuous
 62
     7
370
    25
100
AcDbLine
 10
104.1728125
 20
32.0497137884
 30
0.0
 11
104.1728125
 21
34.8976823045
 31
0.0
  0
LINE
  5
1DD
330
1F
100
AcDbEntity
  8
0
  6
Continuous
 62
     7
370
    25
100
AcDbLine
 10
121.1728125
 20
32.0497137884
 30
0.0
 11
121.1728125
 21
34.8976823045
 31
0.0
  0
SPLINE
  5
1DE
330
1F
100
AcDbEntity
  8
0
  6
Continuous
 62
     7
370
    25
100
AcDbSpline
210
0.0
220
0.0
230
1.0
 70
     8
 71
     3
 72
    11
 73
     7
 74
     0
 42
0.00000001
 43
0.00000001
 40
0.0
 40
0.0
 40
0.0
 40
0.0
 40
0.0055682347466184
 40
0.1918263368321039
 40
0.6296575784328784
 40
1.0
 40
1.0
 40
1.0
 40
1.0
 10
110.316447855565
 20
70.354625
 30
0.0
 10
110.3150636374891
 20
70.35462098092641
 30
0.0
 10
110.2673771632378
 20
70.35448252337247
 30
0.0
 10
110.1134069803994
 20
70.32824374731914
 30
0.0
 10
109.8678319056348
 20
70.17417078389776
 30
0.0
 10
109.8356601198246
 20
69.87691143013885
 30
0.0
 10
109.8209175247536
 20
69.74069349342334
 30
0.0
  0
SPLINE
  5
1DF
330
1F
100
AcDbEntity
  8
0
  6
Continuous
 62
     7
370
    25
100
AcDbSpline
210
0.0
220
0.0
230
1.0
 70
     8
 71
     3
 72
    11
 73
     7
 74
     0
 42
0.00000001
 43
0.00000001
 40
0.0
 40
0.0
 40
0.0
 40
0.0
 40
0.3703424215671234
 40
0.8081736631678964
 40
0.9944317652533821
 40
1.0
 40
1.0
 40
1.0
 40
1.0
 10
115.5247074752465
 20
69.74069349342334
 30
0.0
 10
115.5099648801754
 20
69.87691143013885
 30
0.0
 10
115.4777930943651
 20
70.17417078389774
 30
0.0
 10
115.232218019601
 20
70.32824374731919
 30
0.0
 10
115.0782478367619
 20
70.35448252337243
 30
0.0
 10
115.0305613625109
 20
70.35462098092641
 30
0.0
 10
115.029177144435
 20
70.354625
 30
0.0
  0
LINE
  5
1E0
330
1F
100
AcDbEntity
  8
0
  6
Continuous
 62
     7
370
    25
100
AcDbLine
 10
114.1605943198
 20
58.7628304803
 30
0.0
 11
115.5247074752
 21
69.7406934934
 31
0.0
  0
SPLINE
  5
1E1
330
1F
100
AcDbEntity
  8
0
  6
Continuous
 62
     7
370
    25
100
AcDbSpline
210
0.0
220
0.0
230
1.0
 70
     8
 71
     3
 72
    14
 73
    10
 74
     0
 42
0.00000001
 43
0.00000001
 40
0.0
 40
0.0
 40
0.0
 40
0.0
 40
0.0034863238848208
 40
0.0203208804397725
 40
0.2238597133569324
 40
0.4563556157495303
 40
0.6945924899112474
 40
0.845724996562609
 40
1.0
 40
1.0
 40
1.0
 40
1.0
 10
112.6740033273316
 20
57.35462500000001
 30
0.0
 10
112.6762559687324
 20
57.35462850634892
 30
0.0
 10
112.6893860329753
 20
57.35464894395012
 30
0.0
 10
112.8340222162316
 20
57.35710948670335
 30
0.0
 10
113.1260414754175
 20
57.40715275151111
 30
0.0
 10
113.5374258889558
 20
57.61575538870094
 30
0.0
 10
113.8593831187403
 20
57.9501317038297
 30
0.0
 10
114.0758110824515
 20
58.34233329440098
 30
0.0
 10
114.1321400413384
 20
58.62170654606216
 30
0.0
 10
114.1605943197659
 20
58.76283048027
 30
0.0
  0
SPLINE
  5
1E2
330
1F
100
AcDbEntity
  8
0
  6
Continuous
 62
     7
370
    25
100
AcDbSpline
210
0.0
220
0.0
230
1.0
 70
     8
 71
     3
 72
    14
 73
    10
 74
     0
 42
0.00000001
 43
0.00000001
 40
0.0
 40
0.0
 40
0.0
 40
0.0
 40
0.1509076573000542
 40
0.3054080403738433
 40
0.5376023347316409
 40
0.7761416404828171
 40
0.9796792424551188
 40
0.9965136971994736
 40
1.0
 40
1.0
 40
1.0
 40
1.0
 10
111.1850306802342
 20
58.76283048027
 30
0.0
 10
111.2126798180036
 20
58.62467109830637
 30
0.0
 10
111.2686363488732
 20
58.3450631124712
 30
0.0
 10
111.4821104460805
 20
57.95629400245566
 30
0.0
 10
111.804554512998
 20
57.61831160291626
 30
0.0
 10
112.215702332236
 20
57.40781392961293
 30
0.0
 10
112.5116024768297
 20
57.35710961196791
 30
0.0
 10
112.6562389690173
 20
57.35464894313684
 30
0.0
 10
112.6693690315595
 20
57.35462850622983
 30
0.0
 10
112.6716216726685
 20
57.35462500000001
 30
0.0
  0
LINE
  5
1E3
330
1F
100
AcDbEntity
  8
0
  6
Continuous
 62
     7
370
    25
100
AcDbLine
 10
109.8209175248
 20
69.7406934934
 30
0.0
 11
111.1850306802
 21
58.7628304803
 31
0.0
  0
LINE
  5
1E4
330
1F
100
AcDbEntity
  8
0
  6
Continuous
 62
     7
370
    25
100
AcDbLine
 10
110.6895003494
 20
59.0878009757
 30
0.0
 11
109.3253871939
 21
69.2212129879
 31
0.0
  0
ARC
  5
1E5
330
1F
100
AcDbEntity
  8
0
  6
Continuous
 62
     7
370
    25
100
AcDbCircle
 10
109.8083541784
 20
69.2565951869
 30
0.0
 40
0.4842613014163063
100
AcDbArc
 50
88.5133904064
 51
184.1900080067
  0
ARC
  5
1E6
330
1F
100
AcDbEntity
  8
0
  6
Continuous
 62
     7
370
    25
100
AcDbCircle
 10
111.117214237
 20
59.1997100225
 30
0.0
 40
0.4421117555840835
100
AcDbArc
 50
194.6624451414
 51
278.823554246
  0
LINE
  5
1E7
330
1F
100
AcDbEntity
  8
0
  6
Continuous
 62
     7
370
    25
100
AcDbLine
 10
116.0202378061
 20
69.2212129879
 30
0.0
 11
114.6561246506
 21
59.0878009757
 31
0.0
  0
ARC
  5
1E8
330
1F
100
AcDbEntity
  8
0
  6
Continuous
 62
     7
370
    25
100
AcDbCircle
 10
114.228410763
 20
59.1997100225
 30
0.0
 40
0.4421117555841044
100
AcDbArc
 50
261.1764457541
 51
345.3375548586
  0
ARC
  5
1E9
330
1F
100
AcDbEntity
  8
0
  6
Continuous
 62
     7
370
    25
100
AcDbCircle
 10
115.5372708216
 20
69.2565951869
 30
0.0
 40
0.4842613014163435
100
AcDbArc
 50
355.8099919933
 51
91.4866095936
  0
SPLINE
  5
1EA
330
1F
100
AcDbEntity
  8
0
  6
Continuous
 62
     7
370
    25
100
AcDbSpline
210
0.0
220
0.0
230
1.0
 70
     8
 71
     3
 72
    15
 73
    11
 74
     0
 42
0.00000001
 43
0.00000001
 40
0.0
 40
0.0
 40
0.0
 40
0.0
 40
0.0032941481656695
 40
0.0389555300109693
 40
0.092316493658448
 40
0.2214838269818534
 40
0.4557558860746482
 40
0.6896123828215218
 40
0.8449486292273385
 40
1.0
 40
1.0
 40
1.0
 40
1.0
 10
112.6716216726685
 20
57.35462500000001
 30
0.0
 10
112.6687512614147
 20
57.35462902405423
 30
0.0
 10
112.6348067069756
 20
57.35467661121711
 30
0.0
 10
112.5543695527166
 20
57.35693233025479
 30
0.0
 10
112.3646310392787
 20
57.37322895991062
 30
0.0
 10
112.0059760656941
 20
57.44771123570634
 30
0.0
 10
111.5151432475433
 20
57.68017087731332
 30
0.0
 10
111.085104450598
 20
58.09469344296245
 30
0.0
 10
110.7999184839918
 20
58.57763195781797
 30
0.0
 10
110.7262838668467
 20
58.91784872075181
 30
0.0
 10
110.6895003494227
 20
59.08780097571692
 30
0.0
  0
SPLINE
  5
1EB
330
1F
100
AcDbEntity
  8
0
  6
Continuous
 62
     7
370
    25
100
AcDbSpline
210
0.0
220
0.0
230
1.0
 70
     8
 71
     3
 72
    15
 73
    11
 74
     0
 42
0.00000001
 43
0.00000001
 40
0.0
 40
0.0
 40
0.0
 40
0.0
 40
0.1525119975281636
 40
0.3103908680493853
 40
0.5397217434700959
 40
0.7785238912153802
 40
0.9076867233570571
 40
0.9610458274988164
 40
0.9967059666277488
 40
1.0
 40
1.0
 40
1.0
 40
1.0
 10
114.6561246505773
 20
59.08780097571692
 30
0.0
 10
114.6201564957094
 20
58.920365058227
 30
0.0
 10
114.5469544723111
 20
58.57960117987871
 30
0.0
 10
114.2646464488398
 20
58.10076699585976
 30
0.0
 10
113.8338166291569
 20
57.6815679258615
 30
0.0
 10
113.3435970674404
 20
57.44866463964318
 30
0.0
 10
112.9809907688165
 20
57.37321835321215
 30
0.0
 10
112.7912558055059
 20
57.35693352062496
 30
0.0
 10
112.7108182882038
 20
57.3546765952031
 30
0.0
 10
112.6768737382095
 20
57.35462902280565
 30
0.0
 10
112.6740033273316
 20
57.35462500000001
 30
0.0
  0
SPLINE
  5
1EC
330
1F
100
AcDbEntity
  8
0
  6
Continuous
 62
     7
370
    25
100
AcDbSpline
210
0.0
220
0.0
230
1.0
 70
     8
 71
     3
 72
    17
 73
    13
 74
     0
 42
0.00000001
 43
0.00000001
 40
0.0
 40
0.0
 40
0.0
 40
0.0
 40
0.164398525155122
 40
0.3825210752049383
 40
0.7105911790613387
 40
0.8150577891621212
 40
0.8799902898774311
 40
0.9216743917957981
 40
0.948759549159293
 40
0.9664454853042714
 40
0.9948962613988914
 40
0.9999999999999999
 40
0.9999999999999999
 40
0.9999999999999999
 40
0.9999999999999999
 10
109.3253871939421
 20
69.22121298785846
 30
0.0
 10
109.322171873566
 20
69.3332174986717
 30
0.0
 10
109.3146904937529
 20
69.593828631671
 30
0.0
 10
109.4980477087704
 20
69.98676722015703
 30
0.0
 10
109.7740458436449
 20
70.21946780053715
 30
0.0
 10
110.0159108476972
 20
70.31142123877268
 30
0.0
 10
110.1215325158813
 20
70.33660792691498
 30
0.0
 10
110.1892295787118
 20
70.34697336289092
 30
0.0
 10
110.233216428035
 20
70.35135658803883
 30
0.0
 10
110.2705470523463
 20
70.3537789447168
 30
0.0
 10
110.2967083108475
 20
70.35457582464907
 30
0.0
 10
110.3138418020641
 20
70.3546185077735
 30
0.0
 10
110.316447855565
 20
70.354625
 30
0.0
  0
SPLINE
  5
1ED
330
1F
100
AcDbEntity
  8
0
  6
Continuous
 62
     7
370
    25
100
AcDbSpline
210
0.0
220
0.0
230
1.0
 70
     8
 71
     3
 72
    17
 73
    13
 74
     0
 42
0.00000001
 43
0.00000001
 40
0.0
 40
0.0
 40
0.0
 40
0.0
 40
0.0051037386011219
 40
0.0335545146957463
 40
0.0512404508406915
 40
0.0783256082042153
 40
0.1200097101225738
 40
0.184942210837869
 40
0.2894088209386605
 40
0.6174789247950602
 40
0.8356014748448779
 40
1.0
 40
1.0
 40
1.0
 40
1.0
 10
115.029177144435
 20
70.354625
 30
0.0
 10
115.031783197936
 20
70.3546185077735
 30
0.0
 10
115.048916689153
 20
70.35457582464906
 30
0.0
 10
115.0750779476537
 20
70.35377894471678
 30
0.0
 10
115.1124085719651
 20
70.35135658803883
 30
0.0
 10
115.1563954212883
 20
70.3469733628909
 30
0.0
 10
115.2240924841188
 20
70.336607926915
 30
0.0
 10
115.3297141523028
 20
70.31142123877267
 30
0.0
 10
115.5715791563551
 20
70.21946780053719
 30
0.0
 10
115.8475772912296
 20
69.986767220157
 30
0.0
 10
116.0309345062472
 20
69.59382863167099
 30
0.0
 10
116.023453126434
 20
69.33321749867171
 30
0.0
 10
116.0202378060579
 20
69.22121298785846
 30
0.0
  0
LWPOLYLINE
  5
1EE
330
1F
100
AcDbEntity
  8
0
  6
Continuous
 62
     7
370
    25
100
AcDbPolyline
 90
       15
 70
   128
 43
0.0
 10
112.6716216728
 20
57.3546248349
 10
111.7759978808
 20
57.354624836
 10
110.8916499179
 20
57.3546248391
 10
110.0296968673
 20
57.3546248442
 10
109.2009762367
 20
57.3546248513
 10
108.4159076958
 20
57.3546248602
 10
107.6843620679
 20
57.3546248709
 10
107.0155372222
 20
57.3546248833
 10
106.4178424267
 20
57.3546248971
 10
105.8987926174
 20
57.3546249122
 10
105.464913911
 20
57.3546249284
 10
105.121661551
 20
57.3546249455
 10
104.8733513177
 20
57.3546249632
 10
104.7231052654
 20
57.3546249815
 10
104.6728124675
 20
57.354625
  0
LINE
  5
1EF
330
1F
100
AcDbEntity
  8
0
  6
Continuous
 62
     7
370
    25
100
AcDbLine
 10
109.6439663462
 20
66.854625
 30
0.0
 11
106.7476993767
 21
66.854625
 31
0.0
  0
LINE
  5
1F0
330
1F
100
AcDbEntity
  8
0
  6
Continuous
 62
     7
370
    25
100
AcDbLine
 10
118.5979256233
 20
66.854625
 30
0.0
 11
115.7016586538
 21
66.854625
 31
0.0
  0
LWPOLYLINE
  5
1F1
330
1F
100
AcDbEntity
  8
0
  6
Continuous
 62
     7
370
    25
100
AcDbPolyline
 90
       15
 70
   128
 43
0.0
 10
120.6728125325
 20
57.354625
 10
120.6225197346
 20
57.3546250185
 10
120.4722736823
 20
57.3546250367
 10
120.223963449
 20
57.3546250545
 10
119.880711089
 20
57.3546250716
 10
119.4468323826
 20
57.3546250878
 10
118.9277825733
 20
57.3546251029
 10
118.3300877778
 20
57.3546251167
 10
117.6612629321
 20
57.354625129
 10
116.9297173042
 20
57.3546251397
 10
116.1446487633
 20
57.3546251487
 10
115.3159281327
 20
57.3546251558
 10
114.4539750821
 20
57.3546251609
 10
113.5696271192
 20
57.354625164
 10
112.6740033272
 20
57.3546248349
  0
LINE
  5
1F2
330
1F
100
AcDbEntity
  8
0
  6
Continuous
 62
     7
370
    25
100
AcDbLine
 10
105.6383721017
 20
50.354625
 30
0.0
 11
119.7072528983
 21
50.354625
 31
0.0
  0
LINE
  5
1F3
330
1F
100
AcDbEntity
  8
0
  6
Continuous
 62
     7
370
    25
100
AcDbLine
 10
107.5777045867
 20
68.854625
 30
0.0
 11
109.3747355769
 21
68.854625
 31
0.0
  0
LINE
  5
1F4
330
1F
100
AcDbEntity
  8
0
  6
Continuous
 62
     7
370
    25
100
AcDbLine
 10
115.9708894231
 20
68.854625
 30
0.0
 11
117.7679204834
 21
68.854625
 31
0.0
  0
SPLINE
  5
1F5
330
1F
100
AcDbEntity
  8
0
  6
Continuous
 62
     7
370
    25
100
AcDbSpline
210
0.0
220
0.0
230
1.0
 70
     8
 71
     3
 72
    18
 73
    14
 74
     0
 42
0.00000001
 43
0.00000001
 40
0.0
 40
0.0
 40
0.0
 40
0.0
 40
0.0468433574341614
 40
0.1374654925211244
 40
0.2589158218480166
 40
0.3805798164716538
 40
0.3960777733069289
 40
0.5262782938820595
 40
0.6564771557433886
 40
0.7574533625187448
 40
0.858226439538851
 40
0.9375410409982443
 40
1.0
 40
1.0
 40
1.0
 40
1.0
 10
113.2872702869867
 20
49.31482220750132
 30
0.0
 10
113.4299185167946
 20
49.30415209945353
 30
0.0
 10
113.848530893061
 20
49.27283983367277
 30
0.0
 10
114.6022216246522
 20
49.1002968421003
 30
0.0
 10
115.4997474817967
 20
48.78551632856396
 30
0.0
 10
116.1095311698925
 20
48.47041858844524
 30
0.0
 10
116.6852688469947
 20
48.12409386193686
 30
0.0
 10
117.2226412074403
 20
47.74353746875319
 30
0.0
 10
117.7885614768897
 20
47.24591109258508
 30
0.0
 10
118.1901392587708
 20
46.83267900561569
 30
0.0
 10
118.4294817077488
 20
46.55929835999882
 30
0.0
 10
118.5546641814204
 20
46.40757060895777
 30
0.0
 10
118.5619774909591
 20
46.39814391482275
 30
0.0
 10
118.5651994013009
 20
46.39399094370045
 30
0.0
  0
SPLINE
  5
1F6
330
1F
100
AcDbEntity
  8
0
  6
Continuous
 62
     7
370
    25
100
AcDbSpline
210
0.0
220
0.0
230
1.0
 70
     8
 71
     3
 72
    19
 73
    15
 74
     0
 42
0.00000001
 43
0.00000001
 40
0.0
 40
0.0
 40
0.0
 40
0.0
 40
0.0663413002849374
 40
0.1059276506255238
 40
0.1953119400600328
 40
0.2848624863959064
 40
0.4058554247789609
 40
0.5269345930708943
 40
0.6283686498312752
 40
0.7297354295364885
 40
0.8191463042851285
 40
0.9084832027839502
 40
0.9868724125630847
 40
1.0
 40
1.0
 40
1.0
 40
1.0
 10
106.7747539291191
 20
46.38719215320944
 30
0.0
 10
106.7794938885156
 20
46.39298970685937
 30
0.0
 10
106.7870622171552
 20
46.40224670415781
 30
0.0
 10
106.8683201949929
 20
46.50125568479434
 30
0.0
 10
107.0179888664622
 20
46.67809348338639
 30
0.0
 10
107.3263776723029
 20
47.01490419555258
 30
0.0
 10
107.783621538886
 20
47.45549223798297
 30
0.0
 10
108.3819489753146
 20
47.93751101701442
 30
0.0
 10
109.0518334867637
 20
48.37343875560397
 30
0.0
 10
109.7419875033795
 20
48.72978955748617
 30
0.0
 10
110.4780741163092
 20
49.01663173444872
 30
0.0
 10
111.2108810103731
 20
49.20861455962942
 30
0.0
 10
111.7514423916985
 20
49.30831505665002
 30
0.0
 10
112.0324117891339
 20
49.32125687585342
 30
0.0
 10
112.0727153229564
 20
49.32311330951755
 30
0.0
  0
LINE
  5
1F7
330
1F
100
AcDbEntity
  8
0
  6
Continuous
 62
     7
370
    25
100
AcDbLine
 10
105.1396427518
 20
50.819001475
 30
0.0
 11
120.2059822482
 21
50.819001475
 31
0.0
  0
LINE
  5
1F8
330
1F
100
AcDbEntity
  8
0
  6
Continuous
 62
     7
370
    25
100
AcDbLine
 10
118.2569942838
 20
68.4585808454
 30
0.0
 11
115.9175757869
 21
68.4585808454
 31
0.0
  0
LINE
  5
1F9
330
1F
100
AcDbEntity
  8
0
  6
Continuous
 62
     7
370
    25
100
AcDbLine
 10
109.4280492131
 20
68.4585808454
 30
0.0
 11
107.0886307162
 21
68.4585808454
 31
0.0
  0
INSERT
  5
205
330
1F
100
AcDbEntity
  8
0
  6
Continuous
 62
     7
370
    18
100
AcDbBlockReference
  2
SW_CENTERMARKSYMBOL_0
 10
112.6728125
 20
39.854625
 30
0.0
  0
LINE
  5
206
330
1F
100
AcDbEntity
  8
0
  6
Continuous
 62
     7
370
    18
100
AcDbLine
 10
106.6065625
 20
27.354625
 30
0.0
 11
106.9232741962
 21
17.2198507226
 31
0.0
  0
LINE
  5
207
330
1F
100
AcDbEntity
  8
0
  6
Continuous
 62
     7
370
    18
100
AcDbLine
 10
118.4223508038
 20
17.2198507226
 30
0.0
 11
118.7390625
 21
27.354625
 31
0.0
  0
LINE
  5
208
330
1F
100
AcDbEntity
  8
0
  6
Continuous
 62
     7
370
    25
100
AcDbLine
 10
60.21923125
 20
88.6024959189
 30
0.0
 11
60.41923125
 21
88.8024959189
 31
0.0
  0
LINE
  5
209
330
1F
100
AcDbEntity
  8
0
  6
Continuous
 62
     7
370
    25
100
AcDbLine
 10
60.41923125
 20
105.4024959189
 30
0.0
 11
60.21923125
 21
105.6024959189
 31
0.0
  0
LINE
  5
20A
330
1F
100
AcDbEntity
  8
0
  6
Continuous
 62
     7
370
    25
100
AcDbLine
 10
57.41923125
 20
88.6024959189
 30
0.0
 11
60.21923125
 21
88.6024959189
 31
0.0
  0
LINE
  5
20B
330
1F
100
AcDbEntity
  8
0
  6
Continuous
 62
     7
370
    25
100
AcDbLine
 10
60.21923125
 20
105.6024959189
 30
0.0
 11
57.41923125
 21
105.6024959189
 31
0.0
  0
LINE
  5
20C
330
1F
100
AcDbEntity
  8
0
  6
Continuous
 62
     7
370
    25
100
AcDbLine
 10
60.41923125
 20
90.5239959189
 30
0.0
 11
65.6675652002
 21
90.5239959189
 31
0.0
  0
LINE
  5
20D
330
1F
100
AcDbEntity
  8
0
  6
Continuous
 62
     7
370
    25
100
AcDbLine
 10
65.6675652002
 20
103.6809959189
 30
0.0
 11
60.41923125
 21
103.6809959189
 31
0.0
  0
LINE
  5
20E
330
1F
100
AcDbEntity
  8
0
  6
Continuous
 62
     7
370
    25
100
AcDbLine
 10
31.61923125
 20
105.6024959189
 30
0.0
 11
31.41923125
 21
105.4024959189
 31
0.0
  0
LINE
  5
20F
330
1F
100
AcDbEntity
  8
0
  6
Continuous
 62
     7
370
    25
100
AcDbLine
 10
31.41923125
 20
88.8024959189
 30
0.0
 11
31.61923125
 21
88.6024959189
 31
0.0
  0
LINE
  5
210
330
1F
100
AcDbEntity
  8
0
  6
Continuous
 62
     7
370
    25
100
AcDbLine
 10
34.41923125
 20
105.6024959189
 30
0.0
 11
31.61923125
 21
105.6024959189
 31
0.0
  0
LINE
  5
211
330
1F
100
AcDbEntity
  8
0
  6
Continuous
 62
     7
370
    25
100
AcDbLine
 10
31.61923125
 20
88.6024959189
 30
0.0
 11
34.41923125
 21
88.6024959189
 31
0.0
  0
LINE
  5
212
330
1F
100
AcDbEntity
  8
0
  6
Continuous
 62
     7
370
    25
100
AcDbLine
 10
31.41923125
 20
103.6809959189
 30
0.0
 11
26.1708972998
 21
103.6809959189
 31
0.0
  0
LINE
  5
213
330
1F
100
AcDbEntity
  8
0
  6
Continuous
 62
     7
370
    25
100
AcDbLine
 10
26.1708972998
 20
90.5239959189
 30
0.0
 11
31.41923125
 21
90.5239959189
 31
0.0
  0
LINE
  5
214
330
1F
100
AcDbEntity
  8
0
  6
Continuous
 62
     7
370
    25
100
AcDbLine
 10
65.8119027675
 20
105.6024959189
 30
0.0
 11
65.6675652002
 21
105.3524959189
 31
0.0
  0
LINE
  5
215
330
1F
100
AcDbEntity
  8
0
  6
Continuous
 62
     7
370
    25
100
AcDbLine
 10
65.6675652002
 20
88.8524959189
 30
0.0
 11
65.8119027675
 21
88.6024959189
 31
0.0
  0
LINE
  5
216
330
1F
100
AcDbEntity
  8
0
  6
Continuous
 62
     7
370
    25
100
AcDbLine
 10
78.5232276329
 20
88.6024959189
 30
0.0
 11
78.6675652002
 21
88.8524959189
 31
0.0
  0
LINE
  5
217
330
1F
100
AcDbEntity
  8
0
  6
Continuous
 62
     7
370
    25
100
AcDbLine
 10
78.6675652002
 20
105.3524959189
 30
0.0
 11
78.5232276329
 21
105.6024959189
 31
0.0
  0
LINE
  5
218
330
1F
100
AcDbEntity
  8
0
  6
Continuous
 62
     7
370
    25
100
AcDbLine
 10
26.0265597325
 20
88.6024959189
 30
0.0
 11
26.1708972998
 21
88.8524959189
 31
0.0
  0
LINE
  5
219
330
1F
100
AcDbEntity
  8
0
  6
Continuous
 62
     7
370
    25
100
AcDbLine
 10
26.1708972998
 20
105.3524959189
 30
0.0
 11
26.0265597325
 21
105.6024959189
 31
0.0
  0
LINE
  5
21A
330
1F
100
AcDbEntity
  8
0
  6
Continuous
 62
     7
370
    25
100
AcDbLine
 10
13.3152348671
 20
105.6024959189
 30
0.0
 11
13.1708972998
 21
105.3524959189
 31
0.0
  0
LINE
  5
21B
330
1F
100
AcDbEntity
  8
0
  6
Continuous
 62
     7
370
    25
100
AcDbLine
 10
13.1708972998
 20
88.8524959189
 30
0.0
 11
13.3152348671
 21
88.6024959189
 31
0.0
  0
LINE
  5
21C
330
1F
100
AcDbEntity
  8
0
  6
Continuous
 62
     7
370
    25
100
AcDbLine
 10
33.9953537622
 20
100.4492062221
 30
0.0
 11
33.8066991203
 21
100.453838933
 31
0.0
  0
LINE
  5
21D
330
1F
100
AcDbEntity
  8
0
  6
Continuous
 62
     7
370
    25
100
AcDbLine
 10
29.0319769245
 20
100.4520553726
 30
0.0
 11
28.8427848795
 21
100.4519231105
 31
0.0
  0
LINE
  5
21E
330
1F
100
AcDbEntity
  8
0
  6
Continuous
 62
     7
370
    25
100
AcDbLine
 10
58.0319769245
 20
100.4520553726
 30
0.0
 11
57.8427848795
 21
100.4519231105
 31
0.0
  0
LINE
  5
21F
330
1F
100
AcDbEntity
  8
0
  6
Continuous
 62
     7
370
    25
100
AcDbLine
 10
66.91923125
 20
94.9820059044
 30
0.0
 11
66.91923125
 21
99.2229859335
 31
0.0
  0
LINE
  5
220
330
1F
100
AcDbEntity
  8
0
  6
Continuous
 62
     7
370
    25
100
AcDbLine
 10
62.9955147641
 20
100.4492022685
 30
0.0
 11
62.8066991203
 21
100.453838933
 31
0.0
  0
LINE
  5
221
330
1F
100
AcDbEntity
  8
0
  6
Continuous
 62
     7
370
    25
100
AcDbLine
 10
24.91923125
 20
99.2229859335
 30
0.0
 11
24.91923125
 21
94.9820059044
 31
0.0
  0
LINE
  5
222
330
1F
100
AcDbEntity
  8
0
  6
Continuous
 62
     7
370
    25
100
AcDbLine
 10
33.8088610816
 20
100.4588605634
 30
0.0
 11
29.0296014184
 21
100.4588605634
 31
0.0
  0
LINE
  5
223
330
1F
100
AcDbEntity
  8
0
  6
Continuous
 62
     7
370
    25
100
AcDbLine
 10
62.8088610816
 20
100.4588605634
 30
0.0
 11
58.0296014184
 21
100.4588605634
 31
0.0
  0
LINE
  5
224
330
1F
100
AcDbEntity
  8
0
  6
Continuous
 62
     7
370
    25
100
AcDbLine
 10
33.8064855755
 20
93.7529364653
 30
0.0
 11
33.9954422698
 21
93.7530685629
 31
0.0
  0
LINE
  5
225
330
1F
100
AcDbEntity
  8
0
  6
Continuous
 62
     7
370
    25
100
AcDbLine
 10
28.8431087378
 20
93.7557856157
 30
0.0
 11
29.0317633797
 21
93.7511529049
 31
0.0
  0
LINE
  5
226
330
1F
100
AcDbEntity
  8
0
  6
Continuous
 62
     7
370
    25
100
AcDbLine
 10
57.8431087378
 20
93.7557856157
 30
0.0
 11
58.0317633797
 21
93.7511529049
 31
0.0
  0
LINE
  5
227
330
1F
100
AcDbEntity
  8
0
  6
Continuous
 62
     7
370
    25
100
AcDbLine
 10
62.8064855755
 20
93.7529364653
 30
0.0
 11
62.9956776205
 21
93.7530687274
 31
0.0
  0
LINE
  5
228
330
1F
100
AcDbEntity
  8
0
  6
Continuous
 62
     7
370
    25
100
AcDbLine
 10
29.0296014184
 20
93.7461312745
 30
0.0
 11
33.8088610816
 21
93.7461312745
 31
0.0
  0
LINE
  5
229
330
1F
100
AcDbEntity
  8
0
  6
Continuous
 62
     7
370
    25
100
AcDbLine
 10
58.0296014184
 20
93.7461312745
 30
0.0
 11
62.8088610816
 21
93.7461312745
 31
0.0
  0
SPLINE
  5
22A
330
1F
100
AcDbEntity
  8
0
  6
Continuous
 62
     7
370
    25
100
AcDbSpline
210
0.0
220
0.0
230
1.0
 70
     8
 71
     3
 72
    13
 73
     9
 74
     0
 42
0.00000001
 43
0.00000001
 40
0.0
 40
0.0
 40
0.0
 40
0.0
 40
0.1114879250864112
 40
0.3307793988896208
 40
0.5459699651599603
 40
0.7584246344251918
 40
0.9574913101418971
 40
1.0
 40
1.0
 40
1.0
 40
1.0
 10
36.62593468999552
 20
100.1369462908849
 30
0.0
 10
36.55191963011269
 20
100.1523536545568
 30
0.0
 10
36.33232044932387
 20
100.1980665736009
 30
0.0
 10
35.91603423234982
 20
100.2663375547575
 30
0.0
 10
35.36021118631385
 20
100.3381848689838
 30
0.0
 10
34.76382164322897
 20
100.3978216467248
 30
0.0
 10
34.29841759724615
 20
100.4339477202368
 30
0.0
 10
34.04138120040003
 20
100.4504888627613
 30
0.0
 10
33.99615191781247
 20
100.4533995167338
 30
0.0
  0
SPLINE
  5
22B
330
1F
100
AcDbEntity
  8
0
  6
Continuous
 62
     7
370
    25
100
AcDbSpline
210
0.0
220
0.0
230
1.0
 70
     8
 71
     3
 72
    19
 73
    15
 74
     0
 42
0.00000001
 43
0.00000001
 40
0.0
 40
0.0
 40
0.0
 40
0.0
 40
0.0324032406818614
 40
0.0853704667497382
 40
0.1390259623337334
 40
0.2016464788382132
 40
0.2853774500166146
 40
0.4058145948666491
 40
0.5112994392118596
 40
0.6224046133303445
 40
0.7299929405504434
 40
0.8358198464931027
 40
0.9406537586312125
 40
0.9999999999999999
 40
0.9999999999999999
 40
0.9999999999999999
 40
0.9999999999999999
 10
66.90702861275066
 20
99.22726317741432
 30
0.0
 10
66.90831419721026
 20
99.27391698594799
 30
0.0
 10
66.9117012332922
 20
99.39683238966568
 30
0.0
 10
66.82305369618253
 20
99.56811491066115
 30
0.0
 10
66.69922328554671
 20
99.71339715338647
 30
0.0
 10
66.5400883652556
 20
99.82984913678158
 30
0.0
 10
66.31690915284436
 20
99.94210683799564
 30
0.0
 10
66.01080157965012
 20
100.0462689087605
 30
0.0
 10
65.60250455761208
 20
100.1462329005133
 30
0.0
 10
65.13754197542939
 20
100.2324388149088
 30
0.0
 10
64.6020159125656
 20
100.3091826279742
 30
0.0
 10
64.01479422895166
 20
100.3745155378073
 30
0.0
 10
63.4729675294228
 20
100.4216781310292
 30
0.0
 10
63.12274642756049
 20
100.4449774911667
 30
0.0
 10
62.99615191781246
 20
100.4533995167338
 30
0.0
  0
SPLINE
  5
22C
330
1F
100
AcDbEntity
  8
0
  6
Continuous
 62
     7
370
    25
100
AcDbSpline
210
0.0
220
0.0
230
1.0
 70
     8
 71
     3
 72
    13
 73
     9
 74
     0
 42
0.00000001
 43
0.00000001
 40
0.0
 40
0.0
 40
0.0
 40
0.0
 40
0.1099059174062057
 40
0.3199494092301404
 40
0.5309080423351623
 40
0.7433034870940632
 40
0.9494558267715527
 40
1.0
 40
1.0
 40
1.0
 40
1.0
 10
57.84231058218749
 20
100.4533995167338
 30
0.0
 10
57.72597534527537
 20
100.445691477733
 30
0.0
 10
57.3873094098907
 20
100.423252444578
 30
0.0
 10
56.85700562937586
 20
100.3777257996695
 30
0.0
 10
56.27414302697749
 20
100.3138358141367
 30
0.0
 10
55.75482684033312
 20
100.2406605819762
 30
0.0
 10
55.41373822105963
 20
100.1797881683576
 30
0.0
 10
55.24562893993516
 20
100.1439942092568
 30
0.0
 10
55.21252781000444
 20
100.1369462908849
 30
0.0
  0
SPLINE
  5
22D
330
1F
100
AcDbEntity
  8
0
  6
Continuous
 62
     7
370
    25
100
AcDbSpline
210
0.0
220
0.0
230
1.0
 70
     8
 71
     3
 72
    19
 73
    15
 74
     0
 42
0.00000001
 43
0.00000001
 40
0.0
 40
0.0
 40
0.0
 40
0.0
 40
0.0543332006211239
 40
0.1581705139320315
 40
0.2624602374133484
 40
0.367460264558802
 40
0.4735572620858262
 40
0.5815268393848206
 40
0.6932040443851386
 40
0.8139184783682931
 40
0.8751525424852674
 40
0.9301774722771624
 40
0.9824319133757916
 40
1.0
 40
1.0
 40
1.0
 40
1.0
 10
28.84231058218754
 20
100.4533995167338
 30
0.0
 10
28.72597608192401
 20
100.4456913621775
 30
0.0
 10
28.38731229101246
 20
100.4232519926261
 30
0.0
 10
27.85698099185765
 20
100.3777296644742
 30
0.0
 10
27.27423418700876
 20
100.3138215141693
 30
0.0
 10
26.74750213752386
 20
100.2397308707615
 30
0.0
 10
26.28113457277392
 20
100.1555424934668
 30
0.0
 10
25.87710903709266
 20
100.0600855224652
 30
0.0
 10
25.52963770936589
 20
99.94648070870532
 30
0.0
 10
25.2856297579755
 20
99.82767455870622
 30
0.0
 10
25.09752578504932
 20
99.67447262807366
 30
0.0
 10
24.98112385575674
 20
99.51022793679458
 30
0.0
 10
24.91338834764655
 20
99.33955658922905
 30
0.0
 10
24.92620485516399
 20
99.24086180882969
 30
0.0
 10
24.9294296240406
 20
99.21602915799392
 30
0.0
  0
SPLINE
  5
22E
330
1F
100
AcDbEntity
  8
0
  6
Continuous
 62
     7
370
    25
100
AcDbSpline
210
0.0
220
0.0
230
1.0
 70
     8
 71
     3
 72
    19
 73
    15
 74
     0
 42
0.00000001
 43
0.00000001
 40
0.0
 40
0.0
 40
0.0
 40
0.0
 40
0.0324032406818658
 40
0.0853704667497453
 40
0.1390259623337456
 40
0.2016464788382267
 40
0.2853774500166365
 40
0.4058145948666699
 40
0.5112994392118825
 40
0.6224046133303689
 40
0.7299929405504673
 40
0.8358198464931328
 40
0.9406537586312331
 40
1.0
 40
1.0
 40
1.0
 40
1.0
 10
24.93143388724929
 20
94.97772866044198
 30
0.0
 10
24.9301483027897
 20
94.93107485190829
 30
0.0
 10
24.92676126670774
 20
94.8081594481906
 30
0.0
 10
25.01540880381744
 20
94.63687692719512
 30
0.0
 10
25.13923921445326
 20
94.49159468446982
 30
0.0
 10
25.29837413474439
 20
94.37514270107471
 30
0.0
 10
25.52155334715565
 20
94.26288499986065
 30
0.0
 10
25.82766092034991
 20
94.1587229290958
 30
0.0
 10
26.23595794238796
 20
94.05875893734301
 30
0.0
 10
26.70092052457067
 20
93.9725530229475
 30
0.0
 10
27.23644658743449
 20
93.89580920988207
 30
0.0
 10
27.82366827104843
 20
93.830476300049
 30
0.0
 10
28.36549497057724
 20
93.78331370682709
 30
0.0
 10
28.71571607243949
 20
93.76001434668964
 30
0.0
 10
28.84231058218748
 20
93.75159232112249
 30
0.0
  0
SPLINE
  5
22F
330
1F
100
AcDbEntity
  8
0
  6
Continuous
 62
     7
370
    25
100
AcDbSpline
210
0.0
220
0.0
230
1.0
 70
     8
 71
     3
 72
    19
 73
    15
 74
     0
 42
0.00000001
 43
0.00000001
 40
0.0
 40
0.0
 40
0.0
 40
0.0
 40
0.054333200621124
 40
0.1581705139320191
 40
0.2624602374133358
 40
0.3674602645587857
 40
0.4735572620858068
 40
0.581526839384804
 40
0.6932040443851241
 40
0.8139184783682798
 40
0.8751525424852582
 40
0.9301774722771567
 40
0.9824319133757894
 40
1.0
 40
1.0
 40
1.0
 40
1.0
 10
62.99615191781241
 20
93.75159232112249
 30
0.0
 10
63.11248641807593
 20
93.75930047567883
 30
0.0
 10
63.45115020898748
 20
93.78173984523018
 30
0.0
 10
63.98148150814226
 20
93.82726217338212
 30
0.0
 10
64.56422831299112
 20
93.89117032368702
 30
0.0
 10
65.09096036247603
 20
93.96526096709475
 30
0.0
 10
65.55732792722596
 20
94.04944934438952
 30
0.0
 10
65.96135346290724
 20
94.1449063153911
 30
0.0
 10
66.30882479063403
 20
94.25851112915096
 30
0.0
 10
66.55283274202444
 20
94.37731727915006
 30
0.0
 10
66.7409367149506
 20
94.53051920978263
 30
0.0
 10
66.8573386442432
 20
94.6947639010617
 30
0.0
 10
66.9250741523534
 20
94.86543524862722
 30
0.0
 10
66.91225764483596
 20
94.96413002902658
 30
0.0
 10
66.90903287595937
 20
94.98896267986237
 30
0.0
  0
SPLINE
  5
230
330
1F
100
AcDbEntity
  8
0
  6
Continuous
 62
     7
370
    25
100
AcDbSpline
210
0.0
220
0.0
230
1.0
 70
     8
 71
     3
 72
    13
 73
     9
 74
     0
 42
0.00000001
 43
0.00000001
 40
0.0
 40
0.0
 40
0.0
 40
0.0
 40
0.1114879250864109
 40
0.3307793988896002
 40
0.54596996515995
 40
0.7584246344251775
 40
0.9574913101418869
 40
1.0
 40
1.0
 40
1.0
 40
1.0
 10
55.21252781000443
 20
94.06804554697142
 30
0.0
 10
55.28654286988726
 20
94.05263818329949
 30
0.0
 10
55.50614205067607
 20
94.0069252642554
 30
0.0
 10
55.92242826765011
 20
93.93865428309881
 30
0.0
 10
56.47825131368607
 20
93.86680696887251
 30
0.0
 10
57.07464085677095
 20
93.80717019113152
 30
0.0
 10
57.54004490275376
 20
93.77104411761954
 30
0.0
 10
57.79708129959992
 20
93.75450297509501
 30
0.0
 10
57.84231058218749
 20
93.75159232112249
 30
0.0
  0
SPLINE
  5
231
330
1F
100
AcDbEntity
  8
0
  6
Continuous
 62
     7
370
    25
100
AcDbSpline
210
0.0
220
0.0
230
1.0
 70
     8
 71
     3
 72
    13
 73
     9
 74
     0
 42
0.00000001
 43
0.00000001
 40
0.0
 40
0.0
 40
0.0
 40
0.0
 40
0.1099059174062055
 40
0.3199494092301398
 40
0.5309080423351625
 40
0.7433034870940518
 40
0.9494558267715388
 40
1.0
 40
1.0
 40
1.0
 40
1.0
 10
33.99615191781247
 20
93.75159232112249
 30
0.0
 10
34.11248715472459
 20
93.75930036012323
 30
0.0
 10
34.45115309010925
 20
93.78173939327831
 30
0.0
 10
34.98145687062409
 20
93.82726603818675
 30
0.0
 10
35.56431947302245
 20
93.8911560237196
 30
0.0
 10
36.08363565966683
 20
93.9643312558801
 30
0.0
 10
36.42472427894031
 20
94.02520366949865
 30
0.0
 10
36.59283356006478
 20
94.06099762859947
 30
0.0
 10
36.62593468999552
 20
94.0680455469714
 30
0.0
  0
LINE
  5
232
330
1F
100
AcDbEntity
  8
0
  6
Continuous
 62
     7
370
    25
100
AcDbLine
 10
36.6738441998
 20
100.1270876036
 30
0.0
 11
36.62593469
 21
100.1369462909
 31
0.0
  0
LINE
  5
233
330
1F
100
AcDbEntity
  8
0
  6
Continuous
 62
     7
370
    25
100
AcDbLine
 10
40.5677786138
 20
100.1184131071
 30
0.0
 11
40.5631501288
 21
100.1175710349
 31
0.0
  0
LINE
  5
234
330
1F
100
AcDbEntity
  8
0
  6
Continuous
 62
     7
370
    25
100
AcDbLine
 10
55.21252781
 20
100.1369462909
 30
0.0
 11
55.15123111
 21
100.1250036782
 31
0.0
  0
LINE
  5
235
330
1F
100
AcDbEntity
  8
0
  6
Continuous
 62
     7
370
    25
100
AcDbLine
 10
55.1646183002
 20
94.0779042343
 30
0.0
 11
55.21252781
 21
94.068045547
 31
0.0
  0
LINE
  5
236
330
1F
100
AcDbEntity
  8
0
  6
Continuous
 62
     7
370
    25
100
AcDbLine
 10
51.2706838862
 20
94.0865787308
 30
0.0
 11
51.2753123712
 21
94.0874208029
 31
0.0
  0
LINE
  5
237
330
1F
100
AcDbEntity
  8
0
  6
Continuous
 62
     7
370
    25
100
AcDbLine
 10
36.62593469
 20
94.068045547
 30
0.0
 11
36.68723139
 21
94.0799881596
 31
0.0
  0
LINE
  5
238
330
1F
100
AcDbEntity
  8
0
  6
Continuous
 62
     7
370
    25
100
AcDbLine
 10
60.41923125
 20
105.4024959189
 30
0.0
 11
60.41923125
 21
100.4588605634
 31
0.0
  0
LINE
  5
239
330
1F
100
AcDbEntity
  8
0
  6
Continuous
 62
     7
370
    25
100
AcDbLine
 10
60.41923125
 20
93.7461312745
 30
0.0
 11
60.41923125
 21
88.8024959189
 31
0.0
  0
LINE
  5
23A
330
1F
100
AcDbEntity
  8
0
  6
Continuous
 62
     7
370
    25
100
AcDbLine
 10
60.21923125
 20
88.6024959189
 30
0.0
 11
60.21923125
 21
93.7461312745
 31
0.0
  0
LINE
  5
23B
330
1F
100
AcDbEntity
  8
0
  6
Continuous
 62
     7
370
    25
100
AcDbLine
 10
60.21923125
 20
100.4588605634
 30
0.0
 11
60.21923125
 21
105.6024959189
 31
0.0
  0
LINE
  5
23C
330
1F
100
AcDbEntity
  8
0
  6
Continuous
 62
     7
370
    25
100
AcDbLine
 10
57.41923125
 20
105.6024959189
 30
0.0
 11
57.41923125
 21
100.4413679822
 31
0.0
  0
LINE
  5
23D
330
1F
100
AcDbEntity
  8
0
  6
Continuous
 62
     7
370
    25
100
AcDbLine
 10
57.41923125
 20
93.7720145404
 30
0.0
 11
57.41923125
 21
88.6024959189
 31
0.0
  0
LINE
  5
23E
330
1F
100
AcDbEntity
  8
0
  6
Continuous
 62
     7
370
    25
100
AcDbLine
 10
31.41923125
 20
88.8024959189
 30
0.0
 11
31.41923125
 21
93.7461312745
 31
0.0
  0
LINE
  5
23F
330
1F
100
AcDbEntity
  8
0
  6
Continuous
 62
     7
370
    25
100
AcDbLine
 10
31.41923125
 20
100.4588605634
 30
0.0
 11
31.41923125
 21
105.4024959189
 31
0.0
  0
LINE
  5
240
330
1F
100
AcDbEntity
  8
0
  6
Continuous
 62
     7
370
    25
100
AcDbLine
 10
31.61923125
 20
105.6024959189
 30
0.0
 11
31.61923125
 21
100.4588605634
 31
0.0
  0
LINE
  5
241
330
1F
100
AcDbEntity
  8
0
  6
Continuous
 62
     7
370
    25
100
AcDbLine
 10
31.61923125
 20
93.7461312745
 30
0.0
 11
31.61923125
 21
88.6024959189
 31
0.0
  0
LINE
  5
242
330
1F
100
AcDbEntity
  8
0
  6
Continuous
 62
     7
370
    25
100
AcDbLine
 10
34.41923125
 20
88.6024959189
 30
0.0
 11
34.41923125
 21
93.7752561753
 31
0.0
  0
LINE
  5
243
330
1F
100
AcDbEntity
  8
0
  6
Continuous
 62
     7
370
    25
100
AcDbLine
 10
34.41923125
 20
100.4317242927
 30
0.0
 11
34.41923125
 21
105.6024959189
 31
0.0
  0
SPLINE
  5
244
330
1F
100
AcDbEntity
  8
0
  6
Continuous
 62
     7
370
    25
100
AcDbSpline
210
0.0
220
0.0
230
1.0
 70
     8
 71
     3
 72
    11
 73
     7
 74
     0
 42
0.00000001
 43
0.00000001
 40
0.0
 40
0.0
 40
0.0
 40
0.0
 40
0.0752347454120008
 40
0.2836337998347206
 40
0.6385346972012694
 40
0.9999999999999999
 40
0.9999999999999999
 40
0.9999999999999999
 40
0.9999999999999999
 10
65.89950727846436
 20
94.13515363547145
 30
0.0
 10
65.88010540039316
 20
93.99573355632413
 30
0.0
 10
65.80696062704232
 20
93.47012206385132
 30
0.0
 10
65.79719638901285
 20
92.2759076943675
 30
0.0
 10
65.98216609275858
 20
90.55089088516614
 30
0.0
 10
66.37358786674442
 20
89.25591639745933
 30
0.0
 10
66.5710921460127
 20
88.60249591892813
 30
0.0
  0
SPLINE
  5
245
330
1F
100
AcDbEntity
  8
0
  6
Continuous
 62
     7
370
    25
100
AcDbSpline
210
0.0
220
0.0
230
1.0
 70
    24
 71
     3
 72
    10
 73
     6
 74
     0
 42
0.00000001
 43
0.00000001
 40
0.0
 40
0.0
 40
0.0
 40
0.0
 40
0.3771474730468397
 40
0.7577808922986313
 40
0.9999999999999999
 40
0.9999999999999999
 40
0.9999999999999999
 40
0.9999999999999999
 10
66.5710921460127
 20
88.60249591892813
 30
0.0
 10
66.41082032214534
 20
88.60249591892813
 30
0.0
 10
66.08879529379405
 20
88.60249591892813
 30
0.0
 10
65.84704576824757
 20
88.60249591892814
 30
0.0
 10
65.82337283054189
 20
88.60249591892814
 30
0.0
 10
65.81416673824941
 20
88.60249591892814
 30
0.0
  0
SPLINE
  5
246
330
1F
100
AcDbEntity
  8
0
  6
Continuous
 62
     7
370
    25
100
AcDbSpline
210
0.0
220
0.0
230
1.0
 70
    24
 71
     3
 72
    10
 73
     6
 74
     0
 42
0.00000001
 43
0.00000001
 40
0.0
 40
0.0
 40
0.0
 40
0.0
 40
0.2422151122035416
 40
0.619034917276576
 40
1.0
 40
1.0
 40
1.0
 40
1.0
 10
65.8155086096024
 20
105.6024959189281
 30
0.0
 10
65.82416833226154
 20
105.6024959189281
 30
0.0
 10
65.846300191216
 20
105.6024959189281
 30
0.0
 10
66.08768881082553
 20
105.6024959189281
 30
0.0
 10
66.4093711393423
 20
105.6024959189281
 30
0.0
 10
66.57109214601269
 20
105.6024959189281
 30
0.0
  0
SPLINE
  5
247
330
1F
100
AcDbEntity
  8
0
  6
Continuous
 62
     7
370
    25
100
AcDbSpline
210
0.0
220
0.0
230
1.0
 70
     8
 71
     3
 72
    12
 73
     8
 74
     0
 42
0.00000001
 43
0.00000001
 40
0.0
 40
0.0
 40
0.0
 40
0.0
 40
0.2035046692787927
 40
0.4069518005542585
 40
0.6149501239944839
 40
0.8229109133894295
 40
1.0
 40
1.0
 40
1.0
 40
1.0
 10
66.5710921460127
 20
105.6024959189281
 30
0.0
 10
66.45563150032127
 20
105.2352702905502
 30
0.0
 10
66.22474285376687
 20
104.5009228615322
 30
0.0
 10
65.97442869439388
 20
103.3699438915428
 30
0.0
 10
65.83132556893297
 20
102.2182520584553
 30
0.0
 10
65.77884860321134
 20
101.1062732945128
 30
0.0
 10
65.88163222165957
 20
100.3907758009041
 30
0.0
 10
65.92890364867147
 20
100.0617098655251
 30
0.0
  0
LINE
  5
248
330
1F
100
AcDbEntity
  8
0
  6
Continuous
 62
     7
370
    25
100
AcDbLine
 10
65.6675652002
 20
105.3524959189
 30
0.0
 11
65.6675652002
 21
100.1435388369
 31
0.0
  0
LINE
  5
249
330
1F
100
AcDbEntity
  8
0
  6
Continuous
 62
     7
370
    25
100
AcDbLine
 10
65.6675652002
 20
94.0737544633
 30
0.0
 11
65.6675652002
 21
88.8524959189
 31
0.0
  0
LINE
  5
24A
330
1F
100
AcDbEntity
  8
0
  6
Continuous
 62
     7
370
    25
100
AcDbLine
 10
77.7640382543
 20
97.1024959189
 30
0.0
 11
66.91923125
 21
97.1024959189
 31
0.0
  0
LINE
  5
24B
330
1F
100
AcDbEntity
  8
0
  6
Continuous
 62
     7
370
    25
100
AcDbLine
 10
77.7640382543
 20
105.6024959189
 30
0.0
 11
66.571092146
 21
105.6024959189
 31
0.0
  0
SPLINE
  5
24C
330
1F
100
AcDbEntity
  8
0
  6
Continuous
 62
     7
370
    25
100
AcDbSpline
210
0.0
220
0.0
230
1.0
 70
     8
 71
     3
 72
    13
 73
     9
 74
     0
 42
0.00000001
 43
0.00000001
 40
0.0
 40
0.0
 40
0.0
 40
0.0
 40
0.1323374700420676
 40
0.2646375235775825
 40
0.3998971812287872
 40
0.5351324307884705
 40
0.7654363136792511
 40
1.0
 40
1.0
 40
1.0
 40
1.0
 10
77.76403825430819
 20
105.6024959189281
 30
0.0
 10
77.87961362310156
 20
105.2352598656836
 30
0.0
 10
78.1107316834235
 20
104.5008915898798
 30
0.0
 10
78.35931278630245
 20
103.370070102407
 30
0.0
 10
78.50914320765814
 20
102.217766961211
 30
0.0
 10
78.54612212703583
 20
100.7766185281196
 30
0.0
 10
78.35043959688656
 20
99.05067170780929
 30
0.0
 10
77.96069583786719
 20
97.75584289338246
 30
0.0
 10
77.76403825430818
 20
97.10249591892816
 30
0.0
  0
SPLINE
  5
24D
330
1F
100
AcDbEntity
  8
0
  6
Continuous
 62
     7
370
    25
100
AcDbSpline
210
0.0
220
0.0
230
1.0
 70
    24
 71
     3
 72
    10
 73
     6
 74
     0
 42
0.00000001
 43
0.00000001
 40
0.0
 40
0.0
 40
0.0
 40
0.0
 40
0.2422151122035417
 40
0.6190349172765761
 40
1.0
 40
1.0
 40
1.0
 40
1.0
 10
78.51962179071847
 20
105.6024959189281
 30
0.0
 10
78.51096206805934
 20
105.6024959189281
 30
0.0
 10
78.48883020910486
 20
105.6024959189281
 30
0.0
 10
78.24744158949534
 20
105.6024959189281
 30
0.0
 10
77.92575926097858
 20
105.6024959189281
 30
0.0
 10
77.76403825430819
 20
105.6024959189281
 30
0.0
  0
SPLINE
  5
24E
330
1F
100
AcDbEntity
  8
0
  6
Continuous
 62
     7
370
    25
100
AcDbSpline
210
0.0
220
0.0
230
1.0
 70
    24
 71
     3
 72
    10
 73
     6
 74
     0
 42
0.00000001
 43
0.00000001
 40
0.0
 40
0.0
 40
0.0
 40
0.0
 40
0.3771474730468397
 40
0.7577808922986313
 40
0.9999999999999999
 40
0.9999999999999999
 40
0.9999999999999999
 40
0.9999999999999999
 10
77.76403825430819
 20
88.60249591892813
 30
0.0
 10
77.92431007817555
 20
88.60249591892813
 30
0.0
 10
78.24633510652683
 20
88.60249591892813
 30
0.0
 10
78.4880846320733
 20
88.60249591892814
 30
0.0
 10
78.51175756977898
 20
88.60249591892814
 30
0.0
 10
78.52096366207147
 20
88.60249591892814
 30
0.0
  0
SPLINE
  5
24F
330
1F
100
AcDbEntity
  8
0
  6
Continuous
 62
     7
370
    25
100
AcDbSpline
210
0.0
220
0.0
230
1.0
 70
     8
 71
     3
 72
    13
 73
     9
 74
     0
 42
0.00000001
 43
0.00000001
 40
0.0
 40
0.0
 40
0.0
 40
0.0
 40
0.1323374700420661
 40
0.2646375235775794
 40
0.3998971812287823
 40
0.535132430788464
 40
0.7654363136792479
 40
1.0
 40
1.0
 40
1.0
 40
1.0
 10
77.76403825430818
 20
97.10249591892816
 30
0.0
 10
77.87961362310153
 20
96.73525986568366
 30
0.0
 10
78.1107316834235
 20
96.00089158987987
 30
0.0
 10
78.35931278630248
 20
94.8700701024071
 30
0.0
 10
78.50914320765814
 20
93.71776696121103
 30
0.0
 10
78.54612212703584
 20
92.27661852811963
 30
0.0
 10
78.35043959688659
 20
90.55067170780931
 30
0.0
 10
77.96069583786719
 20
89.25584289338245
 30
0.0
 10
77.76403825430818
 20
88.60249591892813
 30
0.0
  0
LINE
  5
250
330
1F
100
AcDbEntity
  8
0
  6
Continuous
 62
     7
370
    25
100
AcDbLine
 10
78.6675652002
 20
105.3524959189
 30
0.0
 11
78.6675652002
 21
88.8524959189
 31
0.0
  0
LINE
  5
251
330
1F
100
AcDbEntity
  8
0
  6
Continuous
 62
     7
370
    25
100
AcDbLine
 10
77.7640382543
 20
88.6024959189
 30
0.0
 11
66.571092146
 21
88.6024959189
 31
0.0
  0
SPLINE
  5
252
330
1F
100
AcDbEntity
  8
0
  6
Continuous
 62
     7
370
    25
100
AcDbSpline
210
0.0
220
0.0
230
1.0
 70
     8
 71
     3
 72
    11
 73
     7
 74
     0
 42
0.00000001
 43
0.00000001
 40
0.0
 40
0.0
 40
0.0
 40
0.0
 40
0.0752347454120237
 40
0.2836337998347384
 40
0.6385346972012784
 40
1.0
 40
1.0
 40
1.0
 40
1.0
 10
25.93895522153557
 20
100.0698382023847
 30
0.0
 10
25.95835709960679
 20
100.2092582815321
 30
0.0
 10
26.03150187295763
 20
100.7348697740049
 30
0.0
 10
26.0412661109871
 20
101.9290841434888
 30
0.0
 10
25.85629640724139
 20
103.6541009526901
 30
0.0
 10
25.46487463325556
 20
104.949075440397
 30
0.0
 10
25.26737035398727
 20
105.6024959189282
 30
0.0
  0
SPLINE
  5
253
330
1F
100
AcDbEntity
  8
0
  6
Continuous
 62
     7
370
    25
100
AcDbSpline
210
0.0
220
0.0
230
1.0
 70
    24
 71
     3
 72
    10
 73
     6
 74
     0
 42
0.00000001
 43
0.00000001
 40
0.0
 40
0.0
 40
0.0
 40
0.0
 40
0.3771474730468352
 40
0.7577808922986224
 40
1.0
 40
1.0
 40
1.0
 40
1.0
 10
25.26737035398727
 20
105.6024959189282
 30
0.0
 10
25.42764217785462
 20
105.6024959189282
 30
0.0
 10
25.74966720620591
 20
105.6024959189282
 30
0.0
 10
25.99141673175238
 20
105.6024959189281
 30
0.0
 10
26.01508966945807
 20
105.6024959189281
 30
0.0
 10
26.02429576175055
 20
105.6024959189281
 30
0.0
  0
SPLINE
  5
254
330
1F
100
AcDbEntity
  8
0
  6
Continuous
 62
     7
370
    25
100
AcDbSpline
210
0.0
220
0.0
230
1.0
 70
    24
 71
     3
 72
    10
 73
     6
 74
     0
 42
0.00000001
 43
0.00000001
 40
0.0
 40
0.0
 40
0.0
 40
0.0
 40
0.2422151122035327
 40
0.6190349172765712
 40
1.0
 40
1.0
 40
1.0
 40
1.0
 10
26.02295389039755
 20
88.60249591892814
 30
0.0
 10
26.01429416773842
 20
88.60249591892814
 30
0.0
 10
25.99216230878395
 20
88.60249591892816
 30
0.0
 10
25.75077368917443
 20
88.60249591892818
 30
0.0
 10
25.42909136065766
 20
88.60249591892818
 30
0.0
 10
25.26737035398727
 20
88.6024959189282
 30
0.0
  0
SPLINE
  5
255
330
1F
100
AcDbEntity
  8
0
  6
Continuous
 62
     7
370
    25
100
AcDbSpline
210
0.0
220
0.0
230
1.0
 70
     8
 71
     3
 72
    12
 73
     8
 74
     0
 42
0.00000001
 43
0.00000001
 40
0.0
 40
0.0
 40
0.0
 40
0.0
 40
0.2035046692787977
 40
0.4069518005542686
 40
0.6149501239944993
 40
0.8229109133894501
 40
0.9999999999999999
 40
0.9999999999999999
 40
0.9999999999999999
 40
0.9999999999999999
 10
25.26737035398726
 20
88.6024959189282
 30
0.0
 10
25.38283099967868
 20
88.96972154730607
 30
0.0
 10
25.61371964623308
 20
89.7040689763241
 30
0.0
 10
25.86403380560609
 20
90.83504794631345
 30
0.0
 10
26.007136931067
 20
91.98673977940102
 30
0.0
 10
26.05961389678863
 20
93.09871854334347
 30
0.0
 10
25.95683027834039
 20
93.81421603695215
 30
0.0
 10
25.90955885132852
 20
94.14328197233108
 30
0.0
  0
LINE
  5
256
330
1F
100
AcDbEntity
  8
0
  6
Continuous
 62
     7
370
    25
100
AcDbLine
 10
26.1708972998
 20
88.8524959189
 30
0.0
 11
26.1708972998
 21
94.0614530009
 31
0.0
  0
LINE
  5
257
330
1F
100
AcDbEntity
  8
0
  6
Continuous
 62
     7
370
    25
100
AcDbLine
 10
26.1708972998
 20
100.1312373745
 30
0.0
 11
26.1708972998
 21
105.3524959189
 31
0.0
  0
SPLINE
  5
258
330
1F
100
AcDbEntity
  8
0
  6
Continuous
 62
     7
370
    25
100
AcDbSpline
210
0.0
220
0.0
230
1.0
 70
    24
 71
     3
 72
    10
 73
     6
 74
     0
 42
0.00000001
 43
0.00000001
 40
0.0
 40
0.0
 40
0.0
 40
0.0
 40
0.2422151122035327
 40
0.6190349172765712
 40
1.0
 40
1.0
 40
1.0
 40
1.0
 10
13.31884070928149
 20
88.60249591892814
 30
0.0
 10
13.32750043194061
 20
88.60249591892814
 30
0.0
 10
13.34963229089509
 20
88.60249591892816
 30
0.0
 10
13.59102091050461
 20
88.60249591892817
 30
0.0
 10
13.91270323902138
 20
88.60249591892818
 30
0.0
 10
14.07442424569177
 20
88.6024959189282
 30
0.0
  0
SPLINE
  5
259
330
1F
100
AcDbEntity
  8
0
  6
Continuous
 62
     7
370
    25
100
AcDbSpline
210
0.0
220
0.0
230
1.0
 70
    24
 71
     3
 72
    10
 73
     6
 74
     0
 42
0.00000001
 43
0.00000001
 40
0.0
 40
0.0
 40
0.0
 40
0.0
 40
0.377147473046835
 40
0.7577808922986224
 40
1.0
 40
1.0
 40
1.0
 40
1.0
 10
14.07442424569177
 20
105.6024959189282
 30
0.0
 10
13.91415242182443
 20
105.6024959189282
 30
0.0
 10
13.59212739347312
 20
105.6024959189282
 30
0.0
 10
13.35037786792666
 20
105.6024959189281
 30
0.0
 10
13.32670493022097
 20
105.6024959189281
 30
0.0
 10
13.31749883792848
 20
105.6024959189281
 30
0.0
  0
SPLINE
  5
25A
330
1F
100
AcDbEntity
  8
0
  6
Continuous
 62
     7
370
    25
100
AcDbSpline
210
0.0
220
0.0
230
1.0
 70
     8
 71
     3
 72
    13
 73
     9
 74
     0
 42
0.00000001
 43
0.00000001
 40
0.0
 40
0.0
 40
0.0
 40
0.0
 40
0.1323374700420661
 40
0.2646375235775794
 40
0.3998971812287823
 40
0.535132430788464
 40
0.7654363136792478
 40
1.0
 40
1.0
 40
1.0
 40
1.0
 10
14.07442424569177
 20
97.10249591892816
 30
0.0
 10
13.95884887689843
 20
97.46973197217264
 30
0.0
 10
13.72773081657646
 20
98.20410024797641
 30
0.0
 10
13.47914971369748
 20
99.3349217354492
 30
0.0
 10
13.32931929234182
 20
100.4872248766453
 30
0.0
 10
13.29234037296412
 20
101.9283733097367
 30
0.0
 10
13.48802290311334
 20
103.654320130047
 30
0.0
 10
13.87776666213275
 20
104.9491489444738
 30
0.0
 10
14.07442424569177
 20
105.6024959189282
 30
0.0
  0
SPLINE
  5
25B
330
1F
100
AcDbEntity
  8
0
  6
Continuous
 62
     7
370
    25
100
AcDbSpline
210
0.0
220
0.0
230
1.0
 70
     8
 71
     3
 72
    13
 73
     9
 74
     0
 42
0.00000001
 43
0.00000001
 40
0.0
 40
0.0
 40
0.0
 40
0.0
 40
0.1323374700420676
 40
0.2646375235775826
 40
0.3998971812287874
 40
0.5351324307884706
 40
0.7654363136792514
 40
1.0
 40
1.0
 40
1.0
 40
1.0
 10
14.07442424569177
 20
88.6024959189282
 30
0.0
 10
13.95884887689843
 20
88.9697319721727
 30
0.0
 10
13.72773081657646
 20
89.70410024797648
 30
0.0
 10
13.47914971369751
 20
90.83492173544926
 30
0.0
 10
13.32931929234183
 20
91.98722487664534
 30
0.0
 10
13.29234037296415
 20
93.42837330973673
 30
0.0
 10
13.48802290311337
 20
95.154320130047
 30
0.0
 10
13.87776666213276
 20
96.44914894447385
 30
0.0
 10
14.07442424569177
 20
97.10249591892816
 30
0.0
  0
LINE
  5
25C
330
1F
100
AcDbEntity
  8
0
  6
Continuous
 62
     7
370
    25
100
AcDbLine
 10
13.1708972998
 20
88.8524959189
 30
0.0
 11
13.1708972998
 21
105.3524959189
 31
0.0
  0
LINE
  5
25D
330
1F
100
AcDbEntity
  8
0
  6
Continuous
 62
     7
370
    25
100
AcDbLine
 10
14.0744242457
 20
105.6024959189
 30
0.0
 11
25.267370354
 21
105.6024959189
 31
0.0
  0
LINE
  5
25E
330
1F
100
AcDbEntity
  8
0
  6
Continuous
 62
     7
370
    25
100
AcDbLine
 10
14.0744242457
 20
97.1024959189
 30
0.0
 11
24.91923125
 21
97.1024959189
 31
0.0
  0
LINE
  5
25F
330
1F
100
AcDbEntity
  8
0
  6
Continuous
 62
     7
370
    25
100
AcDbLine
 10
14.0744242457
 20
88.6024959189
 30
0.0
 11
25.267370354
 21
88.6024959189
 31
0.0
  0
SPLINE
  5
260
330
1F
100
AcDbEntity
  8
0
  6
Continuous
 62
     7
370
    25
100
AcDbSpline
210
0.0
220
0.0
230
1.0
 70
     8
 71
     3
 72
     9
 73
     5
 74
     0
 42
0.00000001
 43
0.00000001
 40
0.0
 40
0.0
 40
0.0
 40
0.0
 40
0.5310657562044587
 40
1.0
 40
1.0
 40
1.0
 40
1.0
 10
57.41923124999998
 20
92.85249591892816
 30
0.0
 10
57.41983378892419
 20
93.01867458587648
 30
0.0
 10
57.42096837332767
 20
93.33159001114512
 30
0.0
 10
57.37594658957824
 20
93.64201486228167
 30
0.0
 10
57.35483433346138
 20
93.78758370510474
 30
0.0
  0
LINE
  5
261
330
1F
100
AcDbEntity
  8
0
  6
Continuous
 62
     7
370
    25
100
AcDbLine
 10
57.334447016
 20
100.4159998766
 30
0.0
 11
57.41923125
 21
101.3524959189
 31
0.0
  0
LINE
  5
262
330
1F
100
AcDbEntity
  8
0
  6
Continuous
 62
     7
370
    25
100
AcDbLine
 10
57.41923125
 20
92.8524959189
 30
0.0
 11
57.41923125
 21
93.7630640131
 31
0.0
  0
LINE
  5
263
330
1F
100
AcDbEntity
  8
0
  6
Continuous
 62
     7
370
    25
100
AcDbLine
 10
57.41923125
 20
100.4364694751
 30
0.0
 11
57.41923125
 21
101.3524959189
 31
0.0
  0
SPLINE
  5
264
330
1F
100
AcDbEntity
  8
0
  6
Continuous
 62
     7
370
    25
100
AcDbSpline
210
0.0
220
0.0
230
1.0
 70
     8
 71
     3
 72
     9
 73
     5
 74
     0
 42
0.00000001
 43
0.00000001
 40
0.0
 40
0.0
 40
0.0
 40
0.0
 40
0.5312520468885501
 40
1.0
 40
1.0
 40
1.0
 40
1.0
 10
34.41923124999997
 20
92.85249591892816
 30
0.0
 10
34.41862718895255
 20
93.01867466800948
 30
0.0
 10
34.41749013724429
 20
93.33148051987324
 30
0.0
 10
34.46249326833692
 20
93.64179667095824
 30
0.0
 10
34.48358839392019
 20
93.78725673159678
 30
0.0
  0
LINE
  5
265
330
1F
100
AcDbEntity
  8
0
  6
Continuous
 62
     7
370
    25
100
AcDbLine
 10
34.41923125
 20
92.8524959189
 30
0.0
 11
34.41923125
 21
93.7622348872
 31
0.0
  0
LINE
  5
266
330
1F
100
AcDbEntity
  8
0
  6
Continuous
 62
     7
370
    25
100
AcDbLine
 10
34.41923125
 20
100.4356344933
 30
0.0
 11
34.41923125
 21
101.3524959189
 31
0.0
  0
LINE
  5
267
330
1F
100
AcDbEntity
  8
0
  6
Continuous
 62
     7
370
    25
100
AcDbLine
 10
34.5040305641
 20
100.415833307
 30
0.0
 11
34.41923125
 21
101.3524959189
 31
0.0
  0
SPLINE
  5
268
330
1F
100
AcDbEntity
  8
0
  6
Continuous
 62
     7
370
    25
100
AcDbSpline
210
0.0
220
0.0
230
1.0
 70
     8
 71
     3
 72
     9
 73
     5
 74
     0
 42
0.00000001
 43
0.00000001
 40
0.0
 40
0.0
 40
0.0
 40
0.0
 40
0.3920570285452204
 40
1.0
 40
1.0
 40
1.0
 40
1.0
 10
51.99280129400955
 20
102.2923873919829
 30
0.0
 10
52.02561455948953
 20
102.6985825232928
 30
0.0
 10
52.10930969333711
 20
103.7346438657386
 30
0.0
 10
52.41258099746916
 20
104.7408064485607
 30
0.0
 10
52.59695265526017
 20
105.3524959189281
 30
0.0
  0
LINE
  5
269
330
1F
100
AcDbEntity
  8
0
  6
Continuous
 62
     7
370
    25
100
AcDbLine
 10
56.7415098447
 20
105.3524959189
 30
0.0
 11
52.5969526553
 21
105.3524959189
 31
0.0
  0
SPLINE
  5
26A
330
1F
100
AcDbEntity
  8
0
  6
Continuous
 62
     7
370
    25
100
AcDbSpline
210
0.0
220
0.0
230
1.0
 70
     8
 71
     3
 72
    12
 73
     8
 74
     0
 42
0.00000001
 43
0.00000001
 40
0.0
 40
0.0
 40
0.0
 40
0.0
 40
0.2499999999999999
 40
0.2499999999999999
 40
0.4999999999999998
 40
0.4999999999999998
 40
1.0
 40
1.0
 40
1.0
 40
1.0
 10
57.41923124999997
 20
101.3524959189282
 30
0.0
 10
57.41923124999997
 20
101.6902518539509
 30
0.0
 10
57.40348491997801
 20
102.0306598688294
 30
0.0
 10
57.34203989539258
 20
102.7051545532298
 30
0.0
 10
57.29645113613886
 20
103.0402798720971
 30
0.0
 10
57.12000013388226
 20
104.0399911904372
 30
0.0
 10
56.94954243191877
 20
104.6989252935025
 30
0.0
 10
56.74150984473992
 20
105.3524959189282
 30
0.0
  0
SPLINE
  5
26B
330
1F
100
AcDbEntity
  8
0
  6
Continuous
 62
     7
370
    25
100
AcDbSpline
210
0.0
220
0.0
230
1.0
 70
     8
 71
     3
 72
    12
 73
     8
 74
     0
 42
0.00000001
 43
0.00000001
 40
0.0
 40
0.0
 40
0.0
 40
0.0
 40
0.2500000000000001
 40
0.2500000000000001
 40
0.5000000000000002
 40
0.5000000000000002
 40
1.0
 40
1.0
 40
1.0
 40
1.0
 10
34.41923124999998
 20
101.3524959189282
 30
0.0
 10
34.41923124999997
 20
101.6902518539509
 30
0.0
 10
34.43497758002194
 20
102.0306598688294
 30
0.0
 10
34.49642260460736
 20
102.7051545532298
 30
0.0
 10
34.54201136386109
 20
103.0402798720971
 30
0.0
 10
34.71846236611769
 20
104.0399911904372
 30
0.0
 10
34.88892006808118
 20
104.6989252935025
 30
0.0
 10
35.09695265526003
 20
105.3524959189282
 30
0.0
  0
LINE
  5
26C
330
1F
100
AcDbEntity
  8
0
  6
Continuous
 62
     7
370
    25
100
AcDbLine
 10
39.2415098447
 20
105.3524959189
 30
0.0
 11
35.0969526553
 21
105.3524959189
 31
0.0
  0
SPLINE
  5
26D
330
1F
100
AcDbEntity
  8
0
  6
Continuous
 62
     7
370
    25
100
AcDbSpline
210
0.0
220
0.0
230
1.0
 70
     8
 71
     3
 72
     9
 73
     5
 74
     0
 42
0.00000001
 43
0.00000001
 40
0.0
 40
0.0
 40
0.0
 40
0.0
 40
0.6391306625070687
 40
1.0
 40
1.0
 40
1.0
 40
1.0
 10
39.24150984473977
 20
105.3524959189282
 30
0.0
 10
39.43918169697538
 20
104.7023599673822
 30
0.0
 10
39.74846407666943
 20
103.6851408137967
 30
0.0
 10
39.81367737947508
 20
102.636783528016
 30
0.0
 10
39.83721086085428
 20
102.2584635288405
 30
0.0
  0
SPLINE
  5
26E
330
1F
100
AcDbEntity
  8
0
  6
Continuous
 62
     7
370
    25
100
AcDbSpline
210
0.0
220
0.0
230
1.0
 70
     8
 71
     3
 72
     9
 73
     5
 74
     0
 42
0.00000001
 43
0.00000001
 40
0.0
 40
0.0
 40
0.0
 40
0.0
 40
0.3920570285452052
 40
1.0
 40
1.0
 40
1.0
 40
1.0
 10
39.8456612059904
 20
91.91260444587333
 30
0.0
 10
39.81284794051042
 20
91.50640931456347
 30
0.0
 10
39.72915280666284
 20
90.47034797211764
 30
0.0
 10
39.4258815025308
 20
89.46418538929561
 30
0.0
 10
39.24150984473979
 20
88.85249591892814
 30
0.0
  0
LINE
  5
26F
330
1F
100
AcDbEntity
  8
0
  6
Continuous
 62
     7
370
    25
100
AcDbLine
 10
35.0969526553
 20
88.8524959189
 30
0.0
 11
39.2415098447
 21
88.8524959189
 31
0.0
  0
SPLINE
  5
270
330
1F
100
AcDbEntity
  8
0
  6
Continuous
 62
     7
370
    25
100
AcDbSpline
210
0.0
220
0.0
230
1.0
 70
     8
 71
     3
 72
    10
 73
     6
 74
     0
 42
0.00000001
 43
0.00000001
 40
0.0
 40
0.0
 40
0.0
 40
0.0
 40
0.5
 40
0.5
 40
1.0
 40
1.0
 40
1.0
 40
1.0
 10
35.0969526552597
 20
88.8524959189281
 30
0.0
 10
34.88814273059344
 20
89.5085086855332
 30
0.0
 10
34.71760859084619
 20
90.16877559239092
 30
0.0
 10
34.48282278582727
 20
91.50112211102594
 30
0.0
 10
34.41923124999997
 20
92.17327509251326
 30
0.0
 10
34.41923124999997
 20
92.85249591892816
 30
0.0
  0
SPLINE
  5
271
330
1F
100
AcDbEntity
  8
0
  6
Continuous
 62
     7
370
    25
100
AcDbSpline
210
0.0
220
0.0
230
1.0
 70
     8
 71
     3
 72
     9
 73
     5
 74
     0
 42
0.00000001
 43
0.00000001
 40
0.0
 40
0.0
 40
0.0
 40
0.0
 40
0.6391306625070836
 40
1.0
 40
1.0
 40
1.0
 40
1.0
 10
52.59695265526018
 20
88.8524959189281
 30
0.0
 10
52.39928080302457
 20
89.50263187047409
 30
0.0
 10
52.08999842333053
 20
90.51985102405958
 30
0.0
 10
52.02478512052488
 20
91.56820830984022
 30
0.0
 10
52.00125163914568
 20
91.94652830901576
 30
0.0
  0
SPLINE
  5
272
330
1F
100
AcDbEntity
  8
0
  6
Continuous
 62
     7
370
    25
100
AcDbSpline
210
0.0
220
0.0
230
1.0
 70
     8
 71
     3
 72
    10
 73
     6
 74
     0
 42
0.00000001
 43
0.00000001
 40
0.0
 40
0.0
 40
0.0
 40
0.0
 40
0.5
 40
0.5
 40
1.0
 40
1.0
 40
1.0
 40
1.0
 10
56.74150984474025
 20
88.8524959189281
 30
0.0
 10
56.95031976940651
 20
89.5085086855332
 30
0.0
 10
57.12085390915377
 20
90.16877559239092
 30
0.0
 10
57.35563971417268
 20
91.50112211102594
 30
0.0
 10
57.41923124999997
 20
92.17327509251326
 30
0.0
 10
57.41923124999997
 20
92.85249591892816
 30
0.0
  0
LINE
  5
273
330
1F
100
AcDbEntity
  8
0
  6
Continuous
 62
     7
370
    25
100
AcDbLine
 10
52.5969526553
 20
88.8524959189
 30
0.0
 11
56.7415098447
 21
88.8524959189
 31
0.0
  0
LINE
  5
274
330
1F
100
AcDbEntity
  8
0
  6
Continuous
 62
     7
370
    25
100
AcDbLine
 10
51.91923125
 20
91.8109932968
 30
0.0
 11
51.91923125
 21
89.6024959189
 31
0.0
  0
LINE
  5
275
330
1F
100
AcDbEntity
  8
0
  6
Continuous
 62
     7
370
    25
100
AcDbLine
 10
51.91923125
 20
89.6024959189
 30
0.0
 11
48.7031134314
 21
89.6024959189
 31
0.0
  0
LINE
  5
276
330
1F
100
AcDbEntity
  8
0
  6
Continuous
 62
     7
370
    25
100
AcDbLine
 10
43.1353490686
 20
89.6024959189
 30
0.0
 11
39.91923125
 21
89.6024959189
 31
0.0
  0
LINE
  5
277
330
1F
100
AcDbEntity
  8
0
  6
Continuous
 62
     7
370
    25
100
AcDbLine
 10
39.91923125
 20
91.8109932968
 30
0.0
 11
39.91923125
 21
89.6024959189
 31
0.0
  0
LINE
  5
278
330
1F
100
AcDbEntity
  8
0
  6
Continuous
 62
     7
370
    25
100
AcDbLine
 10
39.91923125
 20
104.6024959189
 30
0.0
 11
39.91923125
 21
102.3939985411
 31
0.0
  0
LINE
  5
279
330
1F
100
AcDbEntity
  8
0
  6
Continuous
 62
     7
370
    25
100
AcDbLine
 10
39.91923125
 20
104.6024959189
 30
0.0
 11
43.1353490686
 21
104.6024959189
 31
0.0
  0
LINE
  5
27A
330
1F
100
AcDbEntity
  8
0
  6
Continuous
 62
     7
370
    25
100
AcDbLine
 10
48.7031134314
 20
104.6024959189
 30
0.0
 11
51.91923125
 21
104.6024959189
 31
0.0
  0
LINE
  5
27B
330
1F
100
AcDbEntity
  8
0
  6
Continuous
 62
     7
370
    25
100
AcDbLine
 10
51.91923125
 20
104.6024959189
 30
0.0
 11
51.91923125
 21
102.3939985411
 31
0.0
  0
SPLINE
  5
27C
330
1F
100
AcDbEntity
  8
0
  6
Continuous
 62
     7
370
    25
100
AcDbSpline
210
0.0
220
0.0
230
1.0
 70
     8
 71
     3
 72
     8
 73
     4
 74
     0
 42
0.00000001
 43
0.00000001
 40
0.0
 40
0.0
 40
0.0
 40
0.0
 40
1.0
 40
1.0
 40
1.0
 40
1.0
 10
39.40299517302081
 20
105.6024959189282
 30
0.0
 10
39.57669824924057
 20
105.2699844967927
 30
0.0
 10
39.74900046830328
 20
104.9366573968938
 30
0.0
 10
39.91923124999998
 20
104.6024959189281
 30
0.0
  0
SPLINE
  5
27D
330
1F
100
AcDbEntity
  8
0
  6
Continuous
 62
     7
370
    25
100
AcDbSpline
210
0.0
220
0.0
230
1.0
 70
     8
 71
     3
 72
    10
 73
     6
 74
     0
 42
0.00000001
 43
0.00000001
 40
0.0
 40
0.0
 40
0.0
 40
0.0
 40
0.5
 40
0.5
 40
1.0
 40
1.0
 40
1.0
 40
1.0
 10
39.24150984474544
 20
105.6024959189281
 30
0.0
 10
39.21783445032113
 20
105.6024959189281
 30
0.0
 10
39.20474334043082
 20
105.5797034695987
 30
0.0
 10
39.20465701914242
 20
105.4917607655056
 30
0.0
 10
39.21782595308625
 20
105.4269029918316
 30
0.0
 10
39.24150984473977
 20
105.3524959189282
 30
0.0
  0
SPLINE
  5
27E
330
1F
100
AcDbEntity
  8
0
  6
Continuous
 62
     7
370
    25
100
AcDbSpline
210
0.0
220
0.0
230
1.0
 70
    24
 71
     3
 72
     8
 73
     4
 74
     0
 42
0.00000001
 43
0.00000001
 40
0.0
 40
0.0
 40
0.0
 40
0.0
 40
1.0
 40
1.0
 40
1.0
 40
1.0
 10
39.40299517302079
 20
105.6024959189281
 30
0.0
 10
39.35209645609839
 20
105.6024959189281
 30
0.0
 10
39.29816231984776
 20
105.6024959189281
 30
0.0
 10
39.24150984474016
 20
105.6024959189281
 30
0.0
  0
SPLINE
  5
27F
330
1F
100
AcDbEntity
  8
0
  6
Continuous
 62
     7
370
    25
100
AcDbSpline
210
0.0
220
0.0
230
1.0
 70
     8
 71
     3
 72
     8
 73
     4
 74
     0
 42
0.00000001
 43
0.00000001
 40
0.0
 40
0.0
 40
0.0
 40
0.0
 40
1.0
 40
1.0
 40
1.0
 40
1.0
 10
51.91923124999997
 20
104.6024959189281
 30
0.0
 10
52.0895088573437
 20
104.9367493152135
 30
0.0
 10
52.26178060596937
 20
105.2700158047824
 30
0.0
 10
52.43546732697904
 20
105.6024959189279
 30
0.0
  0
SPLINE
  5
280
330
1F
100
AcDbEntity
  8
0
  6
Continuous
 62
     7
370
    25
100
AcDbSpline
210
0.0
220
0.0
230
1.0
 70
    24
 71
     3
 72
     8
 73
     4
 74
     0
 42
0.00000001
 43
0.00000001
 40
0.0
 40
0.0
 40
0.0
 40
0.0
 40
1.0
 40
1.0
 40
1.0
 40
1.0
 10
52.43546732697862
 20
105.6024959189281
 30
0.0
 10
52.48636356023386
 20
105.6024959189281
 30
0.0
 10
52.54029751519769
 20
105.6024959189281
 30
0.0
 10
52.59695265526017
 20
105.6024959189281
 30
0.0
  0
SPLINE
  5
281
330
1F
100
AcDbEntity
  8
0
  6
Continuous
 62
     7
370
    25
100
AcDbSpline
210
0.0
220
0.0
230
1.0
 70
     8
 71
     3
 72
    10
 73
     6
 74
     0
 42
0.00000001
 43
0.00000001
 40
0.0
 40
0.0
 40
0.0
 40
0.0
 40
0.5
 40
0.5
 40
1.0
 40
1.0
 40
1.0
 40
1.0
 10
52.59695265526017
 20
105.3524959189281
 30
0.0
 10
52.62062804968456
 20
105.4268762963055
 30
0.0
 10
52.6337191595692
 20
105.4911769350913
 30
0.0
 10
52.63380548085748
 20
105.5793926198742
 30
0.0
 10
52.62063654691364
 20
105.6024959189281
 30
0.0
 10
52.59695265526017
 20
105.6024959189281
 30
0.0
  0
SPLINE
  5
282
330
1F
100
AcDbEntity
  8
0
  6
Continuous
 62
     7
370
    25
100
AcDbSpline
210
0.0
220
0.0
230
1.0
 70
     8
 71
     3
 72
    10
 73
     6
 74
     0
 42
0.00000001
 43
0.00000001
 40
0.0
 40
0.0
 40
0.0
 40
0.0
 40
0.5
 40
0.5
 40
1.0
 40
1.0
 40
1.0
 40
1.0
 10
35.09695265526017
 20
105.6024959189281
 30
0.0
 10
35.12062655581611
 20
105.6024959189281
 30
0.0
 10
35.13371911299526
 20
105.5797053472807
 30
0.0
 10
35.13380552697754
 20
105.4917593499819
 30
0.0
 10
35.12063513537892
 20
105.4268985572491
 30
0.0
 10
35.09695265526017
 20
105.3524959189281
 30
0.0
  0
SPLINE
  5
283
330
1F
100
AcDbEntity
  8
0
  6
Continuous
 62
     7
370
    25
100
AcDbSpline
210
0.0
220
0.0
230
1.0
 70
    24
 71
     3
 72
    12
 73
     8
 74
     0
 42
0.00000001
 43
0.00000001
 40
0.0
 40
0.0
 40
0.0
 40
0.0
 40
0.25
 40
0.25
 40
0.5
 40
0.5
 40
1.0
 40
1.0
 40
1.0
 40
1.0
 10
34.41923124999997
 20
105.6024959189281
 30
0.0
 10
34.41923124999997
 20
105.6024959189281
 30
0.0
 10
34.43513705566816
 20
105.6024959189281
 30
0.0
 10
34.49698192656057
 20
105.6024959189281
 30
0.0
 10
34.54279526742678
 20
105.6024959189281
 30
0.0
 10
34.71962844132914
 20
105.6024959189281
 30
0.0
 10
34.88990670483278
 20
105.6024959189281
 30
0.0
 10
35.09695265526017
 20
105.6024959189281
 30
0.0
  0
LINE
  5
284
330
1F
100
AcDbEntity
  8
0
  6
Continuous
 62
     7
370
    25
100
AcDbLine
 10
34.41923125
 20
101.3524959189
 30
0.0
 11
34.41923125
 21
105.6024959189
 31
0.0
  0
SPLINE
  5
285
330
1F
100
AcDbEntity
  8
0
  6
Continuous
 62
     7
370
    25
100
AcDbSpline
210
0.0
220
0.0
230
1.0
 70
     8
 71
     3
 72
    10
 73
     6
 74
     0
 42
0.00000001
 43
0.00000001
 40
0.0
 40
0.0
 40
0.0
 40
0.0
 40
0.5
 40
0.5
 40
1.0
 40
1.0
 40
1.0
 40
1.0
 10
56.74150984473979
 20
105.6024959189281
 30
0.0
 10
56.71783594418383
 20
105.6024959189281
 30
0.0
 10
56.7047433870047
 20
105.5797053472807
 30
0.0
 10
56.70465697302241
 20
105.4917593499819
 30
0.0
 10
56.71782736462103
 20
105.4268985572491
 30
0.0
 10
56.74150984473978
 20
105.3524959189282
 30
0.0
  0
SPLINE
  5
286
330
1F
100
AcDbEntity
  8
0
  6
Continuous
 62
     7
370
    25
100
AcDbSpline
210
0.0
220
0.0
230
1.0
 70
    24
 71
     3
 72
    12
 73
     8
 74
     0
 42
0.00000001
 43
0.00000001
 40
0.0
 40
0.0
 40
0.0
 40
0.0
 40
0.25
 40
0.25
 40
0.5
 40
0.5
 40
1.0
 40
1.0
 40
1.0
 40
1.0
 10
57.41923124999998
 20
105.6024959189281
 30
0.0
 10
57.41923124999998
 20
105.6024959189281
 30
0.0
 10
57.4033254443318
 20
105.6024959189281
 30
0.0
 10
57.34148057343938
 20
105.6024959189281
 30
0.0
 10
57.29566723257318
 20
105.6024959189281
 30
0.0
 10
57.11883405867081
 20
105.6024959189281
 30
0.0
 10
56.94855579516718
 20
105.6024959189281
 30
0.0
 10
56.74150984473979
 20
105.6024959189281
 30
0.0
  0
LINE
  5
287
330
1F
100
AcDbEntity
  8
0
  6
Continuous
 62
     7
370
    25
100
AcDbLine
 10
57.41923125
 20
101.3524959189
 30
0.0
 11
57.41923125
 21
105.6024959189
 31
0.0
  0
SPLINE
  5
288
330
1F
100
AcDbEntity
  8
0
  6
Continuous
 62
     7
370
    25
100
AcDbSpline
210
0.0
220
0.0
230
1.0
 70
     8
 71
     3
 72
     8
 73
     4
 74
     0
 42
0.00000001
 43
0.00000001
 40
0.0
 40
0.0
 40
0.0
 40
0.0
 40
1.0
 40
1.0
 40
1.0
 40
1.0
 10
52.43546732697915
 20
88.60249591892814
 30
0.0
 10
52.26176425075938
 20
88.93500734106365
 30
0.0
 10
52.08946203169668
 20
89.26833444096252
 30
0.0
 10
51.91923124999997
 20
89.60249591892814
 30
0.0
  0
SPLINE
  5
289
330
1F
100
AcDbEntity
  8
0
  6
Continuous
 62
     7
370
    25
100
AcDbSpline
210
0.0
220
0.0
230
1.0
 70
     8
 71
     3
 72
    10
 73
     6
 74
     0
 42
0.00000001
 43
0.00000001
 40
0.0
 40
0.0
 40
0.0
 40
0.0
 40
0.5
 40
0.5
 40
1.0
 40
1.0
 40
1.0
 40
1.0
 10
52.59695265526019
 20
88.60249591892814
 30
0.0
 10
52.62062804968457
 20
88.60249591892814
 30
0.0
 10
52.6337191595692
 20
88.62528836825796
 30
0.0
 10
52.63380548085748
 20
88.713231072351
 30
0.0
 10
52.62063654691364
 20
88.77808884602484
 30
0.0
 10
52.59695265526019
 20
88.85249591892808
 30
0.0
  0
SPLINE
  5
28A
330
1F
100
AcDbEntity
  8
0
  6
Continuous
 62
     7
370
    25
100
AcDbSpline
210
0.0
220
0.0
230
1.0
 70
    24
 71
     3
 72
     8
 73
     4
 74
     0
 42
0.00000001
 43
0.00000001
 40
0.0
 40
0.0
 40
0.0
 40
0.0
 40
1.0
 40
1.0
 40
1.0
 40
1.0
 10
52.43546732697916
 20
88.60249591892814
 30
0.0
 10
52.48636356023425
 20
88.60249591892814
 30
0.0
 10
52.5402975151979
 20
88.60249591892814
 30
0.0
 10
52.59695265526017
 20
88.60249591892814
 30
0.0
  0
SPLINE
  5
28B
330
1F
100
AcDbEntity
  8
0
  6
Continuous
 62
     7
370
    25
100
AcDbSpline
210
0.0
220
0.0
230
1.0
 70
     8
 71
     3
 72
     8
 73
     4
 74
     0
 42
0.00000001
 43
0.00000001
 40
0.0
 40
0.0
 40
0.0
 40
0.0
 40
1.0
 40
1.0
 40
1.0
 40
1.0
 10
39.91923124999998
 20
89.60249591892814
 30
0.0
 10
39.74895364265623
 20
89.26824252264275
 30
0.0
 10
39.57668189403051
 20
88.93497603307374
 30
0.0
 10
39.40299517302081
 20
88.60249591892814
 30
0.0
  0
SPLINE
  5
28C
330
1F
100
AcDbEntity
  8
0
  6
Continuous
 62
     7
370
    25
100
AcDbSpline
210
0.0
220
0.0
230
1.0
 70
    24
 71
     3
 72
     8
 73
     4
 74
     0
 42
0.00000001
 43
0.00000001
 40
0.0
 40
0.0
 40
0.0
 40
0.0
 40
1.0
 40
1.0
 40
1.0
 40
1.0
 10
39.40299517302081
 20
88.60249591892814
 30
0.0
 10
39.35209645609829
 20
88.60249591892814
 30
0.0
 10
39.29816231984753
 20
88.60249591892814
 30
0.0
 10
39.24150984473979
 20
88.60249591892814
 30
0.0
  0
SPLINE
  5
28D
330
1F
100
AcDbEntity
  8
0
  6
Continuous
 62
     7
370
    25
100
AcDbSpline
210
0.0
220
0.0
230
1.0
 70
     8
 71
     3
 72
    10
 73
     6
 74
     0
 42
0.00000001
 43
0.00000001
 40
0.0
 40
0.0
 40
0.0
 40
0.0
 40
0.5
 40
0.5
 40
1.0
 40
1.0
 40
1.0
 40
1.0
 10
39.24150984473979
 20
88.85249591892814
 30
0.0
 10
39.2178344503154
 20
88.77811554155082
 30
0.0
 10
39.20474334043076
 20
88.71381490276505
 30
0.0
 10
39.20465701914247
 20
88.6255992179821
 30
0.0
 10
39.21782595308632
 20
88.60249591892814
 30
0.0
 10
39.24150984473979
 20
88.60249591892814
 30
0.0
  0
SPLINE
  5
28E
330
1F
100
AcDbEntity
  8
0
  6
Continuous
 62
     7
370
    25
100
AcDbSpline
210
0.0
220
0.0
230
1.0
 70
    24
 71
     3
 72
    12
 73
     8
 74
     0
 42
0.00000001
 43
0.00000001
 40
0.0
 40
0.0
 40
0.0
 40
0.0
 40
0.2500000000000001
 40
0.2500000000000001
 40
0.5000000000000001
 40
0.5000000000000001
 40
1.0
 40
1.0
 40
1.0
 40
1.0
 10
57.41923124999998
 20
88.60249591892814
 30
0.0
 10
57.41923124999998
 20
88.60249591892814
 30
0.0
 10
57.4033254443318
 20
88.60249591892814
 30
0.0
 10
57.34148057343938
 20
88.60249591892814
 30
0.0
 10
57.29566723257318
 20
88.60249591892814
 30
0.0
 10
57.11883405867081
 20
88.60249591892814
 30
0.0
 10
56.94855579516718
 20
88.60249591892814
 30
0.0
 10
56.74150984473979
 20
88.60249591892814
 30
0.0
  0
SPLINE
  5
28F
330
1F
100
AcDbEntity
  8
0
  6
Continuous
 62
     7
370
    25
100
AcDbSpline
210
0.0
220
0.0
230
1.0
 70
     8
 71
     3
 72
    10
 73
     6
 74
     0
 42
0.00000001
 43
0.00000001
 40
0.0
 40
0.0
 40
0.0
 40
0.0
 40
0.5
 40
0.5
 40
1.0
 40
1.0
 40
1.0
 40
1.0
 10
56.74150984473979
 20
88.85249591892814
 30
0.0
 10
56.71783760482822
 20
88.77812545200258
 30
0.0
 10
56.70474361489296
 20
88.71381985571473
 30
0.0
 10
56.70465674743152
 20
88.62559706790888
 30
0.0
 10
56.71782653719087
 20
88.60249591892814
 30
0.0
 10
56.74150984473979
 20
88.60249591892814
 30
0.0
  0
LINE
  5
290
330
1F
100
AcDbEntity
  8
0
  6
Continuous
 62
     7
370
    25
100
AcDbLine
 10
57.41923125
 20
88.6024959189
 30
0.0
 11
57.41923125
 21
92.8524959189
 31
0.0
  0
SPLINE
  5
291
330
1F
100
AcDbEntity
  8
0
  6
Continuous
 62
     7
370
    25
100
AcDbSpline
210
0.0
220
0.0
230
1.0
 70
     8
 71
     3
 72
    10
 73
     6
 74
     0
 42
0.00000001
 43
0.00000001
 40
0.0
 40
0.0
 40
0.0
 40
0.0
 40
0.5
 40
0.5
 40
1.0
 40
1.0
 40
1.0
 40
1.0
 10
35.09695265526017
 20
88.85249591892814
 30
0.0
 10
35.12062489517173
 20
88.77812545200258
 30
0.0
 10
35.13371888510699
 20
88.71381985571473
 30
0.0
 10
35.13380575256843
 20
88.62559706790888
 30
0.0
 10
35.12063596280908
 20
88.60249591892814
 30
0.0
 10
35.09695265526017
 20
88.60249591892814
 30
0.0
  0
SPLINE
  5
292
330
1F
100
AcDbEntity
  8
0
  6
Continuous
 62
     7
370
    25
100
AcDbSpline
210
0.0
220
0.0
230
1.0
 70
    24
 71
     3
 72
    12
 73
     8
 74
     0
 42
0.00000001
 43
0.00000001
 40
0.0
 40
0.0
 40
0.0
 40
0.0
 40
0.25
 40
0.25
 40
0.5
 40
0.5
 40
1.0
 40
1.0
 40
1.0
 40
1.0
 10
34.41923124999997
 20
88.60249591892814
 30
0.0
 10
34.41923124999997
 20
88.60249591892814
 30
0.0
 10
34.43513705566816
 20
88.60249591892814
 30
0.0
 10
34.49698192656057
 20
88.60249591892814
 30
0.0
 10
34.54279526742678
 20
88.60249591892814
 30
0.0
 10
34.71962844132914
 20
88.60249591892814
 30
0.0
 10
34.88990670483278
 20
88.60249591892814
 30
0.0
 10
35.09695265526017
 20
88.60249591892814
 30
0.0
  0
LINE
  5
293
330
1F
100
AcDbEntity
  8
0
  6
Continuous
 62
     7
370
    25
100
AcDbLine
 10
34.41923125
 20
88.6024959189
 30
0.0
 11
34.41923125
 21
92.8524959189
 31
0.0
  0
LINE
  5
294
330
1F
100
AcDbEntity
  8
0
  6
Continuous
 62
     7
370
    25
100
AcDbLine
 10
52.5969526553
 20
105.6024959189
 30
0.0
 11
56.7415098447
 21
105.6024959189
 31
0.0
  0
LINE
  5
295
330
1F
100
AcDbEntity
  8
0
  6
Continuous
 62
     7
370
    25
100
AcDbLine
 10
35.0969526553
 20
105.6024959189
 30
0.0
 11
39.2415098447
 21
105.6024959189
 31
0.0
  0
LINE
  5
296
330
1F
100
AcDbEntity
  8
0
  6
Continuous
 62
     7
370
    25
100
AcDbLine
 10
56.7415098447
 20
88.6024959189
 30
0.0
 11
52.5969526553
 21
88.6024959189
 31
0.0
  0
LINE
  5
297
330
1F
100
AcDbEntity
  8
0
  6
Continuous
 62
     7
370
    25
100
AcDbLine
 10
39.2415098447
 20
88.6024959189
 30
0.0
 11
35.0969526553
 21
88.6024959189
 31
0.0
  0
LINE
  5
298
330
1F
100
AcDbEntity
  8
0
  6
Continuous
 62
     7
370
    25
100
AcDbLine
 10
52.435467327
 20
105.6024959189
 30
0.0
 11
39.402995173
 21
105.6024959189
 31
0.0
  0
LINE
  5
299
330
1F
100
AcDbEntity
  8
0
  6
Continuous
 62
     7
370
    25
100
AcDbLine
 10
52.435467327
 20
88.6024959189
 30
0.0
 11
39.402995173
 21
88.6024959189
 31
0.0
  0
LINE
  5
29A
330
1F
100
AcDbEntity
  8
0
  6
Continuous
 62
     7
370
    25
100
AcDbLine
 10
33.9646813822
 20
100.449921225
 30
0.0
 11
33.9958275931
 21
100.4534193809
 31
0.0
  0
SPLINE
  5
29B
330
1F
100
AcDbEntity
  8
0
  6
Continuous
 62
     7
370
    25
100
AcDbSpline
210
0.0
220
0.0
230
1.0
 70
     8
 71
     3
 72
    11
 73
     7
 74
     0
 42
0.00000001
 43
0.00000001
 40
0.0
 40
0.0
 40
0.0
 40
0.0
 40
0.3703424215671238
 40
0.8081736631678934
 40
0.9944317652533823
 40
0.9999999999999999
 40
0.9999999999999999
 40
0.9999999999999999
 40
0.9999999999999999
 10
34.1768022265533
 20
99.95439089417458
 30
0.0
 10
33.84480826028511
 20
99.93964829910361
 30
0.0
 10
33.12031988346551
 20
99.90747651329335
 30
0.0
 10
32.19019413790762
 20
99.66190143852866
 30
0.0
 10
31.60335643836509
 20
99.50793125569045
 30
0.0
 10
31.42442517333526
 20
99.46024478143903
 30
0.0
 10
31.41923124999997
 20
99.45886056336316
 30
0.0
  0
LINE
  5
29C
330
1F
100
AcDbEntity
  8
0
  6
Continuous
 62
     7
370
    25
100
AcDbLine
 10
28.8424802773
 20
100.4534100573
 30
0.0
 11
28.8737811178
 21
100.449921225
 31
0.0
  0
SPLINE
  5
29D
330
1F
100
AcDbEntity
  8
0
  6
Continuous
 62
     7
370
    25
100
AcDbSpline
210
0.0
220
0.0
230
1.0
 70
     8
 71
     3
 72
    11
 73
     7
 74
     0
 42
0.00000001
 43
0.00000001
 40
0.0
 40
0.0
 40
0.0
 40
0.0
 40
0.0055682347466184
 40
0.1918263368321039
 40
0.6296575784328784
 40
1.0
 40
1.0
 40
1.0
 40
1.0
 10
31.41923124999997
 20
99.45886056336316
 30
0.0
 10
31.41403732666469
 20
99.46024478143903
 30
0.0
 10
31.23510606163486
 20
99.50793125569038
 30
0.0
 10
30.64826836209233
 20
99.66190143852874
 30
0.0
 10
29.71814261653444
 20
99.90747651329332
 30
0.0
 10
28.99365423971485
 20
99.93964829910361
 30
0.0
 10
28.66166027344666
 20
99.95439089417458
 30
0.0
  0
LINE
  5
29E
330
1F
100
AcDbEntity
  8
0
  6
Continuous
 62
     7
370
    25
100
AcDbLine
 10
57.8424802773
 20
100.4534100573
 30
0.0
 11
57.8737811178
 21
100.449921225
 31
0.0
  0
SPLINE
  5
29F
330
1F
100
AcDbEntity
  8
0
  6
Continuous
 62
     7
370
    25
100
AcDbSpline
210
0.0
220
0.0
230
1.0
 70
     8
 71
     3
 72
    11
 73
     7
 74
     0
 42
0.00000001
 43
0.00000001
 40
0.0
 40
0.0
 40
0.0
 40
0.0
 40
0.0055682347466183
 40
0.1918263368321041
 40
0.6296575784328767
 40
1.0
 40
1.0
 40
1.0
 40
1.0
 10
60.41923124999998
 20
99.45886056336316
 30
0.0
 10
60.41403732666469
 20
99.46024478143903
 30
0.0
 10
60.23510606163493
 20
99.50793125569038
 30
0.0
 10
59.64826836209226
 20
99.66190143852874
 30
0.0
 10
58.71814261653446
 20
99.90747651329332
 30
0.0
 10
57.99365423971485
 20
99.93964829910361
 30
0.0
 10
57.66166027344666
 20
99.95439089417458
 30
0.0
  0
SPLINE
  5
2A0
330
1F
100
AcDbEntity
  8
0
  6
Continuous
 62
     7
370
    25
100
AcDbSpline
210
0.0
220
0.0
230
1.0
 70
     8
 71
     3
 72
    11
 73
     7
 74
     0
 42
0.00000001
 43
0.00000001
 40
0.0
 40
0.0
 40
0.0
 40
0.0
 40
0.0055682347466183
 40
0.1918263368321047
 40
0.6296575784328776
 40
1.0
 40
1.0
 40
1.0
 40
1.0
 10
60.41923124999998
 20
94.74613127449314
 30
0.0
 10
60.42442517333527
 20
94.74474705641728
 30
0.0
 10
60.60335643836516
 20
94.69706058216615
 30
0.0
 10
61.19019413790755
 20
94.54309039932728
 30
0.0
 10
62.12031988346553
 20
94.29751532456304
 30
0.0
 10
62.84480826028511
 20
94.26534353875272
 30
0.0
 10
63.17680222655331
 20
94.2506009436817
 30
0.0
  0
SPLINE
  5
2A1
330
1F
100
AcDbEntity
  8
0
  6
Continuous
 62
     7
370
    25
100
AcDbSpline
210
0.0
220
0.0
230
1.0
 70
     8
 71
     3
 72
    11
 73
     7
 74
     0
 42
0.00000001
 43
0.00000001
 40
0.0
 40
0.0
 40
0.0
 40
0.0
 40
0.3703424215671233
 40
0.808173663167896
 40
0.9944317652533816
 40
1.0
 40
1.0
 40
1.0
 40
1.0
 10
57.66166027344666
 20
94.2506009436817
 30
0.0
 10
57.99365423971485
 20
94.26534353875272
 30
0.0
 10
58.71814261653445
 20
94.29751532456304
 30
0.0
 10
59.64826836209232
 20
94.5430903993273
 30
0.0
 10
60.23510606163487
 20
94.69706058216613
 30
0.0
 10
60.41403732666468
 20
94.74474705641728
 30
0.0
 10
60.41923124999998
 20
94.74613127449314
 30
0.0
  0
ELLIPSE
  5
2A2
330
1F
100
AcDbEntity
  8
0
  6
Continuous
 62
     7
370
    25
100
AcDbEllipse
 10
60.41923125
 20
94.9820059044
 30
0.0
 11
6.5
 21
0.0
 31
0.0
210
0.0
220
0.0
230
1.0
 40
0.124260355
 41
3.696234591426896
 42
4.274264664245605
  0
LINE
  5
2A3
330
1F
100
AcDbEntity
  8
0
  6
Continuous
 62
     7
370
    25
100
AcDbLine
 10
54.8936523324
 20
99.6483481617
 30
0.0
 11
54.8936523324
 21
94.5566436762
 31
0.0
  0
ELLIPSE
  5
2A4
330
1F
100
AcDbEntity
  8
0
  6
Continuous
 62
     7
370
    25
100
AcDbEllipse
 10
60.41923125
 20
99.2229859335
 30
0.0
 11
6.5
 21
0.0
 31
0.0
210
0.0
220
0.0
230
1.0
 40
0.124260355
 41
2.008920642934011
 42
2.586950715752785
  0
SPLINE
  5
2A5
330
1F
100
AcDbEntity
  8
0
  6
Continuous
 62
     7
370
    25
100
AcDbSpline
210
0.0
220
0.0
230
1.0
 70
     8
 71
     3
 72
    11
 73
     7
 74
     0
 42
0.00000001
 43
0.00000001
 40
0.0
 40
0.0
 40
0.0
 40
0.0
 40
0.3703424215671223
 40
0.8081736631678952
 40
0.9944317652533818
 40
1.0
 40
1.0
 40
1.0
 40
1.0
 10
63.17680222655331
 20
99.95439089417458
 30
0.0
 10
62.8448082602851
 20
99.9396482991036
 30
0.0
 10
62.12031988346551
 20
99.90747651329332
 30
0.0
 10
61.19019413790767
 20
99.66190143852877
 30
0.0
 10
60.60335643836505
 20
99.50793125569037
 30
0.0
 10
60.42442517333527
 20
99.46024478143902
 30
0.0
 10
60.41923124999998
 20
99.45886056336316
 30
0.0
  0
ELLIPSE
  5
2A6
330
1F
100
AcDbEntity
  8
0
  6
Continuous
 62
     7
370
    25
100
AcDbEllipse
 10
31.41923125
 20
99.2229859335
 30
0.0
 11
6.500000000000004
 21
0.0
 31
0.0
210
0.0
220
0.0
230
1.0
 40
0.124260355
 41
0.5546419378370073
 42
1.132672010655782
  0
LINE
  5
2A7
330
1F
100
AcDbEntity
  8
0
  6
Continuous
 62
     7
370
    25
100
AcDbLine
 10
36.9448101676
 20
99.6483481617
 30
0.0
 11
36.9448101676
 21
94.5566436762
 31
0.0
  0
ELLIPSE
  5
2A8
330
1F
100
AcDbEntity
  8
0
  6
Continuous
 62
     7
370
    25
100
AcDbEllipse
 10
31.41923125
 20
94.9820059044
 30
0.0
 11
6.500000000000004
 21
0.0
 31
0.0
210
0.0
220
0.0
230
1.0
 40
0.124260355
 41
5.150513296523818
 42
5.728543369342645
  0
SPLINE
  5
2A9
330
1F
100
AcDbEntity
  8
0
  6
Continuous
 62
     7
370
    25
100
AcDbSpline
210
0.0
220
0.0
230
1.0
 70
     8
 71
     3
 72
    11
 73
     7
 74
     0
 42
0.00000001
 43
0.00000001
 40
0.0
 40
0.0
 40
0.0
 40
0.0
 40
0.0055682347466179
 40
0.1918263368321036
 40
0.6296575784328765
 40
1.0
 40
1.0
 40
1.0
 40
1.0
 10
31.41923124999997
 20
94.74613127449314
 30
0.0
 10
31.42442517333527
 20
94.7447470564173
 30
0.0
 10
31.60335643836518
 20
94.69706058216629
 30
0.0
 10
32.1901941379075
 20
94.54309039932716
 30
0.0
 10
33.12031988346554
 20
94.29751532456308
 30
0.0
 10
33.84480826028512
 20
94.26534353875273
 30
0.0
 10
34.1768022265533
 20
94.2506009436817
 30
0.0
  0
SPLINE
  5
2AA
330
1F
100
AcDbEntity
  8
0
  6
Continuous
 62
     7
370
    25
100
AcDbSpline
210
0.0
220
0.0
230
1.0
 70
     8
 71
     3
 72
    11
 73
     7
 74
     0
 42
0.00000001
 43
0.00000001
 40
0.0
 40
0.0
 40
0.0
 40
0.0
 40
0.3703424215671234
 40
0.8081736631678964
 40
0.9944317652533821
 40
1.0
 40
1.0
 40
1.0
 40
1.0
 10
28.66166027344665
 20
94.2506009436817
 30
0.0
 10
28.99365423971485
 20
94.26534353875273
 30
0.0
 10
29.71814261653443
 20
94.29751532456308
 30
0.0
 10
30.64826836209237
 20
94.54309039932714
 30
0.0
 10
31.23510606163482
 20
94.69706058216629
 30
0.0
 10
31.41403732666468
 20
94.74474705641728
 30
0.0
 10
31.41923124999997
 20
94.74613127449314
 30
0.0
  0
LINE
  5
2AB
330
1F
100
AcDbEntity
  8
0
  6
Continuous
 62
     7
370
    25
100
AcDbLine
 10
33.9646813822
 20
93.7550706129
 30
0.0
 11
33.9959461111
 21
93.7515795792
 31
0.0
  0
LINE
  5
2AC
330
1F
100
AcDbEntity
  8
0
  6
Continuous
 62
     7
370
    25
100
AcDbLine
 10
28.8737811178
 20
93.7550706129
 30
0.0
 11
28.8426349069
 21
93.7515724569
 31
0.0
  0
LINE
  5
2AD
330
1F
100
AcDbEntity
  8
0
  6
Continuous
 62
     7
370
    25
100
AcDbLine
 10
57.8737811178
 20
93.7550706129
 30
0.0
 11
57.8426349069
 21
93.7515724569
 31
0.0
  0
LINE
  5
2AE
330
1F
100
AcDbEntity
  8
0
  6
Continuous
 62
     7
370
    25
100
AcDbLine
 10
62.9959822227
 20
93.7515817806
 30
0.0
 11
62.9646813822
 21
93.7550706129
 31
0.0
  0
CIRCLE
  5
2AF
330
1F
100
AcDbEntity
  8
0
  6
Continuous
 62
     7
370
    25
100
AcDbCircle
 10
45.91923125
 20
97.1024959189
 30
0.0
 40
5.584181783769409
  0
CIRCLE
  5
2B0
330
1F
100
AcDbEntity
  8
0
  6
Continuous
 62
     7
370
    25
100
AcDbCircle
 10
45.91923125
 20
97.1024959189
 30
0.0
 40
5.095107983402499
  0
CIRCLE
  5
2B1
330
1F
100
AcDbEntity
  8
0
  6
Continuous
 62
     7
370
    25
100
AcDbCircle
 10
45.91923125
 20
97.1024959189
 30
0.0
 40
4.500000000000014
  0
ARC
  5
2B2
330
1F
100
AcDbEntity
  8
0
  6
Continuous
 62
     7
370
    25
100
AcDbCircle
 10
45.91923125
 20
97.1024959189
 30
0.0
 40
5.925113123340042
100
AcDbArc
 50
210.7429878176
 51
329.2570121825
  0
ARC
  5
2B3
330
1F
100
AcDbEntity
  8
0
  6
Continuous
 62
     7
370
    25
100
AcDbCircle
 10
45.91923125
 20
97.1024959189
 30
0.0
 40
5.925113123340042
100
AcDbArc
 50
180.0
 51
210.7429878176
  0
ARC
  5
2B4
330
1F
100
AcDbEntity
  8
0
  6
Continuous
 62
     7
370
    25
100
AcDbCircle
 10
45.91923125
 20
97.1024959189
 30
0.0
 40
5.92511312334004
100
AcDbArc
 50
149.2570121825
 51
180.0
  0
ARC
  5
2B5
330
1F
100
AcDbEntity
  8
0
  6
Continuous
 62
     7
370
    25
100
AcDbCircle
 10
45.91923125
 20
97.1024959189
 30
0.0
 40
5.925113123340041
100
AcDbArc
 50
30.7429878175
 51
149.2570121825
  0
ARC
  5
2B6
330
1F
100
AcDbEntity
  8
0
  6
Continuous
 62
     7
370
    25
100
AcDbCircle
 10
45.91923125
 20
97.1024959189
 30
0.0
 40
5.925113123340047
100
AcDbArc
 50
0.0
 51
30.7429878175
  0
ARC
  5
2B7
330
1F
100
AcDbEntity
  8
0
  6
Continuous
 62
     7
370
    25
100
AcDbCircle
 10
45.91923125
 20
97.1024959189
 30
0.0
 40
5.925113123340047
100
AcDbArc
 50
329.2570121825
 51
0.0
  0
ELLIPSE
  5
2B8
330
1F
100
AcDbEntity
  8
0
  6
Continuous
 62
     7
370
    25
100
AcDbEllipse
 10
38.6449882961
 20
99.8255824234
 30
0.0
 11
2.0
 21
0.0
 31
0.0
210
0.0
220
0.0
230
1.0
 40
0.1682692308
 41
3.69623459142691
 42
5.452764150231705
  0
SPLINE
  5
2B9
330
1F
100
AcDbEntity
  8
0
  6
Continuous
 62
     7
370
    25
100
AcDbSpline
210
0.0
220
0.0
230
1.0
 70
     8
 71
     3
 72
    12
 73
     8
 74
     0
 42
0.00000001
 43
0.00000001
 40
0.0
 40
0.0
 40
0.0
 40
0.0
 40
0.2571943124574413
 40
0.5245503439757948
 40
0.7385170215182973
 40
0.8882338470637767
 40
1.0
 40
1.0
 40
1.0
 40
1.0
 10
40.7096130193935
 20
100.1313420727743
 30
0.0
 10
40.62491474187237
 20
100.1227267985314
 30
0.0
 10
40.45217176717995
 20
100.1051558615057
 30
0.0
 10
40.23294673841512
 20
99.98664545577789
 30
0.0
 10
40.08356696303574
 20
99.84065731109881
 30
0.0
 10
40.00617044644169
 20
99.70007484810931
 30
0.0
 10
39.99772708727786
 20
99.6139549083405
 30
0.0
 10
39.99411812665993
 20
99.57714450326193
 30
0.0
  0
ELLIPSE
  5
2BA
330
1F
100
AcDbEntity
  8
0
  6
Continuous
 62
     7
370
    25
100
AcDbEllipse
 10
38.6449882961
 20
100.3211127543
 30
0.0
 11
2.5
 21
0.0
 31
0.0
210
0.0
220
0.0
230
1.0
 40
0.1346153846
 41
3.772486914298332
 42
5.602632061358882
  0
ELLIPSE
  5
2BB
330
1F
100
AcDbEntity
  8
0
  6
Continuous
 62
     7
370
    25
100
AcDbEllipse
 10
53.1934742039
 20
99.8255824234
 30
0.0
 11
2.0
 21
0.0
 31
0.0
210
0.0
220
0.0
230
1.0
 40
0.1682692308
 41
3.972013810537752
 42
5.728543369342593
  0
SPLINE
  5
2BC
330
1F
100
AcDbEntity
  8
0
  6
Continuous
 62
     7
370
    25
100
AcDbSpline
210
0.0
220
0.0
230
1.0
 70
     8
 71
     3
 72
    12
 73
     8
 74
     0
 42
0.00000001
 43
0.00000001
 40
0.0
 40
0.0
 40
0.0
 40
0.0
 40
0.1443005026356244
 40
0.2873275205918753
 40
0.5201185386439743
 40
0.7602843466484757
 40
1.0
 40
1.0
 40
1.0
 40
1.0
 10
51.84434437334002
 20
99.57714450326193
 30
0.0
 10
51.83836011331552
 20
99.62471595370792
 30
0.0
 10
51.82644440571914
 20
99.71943902575512
 30
0.0
 10
51.73305918352278
 20
99.86749598908129
 30
0.0
 10
51.5803012401211
 20
100.0029955856196
 30
0.0
 10
51.36583532493284
 20
100.1088912667244
 30
0.0
 10
51.20779534537809
 20
100.1238631522359
 30
0.0
 10
51.12884948060645
 20
100.1313420727743
 30
0.0
  0
ELLIPSE
  5
2BD
330
1F
100
AcDbEntity
  8
0
  6
Continuous
 62
     7
370
    25
100
AcDbEllipse
 10
53.1934742039
 20
100.3211127543
 30
0.0
 11
2.5
 21
0.0
 31
0.0
210
0.0
220
0.0
230
1.0
 40
0.1346153846
 41
3.740681249811761
 42
5.647701180762162
  0
ELLIPSE
  5
2BE
330
1F
100
AcDbEntity
  8
0
  6
Continuous
 62
     7
370
    25
100
AcDbEllipse
 10
53.1934742039
 20
94.3794094144
 30
0.0
 11
2.0
 21
0.0
 31
0.0
210
0.0
220
0.0
230
1.0
 40
0.1682692308
 41
0.5546419378369644
 42
2.311171496641951
  0
LINE
  5
2BF
330
1F
100
AcDbEntity
  8
0
  6
Continuous
 62
     7
370
    25
100
AcDbLine
 10
51.8443443733
 20
97.1024959189
 30
0.0
 11
51.8443443733
 21
94.6278473346
 31
0.0
  0
LINE
  5
2C0
330
1F
100
AcDbEntity
  8
0
  6
Continuous
 62
     7
370
    25
100
AcDbLine
 10
51.8443443733
 20
99.5771445033
 30
0.0
 11
51.8443443733
 21
97.1024959189
 31
0.0
  0
LINE
  5
2C1
330
1F
100
AcDbEntity
  8
0
  6
Continuous
 62
     7
370
    25
100
AcDbLine
 10
39.9941181267
 20
97.1024959189
 30
0.0
 11
39.9941181267
 21
94.6278473346
 31
0.0
  0
ELLIPSE
  5
2C2
330
1F
100
AcDbEntity
  8
0
  6
Continuous
 62
     7
370
    25
100
AcDbEllipse
 10
38.6449882961
 20
94.3794094144
 30
0.0
 11
2.0
 21
0.0
 31
0.0
210
0.0
220
0.0
230
1.0
 40
0.1682692308
 41
0.8304211569478426
 42
2.58695071575283
  0
LINE
  5
2C3
330
1F
100
AcDbEntity
  8
0
  6
Continuous
 62
     7
370
    25
100
AcDbLine
 10
39.9941181267
 20
99.5771445033
 30
0.0
 11
39.9941181267
 21
97.1024959189
 31
0.0
  0
SPLINE
  5
2C4
330
1F
100
AcDbEntity
  8
0
  6
Continuous
 62
     7
370
    25
100
AcDbSpline
210
0.0
220
0.0
230
1.0
 70
     8
 71
     3
 72
    12
 73
     8
 74
     0
 42
0.00000001
 43
0.00000001
 40
0.0
 40
0.0
 40
0.0
 40
0.0
 40
0.2571943124574416
 40
0.524550343975796
 40
0.7385170215182983
 40
0.8882338470637771
 40
1.0
 40
1.0
 40
1.0
 40
1.0
 10
51.12884948060645
 20
94.073649765082
 30
0.0
 10
51.21354775812759
 20
94.0822650393249
 30
0.0
 10
51.38629073281999
 20
94.09983597635059
 30
0.0
 10
51.60551576158483
 20
94.21834638207841
 30
0.0
 10
51.75489553696421
 20
94.36433452675747
 30
0.0
 10
51.83229205355826
 20
94.50491698974699
 30
0.0
 10
51.84073541272209
 20
94.5910369295158
 30
0.0
 10
51.84434437334002
 20
94.62784733459435
 30
0.0
  0
ELLIPSE
  5
2C5
330
1F
100
AcDbEntity
  8
0
  6
Continuous
 62
     7
370
    25
100
AcDbEllipse
 10
53.1934742039
 20
93.8838790836
 30
0.0
 11
2.5
 21
0.0
 31
0.0
210
0.0
220
0.0
230
1.0
 40
0.1346153846
 41
0.6308942607085057
 42
2.461039407768961
  0
SPLINE
  5
2C6
330
1F
100
AcDbEntity
  8
0
  6
Continuous
 62
     7
370
    25
100
AcDbSpline
210
0.0
220
0.0
230
1.0
 70
     8
 71
     3
 72
    12
 73
     8
 74
     0
 42
0.00000001
 43
0.00000001
 40
0.0
 40
0.0
 40
0.0
 40
0.0
 40
0.144300502635625
 40
0.2873275205918761
 40
0.5201185386439748
 40
0.7602843466484799
 40
1.0
 40
1.0
 40
1.0
 40
1.0
 10
39.99411812665993
 20
94.62784733459435
 30
0.0
 10
40.00010238668443
 20
94.58027588414838
 30
0.0
 10
40.0120180942808
 20
94.48555281210116
 30
0.0
 10
40.10540331647717
 20
94.337495848775
 30
0.0
 10
40.25816125987885
 20
94.20199625223667
 30
0.0
 10
40.47262717506712
 20
94.09610057113194
 30
0.0
 10
40.63066715462187
 20
94.08112868562036
 30
0.0
 10
40.7096130193935
 20
94.073649765082
 30
0.0
  0
ELLIPSE
  5
2C7
330
1F
100
AcDbEntity
  8
0
  6
Continuous
 62
     7
370
    25
100
AcDbEllipse
 10
38.6449882961
 20
93.8838790836
 30
0.0
 11
2.5
 21
0.0
 31
0.0
210
0.0
220
0.0
230
1.0
 40
0.1346153846
 41
0.5990885962219329
 42
2.506108527172268
  0
ARC
  5
2C8
330
1F
100
AcDbEntity
  8
0
  6
Continuous
 62
     7
370
    25
100
AcDbCircle
 10
45.91923125
 20
97.1024959189
 30
0.0
 40
7.99999999999998
100
AcDbArc
 50
21.1234840263
 51
158.8765159737
  0
LINE
  5
2C9
330
1F
100
AcDbEntity
  8
0
  6
Continuous
 62
     7
370
    25
100
AcDbLine
 10
40.7096130194
 20
100.1313420728
 30
0.0
 11
40.8267803174
 21
100.1313420728
 31
0.0
  0
LINE
  5
2CA
330
1F
100
AcDbEntity
  8
0
  6
Continuous
 62
     7
370
    25
100
AcDbLine
 10
51.0116821826
 20
100.1313420728
 30
0.0
 11
51.1288494806
 21
100.1313420728
 31
0.0
  0
LINE
  5
2CB
330
1F
100
AcDbEntity
  8
0
  6
Continuous
 62
     7
370
    25
100
AcDbLine
 10
51.1288494806
 20
94.0736497651
 30
0.0
 11
51.0116821826
 21
94.0736497651
 31
0.0
  0
LINE
  5
2CC
330
1F
100
AcDbEntity
  8
0
  6
Continuous
 62
     7
370
    25
100
AcDbLine
 10
40.8267803174
 20
94.0736497651
 30
0.0
 11
40.7096130194
 21
94.0736497651
 31
0.0
  0
ARC
  5
2CD
330
1F
100
AcDbEntity
  8
0
  6
Continuous
 62
     7
370
    25
100
AcDbCircle
 10
45.91923125
 20
97.1024959189
 30
0.0
 40
7.999999999999988
100
AcDbArc
 50
201.1234840263
 51
338.8765159737
  0
LINE
  5
2CE
330
1F
100
AcDbEntity
  8
0
  6
Continuous
 62
     7
370
    25
100
AcDbLine
 10
43.6817472285
 20
96.1272233739
 30
0.0
 11
43.6489517014
 21
96.1459674132
 31
0.0
  0
SPLINE
  5
2CF
330
1F
100
AcDbEntity
  8
0
  6
Continuous
 62
     7
370
    25
100
AcDbSpline
210
0.0
220
0.0
230
1.0
 70
     8
 71
     3
 72
    15
 73
    11
 74
     0
 42
0.00000001
 43
0.00000001
 40
0.0
 40
0.0
 40
0.0
 40
0.0
 40
0.1241930067305288
 40
0.2496556654892299
 40
0.3743703853151211
 40
0.4998404796364204
 40
0.6240146704162364
 40
0.7475381382242064
 40
0.8745858500551822
 40
1.0
 40
1.0
 40
1.0
 40
1.0
 10
44.4620369501305
 20
96.39966302451393
 30
0.0
 10
44.44647655502081
 20
96.36381582177002
 30
0.0
 10
44.41519668750929
 20
96.2917549425582
 30
0.0
 10
44.33776032802091
 20
96.20187942921531
 30
0.0
 10
44.244406324282
 20
96.12955565142099
 30
0.0
 10
44.13718071826103
 20
96.08062823291641
 30
0.0
 10
44.02279480754009
 20
96.05430017946163
 30
0.0
 10
43.90512404465477
 20
96.05344108545904
 30
0.0
 10
43.78824031942955
 20
96.07482384608865
 30
0.0
 10
43.71709146853483
 20
96.1098323725494
 30
0.0
 10
43.68174722845141
 20
96.12722337393082
 30
0.0
  0
LINE
  5
2D0
330
1F
100
AcDbEntity
  8
0
  6
Continuous
 62
     7
370
    25
100
AcDbLine
 10
45.4538909948
 20
99.1732422404
 30
0.0
 11
44.4620369501
 21
96.3996630245
 31
0.0
  0
SPLINE
  5
2D1
330
1F
100
AcDbEntity
  8
0
  6
Continuous
 62
     7
370
    25
100
AcDbSpline
210
0.0
220
0.0
230
1.0
 70
     8
 71
     3
 72
    15
 73
    11
 74
     0
 42
0.00000001
 43
0.00000001
 40
0.0
 40
0.0
 40
0.0
 40
0.0
 40
0.1233025178081761
 40
0.2485158700387113
 40
0.3756924668130947
 40
0.4999990880429329
 40
0.6243057092728392
 40
0.751482306047304
 40
0.8766757256079954
 40
1.0
 40
1.0
 40
1.0
 40
1.0
 10
46.38457150835164
 20
99.1732422404273
 30
0.0
 10
46.36042053638928
 20
99.21388737636305
 30
0.0
 10
46.31174432185455
 20
99.29580753095092
 30
0.0
 10
46.19639366364943
 20
99.38562648676337
 30
0.0
 10
46.06323404138756
 20
99.44320063492451
 30
0.0
 10
45.91923139801878
 20
99.46235933059461
 30
0.0
 10
45.77522786932028
 20
99.44320122770955
 30
0.0
 10
45.64207799635479
 20
99.38562711397101
 30
0.0
 10
45.52671563882036
 20
99.29582155182432
 30
0.0
 10
45.47804385314917
 20
99.21389662029955
 30
0.0
 10
45.45389099483234
 20
99.17324224042741
 30
0.0
  0
LINE
  5
2D2
330
1F
100
AcDbEntity
  8
0
  6
Continuous
 62
     7
370
    25
100
AcDbLine
 10
47.3761944147
 20
96.4003093701
 30
0.0
 11
46.3845715084
 21
99.1732422404
 31
0.0
  0
SPLINE
  5
2D3
330
1F
100
AcDbEntity
  8
0
  6
Continuous
 62
     7
370
    25
100
AcDbSpline
210
0.0
220
0.0
230
1.0
 70
     8
 71
     3
 72
    15
 73
    11
 74
     0
 42
0.00000001
 43
0.00000001
 40
0.0
 40
0.0
 40
0.0
 40
0.0
 40
0.1253320172137758
 40
0.2522975129251762
 40
0.3758847553984062
 40
0.5001929511416486
 40
0.6255758307380151
 40
0.7502289462456482
 40
0.8757444935777826
 40
1.0
 40
1.0
 40
1.0
 40
1.0
 10
48.14889617926548
 20
96.12361351947298
 30
0.0
 10
48.11364526263749
 20
96.10693921099022
 30
0.0
 10
48.04268399678309
 20
96.07337327426092
 30
0.0
 10
47.92669710599472
 20
96.05359165800678
 30
0.0
 10
47.81010073975434
 20
96.05566443835338
 30
0.0
 10
47.69698013317286
 20
96.08274246470397
 30
0.0
 10
47.59110441883342
 20
96.13195528041115
 30
0.0
 10
47.49899533421426
 20
96.204041044285
 30
0.0
 10
47.42256367034587
 20
96.29332856578445
 30
0.0
 10
47.39159876284657
 20
96.36476923622149
 30
0.0
 10
47.37619441472533
 20
96.40030937007955
 30
0.0
  0
LINE
  5
2D4
330
1F
100
AcDbEntity
  8
0
  6
Continuous
 62
     7
370
    25
100
AcDbLine
 10
48.1895108017
 20
96.1459674132
 30
0.0
 11
48.1488961793
 21
96.1236135195
 31
0.0
  0
LINE
  5
2D5
330
1F
100
AcDbEntity
  8
0
  6
Continuous
 62
     7
370
    25
100
AcDbLine
 10
47.5625276052
 20
94.9505563097
 30
0.0
 11
48.1895108017
 21
96.1459674132
 31
0.0
  0
SPLINE
  5
2D6
330
1F
100
AcDbEntity
  8
0
  6
Continuous
 62
     7
370
    25
100
AcDbSpline
210
0.0
220
0.0
230
1.0
 70
     8
 71
     3
 72
    15
 73
    11
 74
     0
 42
0.00000001
 43
0.00000001
 40
0.0
 40
0.0
 40
0.0
 40
0.0
 40
0.124633218643854
 40
0.2519059530189772
 40
0.3765391000744918
 40
0.4994035903146518
 40
0.6264494152300148
 40
0.7526064410610419
 40
0.874680437736327
 40
1.0
 40
1.0
 40
1.0
 40
1.0
 10
47.45729911645643
 20
94.93243914297548
 30
0.0
 10
47.46131359212458
 20
94.92933390812284
 30
0.0
 10
47.46942756310327
 20
94.92305767492103
 30
0.0
 10
47.4838661549398
 20
94.91744466144118
 30
0.0
 10
47.49899960487289
 20
94.91490830881438
 30
0.0
 10
47.51436214715466
 20
94.91579371238223
 30
0.0
 10
47.52929272599135
 20
94.91992478289788
 30
0.0
 10
47.54279462602065
 20
94.92741548284377
 30
0.0
 10
47.55448028090706
 20
94.93755406475807
 30
0.0
 10
47.55982180524785
 20
94.9461844871009
 30
0.0
 10
47.56252760524959
 20
94.95055630969316
 30
0.0
  0
SPLINE
  5
2D7
330
1F
100
AcDbEntity
  8
0
  6
Continuous
 62
     7
370
    25
100
AcDbSpline
210
0.0
220
0.0
230
1.0
 70
     8
 71
     3
 72
    11
 73
     7
 74
     0
 42
0.00000001
 43
0.00000001
 40
0.0
 40
0.0
 40
0.0
 40
0.0
 40
0.2506252605986011
 40
0.4999999999996215
 40
0.7493747394010042
 40
1.0
 40
1.0
 40
1.0
 40
1.0
 10
44.38116338672756
 20
94.93243914297545
 30
0.0
 10
44.61089108090086
 20
95.09529343493644
 30
0.0
 10
45.06920021866385
 20
95.42018944017529
 30
0.0
 10
45.91923125159997
 20
95.5539213871124
 30
0.0
 10
46.7692622845302
 20
95.42018944017012
 30
0.0
 10
47.22757142228648
 20
95.09529343493475
 30
0.0
 10
47.45729911645644
 20
94.9324391429755
 30
0.0
  0
SPLINE
  5
2D8
330
1F
100
AcDbEntity
  8
0
  6
Continuous
 62
     7
370
    25
100
AcDbSpline
210
0.0
220
0.0
230
1.0
 70
     8
 71
     3
 72
    15
 73
    11
 74
     0
 42
0.00000001
 43
0.00000001
 40
0.0
 40
0.0
 40
0.0
 40
0.0
 40
0.1253191957979138
 40
0.2473928354984065
 40
0.3734492416489706
 40
0.5005950046079967
 40
0.6235484391777611
 40
0.7480947836179483
 40
0.8753671458153899
 40
1.0
 40
1.0
 40
1.0
 40
1.0
 10
44.27593489793436
 20
94.95055630969316
 30
0.0
 10
44.27864069426678
 20
94.94618448140919
 30
0.0
 10
44.28398221136396
 20
94.93755404783043
 30
0.0
 10
44.29566478395304
 20
94.92741827033065
 30
0.0
 10
44.30916576394031
 20
94.91992615445702
 30
0.0
 10
44.32409979279037
 20
94.91579370916487
 30
0.0
 10
44.33946680397942
 20
94.91490576739133
 30
0.0
 10
44.35459954041763
 20
94.91744670964887
 30
0.0
 10
44.36903497019932
 20
94.92305748791605
 30
0.0
 10
44.37714892102855
 20
94.92933384622481
 30
0.0
 10
44.38116338672754
 20
94.93243914297545
 30
0.0
  0
LINE
  5
2D9
330
1F
100
AcDbEntity
  8
0
  6
Continuous
 62
     7
370
    25
100
AcDbLine
 10
43.6489517014
 20
96.1459674132
 30
0.0
 11
44.2759348979
 21
94.9505563097
 31
0.0
  0
SPLINE
  5
2DA
330
1F
100
AcDbEntity
  8
0
  6
Continuous
 62
     7
370
    25
100
AcDbSpline
210
0.0
220
0.0
230
1.0
 70
     8
 71
     3
 72
    15
 73
    11
 74
     0
 42
0.00000001
 43
0.00000001
 40
0.0
 40
0.0
 40
0.0
 40
0.0
 40
0.1233867499278388
 40
0.2487396502211602
 40
0.3739317114754985
 40
0.4999973617625659
 40
0.6259591330513601
 40
0.7512551380600303
 40
0.8765613478174267
 40
1.0
 40
1.0
 40
1.0
 40
1.0
 10
45.8563483851939
 20
97.12390537707094
 30
0.0
 10
45.85922658638576
 20
97.1299201731539
 30
0.0
 10
45.8650288524974
 20
97.14204561024259
 30
0.0
 10
45.88055825721815
 20
97.15543687059265
 30
0.0
 10
45.89891283909159
 20
97.16431458217261
 30
0.0
 10
45.91922565557451
 20
97.16707124546906
 30
0.0
 10
45.93954407328961
 20
97.16431656426845
 30
0.0
 10
45.95789694245372
 20
97.15544086597899
 30
0.0
 10
45.97343504684923
 20
97.1420504987253
 30
0.0
 10
45.97923560888051
 20
97.12992340117925
 30
0.0
 10
45.98211411480606
 20
97.12390537707094
 30
0.0
  0
LINE
  5
2DB
330
1F
100
AcDbEntity
  8
0
  6
Continuous
 62
     7
370
    25
100
AcDbLine
 10
45.6172348595
 20
96.4856513478
 30
0.0
 11
45.8563483852
 21
97.1239053771
 31
0.0
  0
SPLINE
  5
2DC
330
1F
100
AcDbEntity
  8
0
  6
Continuous
 62
     7
370
    25
100
AcDbSpline
210
0.0
220
0.0
230
1.0
 70
     8
 71
     3
 72
    15
 73
    11
 74
     0
 42
0.00000001
 43
0.00000001
 40
0.0
 40
0.0
 40
0.0
 40
0.0
 40
0.1261585224210642
 40
0.25131214515488
 40
0.3762846848783792
 40
0.4993062783340877
 40
0.6261594278645743
 40
0.7521171342021308
 40
0.8758196922692789
 40
1.0
 40
1.0
 40
1.0
 40
1.0
 10
45.68011772432221
 20
96.40058699444839
 30
0.0
 10
45.67488662783354
 20
96.40090930104076
 30
0.0
 10
45.66446610249088
 20
96.40155134693323
 30
0.0
 10
45.64967955197648
 20
96.40699958730842
 30
0.0
 10
45.63648919935098
 20
96.41522218989405
 30
0.0
 10
45.62561862450971
 20
96.42647879620662
 30
0.0
 10
45.61761103718118
 20
96.43999954154773
 30
0.0
 10
45.61344441014848
 20
96.45513642912452
 30
0.0
 10
45.61282335863687
 20
96.47082556069569
 30
0.0
 10
45.61576247099163
 20
96.48070307305431
 30
0.0
 10
45.61723485947437
 20
96.48565134779835
 30
0.0
  0
LINE
  5
2DD
330
1F
100
AcDbEntity
  8
0
  6
Continuous
 62
     7
370
    25
100
AcDbLine
 10
46.1583447785
 20
96.4005869944
 30
0.0
 11
45.6801177243
 21
96.4005869944
 31
0.0
  0
SPLINE
  5
2DE
330
1F
100
AcDbEntity
  8
0
  6
Continuous
 62
     7
370
    25
100
AcDbSpline
210
0.0
220
0.0
230
1.0
 70
     8
 71
     3
 72
    15
 73
    11
 74
     0
 42
0.00000001
 43
0.00000001
 40
0.0
 40
0.0
 40
0.0
 40
0.0
 40
0.1241186784437694
 40
0.2478474916628982
 40
0.3736574149478942
 40
0.5005082335853296
 40
0.6234527658309922
 40
0.7484986612277523
 40
0.8736976492452769
 40
1.0
 40
1.0
 40
1.0
 40
1.0
 10
46.22122764325156
 20
96.48565134802145
 30
0.0
 10
46.22269871586038
 20
96.48070550236332
 30
0.0
 10
46.22563624033876
 20
96.47082934628517
 30
0.0
 10
46.22501950583867
 20
96.45514795065947
 30
0.0
 10
46.22085754424405
 20
96.44001541857918
 30
0.0
 10
46.21285879644567
 20
96.42650051096477
 30
0.0
 10
46.20199270490885
 20
96.41524044976877
 30
0.0
 10
46.18880498708422
 20
96.4070107373353
 30
0.0
 10
46.174010540509
 20
96.40155116695024
 30
0.0
 10
46.16358194960168
 20
96.40090932389327
 30
0.0
 10
46.15834477848726
 20
96.40058699444839
 30
0.0
  0
LINE
  5
2DF
330
1F
100
AcDbEntity
  8
0
  6
Continuous
 62
     7
370
    25
100
AcDbLine
 10
45.9821141148
 20
97.1239053771
 30
0.0
 11
46.2212276433
 21
96.485651348
 31
0.0
  0
LWPOLYLINE
  5
2E0
330
1F
100
AcDbEntity
  8
0
  6
Continuous
 62
     7
370
    25
100
AcDbPolyline
 90
        9
 70
   128
 43
0.0
 10
33.9958275931
 20
100.4534193809
 10
34.0095372519
 20
100.4515400406
 10
34.0523943139
 20
100.4310055551
 10
34.0913428284
 20
100.389232799
 10
34.1246472236
 20
100.3280831946
 10
34.150823433
 20
100.2502816094
 10
34.1687050272
 20
100.1592949345
 10
34.1774951902
 20
100.0591775974
 10
34.1768022266
 20
99.9543908942
  0
SPLINE
  5
2E1
330
1F
100
AcDbEntity
  8
0
  6
Continuous
 62
     7
370
    25
100
AcDbSpline
210
0.0
220
0.0
230
1.0
 70
     8
 71
     3
 72
    17
 73
    13
 74
     0
 42
0.00000001
 43
0.00000001
 40
0.0
 40
0.0
 40
0.0
 40
0.0
 40
0.0054763003608107
 40
0.0360039209091617
 40
0.0549808917263357
 40
0.0840432063617646
 40
0.1287701565872446
 40
0.1984425878944127
 40
0.3105350321397681
 40
0.6625535363260426
 40
0.8965985556535075
 40
0.9999999999999999
 40
0.9999999999999999
 40
0.9999999999999999
 40
0.9999999999999999
 10
31.41923124999997
 20
99.45886056336316
 30
0.0
 10
31.42374506695777
 20
99.46146661699923
 30
0.0
 10
31.45342114351304
 20
99.47860010910453
 30
0.0
 10
31.49874005401371
 20
99.50476134219804
 30
0.0
 10
31.56348835401467
 20
99.5420920542452
 30
0.0
 10
31.63992406714693
 20
99.58607836257035
 30
0.0
 10
31.75807330930304
 20
99.65377943031055
 30
0.0
 10
31.94440139234404
 20
99.75937075566924
 30
0.0
 10
32.38218969225685
 20
100.0015866321428
 30
0.0
 10
32.94924878129186
 20
100.2737539173004
 30
0.0
 10
33.49018188350448
 20
100.4493192656939
 30
0.0
 10
33.73206845209241
 20
100.446622816669
 30
0.0
 10
33.80618812218081
 20
100.4457965619774
 30
0.0
  0
LWPOLYLINE
  5
2E2
330
1F
100
AcDbEntity
  8
0
  6
Continuous
 62
     7
370
    25
100
AcDbPolyline
 90
        9
 70
   128
 43
0.0
 10
28.6616602734
 20
99.9543908942
 10
28.6609673098
 20
100.0591775974
 10
28.6697574728
 20
100.1592949345
 10
28.687639067
 20
100.2502816094
 10
28.7138152764
 20
100.3280831946
 10
28.7471196716
 20
100.389232799
 10
28.7860681861
 20
100.4310055551
 10
28.8289252481
 20
100.4515400406
 10
28.8424802773
 20
100.4534100573
  0
SPLINE
  5
2E3
330
1F
100
AcDbEntity
  8
0
  6
Continuous
 62
     7
370
    25
100
AcDbSpline
210
0.0
220
0.0
230
1.0
 70
     8
 71
     3
 72
    17
 73
    13
 74
     0
 42
0.00000001
 43
0.00000001
 40
0.0
 40
0.0
 40
0.0
 40
0.0
 40
0.1034709439599322
 40
0.3374978213460892
 40
0.6894890389058085
 40
0.801572794333295
 40
0.8712398249993487
 40
0.9159633082264328
 40
0.945023370103775
 40
0.9639988699258475
 40
0.994524124133246
 40
1.0
 40
1.0
 40
1.0
 40
1.0
 10
29.03210606431379
 20
100.4458009422046
 30
0.0
 10
29.10628094416149
 20
100.4466292050192
 30
0.0
 10
29.34822191221626
 20
100.4493308030208
 30
0.0
 10
29.88921253269482
 20
100.2737585145223
 30
0.0
 10
30.45627291734059
 20
100.0015862073213
 30
0.0
 10
30.89406109858678
 20
99.75937079082301
 30
0.0
 10
31.08038919188987
 20
99.65377942568647
 30
0.0
 10
31.1985384326915
 20
99.58607836319648
 30
0.0
 10
31.27497414600674
 20
99.54209205416208
 30
0.0
 10
31.33972244597801
 20
99.50476134222991
 30
0.0
 10
31.38504135648728
 20
99.47860010910313
 30
0.0
 10
31.41471743304222
 20
99.46146661699905
 30
0.0
 10
31.41923124999997
 20
99.45886056336316
 30
0.0
  0
LWPOLYLINE
  5
2E4
330
1F
100
AcDbEntity
  8
0
  6
Continuous
 62
     7
370
    25
100
AcDbPolyline
 90
        9
 70
   128
 43
0.0
 10
57.6616602734
 20
99.9543908942
 10
57.6609673098
 20
100.0591775974
 10
57.6697574728
 20
100.1592949345
 10
57.687639067
 20
100.2502816094
 10
57.7138152764
 20
100.3280831946
 10
57.7471196716
 20
100.389232799
 10
57.7860681861
 20
100.4310055551
 10
57.8289252481
 20
100.4515400406
 10
57.8424802773
 20
100.4534100573
  0
SPLINE
  5
2E5
330
1F
100
AcDbEntity
  8
0
  6
Continuous
 62
     7
370
    25
100
AcDbSpline
210
0.0
220
0.0
230
1.0
 70
     8
 71
     3
 72
    17
 73
    13
 74
     0
 42
0.00000001
 43
0.00000001
 40
0.0
 40
0.0
 40
0.0
 40
0.0
 40
0.1034709439599327
 40
0.337497821346091
 40
0.6894890389058094
 40
0.8015727943332964
 40
0.8712398249993398
 40
0.9159633082264206
 40
0.9450233701037623
 40
0.9639988699258307
 40
0.9945241241332458
 40
1.0
 40
1.0
 40
1.0
 40
1.0
 10
58.03210606431379
 20
100.4458009422046
 30
0.0
 10
58.1062809441615
 20
100.4466292050192
 30
0.0
 10
58.34822191221627
 20
100.4493308030209
 30
0.0
 10
58.88921253269481
 20
100.2737585145223
 30
0.0
 10
59.45627291734063
 20
100.0015862073213
 30
0.0
 10
59.89406109858676
 20
99.75937079082301
 30
0.0
 10
60.08038919188986
 20
99.65377942568648
 30
0.0
 10
60.19853843269151
 20
99.58607836319655
 30
0.0
 10
60.27497414600669
 20
99.54209205416207
 30
0.0
 10
60.33972244597798
 20
99.50476134222991
 30
0.0
 10
60.38504135648729
 20
99.47860010910318
 30
0.0
 10
60.41471743304222
 20
99.46146661699905
 30
0.0
 10
60.41923124999998
 20
99.45886056336316
 30
0.0
  0
ELLIPSE
  5
2E6
330
1F
100
AcDbEntity
  8
0
  6
Continuous
 62
     7
370
    25
100
AcDbEllipse
 10
60.41923125
 20
94.9820059044
 30
0.0
 11
6.5
 21
0.0
 31
0.0
210
0.0
220
0.0
230
1.0
 40
0.124260355
 41
5.150513296523819
 42
6.283185307179586
  0
ELLIPSE
  5
2E7
330
1F
100
AcDbEntity
  8
0
  6
Continuous
 62
     7
370
    25
100
AcDbEllipse
 10
60.41923125
 20
99.2229859335
 30
0.0
 11
6.5
 21
0.0
 31
0.0
210
0.0
220
0.0
230
1.0
 40
0.124260355
 41
0.0
 42
1.132672010655782
  0
LWPOLYLINE
  5
2E8
330
1F
100
AcDbEntity
  8
0
  6
Continuous
 62
     7
370
    25
100
AcDbPolyline
 90
        9
 70
   128
 43
0.0
 10
63.1768022266
 20
99.9543908942
 10
63.1774951902
 20
100.0591775974
 10
63.1687050272
 20
100.1592949345
 10
63.150823433
 20
100.2502816094
 10
63.1246472236
 20
100.3280831946
 10
63.0913428284
 20
100.389232799
 10
63.0523943139
 20
100.4310055551
 10
63.0095372519
 20
100.4515400406
 10
62.9959651825
 20
100.4534110979
  0
SPLINE
  5
2E9
330
1F
100
AcDbEntity
  8
0
  6
Continuous
 62
     7
370
    25
100
AcDbSpline
210
0.0
220
0.0
230
1.0
 70
     8
 71
     3
 72
    17
 73
    13
 74
     0
 42
0.00000001
 43
0.00000001
 40
0.0
 40
0.0
 40
0.0
 40
0.0
 40
0.0054763003608111
 40
0.03600392090912
 40
0.054980891726349
 40
0.0840432063617622
 40
0.1287701565872359
 40
0.1984425878944174
 40
0.3105350321397669
 40
0.6625535363260527
 40
0.896598555653518
 40
0.9999999999999999
 40
0.9999999999999999
 40
0.9999999999999999
 40
0.9999999999999999
 10
60.41923124999998
 20
99.45886056336316
 30
0.0
 10
60.42374506695778
 20
99.46146661699923
 30
0.0
 10
60.45342114351301
 20
99.47860010910452
 30
0.0
 10
60.49874005401373
 20
99.50476134219794
 30
0.0
 10
60.56348835401469
 20
99.5420920542451
 30
0.0
 10
60.63992406714691
 20
99.58607836257039
 30
0.0
 10
60.75807330930304
 20
99.65377943031054
 30
0.0
 10
60.94440139234404
 20
99.75937075566922
 30
0.0
 10
61.38218969225684
 20
100.0015866321429
 30
0.0
 10
61.94924878129186
 20
100.2737539173004
 30
0.0
 10
62.49018188350448
 20
100.4493192656939
 30
0.0
 10
62.73206845209241
 20
100.446622816669
 30
0.0
 10
62.80618812218079
 20
100.4457965619774
 30
0.0
  0
ELLIPSE
  5
2EA
330
1F
100
AcDbEntity
  8
0
  6
Continuous
 62
     7
370
    25
100
AcDbEllipse
 10
31.41923125
 20
94.9820059044
 30
0.0
 11
6.500000000000004
 21
0.0
 31
0.0
210
0.0
220
0.0
230
1.0
 40
0.124260355
 41
3.141592653589792
 42
4.274264664245605
  0
ELLIPSE
  5
2EB
330
1F
100
AcDbEntity
  8
0
  6
Continuous
 62
     7
370
    25
100
AcDbEllipse
 10
31.41923125
 20
99.2229859335
 30
0.0
 11
6.500000000000004
 21
0.0
 31
0.0
210
0.0
220
0.0
230
1.0
 40
0.124260355
 41
2.008920642934009
 42
3.141592653589792
  0
SPLINE
  5
2EC
330
1F
100
AcDbEntity
  8
0
  6
Continuous
 62
     7
370
    25
100
AcDbSpline
210
0.0
220
0.0
230
1.0
 70
     8
 71
     3
 72
    17
 73
    13
 74
     0
 42
0.00000001
 43
0.00000001
 40
0.0
 40
0.0
 40
0.0
 40
0.0
 40
0.1034709439599427
 40
0.3374978213460983
 40
0.6894890389058127
 40
0.8015727943333083
 40
0.8712398249993462
 40
0.9159633082264232
 40
0.9450233701037614
 40
0.9639988699257762
 40
0.994524124133232
 40
1.0
 40
1.0
 40
1.0
 40
1.0
 10
33.80635643568618
 20
93.75919089565167
 30
0.0
 10
33.73218155583847
 20
93.75836263283708
 30
0.0
 10
33.4902405877837
 20
93.75566103483544
 30
0.0
 10
32.94924996730513
 20
93.93123332333397
 30
0.0
 10
32.38218958265934
 20
94.20340563053504
 30
0.0
 10
31.94440140141316
 20
94.44562104703327
 30
0.0
 10
31.75807330811008
 20
94.55121241216982
 30
0.0
 10
31.63992406730848
 20
94.61891347465982
 30
0.0
 10
31.56348835399325
 20
94.66289978369412
 30
0.0
 10
31.49874005402205
 20
94.7002304956264
 30
0.0
 10
31.45342114351253
 20
94.72639172875273
 30
0.0
 10
31.42374506695771
 20
94.7435252208572
 30
0.0
 10
31.41923124999997
 20
94.74613127449314
 30
0.0
  0
LWPOLYLINE
  5
2ED
330
1F
100
AcDbEntity
  8
0
  6
Continuous
 62
     7
370
    25
100
AcDbPolyline
 90
        9
 70
   128
 43
0.0
 10
33.9959461111
 20
93.7515795792
 10
34.0095372519
 20
93.7534517973
 10
34.0523943139
 20
93.7739862828
 10
34.0913428284
 20
93.8157590388
 10
34.1246472236
 20
93.8769086432
 10
34.150823433
 20
93.9547102285
 10
34.1687050272
 20
94.0456969034
 10
34.1774951902
 20
94.1458142405
 10
34.1768022266
 20
94.2506009437
  0
LWPOLYLINE
  5
2EE
330
1F
100
AcDbEntity
  8
0
  6
Continuous
 62
     7
370
    25
100
AcDbPolyline
 90
        9
 70
   128
 43
0.0
 10
28.8426349069
 20
93.7515724569
 10
28.8289252481
 20
93.7534517973
 10
28.7860681861
 20
93.7739862828
 10
28.7471196716
 20
93.8157590388
 10
28.7138152764
 20
93.8769086432
 10
28.687639067
 20
93.9547102285
 10
28.6697574728
 20
94.0456969034
 10
28.6609673098
 20
94.1458142405
 10
28.6616602734
 20
94.2506009437
  0
SPLINE
  5
2EF
330
1F
100
AcDbEntity
  8
0
  6
Continuous
 62
     7
370
    25
100
AcDbSpline
210
0.0
220
0.0
230
1.0
 70
     8
 71
     3
 72
    17
 73
    13
 74
     0
 42
0.00000001
 43
0.00000001
 40
0.0
 40
0.0
 40
0.0
 40
0.0
 40
0.0054763003608251
 40
0.0360039209091222
 40
0.0549808917263194
 40
0.0840432063617643
 40
0.1287701565872319
 40
0.1984425878944077
 40
0.3105350321397661
 40
0.6625535363260504
 40
0.8965985556535162
 40
1.0
 40
1.0
 40
1.0
 40
1.0
 10
31.41923124999997
 20
94.74613127449314
 30
0.0
 10
31.4147174330422
 20
94.74352522085701
 30
0.0
 10
31.38504135648713
 20
94.72639172875138
 30
0.0
 10
31.33972244598622
 20
94.7002304956584
 30
0.0
 10
31.27497414598533
 20
94.6628997836111
 30
0.0
 10
31.19853843285302
 20
94.618913475286
 30
0.0
 10
31.08038919069693
 20
94.55121240754576
 30
0.0
 10
30.89406110765592
 20
94.44562108218707
 30
0.0
 10
30.45627280774311
 20
94.20340520571347
 30
0.0
 10
29.8892137187081
 20
93.93123792055593
 30
0.0
 10
29.34828061649547
 20
93.75567257216242
 30
0.0
 10
29.10639404790755
 20
93.75836902118726
 30
0.0
 10
29.03227437781916
 20
93.75919527587888
 30
0.0
  0
LWPOLYLINE
  5
2F0
330
1F
100
AcDbEntity
  8
0
  6
Continuous
 62
     7
370
    25
100
AcDbPolyline
 90
        9
 70
   128
 43
0.0
 10
57.8426349069
 20
93.7515724569
 10
57.8289252481
 20
93.7534517973
 10
57.7860681861
 20
93.7739862828
 10
57.7471196716
 20
93.8157590388
 10
57.7138152764
 20
93.8769086432
 10
57.687639067
 20
93.9547102285
 10
57.6697574728
 20
94.0456969034
 10
57.6609673098
 20
94.1458142405
 10
57.6616602734
 20
94.2506009437
  0
SPLINE
  5
2F1
330
1F
100
AcDbEntity
  8
0
  6
Continuous
 62
     7
370
    25
100
AcDbSpline
210
0.0
220
0.0
230
1.0
 70
     8
 71
     3
 72
    17
 73
    13
 74
     0
 42
0.00000001
 43
0.00000001
 40
0.0
 40
0.0
 40
0.0
 40
0.0
 40
0.0054763003608253
 40
0.0360039209091779
 40
0.0549808917263346
 40
0.0840432063617647
 40
0.1287701565872458
 40
0.1984425878944168
 40
0.3105350321397656
 40
0.6625535363260502
 40
0.8965985556535156
 40
1.0
 40
1.0
 40
1.0
 40
1.0
 10
60.41923124999998
 20
94.74613127449314
 30
0.0
 10
60.41471743304219
 20
94.74352522085701
 30
0.0
 10
60.3850413564871
 20
94.72639172875137
 30
0.0
 10
60.33972244598618
 20
94.70023049565833
 30
0.0
 10
60.27497414598529
 20
94.66289978361105
 30
0.0
 10
60.19853843285301
 20
94.61891347528598
 30
0.0
 10
60.08038919069691
 20
94.55121240754575
 30
0.0
 10
59.89406110765591
 20
94.44562108218707
 30
0.0
 10
59.4562728077431
 20
94.20340520571347
 30
0.0
 10
58.88921371870811
 20
93.93123792055593
 30
0.0
 10
58.34828061649547
 20
93.75567257216242
 30
0.0
 10
58.10639404790754
 20
93.75836902118726
 30
0.0
 10
58.03227437781916
 20
93.75919527587888
 30
0.0
  0
LWPOLYLINE
  5
2F2
330
1F
100
AcDbEntity
  8
0
  6
Continuous
 62
     7
370
    25
100
AcDbPolyline
 90
        9
 70
   128
 43
0.0
 10
63.1768022266
 20
94.2506009437
 10
63.1774951902
 20
94.1458142405
 10
63.1687050272
 20
94.0456969034
 10
63.150823433
 20
93.9547102285
 10
63.1246472236
 20
93.8769086432
 10
63.0913428284
 20
93.8157590388
 10
63.0523943139
 20
93.7739862828
 10
63.0095372519
 20
93.7534517973
 10
62.9959822227
 20
93.7515817806
  0
SPLINE
  5
2F3
330
1F
100
AcDbEntity
  8
0
  6
Continuous
 62
     7
370
    25
100
AcDbSpline
210
0.0
220
0.0
230
1.0
 70
     8
 71
     3
 72
    17
 73
    13
 74
     0
 42
0.00000001
 43
0.00000001
 40
0.0
 40
0.0
 40
0.0
 40
0.0
 40
0.1034709439599384
 40
0.3374978213460944
 40
0.6894890389058111
 40
0.8015727943332963
 40
0.871239824999331
 40
0.9159633082264268
 40
0.9450233701037706
 40
0.9639988699258222
 40
0.9945241241332319
 40
0.9999999999999999
 40
0.9999999999999999
 40
0.9999999999999999
 40
0.9999999999999999
 10
62.80635643568618
 20
93.75919089565167
 30
0.0
 10
62.73218155583847
 20
93.75836263283708
 30
0.0
 10
62.4902405877837
 20
93.75566103483544
 30
0.0
 10
61.94924996730514
 20
93.93123332333397
 30
0.0
 10
61.38218958265934
 20
94.20340563053504
 30
0.0
 10
60.9444014014132
 20
94.44562104703327
 30
0.0
 10
60.75807330811009
 20
94.5512124121698
 30
0.0
 10
60.63992406730851
 20
94.61891347465982
 30
0.0
 10
60.56348835399323
 20
94.66289978369419
 30
0.0
 10
60.49874005402199
 20
94.70023049562639
 30
0.0
 10
60.45342114351278
 20
94.72639172875327
 30
0.0
 10
60.42374506695776
 20
94.74352522085726
 30
0.0
 10
60.41923124999998
 20
94.74613127449314
 30
0.0
  0
ARC
  5
2F4
330
1F
100
AcDbEntity
  8
0
  6
Continuous
 62
     7
370
    25
100
AcDbCircle
 10
36.5064772826
 20
99.7106327034
 30
0.0
 40
0.4427359056414141
100
AcDbArc
 50
351.9127437692
 51
74.3423105142
  0
ARC
  5
2F5
330
1F
100
AcDbEntity
  8
0
  6
Continuous
 62
     7
370
    25
100
AcDbCircle
 10
55.3442713181
 20
99.7026227608
 30
0.0
 40
0.4538757565523996
100
AcDbArc
 50
106.8912459256
 51
186.86788112
  0
ARC
  5
2F6
330
1F
100
AcDbEntity
  8
0
  6
Continuous
 62
     7
370
    25
100
AcDbCircle
 10
55.3319852174
 20
94.4943591344
 30
0.0
 40
0.4427359056413928
100
AcDbArc
 50
171.9127437692
 51
254.3423105142
  0
ARC
  5
2F7
330
1F
100
AcDbEntity
  8
0
  6
Continuous
 62
     7
370
    25
100
AcDbCircle
 10
36.4941911819
 20
94.5023690771
 30
0.0
 40
0.4538757565523651
100
AcDbArc
 50
286.8912459256
 51
6.86788112
  0
MTEXT
  5
2F9
330
1F
100
AcDbEntity
  8
0
  6
Continuous
 62
     7
370
     0
100
AcDbMText
 10
55.3299760871
 20
80.5838830691
 30
0.0
 40
3.5
 41
0.0
 71
     1
 72
     1
  1
エースボール アングル BR-5288
  7
SLDTEXTSTYLE0
 73
     1
 44
1.0
  0
INSERT
  5
305
330
1F
100
AcDbEntity
  8
0
  6
Continuous
 62
     7
370
    18
100
AcDbBlockReference
  2
SW_CENTERMARKSYMBOL_1
 10
45.91923125
 20
97.1024959189
 30
0.0
  0
ENDSEC
  0
SECTION
  2
OBJECTS
  0
DICTIONARY
  5
C
330
0
100
AcDbDictionary
281
     1
  3
ACAD_GROUP
350
D
  3
ACAD_LAYOUT
350
1A
  3
ACAD_MLINESTYLE
350
17
  3
ACAD_PLOTSETTINGS
350
19
  3
ACAD_PLOTSTYLENAME
350
E
  3
ACAD_SCALELIST
350
47
  3
DWGPROPS
350
306
  0
DICTIONARY
  5
D
102
{ACAD_REACTORS
330
C
102
}
330
C
100
AcDbDictionary
281
     1
  0
DICTIONARY
  5
1A
102
{ACAD_REACTORS
330
C
102
}
330
C
100
AcDbDictionary
281
     1
  3
Layout1
350
1E
  3
Layout2
350
26
  3
Model
350
22
  0
DICTIONARY
  5
17
102
{ACAD_REACTORS
330
C
102
}
330
C
100
AcDbDictionary
281
     1
  3
Standard
350
18
  0
DICTIONARY
  5
19
102
{ACAD_REACTORS
330
C
102
}
330
C
100
AcDbDictionary
281
     1
  0
ACDBDICTIONARYWDFLT
  5
E
102
{ACAD_REACTORS
330
C
102
}
330
C
100
AcDbDictionary
281
     1
  3
Normal
350
F
100
AcDbDictionaryWithDefault
340
F
  0
DICTIONARY
  5
47
102
{ACAD_REACTORS
330
C
102
}
330
C
100
AcDbDictionary
281
     1
  3
A0
350
48
  3
A1
350
49
  3
A2
350
4A
  3
A3
350
4B
  3
A4
350
4C
  3
A5
350
4D
  3
A6
350
4E
  3
A7
350
4F
  3
A8
350
50
  3
A9
350
51
  3
B0
350
52
  3
B1
350
53
  3
B2
350
54
  3
B3
350
55
  3
B4
350
56
  3
B5
350
57
  3
B6
350
58
  0
XRECORD
  5
306
102
{ACAD_REACTORS
330
C
102
}
330
C
100
AcDbXrecord
280
     1
  1
DWGPROPS COOKIE
  2

  3

  4

  6

  7

  8
user52
  9

300
=
301
=
302
=
303
=
304
=
305
=
306
=
307
=
308
=
309
=
 40
0.0
 41
2460389.351114317
 42
2460389.351114826
  1

 90
        0
  0
LAYOUT
  5
1E
102
{ACAD_REACTORS
330
1A
102
}
330
1A
100
AcDbPlotSettings
  1

  2
none_device
  4

  6

 40
0.0
 41
0.0
 42
0.0
 43
0.0
 44
0.0
 45
0.0
 46
0.0
 47
0.0
 48
0.0
 49
0.0
140
0.0
141
0.0
142
1.0
143
1.0
 70
   688
 72
     1
 73
     0
 74
     5
  7

 75
    16
147
1.0
148
0.0
149
0.0
100
AcDbLayout
  1
Layout1
 70
     1
 71
     1
 10
0.0
 20
0.0
 11
420.0
 21
297.0
 12
0.0
 22
0.0
 32
0.0
 14
1.0000000000E+20
 24
1.0000000000E+20
 34
1.0000000000E+20
 15
-1.0000000000E+20
 25
-1.0000000000E+20
 35
-1.0000000000E+20
146
0.0
 13
0.0
 23
0.0
 33
0.0
 16
1.0
 26
0.0
 36
0.0
 17
0.0
 27
1.0
 37
0.0
 76
     0
330
1B
  0
LAYOUT
  5
26
102
{ACAD_REACTORS
330
1A
102
}
330
1A
100
AcDbPlotSettings
  1

  2
none_device
  4

  6

 40
0.0
 41
0.0
 42
0.0
 43
0.0
 44
0.0
 45
0.0
 46
0.0
 47
0.0
 48
0.0
 49
0.0
140
0.0
141
0.0
142
1.0
143
1.0
 70
   688
 72
     1
 73
     0
 74
     5
  7

 75
    16
147
1.0
148
0.0
149
0.0
100
AcDbLayout
  1
Layout2
 70
     1
 71
     2
 10
0.0
 20
0.0
 11
0.0
 21
0.0
 12
0.0
 22
0.0
 32
0.0
 14
0.0
 24
0.0
 34
0.0
 15
0.0
 25
0.0
 35
0.0
146
0.0
 13
0.0
 23
0.0
 33
0.0
 16
1.0
 26
0.0
 36
0.0
 17
0.0
 27
1.0
 37
0.0
 76
     0
330
23
  0
LAYOUT
  5
22
102
{ACAD_REACTORS
330
1A
102
}
330
1A
100
AcDbPlotSettings
  1

  2
none_device
  4
Letter_(8.50_x_11.00_Inches)
  6

 40
6.35
 41
6.35
 42
6.35000508
 43
6.35000508
 44
215.9
 45
279.4
 46
0.0
 47
0.0
 48
0.0
 49
0.0
140
0.0
141
0.0
142
1.0
143
1.0
 70
  1712
 72
     1
 73
     0
 74
     0
  7

 75
     0
147
1.0
148
0.0
149
0.0
100
AcDbLayout
  1
Model
 70
     1
 71
     0
 10
0.0
 20
0.0
 11
431.8
 21
279.4
 12
0.0
 22
0.0
 32
0.0
 14
0.0
 24
0.0
 34
0.0
 15
431.8
 25
279.4
 35
0.0
146
0.0
 13
0.0
 23
0.0
 33
0.0
 16
1.0
 26
0.0
 36
0.0
 17
0.0
 27
1.0
 37
0.0
 76
     0
330
1F
331
29
  0
MLINESTYLE
  5
18
102
{ACAD_REACTORS
330
17
102
}
330
17
100
AcDbMlineStyle
  2
Standard
 70
     0
  3

 62
   256
 51
90.0
 52
90.0
 71
     2
 49
0.5
 62
   256
  6
BYLAYER
 49
-0.5
 62
   256
  6
BYLAYER
  0
ACDBPLACEHOLDER
  5
F
102
{ACAD_REACTORS
330
E
102
}
330
E
  0
SCALE
  5
48
102
{ACAD_REACTORS
330
47
102
}
330
47
100
AcDbScale
 70
     0
300
1:1
140
1.0
141
1.0
290
     1
  0
SCALE
  5
49
102
{ACAD_REACTORS
330
47
102
}
330
47
100
AcDbScale
 70
     0
300
1:2
140
1.0
141
2.0
290
     0
  0
SCALE
  5
4A
102
{ACAD_REACTORS
330
47
102
}
330
47
100
AcDbScale
 70
     0
300
1:4
140
1.0
141
4.0
290
     0
  0
SCALE
  5
4B
102
{ACAD_REACTORS
330
47
102
}
330
47
100
AcDbScale
 70
     0
300
1:5
140
1.0
141
5.0
290
     0
  0
SCALE
  5
4C
102
{ACAD_REACTORS
330
47
102
}
330
47
100
AcDbScale
 70
     0
300
1:8
140
1.0
141
8.0
290
     0
  0
SCALE
  5
4D
102
{ACAD_REACTORS
330
47
102
}
330
47
100
AcDbScale
 70
     0
300
1:10
140
1.0
141
10.0
290
     0
  0
SCALE
  5
4E
102
{ACAD_REACTORS
330
47
102
}
330
47
100
AcDbScale
 70
     0
300
1:16
140
1.0
141
16.0
290
     0
  0
SCALE
  5
4F
102
{ACAD_REACTORS
330
47
102
}
330
47
100
AcDbScale
 70
     0
300
1:20
140
1.0
141
20.0
290
     0
  0
SCALE
  5
50
102
{ACAD_REACTORS
330
47
102
}
330
47
100
AcDbScale
 70
     0
300
1:30
140
1.0
141
30.0
290
     0
  0
SCALE
  5
51
102
{ACAD_REACTORS
330
47
102
}
330
47
100
AcDbScale
 70
     0
300
1:40
140
1.0
141
40.0
290
     0
  0
SCALE
  5
52
102
{ACAD_REACTORS
330
47
102
}
330
47
100
AcDbScale
 70
     0
300
1:50
140
1.0
141
50.0
290
     0
  0
SCALE
  5
53
102
{ACAD_REACTORS
330
47
102
}
330
47
100
AcDbScale
 70
     0
300
1:100
140
1.0
141
100.0
290
     0
  0
SCALE
  5
54
102
{ACAD_REACTORS
330
47
102
}
330
47
100
AcDbScale
 70
     0
300
2:1
140
2.0
141
1.0
290
     0
  0
SCALE
  5
55
102
{ACAD_REACTORS
330
47
102
}
330
47
100
AcDbScale
 70
     0
300
4:1
140
4.0
141
1.0
290
     0
  0
SCALE
  5
56
102
{ACAD_REACTORS
330
47
102
}
330
47
100
AcDbScale
 70
     0
300
8:1
140
8.0
141
1.0
290
     0
  0
SCALE
  5
57
102
{ACAD_REACTORS
330
47
102
}
330
47
100
AcDbScale
 70
     0
300
10:1
140
10.0
141
1.0
290
     0
  0
SCALE
  5
58
102
{ACAD_REACTORS
330
47
102
}
330
47
100
AcDbScale
 70
     0
300
100:1
140
100.0
141
1.0
290
     0
  0
ENDSEC
  0
EOF
