  0
SECTION
  2
HEADER
  9
$ACADVER
  1
AC1015
  9
$ACADMAINTVER
 70
     6
  9
$DWGCODEPAGE
  3
DOS932
  9
$INSBASE
 10
0.0
 20
0.0
 30
0.0
  9
$EXTMIN
 10
0.0
 20
0.0
 30
0.0
  9
$EXTMAX
 10
431.8
 20
279.4
 30
0.0
  9
$LIMMIN
 10
0.0
 20
0.0
  9
$LIMMAX
 10
431.8
 20
279.4
  9
$ORTHOMODE
 70
     0
  9
$REGENMODE
 70
     1
  9
$FILLMODE
 70
     1
  9
$QTEXTMODE
 70
     0
  9
$MIRRTEXT
 70
     1
  9
$LTSCALE
 40
1.0
  9
$ATTMODE
 70
     1
  9
$TEXTSIZE
 40
3.5
  9
$TRACEWID
 40
1.0
  9
$TEXTSTYLE
  7
Standard
  9
$CLAYER
  8
0
  9
$CELTYPE
  6
ByLayer
  9
$CECOLOR
 62
   256
  9
$CELTSCALE
 40
1.0
  9
$DISPSILH
 70
     0
  9
$DIMSCALE
 40
1.0
  9
$DIMASZ
 40
3.556
  9
$DIMEXO
 40
1.0
  9
$DIMDLI
 40
3.75
  9
$DIMRND
 40
0.0
  9
$DIMDLE
 40
0.0
  9
$DIMEXE
 40
1.0
  9
$DIMTP
 40
0.0
  9
$DIMTM
 40
0.0
  9
$DIMTXT
 40
3.5
  9
$DIMCEN
 40
2.5
  9
$DIMTSZ
 40
0.0
  9
$DIMTOL
 70
     0
  9
$DIMLIM
 70
     0
  9
$DIMTIH
 70
     1
  9
$DIMTOH
 70
     1
  9
$DIMSE1
 70
     0
  9
$DIMSE2
 70
     0
  9
$DIMTAD
 70
     1
  9
$DIMZIN
 70
     0
  9
$DIMBLK
  1

  9
$DIMASO
 70
     1
  9
$DIMSHO
 70
     1
  9
$DIMPOST
  1

  9
$DIMAPOST
  1

  9
$DIMALT
 70
     0
  9
$DIMALTD
 70
     3
  9
$DIMALTF
 40
0.0393700787
  9
$DIMLFAC
 40
1.0
  9
$DIMTOFL
 70
     1
  9
$DIMTVP
 40
0.0
  9
$DIMTIX
 70
     0
  9
$DIMSOXD
 70
     0
  9
$DIMSAH
 70
     0
  9
$DIMBLK1
  1

  9
$DIMBLK2
  1

  9
$DIMSTYLE
  2
ISO-25
  9
$DIMCLRD
 70
     0
  9
$DIMCLRE
 70
     0
  9
$DIMCLRT
 70
     0
  9
$DIMTFAC
 40
1.0
  9
$DIMGAP
 40
1.524
  9
$DIMJUST
 70
     0
  9
$DIMSD1
 70
     0
  9
$DIMSD2
 70
     0
  9
$DIMTOLJ
 70
     0
  9
$DIMTZIN
 70
     0
  9
$DIMALTZ
 70
     0
  9
$DIMALTTZ
 70
     0
  9
$DIMUPT
 70
     0
  9
$DIMDEC
 70
     3
  9
$DIMTDEC
 70
     3
  9
$DIMALTU
 70
     2
  9
$DIMALTTD
 70
     3
  9
$DIMTXSTY
  7
Standard
  9
$DIMAUNIT
 70
     0
  9
$DIMADEC
 70
     2
  9
$DIMALTRND
 40
0.0
  9
$DIMAZIN
 70
     0
  9
$DIMDSEP
 70
    44
  9
$DIMATFIT
 70
     3
  9
$DIMFRAC
 70
     0
  9
$DIMLDRBLK
  1

  9
$DIMLUNIT
 70
     2
  9
$DIMLWD
 70
    -2
  9
$DIMLWE
 70
    -2
  9
$DIMTMOVE
 70
     0
  9
$LUNITS
 70
     2
  9
$LUPREC
 70
     3
  9
$SKETCHINC
 40
1.0
  9
$FILLETRAD
 40
0.0
  9
$AUNITS
 70
     0
  9
$AUPREC
 70
     2
  9
$MENU
  1
.
  9
$ELEVATION
 40
0.0
  9
$PELEVATION
 40
0.0
  9
$THICKNESS
 40
0.0
  9
$LIMCHECK
 70
     0
  9
$CHAMFERA
 40
0.0
  9
$CHAMFERB
 40
0.0
  9
$CHAMFERC
 40
0.0
  9
$CHAMFERD
 40
0.0
  9
$SKPOLY
 70
     0
  9
$TDCREATE
 40
2460389.729625104
  9
$TDUCREATE
 40
2460389.354625104
  9
$TDUPDATE
 40
2460389.729625648
  9
$TDUUPDATE
 40
2460389.354625648
  9
$TDINDWG
 40
0.0000000116
  9
$TDUSRTIMER
 40
0.0000000116
  9
$USRTIMER
 70
     1
  9
$ANGBASE
 50
0.0
  9
$ANGDIR
 70
     0
  9
$PDMODE
 70
     0
  9
$PDSIZE
 40
-1.0
  9
$PLINEWID
 40
0.0
  9
$SPLFRAME
 70
     0
  9
$SPLINETYPE
 70
     6
  9
$SPLINESEGS
 70
     8
  9
$HANDSEED
  5
312
  9
$SURFTAB1
 70
     6
  9
$SURFTAB2
 70
     6
  9
$SURFTYPE
 70
     6
  9
$SURFU
 70
     6
  9
$SURFV
 70
     6
  9
$UCSBASE
  2

  9
$UCSNAME
  2

  9
$UCSORG
 10
0.0
 20
0.0
 30
0.0
  9
$UCSXDIR
 10
1.0
 20
0.0
 30
0.0
  9
$UCSYDIR
 10
0.0
 20
1.0
 30
0.0
  9
$UCSORTHOREF
  2

  9
$UCSORTHOVIEW
 70
     0
  9
$UCSORGTOP
 10
0.0
 20
0.0
 30
0.0
  9
$UCSORGBOTTOM
 10
0.0
 20
0.0
 30
0.0
  9
$UCSORGLEFT
 10
0.0
 20
0.0
 30
0.0
  9
$UCSORGRIGHT
 10
0.0
 20
0.0
 30
0.0
  9
$UCSORGFRONT
 10
0.0
 20
0.0
 30
0.0
  9
$UCSORGBACK
 10
0.0
 20
0.0
 30
0.0
  9
$PUCSBASE
  2

  9
$PUCSNAME
  2

  9
$PUCSORG
 10
0.0
 20
0.0
 30
0.0
  9
$PUCSXDIR
 10
1.0
 20
0.0
 30
0.0
  9
$PUCSYDIR
 10
0.0
 20
1.0
 30
0.0
  9
$PUCSORTHOREF
  2

  9
$PUCSORTHOVIEW
 70
     0
  9
$PUCSORGTOP
 10
0.0
 20
0.0
 30
0.0
  9
$PUCSORGBOTTOM
 10
0.0
 20
0.0
 30
0.0
  9
$PUCSORGLEFT
 10
0.0
 20
0.0
 30
0.0
  9
$PUCSORGRIGHT
 10
0.0
 20
0.0
 30
0.0
  9
$PUCSORGFRONT
 10
0.0
 20
0.0
 30
0.0
  9
$PUCSORGBACK
 10
0.0
 20
0.0
 30
0.0
  9
$USERI1
 70
     0
  9
$USERI2
 70
     0
  9
$USERI3
 70
     0
  9
$USERI4
 70
     0
  9
$USERI5
 70
     0
  9
$USERR1
 40
0.0
  9
$USERR2
 40
0.0
  9
$USERR3
 40
0.0
  9
$USERR4
 40
0.0
  9
$USERR5
 40
0.0
  9
$WORLDVIEW
 70
     1
  9
$SHADEDGE
 70
     3
  9
$SHADEDIF
 70
    70
  9
$TILEMODE
 70
     1
  9
$MAXACTVP
 70
    64
  9
$PINSBASE
 10
0.0
 20
0.0
 30
0.0
  9
$PLIMCHECK
 70
     0
  9
$PEXTMIN
 10
1.0000000000E+20
 20
1.0000000000E+20
 30
1.0000000000E+20
  9
$PEXTMAX
 10
-1.0000000000E+20
 20
-1.0000000000E+20
 30
-1.0000000000E+20
  9
$PLIMMIN
 10
0.0
 20
0.0
  9
$PLIMMAX
 10
420.0
 20
297.0
  9
$UNITMODE
 70
     0
  9
$VISRETAIN
 70
     1
  9
$PLINEGEN
 70
     0
  9
$PSLTSCALE
 70
     1
  9
$TREEDEPTH
 70
  3020
  9
$CMLSTYLE
  2
Standard
  9
$CMLJUST
 70
     0
  9
$CMLSCALE
 40
20.0
  9
$PROXYGRAPHICS
 70
     1
  9
$MEASUREMENT
 70
     1
  9
$CELWEIGHT
370
    -1
  9
$ENDCAPS
280
     0
  9
$JOINSTYLE
280
     0
  9
$LWDISPLAY
290
     1
  9
$INSUNITS
 70
     4
  9
$HYPERLINKBASE
  1

  9
$STYLESHEET
  1

  9
$XEDIT
290
     1
  9
$CEPSNTYPE
380
     0
  9
$PSTYLEMODE
290
     1
  9
$FINGERPRINTGUID
  2
{f435e67e-03e7-4d2f-9c17-2f386a484f9a}
  9
$VERSIONGUID
  2
{FAEB1C32-E019-11D5-929B-00C0DF256EC4}
  9
$EXTNAMES
290
     1
  9
$PSVPSCALE
 40
0.0
  9
$OLESTARTUP
290
     0
  0
ENDSEC
  0
SECTION
  2
CLASSES
  0
CLASS
  1
ACDBDICTIONARYWDFLT
  2
AcDbDictionaryWithDefault
  3
ObjectDBX Classes
 90
        0
280
     0
281
     0
  0
CLASS
  1
VISUALSTYLE
  2
AcDbVisualStyle
  3
ObjectDBX Classes
 90
     4095
280
     0
281
     0
  0
CLASS
  1
MATERIAL
  2
AcDbMaterial
  3
ObjectDBX Classes
 90
     1153
280
     0
281
     0
  0
CLASS
  1
SCALE
  2
AcDbScale
  3
ObjectDBX Classes
 90
     1153
280
     0
281
     0
  0
CLASS
  1
TABLESTYLE
  2
AcDbTableStyle
  3
ObjectDBX Classes
 90
     4095
280
     0
281
     0
  0
CLASS
  1
MLEADERSTYLE
  2
AcDbMLeaderStyle
  3
ACDB_MLEADERSTYLE_CLASS
 90
     4095
280
     0
281
     0
  0
CLASS
  1
SUN
  2
AcDbSun
  3
SCENEOE
 90
     1153
280
     0
281
     0
  0
CLASS
  1
ACDBPLACEHOLDER
  2
AcDbPlaceHolder
  3
ObjectDBX Classes
 90
        0
280
     0
281
     0
  0
CLASS
  1
LAYOUT
  2
AcDbLayout
  3
ObjectDBX Classes
 90
        0
280
     0
281
     0
  0
ENDSEC
  0
SECTION
  2
TABLES
  0
TABLE
  2
VPORT
  5
8
330
0
100
AcDbSymbolTable
 70
     1
  0
VPORT
  5
29
330
8
100
AcDbSymbolTableRecord
100
AcDbViewportTableRecord
  2
*Active
 70
     0
 10
0.0
 20
0.0
 11
1.0
 21
1.0
 12
215.9
 22
139.7
 13
0.0
 23
0.0
 14
10.0
 24
10.0
 15
10.0
 25
10.0
 16
0.0
 26
0.0
 36
1.0
 17
0.0
 27
0.0
 37
0.0
 40
279.4
 41
1.5454545455
 42
50.0
 43
0.0
 44
0.0
 50
0.0
 51
0.0
 71
     0
 72
  2000
 73
     1
 74
     3
 75
     0
 76
     0
 77
     0
 78
     0
281
     0
 65
     1
110
0.0
120
0.0
130
0.0
111
1.0
121
0.0
131
0.0
112
0.0
122
1.0
132
0.0
 79
     0
146
0.0
  0
ENDTAB
  0
TABLE
  2
LTYPE
  5
5
330
0
100
AcDbSymbolTable
 70
     6
  0
LTYPE
  5
14
330
5
100
AcDbSymbolTableRecord
100
AcDbLinetypeTableRecord
  2
ByBlock
 70
     0
  3

 72
    65
 73
     0
 40
0.0
  0
LTYPE
  5
15
330
5
100
AcDbSymbolTableRecord
100
AcDbLinetypeTableRecord
  2
ByLayer
 70
     0
  3

 72
    65
 73
     0
 40
0.0
  0
LTYPE
  5
16
330
5
100
AcDbSymbolTableRecord
100
AcDbLinetypeTableRecord
  2
Continuous
 70
     0
  3
Solid line
 72
    65
 73
     0
 40
0.0
  0
LTYPE
  5
5E
330
5
100
AcDbSymbolTableRecord
100
AcDbLinetypeTableRecord
  2
HIDDEN
 70
     0
  3
Hidden __ __ __ __ __ __ __ __ __ __ __ __ __ __
 72
    65
 73
     2
 40
1.905
 49
1.27
 74
     0
 49
-0.635
 74
     0
  0
LTYPE
  5
5F
330
5
100
AcDbSymbolTableRecord
100
AcDbLinetypeTableRecord
  2
PHANTOM
 70
     0
  3
Phantom ______  __  __  ______  __  __  ______
 72
    65
 73
     6
 40
12.7
 49
6.35
 74
     0
 49
-1.27
 74
     0
 49
1.27
 74
     0
 49
-1.27
 74
     0
 49
1.27
 74
     0
 49
-1.27
 74
     0
  0
LTYPE
  5
60
330
5
100
AcDbSymbolTableRecord
100
AcDbLinetypeTableRecord
  2
CENTER
 70
     0
  3
Center ____ _ ____ _ ____ _ ____ _ ____ _ ____
 72
    65
 73
     4
 40
10.16
 49
6.35
 74
     0
 49
-1.27
 74
     0
 49
1.27
 74
     0
 49
-1.27
 74
     0
  0
LTYPE
  5
61
330
5
100
AcDbSymbolTableRecord
100
AcDbLinetypeTableRecord
  2
CENTERX2
 70
     0
  3
Center (2x) ________  __  ________  __  _____
 72
    65
 73
     4
 40
20.32
 49
12.7
 74
     0
 49
-2.54
 74
     0
 49
2.54
 74
     0
 49
-2.54
 74
     0
  0
LTYPE
  5
62
330
5
100
AcDbSymbolTableRecord
100
AcDbLinetypeTableRecord
  2
DOT2
 70
     0
  3
Dot (.5x) ........................................
 72
    65
 73
     2
 40
0.635
 49
0.0
 74
     0
 49
-0.635
 74
     0
  0
ENDTAB
  0
TABLE
  2
LAYER
  5
2
330
0
100
AcDbSymbolTable
 70
     1
  0
LAYER
  5
10
330
2
100
AcDbSymbolTableRecord
100
AcDbLayerTableRecord
  2
0
 70
     0
 62
     7
  6
Continuous
370
    -3
390
F
  0
ENDTAB
  0
TABLE
  2
STYLE
  5
3
330
0
100
AcDbSymbolTable
 70
     2
  0
STYLE
  5
11
330
3
100
AcDbSymbolTableRecord
100
AcDbTextStyleTableRecord
  2
Standard
 70
     0
 40
0.0
 41
1.0
 50
0.0
 71
     0
 42
3.5
  3
txt
  4
bigfont
  0
STYLE
  5
303
330
3
100
AcDbSymbolTableRecord
100
AcDbTextStyleTableRecord
  2
SLDTEXTSTYLE0
 70
     0
 40
0.0
 41
0.75
 50
0.0
 71
     0
 42
3.5
  3
TXT
  4
bigfont
  0
ENDTAB
  0
TABLE
  2
VIEW
  5
6
330
0
100
AcDbSymbolTable
 70
     0
  0
ENDTAB
  0
TABLE
  2
UCS
  5
7
330
0
100
AcDbSymbolTable
 70
     0
  0
ENDTAB
  0
TABLE
  2
APPID
  5
9
330
0
100
AcDbSymbolTable
 70
     1
  0
APPID
  5
12
330
9
100
AcDbSymbolTableRecord
100
AcDbRegAppTableRecord
  2
ACAD
 70
     0
  0
ENDTAB
  0
TABLE
  2
DIMSTYLE
  5
A
330
0
100
AcDbSymbolTable
 70
     1
100
AcDbDimStyleTable
  0
DIMSTYLE
105
27
330
A
100
AcDbSymbolTableRecord
100
AcDbDimStyleTableRecord
  2
ISO-25
 70
     0
 41
2.5
 42
0.625
 43
3.75
 44
1.25
 73
     0
 74
     0
 77
     1
 78
     8
140
2.5
141
2.5
143
0.0393700787
147
0.625
171
     3
172
     1
178
     0
271
     2
272
     2
274
     3
278
    44
283
     0
284
     8
340
11
  0
ENDTAB
  0
TABLE
  2
BLOCK_RECORD
  5
1
330
0
100
AcDbSymbolTable
 70
     3
  0
BLOCK_RECORD
  5
1F
330
1
100
AcDbSymbolTableRecord
100
AcDbBlockTableRecord
  2
*Model_Space
340
22
  0
BLOCK_RECORD
  5
1B
330
1
100
AcDbSymbolTableRecord
100
AcDbBlockTableRecord
  2
*Paper_Space
340
1E
  0
BLOCK_RECORD
  5
23
330
1
100
AcDbSymbolTableRecord
100
AcDbBlockTableRecord
  2
*Paper_Space0
340
26
  0
BLOCK_RECORD
  5
209
330
1
100
AcDbSymbolTableRecord
100
AcDbBlockTableRecord
  2
SW_CENTERMARKSYMBOL_0
340
0
102
{BLKREFS
331
214
102
}
  0
BLOCK_RECORD
  5
305
330
1
100
AcDbSymbolTableRecord
100
AcDbBlockTableRecord
  2
SW_CENTERMARKSYMBOL_1
340
0
102
{BLKREFS
331
310
102
}
  0
ENDTAB
  0
ENDSEC
  0
SECTION
  2
BLOCKS
  0
BLOCK
  5
20
330
1F
100
AcDbEntity
  8
0
100
AcDbBlockBegin
  2
*Model_Space
 70
     0
 10
0.0
 20
0.0
 30
0.0
  3
*Model_Space
  1

  0
ENDBLK
  5
21
330
1F
100
AcDbEntity
  8
0
100
AcDbBlockEnd
  0
BLOCK
  5
1C
330
1B
100
AcDbEntity
 67
     1
  8
0
100
AcDbBlockBegin
  2
*Paper_Space
 70
     0
 10
0.0
 20
0.0
 30
0.0
  3
*Paper_Space
  1

  0
ENDBLK
  5
1D
330
1B
100
AcDbEntity
 67
     1
  8
0
100
AcDbBlockEnd
  0
BLOCK
  5
24
330
23
100
AcDbEntity
  8
0
100
AcDbBlockBegin
  2
*Paper_Space0
 70
     0
 10
0.0
 20
0.0
 30
0.0
  3
*Paper_Space0
  1

  0
ENDBLK
  5
25
330
23
100
AcDbEntity
  8
0
100
AcDbBlockEnd
  0
BLOCK
  5
20A
330
209
100
AcDbEntity
  8
0
100
AcDbBlockBegin
  2
SW_CENTERMARKSYMBOL_0
 70
     0
 10
0.0
 20
0.0
 30
0.0
  3
SW_CENTERMARKSYMBOL_0
  1

  0
LINE
  5
20C
330
209
100
AcDbEntity
  8
0
  6
Continuous
 62
     0
370
    18
100
AcDbLine
 10
0.0
 20
0.0
 30
0.0
 11
0.0
 21
2.5
 31
0.0
  0
LINE
  5
20D
330
209
100
AcDbEntity
  8
0
  6
Continuous
 62
     0
370
    18
100
AcDbLine
 10
0.0
 20
0.0
 30
0.0
 11
-2.5
 21
0.0
 31
0.0
  0
LINE
  5
20E
330
209
100
AcDbEntity
  8
0
  6
Continuous
 62
     0
370
    18
100
AcDbLine
 10
0.0
 20
0.0
 30
0.0
 11
0.0
 21
-2.5
 31
0.0
  0
LINE
  5
20F
330
209
100
AcDbEntity
  8
0
  6
Continuous
 62
     0
370
    18
100
AcDbLine
 10
0.0
 20
0.0
 30
0.0
 11
2.5
 21
0.0
 31
0.0
  0
LINE
  5
210
330
209
100
AcDbEntity
  8
0
  6
Continuous
 62
     0
370
    18
100
AcDbLine
 10
0.0
 20
5.0
 30
0.0
 11
0.0
 21
32.9171529194
 31
0.0
  0
LINE
  5
211
330
209
100
AcDbEntity
  8
0
  6
Continuous
 62
     0
370
    18
100
AcDbLine
 10
-5.0
 20
0.0
 30
0.0
 11
-10.75
 21
0.0
 31
0.0
  0
LINE
  5
212
330
209
100
AcDbEntity
  8
0
  6
Continuous
 62
     0
370
    18
100
AcDbLine
 10
0.0
 20
-5.0
 30
0.0
 11
0.0
 21
-25.2255162298
 31
0.0
  0
LINE
  5
213
330
209
100
AcDbEntity
  8
0
  6
Continuous
 62
     0
370
    18
100
AcDbLine
 10
5.0
 20
0.0
 30
0.0
 11
10.75
 21
0.0
 31
0.0
  0
ENDBLK
  5
20B
330
209
100
AcDbEntity
  8
0
100
AcDbBlockEnd
  0
BLOCK
  5
306
330
305
100
AcDbEntity
  8
0
100
AcDbBlockBegin
  2
SW_CENTERMARKSYMBOL_1
 70
     0
 10
0.0
 20
0.0
 30
0.0
  3
SW_CENTERMARKSYMBOL_1
  1

  0
LINE
  5
308
330
305
100
AcDbEntity
  8
0
  6
Continuous
 62
     0
370
    18
100
AcDbLine
 10
0.0
 20
0.0
 30
0.0
 11
0.0
 21
2.5
 31
0.0
  0
LINE
  5
309
330
305
100
AcDbEntity
  8
0
  6
Continuous
 62
     0
370
    18
100
AcDbLine
 10
0.0
 20
0.0
 30
0.0
 11
-2.5
 21
0.0
 31
0.0
  0
LINE
  5
30A
330
305
100
AcDbEntity
  8
0
  6
Continuous
 62
     0
370
    18
100
AcDbLine
 10
0.0
 20
0.0
 30
0.0
 11
0.0
 21
-2.5
 31
0.0
  0
LINE
  5
30B
330
305
100
AcDbEntity
  8
0
  6
Continuous
 62
     0
370
    18
100
AcDbLine
 10
0.0
 20
0.0
 30
0.0
 11
2.5
 21
0.0
 31
0.0
  0
LINE
  5
30C
330
305
100
AcDbEntity
  8
0
  6
Continuous
 62
     0
370
    18
100
AcDbLine
 10
0.0
 20
5.0
 30
0.0
 11
0.0
 21
10.5000000325
 31
0.0
  0
LINE
  5
30D
330
305
100
AcDbEntity
  8
0
  6
Continuous
 62
     0
370
    18
100
AcDbLine
 10
-5.0
 20
0.0
 30
0.0
 11
-34.2827714659
 21
0.0
 31
0.0
  0
LINE
  5
30E
330
305
100
AcDbEntity
  8
0
  6
Continuous
 62
     0
370
    18
100
AcDbLine
 10
0.0
 20
-5.0
 30
0.0
 11
0.0
 21
-10.5000000325
 31
0.0
  0
LINE
  5
30F
330
305
100
AcDbEntity
  8
0
  6
Continuous
 62
     0
370
    18
100
AcDbLine
 10
5.0
 20
0.0
 30
0.0
 11
34.1837719996
 21
0.0
 31
0.0
  0
ENDBLK
  5
307
330
305
100
AcDbEntity
  8
0
100
AcDbBlockEnd
  0
ENDSEC
  0
SECTION
  2
ENTITIES
  0
LINE
  5
63
330
1F
100
AcDbEntity
  8
0
  6
Continuous
 62
     7
370
    25
100
AcDbLine
 10
72.3251431332
 20
27.6310360488
 30
0.0
 11
73.228670079
 21
29.195990625
 31
0.0
  0
LINE
  5
64
330
1F
100
AcDbEntity
  8
0
  6
Continuous
 62
     7
370
    25
100
AcDbLine
 10
73.228670079
 20
45.695990625
 30
0.0
 11
72.3251431332
 21
47.2609452012
 31
0.0
  0
LINE
  5
65
330
1F
100
AcDbEntity
  8
0
  6
Continuous
 62
     7
370
    25
100
AcDbLine
 10
61.1321970249
 20
47.2609452012
 30
0.0
 11
60.228670079
 21
45.695990625
 31
0.0
  0
LINE
  5
66
330
1F
100
AcDbEntity
  8
0
  6
Continuous
 62
     7
370
    25
100
AcDbLine
 10
60.228670079
 20
29.195990625
 30
0.0
 11
61.1321970249
 21
27.6310360488
 31
0.0
  0
LINE
  5
67
330
1F
100
AcDbEntity
  8
0
  6
Continuous
 62
     7
370
    25
100
AcDbLine
 10
22.4480904751
 20
27.6310360488
 30
0.0
 11
23.351617421
 21
29.195990625
 31
0.0
  0
LINE
  5
68
330
1F
100
AcDbEntity
  8
0
  6
Continuous
 62
     7
370
    25
100
AcDbLine
 10
23.351617421
 20
45.695990625
 30
0.0
 11
22.4480904751
 21
47.2609452012
 31
0.0
  0
LINE
  5
69
330
1F
100
AcDbEntity
  8
0
  6
Continuous
 62
     7
370
    25
100
AcDbLine
 10
11.2551443668
 20
47.2609452012
 30
0.0
 11
10.351617421
 21
45.695990625
 31
0.0
  0
LINE
  5
6A
330
1F
100
AcDbEntity
  8
0
  6
Continuous
 62
     7
370
    25
100
AcDbLine
 10
10.351617421
 20
29.195990625
 30
0.0
 11
11.2551443668
 21
27.6310360488
 31
0.0
  0
LINE
  5
6B
330
1F
100
AcDbEntity
  8
0
  6
Continuous
 62
     7
370
    25
100
AcDbLine
 10
27.54014375
 20
45.445990625
 30
0.0
 11
27.34014375
 21
45.245990625
 31
0.0
  0
LINE
  5
6C
330
1F
100
AcDbEntity
  8
0
  6
Continuous
 62
     7
370
    25
100
AcDbLine
 10
27.34014375
 20
29.645990625
 30
0.0
 11
27.54014375
 21
29.445990625
 31
0.0
  0
LINE
  5
6D
330
1F
100
AcDbEntity
  8
0
  6
Continuous
 62
     7
370
    25
100
AcDbLine
 10
30.29014375
 20
45.445990625
 30
0.0
 11
27.54014375
 21
45.445990625
 31
0.0
  0
LINE
  5
6E
330
1F
100
AcDbEntity
  8
0
  6
Continuous
 62
     7
370
    25
100
AcDbLine
 10
27.54014375
 20
29.445990625
 30
0.0
 11
30.29014375
 21
29.445990625
 31
0.0
  0
LINE
  5
6F
330
1F
100
AcDbEntity
  8
0
  6
Continuous
 62
     7
370
    25
100
AcDbLine
 10
27.34014375
 20
44.024490625
 30
0.0
 11
23.351617421
 21
44.024490625
 31
0.0
  0
LINE
  5
70
330
1F
100
AcDbEntity
  8
0
  6
Continuous
 62
     7
370
    25
100
AcDbLine
 10
23.351617421
 20
30.867490625
 30
0.0
 11
27.34014375
 21
30.867490625
 31
0.0
  0
LINE
  5
71
330
1F
100
AcDbEntity
  8
0
  6
Continuous
 62
     7
370
    25
100
AcDbLine
 10
56.04014375
 20
29.445990625
 30
0.0
 11
56.24014375
 21
29.645990625
 31
0.0
  0
LINE
  5
72
330
1F
100
AcDbEntity
  8
0
  6
Continuous
 62
     7
370
    25
100
AcDbLine
 10
56.24014375
 20
45.245990625
 30
0.0
 11
56.04014375
 21
45.445990625
 31
0.0
  0
LINE
  5
73
330
1F
100
AcDbEntity
  8
0
  6
Continuous
 62
     7
370
    25
100
AcDbLine
 10
53.29014375
 20
29.445990625
 30
0.0
 11
56.04014375
 21
29.445990625
 31
0.0
  0
LINE
  5
74
330
1F
100
AcDbEntity
  8
0
  6
Continuous
 62
     7
370
    25
100
AcDbLine
 10
56.04014375
 20
45.445990625
 30
0.0
 11
53.29014375
 21
45.445990625
 31
0.0
  0
LINE
  5
75
330
1F
100
AcDbEntity
  8
0
  6
Continuous
 62
     7
370
    25
100
AcDbLine
 10
56.24014375
 20
30.867490625
 30
0.0
 11
60.228670079
 21
30.867490625
 31
0.0
  0
LINE
  5
76
330
1F
100
AcDbEntity
  8
0
  6
Continuous
 62
     7
370
    25
100
AcDbLine
 10
60.228670079
 20
44.024490625
 30
0.0
 11
56.24014375
 21
44.024490625
 31
0.0
  0
LINE
  5
77
330
1F
100
AcDbEntity
  8
0
  6
Continuous
 62
     7
370
    25
100
AcDbLine
 10
33.7935886895
 20
54.8977614719
 30
0.0
 11
34.2569740018
 21
48.4103671
 31
0.0
  0
LINE
  5
78
330
1F
100
AcDbEntity
  8
0
  6
Continuous
 62
     7
370
    25
100
AcDbLine
 10
33.7901436504
 20
54.9459920198
 30
0.0
 11
33.7935886895
 21
54.8977614719
 31
0.0
  0
LINE
  5
79
330
1F
100
AcDbEntity
  8
0
  6
Continuous
 62
     7
370
    25
100
AcDbLine
 10
49.3233134982
 20
48.4103671
 30
0.0
 11
49.7901438496
 21
54.9459920198
 31
0.0
  0
ARC
  5
7A
330
1F
100
AcDbEntity
  8
0
  6
Continuous
 62
     7
370
    25
100
AcDbCircle
 10
48.8245841483
 20
48.445990625
 30
0.0
 40
0.5
100
AcDbArc
 50
270.0
 51
355.91438322
  0
ARC
  5
7B
330
1F
100
AcDbEntity
  8
0
  6
Continuous
 62
     7
370
    25
100
AcDbCircle
 10
34.7557033517
 20
48.445990625
 30
0.0
 40
0.5
100
AcDbArc
 50
184.08561678
 51
270.0
  0
LINE
  5
7C
330
1F
100
AcDbEntity
  8
0
  6
Continuous
 62
     7
370
    25
100
AcDbLine
 10
47.7152568733
 20
64.445990625
 30
0.0
 11
47.3743255338
 21
66.0499464704
 31
0.0
  0
LINE
  5
7D
330
1F
100
AcDbEntity
  8
0
  6
Continuous
 62
     7
370
    25
100
AcDbLine
 10
36.2059619662
 20
66.0499464704
 30
0.0
 11
35.8650306267
 21
64.445990625
 31
0.0
  0
ARC
  5
7E
330
1F
100
AcDbEntity
  8
0
  6
Continuous
 62
     7
370
    25
100
AcDbCircle
 10
36.6950357666
 20
65.945990625
 30
0.0
 40
0.5
100
AcDbArc
 50
90.0
 51
168.0
  0
ARC
  5
7F
330
1F
100
AcDbEntity
  8
0
  6
Continuous
 62
     7
370
    25
100
AcDbCircle
 10
46.8852517334
 20
65.945990625
 30
0.0
 40
0.5
100
AcDbArc
 50
12.0
 51
90.0
  0
ARC
  5
80
330
1F
100
AcDbEntity
  8
0
  6
Continuous
 62
     7
370
    25
100
AcDbCircle
 10
41.79014375
 20
46.445990625
 30
0.0
 40
20.50000000000001
100
AcDbArc
 50
96.3582831464
 51
102.6803834918
  0
ARC
  5
81
330
1F
100
AcDbEntity
  8
0
  6
Continuous
 62
     7
370
    25
100
AcDbCircle
 10
41.79014375
 20
46.445990625
 30
0.0
 40
20.50000000000001
100
AcDbArc
 50
77.3196165082
 51
83.6417168446
  0
ARC
  5
82
330
1F
100
AcDbEntity
  8
0
  6
Continuous
 62
     7
370
    25
100
AcDbCircle
 10
41.79014375
 20
46.445990625
 30
0.0
 40
20.60000000000001
100
AcDbArc
 50
90.4759978093
 51
93.3558231766
  0
ARC
  5
83
330
1F
100
AcDbEntity
  8
0
  6
Continuous
 62
     7
370
    25
100
AcDbCircle
 10
41.79014375
 20
46.445990625
 30
0.0
 40
20.60000000000001
100
AcDbArc
 50
86.6441768145
 51
89.5216890438
  0
SPLINE
  5
84
330
1F
100
AcDbEntity
  8
0
  6
Continuous
 62
     7
370
    25
100
AcDbSpline
210
0.0
220
0.0
230
1.0
 70
     8
 71
     3
 72
    11
 73
     7
 74
     0
 42
0.00000001
 43
0.00000001
 40
0.0
 40
0.0
 40
0.0
 40
0.0
 40
0.1443467816045501
 40
0.527814824110896
 40
0.8537204432066315
 40
0.9999999999999999
 40
0.9999999999999999
 40
0.9999999999999999
 40
0.9999999999999999
 10
47.96093537617372
 20
46.23536567414487
 30
0.0
 10
47.93283424966895
 20
46.26097797757562
 30
0.0
 10
47.83008037473974
 20
46.35463128442531
 30
0.0
 10
47.73091999631347
 20
46.56210543909929
 30
0.0
 10
47.67013761560753
 20
46.78121349823783
 30
0.0
 10
47.67618243979719
 20
46.90537969364091
 30
0.0
 10
47.67805508266807
 20
46.94384548409713
 30
0.0
  0
SPLINE
  5
85
330
1F
100
AcDbEntity
  8
0
  6
Continuous
 62
     7
370
    25
100
AcDbSpline
210
0.0
220
0.0
230
1.0
 70
     8
 71
     3
 72
    11
 73
     7
 74
     0
 42
0.00000001
 43
0.00000001
 40
0.0
 40
0.0
 40
0.0
 40
0.0
 40
0.2038901975696668
 40
0.5501507231002415
 40
0.906656006302841
 40
1.0
 40
1.0
 40
1.0
 40
1.0
 10
35.89709104334027
 20
46.94748022677518
 30
0.0
 10
35.89835215105283
 20
46.89376389726307
 30
0.0
 10
35.90175495966376
 20
46.748822757985
 30
0.0
 10
35.82537115943992
 20
46.52057568834836
 30
0.0
 10
35.72529778175621
 20
46.33100210068438
 30
0.0
 10
35.63539619871081
 20
46.25419059778384
 30
0.0
 10
35.6167415665216
 20
46.23825216504469
 30
0.0
  0
LINE
  5
86
330
1F
100
AcDbEntity
  8
0
  6
Continuous
 62
     7
370
    25
100
AcDbLine
 10
47.69014375
 20
46.9414598049
 30
0.0
 11
47.69014375
 21
47.945990625
 31
0.0
  0
LINE
  5
87
330
1F
100
AcDbEntity
  8
0
  6
Continuous
 62
     7
370
    25
100
AcDbLine
 10
35.89014375
 20
47.945990625
 30
0.0
 11
35.89014375
 21
46.945990625
 31
0.0
  0
LINE
  5
88
330
1F
100
AcDbEntity
  8
0
  6
Continuous
 62
     7
370
    25
100
AcDbLine
 10
36.69083125
 20
25.445990625
 30
0.0
 11
37.0078641231
 21
15.3009386844
 31
0.0
  0
LINE
  5
89
330
1F
100
AcDbEntity
  8
0
  6
Continuous
 62
     7
370
    25
100
AcDbLine
 10
46.5724233769
 20
15.3009386844
 30
0.0
 11
46.88945625
 21
25.445990625
 31
0.0
  0
LINE
  5
8A
330
1F
100
AcDbEntity
  8
0
  6
Continuous
 62
     7
370
    25
100
AcDbLine
 10
37.0078641231
 20
15.3009386844
 30
0.0
 11
37.79014375
 21
13.945990625
 31
0.0
  0
LINE
  5
8B
330
1F
100
AcDbEntity
  8
0
  6
Continuous
 62
     7
370
    25
100
AcDbLine
 10
45.79014375
 20
13.945990625
 30
0.0
 11
46.5724233769
 21
15.3009386844
 31
0.0
  0
LINE
  5
8C
330
1F
100
AcDbEntity
  8
0
  6
Continuous
 62
     7
370
    25
100
AcDbLine
 10
35.6199768427
 20
46.2407283543
 30
0.0
 11
35.0756125702
 21
47.183594932
 31
0.0
  0
LINE
  5
8D
330
1F
100
AcDbEntity
  8
0
  6
Continuous
 62
     7
370
    25
100
AcDbLine
 10
52.5756125702
 20
27.708386318
 30
0.0
 11
53.29014375
 21
28.945990625
 31
0.0
  0
LINE
  5
8E
330
1F
100
AcDbEntity
  8
0
  6
Continuous
 62
     7
370
    25
100
AcDbLine
 10
50.29014375
 20
25.445990625
 30
0.0
 11
51.527748057
 21
26.1605218048
 31
0.0
  0
LINE
  5
8F
330
1F
100
AcDbEntity
  8
0
  6
Continuous
 62
     7
370
    25
100
AcDbLine
 10
32.052539443
 20
26.1605218048
 30
0.0
 11
33.29014375
 21
25.445990625
 31
0.0
  0
LINE
  5
90
330
1F
100
AcDbEntity
  8
0
  6
Continuous
 62
     7
370
    25
100
AcDbLine
 10
31.0046749298
 20
47.183594932
 30
0.0
 11
30.29014375
 21
45.945990625
 31
0.0
  0
LINE
  5
91
330
1F
100
AcDbEntity
  8
0
  6
Continuous
 62
     7
370
    25
100
AcDbLine
 10
48.5046749298
 20
47.183594932
 30
0.0
 11
47.9603106573
 21
46.2407283543
 31
0.0
  0
LINE
  5
92
330
1F
100
AcDbEntity
  8
0
  6
Continuous
 62
     7
370
    25
100
AcDbLine
 10
53.29014375
 20
45.945990625
 30
0.0
 11
52.5756125702
 21
47.183594932
 31
0.0
  0
LINE
  5
93
330
1F
100
AcDbEntity
  8
0
  6
Continuous
 62
     7
370
    25
100
AcDbLine
 10
30.29014375
 20
28.945990625
 30
0.0
 11
31.0046749298
 21
27.708386318
 31
0.0
  0
LINE
  5
94
330
1F
100
AcDbEntity
  8
0
  6
Continuous
 62
     7
370
    25
100
AcDbLine
 10
51.527748057
 20
26.1579614235
 30
0.0
 11
51.527748057
 21
27.708386318
 31
0.0
  0
LINE
  5
95
330
1F
100
AcDbEntity
  8
0
  6
Continuous
 62
     7
370
    25
100
AcDbLine
 10
51.527748057
 20
27.708386318
 30
0.0
 11
52.5781729515
 21
27.708386318
 31
0.0
  0
LINE
  5
96
330
1F
100
AcDbEntity
  8
0
  6
Continuous
 62
     7
370
    25
100
AcDbLine
 10
35.0781806256
 20
47.183594932
 30
0.0
 11
31.0021145485
 21
47.183594932
 31
0.0
  0
LINE
  5
97
330
1F
100
AcDbEntity
  8
0
  6
Continuous
 62
     7
370
    25
100
AcDbLine
 10
52.5781729515
 20
47.183594932
 30
0.0
 11
48.5021068744
 21
47.183594932
 31
0.0
  0
LINE
  5
98
330
1F
100
AcDbEntity
  8
0
  6
Continuous
 62
     7
370
    25
100
AcDbLine
 10
32.052539443
 20
27.708386318
 30
0.0
 11
32.052539443
 21
26.1579614235
 31
0.0
  0
LINE
  5
99
330
1F
100
AcDbEntity
  8
0
  6
Continuous
 62
     7
370
    25
100
AcDbLine
 10
31.0021145485
 20
27.708386318
 30
0.0
 11
32.052539443
 21
27.708386318
 31
0.0
  0
LINE
  5
9A
330
1F
100
AcDbEntity
  8
0
  6
Continuous
 62
     7
370
    25
100
AcDbLine
 10
72.3251431332
 20
42.3534679131
 30
0.0
 11
61.1321970249
 21
42.3534679131
 31
0.0
  0
SPLINE
  5
9B
330
1F
100
AcDbEntity
  8
0
  6
Continuous
 62
     7
370
    25
100
AcDbSpline
210
0.0
220
0.0
230
1.0
 70
     8
 71
     3
 72
    13
 73
     9
 74
     0
 42
0.00000001
 43
0.00000001
 40
0.0
 40
0.0
 40
0.0
 40
0.0
 40
0.1323374700420661
 40
0.2646375235775793
 40
0.3998971812287823
 40
0.535132430788464
 40
0.7654363136792479
 40
1.0
 40
1.0
 40
1.0
 40
1.0
 10
61.13219702487739
 20
47.26094520122366
 30
0.0
 10
61.01662165608403
 20
47.04892136702681
 30
0.0
 10
60.78550359576207
 20
46.62493364530717
 30
0.0
 10
60.5369224928831
 20
45.97205355510936
 30
0.0
 10
60.38709207152742
 20
45.30677102635175
 30
0.0
 10
60.35011315214972
 20
44.47472359056422
 30
0.0
 10
60.54579568229897
 20
43.47824772925108
 30
0.0
 10
60.93553944131837
 20
42.73067796468725
 30
0.0
 10
61.13219702487739
 20
42.35346791311181
 30
0.0
  0
LINE
  5
9C
330
1F
100
AcDbEntity
  8
0
  6
Continuous
 62
     7
370
    25
100
AcDbLine
 10
72.3251431332
 20
47.2609452012
 30
0.0
 11
61.1321970249
 21
47.2609452012
 31
0.0
  0
SPLINE
  5
9D
330
1F
100
AcDbEntity
  8
0
  6
Continuous
 62
     7
370
    25
100
AcDbSpline
210
0.0
220
0.0
230
1.0
 70
     8
 71
     3
 72
    13
 73
     9
 74
     0
 42
0.00000001
 43
0.00000001
 40
0.0
 40
0.0
 40
0.0
 40
0.0
 40
0.1323374700420661
 40
0.2646375235775793
 40
0.3998971812287823
 40
0.535132430788464
 40
0.7654363136792479
 40
1.0
 40
1.0
 40
1.0
 40
1.0
 10
72.32514313317287
 20
47.26094520122366
 30
0.0
 10
72.44071850196623
 20
47.04892136702681
 30
0.0
 10
72.67183656228819
 20
46.62493364530717
 30
0.0
 10
72.92041766516716
 20
45.97205355510936
 30
0.0
 10
73.07024808652284
 20
45.30677102635175
 30
0.0
 10
73.10722700590053
 20
44.47472359056422
 30
0.0
 10
72.9115444757513
 20
43.47824772925108
 30
0.0
 10
72.52180071673189
 20
42.73067796468725
 30
0.0
 10
72.32514313317287
 20
42.35346791311181
 30
0.0
  0
LINE
  5
9E
330
1F
100
AcDbEntity
  8
0
  6
Continuous
 62
     7
370
    25
100
AcDbLine
 10
72.3251431332
 20
32.5385133369
 30
0.0
 11
61.1321970249
 21
32.5385133369
 31
0.0
  0
SPLINE
  5
9F
330
1F
100
AcDbEntity
  8
0
  6
Continuous
 62
     7
370
    25
100
AcDbSpline
210
0.0
220
0.0
230
1.0
 70
     8
 71
     3
 72
    14
 73
    10
 74
     0
 42
0.00000001
 43
0.00000001
 40
0.0
 40
0.0
 40
0.0
 40
0.0
 40
0.1885762799860081
 40
0.378895556583529
 40
0.5044823954484108
 40
0.6300701228213249
 40
0.7590052913537331
 40
0.887976329628691
 40
1.0
 40
1.0
 40
1.0
 40
1.0
 10
61.13219702487739
 20
42.35346791311181
 30
0.0
 10
60.97114798578802
 20
41.74792952057636
 30
0.0
 10
60.64756134324988
 20
40.53125578892018
 30
0.0
 10
60.41410162317707
 20
38.86717123753485
 30
0.0
 10
60.35586456800444
 20
37.40091870324647
 30
0.0
 10
60.4127303095619
 20
36.13827818285298
 30
0.0
 10
60.57781434073365
 20
34.87433957236742
 30
0.0
 10
60.82126312588134
 20
33.66904198243842
 30
0.0
 10
61.03352806405633
 20
32.89726510694299
 30
0.0
 10
61.13219702487739
 20
32.53851333688814
 30
0.0
  0
SPLINE
  5
A0
330
1F
100
AcDbEntity
  8
0
  6
Continuous
 62
     7
370
    25
100
AcDbSpline
210
0.0
220
0.0
230
1.0
 70
     8
 71
     3
 72
    14
 73
    10
 74
     0
 42
0.00000001
 43
0.00000001
 40
0.0
 40
0.0
 40
0.0
 40
0.0
 40
0.1885762799860081
 40
0.378895556583529
 40
0.5044823954484108
 40
0.6300701228213249
 40
0.7590052913537331
 40
0.887976329628691
 40
1.0
 40
1.0
 40
1.0
 40
1.0
 10
72.32514313317287
 20
42.35346791311181
 30
0.0
 10
72.48619217226224
 20
41.74792952057636
 30
0.0
 10
72.80977881480038
 20
40.53125578892018
 30
0.0
 10
73.04323853487318
 20
38.86717123753485
 30
0.0
 10
73.10147559004584
 20
37.40091870324647
 30
0.0
 10
73.04460984848838
 20
36.13827818285298
 30
0.0
 10
72.87952581731663
 20
34.87433957236742
 30
0.0
 10
72.63607703216893
 20
33.66904198243842
 30
0.0
 10
72.42381209399394
 20
32.89726510694299
 30
0.0
 10
72.32514313317287
 20
32.53851333688814
 30
0.0
  0
SPLINE
  5
A1
330
1F
100
AcDbEntity
  8
0
  6
Continuous
 62
     7
370
    25
100
AcDbSpline
210
0.0
220
0.0
230
1.0
 70
     8
 71
     3
 72
    13
 73
     9
 74
     0
 42
0.00000001
 43
0.00000001
 40
0.0
 40
0.0
 40
0.0
 40
0.0
 40
0.1323374700420661
 40
0.2646375235775792
 40
0.3998971812287823
 40
0.5351324307884638
 40
0.7654363136792477
 40
1.0
 40
1.0
 40
1.0
 40
1.0
 10
72.32514313317287
 20
32.53851333688814
 30
0.0
 10
72.44071850196623
 20
32.3264895026913
 30
0.0
 10
72.67183656228819
 20
31.90250178097168
 30
0.0
 10
72.92041766516716
 20
31.24962169077386
 30
0.0
 10
73.07024808652284
 20
30.58433916201626
 30
0.0
 10
73.10722700590054
 20
29.75229172622874
 30
0.0
 10
72.9115444757513
 20
28.75581586491561
 30
0.0
 10
72.5218007167319
 20
28.00824610035179
 30
0.0
 10
72.32514313317289
 20
27.63103604877636
 30
0.0
  0
LINE
  5
A2
330
1F
100
AcDbEntity
  8
0
  6
Continuous
 62
     7
370
    25
100
AcDbLine
 10
73.228670079
 20
45.695990625
 30
0.0
 11
73.228670079
 21
29.195990625
 31
0.0
  0
SPLINE
  5
A3
330
1F
100
AcDbEntity
  8
0
  6
Continuous
 62
     7
370
    25
100
AcDbSpline
210
0.0
220
0.0
230
1.0
 70
     8
 71
     3
 72
    13
 73
     9
 74
     0
 42
0.00000001
 43
0.00000001
 40
0.0
 40
0.0
 40
0.0
 40
0.0
 40
0.1323374700420661
 40
0.2646375235775792
 40
0.3998971812287823
 40
0.5351324307884638
 40
0.7654363136792478
 40
1.0
 40
1.0
 40
1.0
 40
1.0
 10
61.13219702487739
 20
32.53851333688814
 30
0.0
 10
61.01662165608403
 20
32.3264895026913
 30
0.0
 10
60.78550359576207
 20
31.90250178097168
 30
0.0
 10
60.5369224928831
 20
31.24962169077387
 30
0.0
 10
60.38709207152741
 20
30.58433916201626
 30
0.0
 10
60.35011315214972
 20
29.75229172622874
 30
0.0
 10
60.54579568229897
 20
28.75581586491561
 30
0.0
 10
60.93553944131837
 20
28.00824610035179
 30
0.0
 10
61.13219702487739
 20
27.63103604877636
 30
0.0
  0
LINE
  5
A4
330
1F
100
AcDbEntity
  8
0
  6
Continuous
 62
     7
370
    25
100
AcDbLine
 10
60.228670079
 20
45.695990625
 30
0.0
 11
60.228670079
 21
29.195990625
 31
0.0
  0
LINE
  5
A5
330
1F
100
AcDbEntity
  8
0
  6
Continuous
 62
     7
370
    25
100
AcDbLine
 10
72.3251431332
 20
27.6310360488
 30
0.0
 11
61.1321970249
 21
27.6310360488
 31
0.0
  0
SPLINE
  5
A6
330
1F
100
AcDbEntity
  8
0
  6
Continuous
 62
     7
370
    25
100
AcDbSpline
210
0.0
220
0.0
230
1.0
 70
     8
 71
     3
 72
    13
 73
     9
 74
     0
 42
0.00000001
 43
0.00000001
 40
0.0
 40
0.0
 40
0.0
 40
0.0
 40
0.1323374700420661
 40
0.2646375235775792
 40
0.3998971812287823
 40
0.535132430788464
 40
0.7654363136792479
 40
1.0
 40
1.0
 40
1.0
 40
1.0
 10
22.44809047512261
 20
27.63103604877636
 30
0.0
 10
22.56366584391596
 20
27.84305988297321
 30
0.0
 10
22.79478390423793
 20
28.26704760469286
 30
0.0
 10
23.04336500711689
 20
28.91992769489068
 30
0.0
 10
23.19319542847259
 20
29.5852102236483
 30
0.0
 10
23.23017434785028
 20
30.41725765943584
 30
0.0
 10
23.03449181770103
 20
31.41373352074899
 30
0.0
 10
22.64474805868164
 20
32.16130328531283
 30
0.0
 10
22.44809047512262
 20
32.53851333688826
 30
0.0
  0
SPLINE
  5
A7
330
1F
100
AcDbEntity
  8
0
  6
Continuous
 62
     7
370
    25
100
AcDbSpline
210
0.0
220
0.0
230
1.0
 70
     8
 71
     3
 72
    14
 73
    10
 74
     0
 42
0.00000001
 43
0.00000001
 40
0.0
 40
0.0
 40
0.0
 40
0.0
 40
0.1120237311809919
 40
0.2377726069116394
 40
0.363488949183057
 40
0.4922970128128267
 40
0.6211033992438478
 40
0.809515368839787
 40
1.0
 40
1.0
 40
1.0
 40
1.0
 10
22.44809047512262
 20
32.53851333688826
 30
0.0
 10
22.54676602403936
 20
32.89726391622514
 30
0.0
 10
22.75620684748831
 20
33.65871918628902
 30
0.0
 10
22.99638431727017
 20
34.84278040215231
 30
0.0
 10
23.16367576510867
 20
36.09554279847041
 30
0.0
 10
23.22515108604663
 20
37.36877314422364
 30
0.0
 10
23.16795544760318
 20
38.85023091070484
 30
0.0
 10
22.93401420837959
 20
40.52498817907956
 30
0.0
 10
22.61065467273397
 20
41.74175599112108
 30
0.0
 10
22.44809047512261
 20
42.35346791311194
 30
0.0
  0
SPLINE
  5
A8
330
1F
100
AcDbEntity
  8
0
  6
Continuous
 62
     7
370
    25
100
AcDbSpline
210
0.0
220
0.0
230
1.0
 70
     8
 71
     3
 72
    13
 73
     9
 74
     0
 42
0.00000001
 43
0.00000001
 40
0.0
 40
0.0
 40
0.0
 40
0.0
 40
0.1323374700420676
 40
0.2646375235775827
 40
0.3998971812287874
 40
0.5351324307884706
 40
0.7654363136792514
 40
1.0
 40
1.0
 40
1.0
 40
1.0
 10
22.44809047512262
 20
42.35346791311193
 30
0.0
 10
22.56366584391597
 20
42.56549174730878
 30
0.0
 10
22.79478390423792
 20
42.98947946902841
 30
0.0
 10
23.0433650071169
 20
43.64235955922622
 30
0.0
 10
23.19319542847256
 20
44.30764208798382
 30
0.0
 10
23.23017434785026
 20
45.13968952377133
 30
0.0
 10
23.03449181770101
 20
46.13616538508445
 30
0.0
 10
22.64474805868162
 20
46.88373514964824
 30
0.0
 10
22.44809047512261
 20
47.26094520122366
 30
0.0
  0
LINE
  5
A9
330
1F
100
AcDbEntity
  8
0
  6
Continuous
 62
     7
370
    25
100
AcDbLine
 10
23.351617421
 20
37.445990625
 30
0.0
 11
23.351617421
 21
45.695990625
 31
0.0
  0
LINE
  5
AA
330
1F
100
AcDbEntity
  8
0
  6
Continuous
 62
     7
370
    25
100
AcDbLine
 10
23.351617421
 20
29.195990625
 30
0.0
 11
23.351617421
 21
37.445990625
 31
0.0
  0
SPLINE
  5
AB
330
1F
100
AcDbEntity
  8
0
  6
Continuous
 62
     7
370
    25
100
AcDbSpline
210
0.0
220
0.0
230
1.0
 70
     8
 71
     3
 72
    14
 73
    10
 74
     0
 42
0.00000001
 43
0.00000001
 40
0.0
 40
0.0
 40
0.0
 40
0.0
 40
0.1120237311809919
 40
0.2377726069116394
 40
0.363488949183057
 40
0.4922970128128267
 40
0.6211033992438478
 40
0.809515368839787
 40
1.0
 40
1.0
 40
1.0
 40
1.0
 10
11.25514436682712
 20
32.53851333688826
 30
0.0
 10
11.15646881791037
 20
32.89726391622514
 30
0.0
 10
10.9470279944614
 20
33.65871918628902
 30
0.0
 10
10.70685052467957
 20
34.84278040215231
 30
0.0
 10
10.53955907684105
 20
36.09554279847041
 30
0.0
 10
10.47808375590312
 20
37.36877314422364
 30
0.0
 10
10.53527939434654
 20
38.85023091070484
 30
0.0
 10
10.76922063357016
 20
40.52498817907956
 30
0.0
 10
11.09258016921577
 20
41.74175599112108
 30
0.0
 10
11.25514436682712
 20
42.35346791311194
 30
0.0
  0
SPLINE
  5
AC
330
1F
100
AcDbEntity
  8
0
  6
Continuous
 62
     7
370
    25
100
AcDbSpline
210
0.0
220
0.0
230
1.0
 70
     8
 71
     3
 72
    13
 73
     9
 74
     0
 42
0.00000001
 43
0.00000001
 40
0.0
 40
0.0
 40
0.0
 40
0.0
 40
0.1323374700420661
 40
0.2646375235775792
 40
0.3998971812287823
 40
0.535132430788464
 40
0.7654363136792479
 40
1.0
 40
1.0
 40
1.0
 40
1.0
 10
11.25514436682713
 20
27.63103604877636
 30
0.0
 10
11.13956899803377
 20
27.84305988297321
 30
0.0
 10
10.90845093771181
 20
28.26704760469286
 30
0.0
 10
10.65986983483283
 20
28.91992769489068
 30
0.0
 10
10.51003941347717
 20
29.5852102236483
 30
0.0
 10
10.47306049409946
 20
30.41725765943584
 30
0.0
 10
10.66874302424872
 20
31.41373352074899
 30
0.0
 10
11.0584867832681
 20
32.16130328531283
 30
0.0
 10
11.25514436682712
 20
32.53851333688826
 30
0.0
  0
SPLINE
  5
AD
330
1F
100
AcDbEntity
  8
0
  6
Continuous
 62
     7
370
    25
100
AcDbSpline
210
0.0
220
0.0
230
1.0
 70
     8
 71
     3
 72
    13
 73
     9
 74
     0
 42
0.00000001
 43
0.00000001
 40
0.0
 40
0.0
 40
0.0
 40
0.0
 40
0.1323374700420676
 40
0.2646375235775826
 40
0.3998971812287873
 40
0.5351324307884706
 40
0.7654363136792514
 40
1.0
 40
1.0
 40
1.0
 40
1.0
 10
11.25514436682712
 20
42.35346791311194
 30
0.0
 10
11.13956899803376
 20
42.56549174730878
 30
0.0
 10
10.9084509377118
 20
42.98947946902841
 30
0.0
 10
10.65986983483286
 20
43.64235955922621
 30
0.0
 10
10.51003941347716
 20
44.30764208798382
 30
0.0
 10
10.4730604940995
 20
45.13968952377133
 30
0.0
 10
10.66874302424872
 20
46.13616538508445
 30
0.0
 10
11.05848678326811
 20
46.88373514964824
 30
0.0
 10
11.25514436682712
 20
47.26094520122366
 30
0.0
  0
LINE
  5
AE
330
1F
100
AcDbEntity
  8
0
  6
Continuous
 62
     7
370
    25
100
AcDbLine
 10
10.351617421
 20
37.445990625
 30
0.0
 11
10.351617421
 21
45.695990625
 31
0.0
  0
LINE
  5
AF
330
1F
100
AcDbEntity
  8
0
  6
Continuous
 62
     7
370
    25
100
AcDbLine
 10
10.351617421
 20
29.195990625
 30
0.0
 11
10.351617421
 21
37.445990625
 31
0.0
  0
LINE
  5
B0
330
1F
100
AcDbEntity
  8
0
  6
Continuous
 62
     7
370
    25
100
AcDbLine
 10
11.2551443668
 20
32.5385133369
 30
0.0
 11
22.4480904751
 21
32.5385133369
 31
0.0
  0
LINE
  5
B1
330
1F
100
AcDbEntity
  8
0
  6
Continuous
 62
     7
370
    25
100
AcDbLine
 10
11.2551443668
 20
27.6310360488
 30
0.0
 11
22.4480904751
 21
27.6310360488
 31
0.0
  0
LINE
  5
B2
330
1F
100
AcDbEntity
  8
0
  6
Continuous
 62
     7
370
    25
100
AcDbLine
 10
11.2551443668
 20
42.3534679131
 30
0.0
 11
22.4480904751
 21
42.3534679131
 31
0.0
  0
LINE
  5
B3
330
1F
100
AcDbEntity
  8
0
  6
Continuous
 62
     7
370
    25
100
AcDbLine
 10
11.2551443668
 20
47.2609452012
 30
0.0
 11
22.4480904751
 21
47.2609452012
 31
0.0
  0
LINE
  5
B4
330
1F
100
AcDbEntity
  8
0
  6
Continuous
 62
     7
370
    25
100
AcDbLine
 10
27.34014375
 20
30.9102610765
 30
0.0
 11
27.34014375
 21
45.245990625
 31
0.0
  0
LINE
  5
B5
330
1F
100
AcDbEntity
  8
0
  6
Continuous
 62
     7
370
    25
100
AcDbLine
 10
27.34014375
 20
29.645990625
 30
0.0
 11
27.34014375
 21
30.9102610765
 31
0.0
  0
LINE
  5
B6
330
1F
100
AcDbEntity
  8
0
  6
Continuous
 62
     7
370
    25
100
AcDbLine
 10
27.54014375
 20
30.7426782676
 30
0.0
 11
27.54014375
 21
29.445990625
 31
0.0
  0
LINE
  5
B7
330
1F
100
AcDbEntity
  8
0
  6
Continuous
 62
     7
370
    25
100
AcDbLine
 10
27.54014375
 20
45.445990625
 30
0.0
 11
27.54014375
 21
30.7426782676
 31
0.0
  0
LINE
  5
B8
330
1F
100
AcDbEntity
  8
0
  6
Continuous
 62
     7
370
    25
100
AcDbLine
 10
56.24014375
 20
45.245990625
 30
0.0
 11
56.24014375
 21
29.645990625
 31
0.0
  0
LINE
  5
B9
330
1F
100
AcDbEntity
  8
0
  6
Continuous
 62
     7
370
    25
100
AcDbLine
 10
56.04014375
 20
29.445990625
 30
0.0
 11
56.04014375
 21
45.445990625
 31
0.0
  0
LINE
  5
BA
330
1F
100
AcDbEntity
  8
0
  6
Continuous
 62
     7
370
    25
100
AcDbLine
 10
46.8825946826
 20
64.445990625
 30
0.0
 11
36.6976928174
 21
64.445990625
 31
0.0
  0
SPLINE
  5
BB
330
1F
100
AcDbEntity
  8
0
  6
Continuous
 62
     7
370
    25
100
AcDbSpline
210
0.0
220
0.0
230
1.0
 70
     8
 71
     3
 72
    11
 73
     7
 74
     0
 42
0.00000001
 43
0.00000001
 40
0.0
 40
0.0
 40
0.0
 40
0.0
 40
0.2460416072901215
 40
0.4920717926348662
 40
0.7460790582811389
 40
1.0
 40
1.0
 40
1.0
 40
1.0
 10
48.75317095933738
 20
56.67916660071693
 30
0.0
 10
48.5035818406453
 20
57.2896091700845
 30
0.0
 10
48.004415189892
 20
58.51046597035378
 30
0.0
 10
47.45123337611496
 20
60.43246757108662
 30
0.0
 10
47.03790408258557
 20
62.41177030891879
 30
0.0
 10
46.93435861662556
 20
63.76799401773986
 30
0.0
 10
46.88259468257733
 20
64.44599062500001
 30
0.0
  0
SPLINE
  5
BC
330
1F
100
AcDbEntity
  8
0
  6
Continuous
 62
     7
370
    25
100
AcDbSpline
210
0.0
220
0.0
230
1.0
 70
     8
 71
     3
 72
    13
 73
     9
 74
     0
 42
0.00000001
 43
0.00000001
 40
0.0
 40
0.0
 40
0.0
 40
0.0
 40
0.0164940201989931
 40
0.195880367265472
 40
0.3763143282056556
 40
0.5827472646165623
 40
0.8280062032403772
 40
1.0
 40
1.0
 40
1.0
 40
1.0
 10
49.7901436938945
 20
54.94599045992829
 30
0.0
 10
49.79003907594785
 20
54.94612773522983
 30
0.0
 10
49.78879664981012
 20
54.94775799493354
 30
0.0
 10
49.73961360730006
 20
55.0132897561374
 30
0.0
 10
49.56654077442728
 20
55.25183637867505
 30
0.0
 10
49.30111356133589
 20
55.64667950596476
 30
0.0
 10
49.00460583381002
 20
56.13982501562702
 30
0.0
 10
48.82656169876362
 20
56.52173944262643
 30
0.0
 10
48.75317095933738
 20
56.67916660071693
 30
0.0
  0
LWPOLYLINE
  5
BD
330
1F
100
AcDbEntity
  8
0
  6
Continuous
 62
     7
370
    25
100
AcDbPolyline
 90
       29
 70
   128
 43
0.0
 10
49.7901436939
 20
54.9459904599
 10
49.7397175788
 20
54.945990461
 10
49.5893398865
 20
54.9459904641
 10
49.3409013459
 20
54.9459904692
 10
48.9975256242
 20
54.9459904763
 10
48.5635300529
 20
54.9459904852
 10
48.0443713448
 20
54.9459904959
 10
47.4465769858
 20
54.9459905083
 10
46.7776631638
 20
54.9459905221
 10
46.0460402655
 20
54.9459905372
 10
45.2609071316
 20
54.9459905534
 10
44.4321353975
 20
54.9459905705
 10
43.5701453755
 20
54.9459905882
 10
42.6857750382
 20
54.9459906065
 10
41.79014375
 20
54.945990625
 10
40.8945124618
 20
54.9459906435
 10
40.0101421245
 20
54.9459906617
 10
39.1481521025
 20
54.9459906795
 10
38.3193803684
 20
54.9459906966
 10
37.5342472345
 20
54.9459907128
 10
36.8026243362
 20
54.9459907279
 10
36.1337105142
 20
54.9459907417
 10
35.5359161552
 20
54.945990754
 10
35.0167574471
 20
54.9459907647
 10
34.5827618758
 20
54.9459907737
 10
34.2393861541
 20
54.9459907808
 10
33.9909476135
 20
54.9459907859
 10
33.8405699212
 20
54.945990789
 10
33.7901438061
 20
54.9459904599
  0
SPLINE
  5
BE
330
1F
100
AcDbEntity
  8
0
  6
Continuous
 62
     7
370
    25
100
AcDbSpline
210
0.0
220
0.0
230
1.0
 70
     8
 71
     3
 72
    12
 73
     8
 74
     0
 42
0.00000001
 43
0.00000001
 40
0.0
 40
0.0
 40
0.0
 40
0.0
 40
0.0816308004991864
 40
0.3246136178761977
 40
0.5946331315519718
 40
0.8003997370011067
 40
1.0
 40
1.0
 40
1.0
 40
1.0
 10
34.82711654066262
 20
56.67916660071693
 30
0.0
 10
34.79317012577599
 20
56.60390724649825
 30
0.0
 10
34.65817857255233
 20
56.3046303669068
 30
0.0
 10
34.37822184859879
 20
55.80030524706964
 30
0.0
 10
34.0594935063133
 20
55.31524557357388
 30
0.0
 10
33.83320572584278
 20
55.00307438006269
 30
0.0
 10
33.80435147137862
 20
54.96482448392655
 30
0.0
 10
33.7901438061056
 20
54.94599045992828
 30
0.0
  0
SPLINE
  5
BF
330
1F
100
AcDbEntity
  8
0
  6
Continuous
 62
     7
370
    25
100
AcDbSpline
210
0.0
220
0.0
230
1.0
 70
     8
 71
     3
 72
    11
 73
     7
 74
     0
 42
0.00000001
 43
0.00000001
 40
0.0
 40
0.0
 40
0.0
 40
0.0
 40
0.2456902021794783
 40
0.4914572396993195
 40
0.7457216020119223
 40
1.0
 40
1.0
 40
1.0
 40
1.0
 10
36.69769281742267
 20
64.44599062500002
 30
0.0
 10
36.64827574756546
 20
63.78995105355828
 30
0.0
 10
36.54942615352135
 20
62.47766674570153
 30
0.0
 10
36.15023549659524
 20
60.51836296274608
 30
0.0
 10
35.59948330331605
 20
58.57243341967706
 30
0.0
 10
35.08457686531766
 20
57.31026715221333
 30
0.0
 10
34.82711654066262
 20
56.67916660071693
 30
0.0
  0
LINE
  5
C0
330
1F
100
AcDbEntity
  8
0
  6
Continuous
 62
     7
370
    25
100
AcDbLine
 10
48.8245841483
 20
47.945990625
 30
0.0
 11
34.7557033517
 21
47.945990625
 31
0.0
  0
LINE
  5
C1
330
1F
100
AcDbEntity
  8
0
  6
Continuous
 62
     7
370
    25
100
AcDbLine
 10
41.79014375
 20
66.445990625
 30
0.0
 11
46.8852517334
 21
66.445990625
 31
0.0
  0
LINE
  5
C2
330
1F
100
AcDbEntity
  8
0
  6
Continuous
 62
     7
370
    25
100
AcDbLine
 10
36.6950357666
 20
66.445990625
 30
0.0
 11
41.79014375
 21
66.445990625
 31
0.0
  0
LINE
  5
C3
330
1F
100
AcDbEntity
  8
0
  6
Continuous
 62
     7
370
    25
100
AcDbLine
 10
46.9997619806
 20
64.445990625
 30
0.0
 11
46.8825946826
 21
64.445990625
 31
0.0
  0
ARC
  5
C4
330
1F
100
AcDbEntity
  8
0
  6
Continuous
 62
     7
370
    25
100
AcDbCircle
 10
49.0643867039
 20
65.8557156875
 30
0.0
 40
2.500000000000007
100
AcDbArc
 50
214.3252481179
 51
328.221357821
  0
ARC
  5
C5
330
1F
100
AcDbEntity
  8
0
  6
Continuous
 62
     7
370
    25
100
AcDbCircle
 10
56.29014375
 20
61.3792846189
 30
0.0
 40
6.000000000000013
100
AcDbArc
 50
115.1026742168
 51
148.221357821
  0
LINE
  5
C6
330
1F
100
AcDbEntity
  8
0
  6
Continuous
 62
     7
370
    25
100
AcDbLine
 10
53.7446936178
 20
66.8125786129
 30
0.0
 11
58.8355938822
 21
66.8125786129
 31
0.0
  0
ARC
  5
C7
330
1F
100
AcDbEntity
  8
0
  6
Continuous
 62
     7
370
    25
100
AcDbCircle
 10
56.29014375
 20
61.3792846189
 30
0.0
 40
6.000000000000013
100
AcDbArc
 50
308.4313932617
 51
64.8973257832
  0
LINE
  5
C8
330
1F
100
AcDbEntity
  8
0
  6
Continuous
 62
     7
370
    25
100
AcDbLine
 10
48.7531709593
 20
56.6791666007
 30
0.0
 11
60.0196062602
 21
56.6791666007
 31
0.0
  0
LINE
  5
C9
330
1F
100
AcDbEntity
  8
0
  6
Continuous
 62
     7
370
    25
100
AcDbLine
 10
23.5606812398
 20
56.6791666007
 30
0.0
 11
34.8271165407
 21
56.6791666007
 31
0.0
  0
ARC
  5
CA
330
1F
100
AcDbEntity
  8
0
  6
Continuous
 62
     7
370
    25
100
AcDbCircle
 10
27.29014375
 20
61.3792846189
 30
0.0
 40
6.000000000000013
100
AcDbArc
 50
115.1026742168
 51
231.5686067383
  0
LINE
  5
CB
330
1F
100
AcDbEntity
  8
0
  6
Continuous
 62
     7
370
    25
100
AcDbLine
 10
24.7446936178
 20
66.8125786129
 30
0.0
 11
29.8355938822
 21
66.8125786129
 31
0.0
  0
ARC
  5
CC
330
1F
100
AcDbEntity
  8
0
  6
Continuous
 62
     7
370
    25
100
AcDbCircle
 10
27.29014375
 20
61.3792846189
 30
0.0
 40
6.000000000000013
100
AcDbArc
 50
31.778642179
 51
64.8973257832
  0
ARC
  5
CD
330
1F
100
AcDbEntity
  8
0
  6
Continuous
 62
     7
370
    25
100
AcDbCircle
 10
34.5159007961
 20
65.8557156875
 30
0.0
 40
2.500000000000007
100
AcDbArc
 50
211.778642179
 51
325.6747518821
  0
LINE
  5
CE
330
1F
100
AcDbEntity
  8
0
  6
Continuous
 62
     7
370
    25
100
AcDbLine
 10
36.6976928174
 20
64.445990625
 30
0.0
 11
36.5805255194
 21
64.445990625
 31
0.0
  0
ARC
  5
CF
330
1F
100
AcDbEntity
  8
0
  6
Continuous
 62
     7
370
    25
100
AcDbCircle
 10
56.5728685042
 20
68.0395714163
 30
0.0
 40
2.573992516659487
100
AcDbArc
 50
331.5306505147
 51
344.0457565706
  0
SPLINE
  5
D0
330
1F
100
AcDbEntity
  8
0
  6
Continuous
 62
     7
370
    25
100
AcDbSpline
210
0.0
220
0.0
230
1.0
 70
     8
 71
     3
 72
    17
 73
    13
 74
     0
 42
0.00000001
 43
0.00000001
 40
0.0
 40
0.0
 40
0.0
 40
0.0
 40
0.164398525155122
 40
0.3825210752049388
 40
0.7105911790613393
 40
0.8150577891621212
 40
0.8799902898774138
 40
0.9216743917957921
 40
0.9487595491592884
 40
0.9664454853042477
 40
0.9948962613988782
 40
1.0
 40
1.0
 40
1.0
 40
1.0
 10
58.83559388220307
 20
66.81257861285847
 30
0.0
 10
58.70961416810606
 20
66.92458312367172
 30
0.0
 10
58.41648565223326
 20
67.18519425667101
 30
0.0
 10
57.82106598046403
 20
67.578132845157
 30
0.0
 10
57.25301859052033
 20
67.81083342553717
 30
0.0
 10
56.81532081035078
 20
67.90278686377266
 30
0.0
 10
56.62898489932275
 20
67.92797355191499
 30
0.0
 10
56.5108366903724
 20
67.93833898789092
 30
0.0
 10
56.43440083767085
 20
67.94272221303883
 30
0.0
 10
56.36965256030444
 20
67.9451445697168
 30
0.0
 10
56.32433364324903
 20
67.94594144964908
 30
0.0
 10
56.29465756692296
 20
67.94598413277349
 30
0.0
 10
56.29014375000001
 20
67.94599062500001
 30
0.0
  0
SPLINE
  5
D1
330
1F
100
AcDbEntity
  8
0
  6
Continuous
 62
     7
370
    25
100
AcDbSpline
210
0.0
220
0.0
230
1.0
 70
     8
 71
     3
 72
    12
 73
     8
 74
     0
 42
0.00000001
 43
0.00000001
 40
0.0
 40
0.0
 40
0.0
 40
0.0
 40
0.0055634992845846
 40
0.191663199612416
 40
0.6291220910311065
 40
0.8147446662968212
 40
0.9999999999999999
 40
0.9999999999999999
 40
0.9999999999999999
 40
0.9999999999999999
 10
56.29014375000001
 20
67.94599062500001
 30
0.0
 10
56.29533763824174
 20
67.94598648733397
 30
0.0
 10
56.47426769429421
 20
67.94584394425574
 30
0.0
 10
57.06151155998208
 20
67.92097773446991
 30
0.0
 10
57.81599768682065
 20
67.78531923043384
 30
0.0
 10
58.55475423511036
 20
67.54843968013759
 30
0.0
 10
58.88350307125655
 20
67.40413834349295
 30
0.0
 10
59.04771472655333
 20
67.33205911842335
 30
0.0
  0
SPLINE
  5
D2
330
1F
100
AcDbEntity
  8
0
  6
Continuous
 62
     7
370
    25
100
AcDbSpline
210
0.0
220
0.0
230
1.0
 70
     8
 71
     3
 72
    17
 73
    13
 74
     0
 42
0.00000001
 43
0.00000001
 40
0.0
 40
0.0
 40
0.0
 40
0.0
 40
0.0051037386011221
 40
0.0335545146957983
 40
0.0512404508407057
 40
0.0783256082042157
 40
0.1200097101225869
 40
0.1849422108378776
 40
0.2894088209386603
 40
0.6174789247950605
 40
0.835601474844878
 40
1.0
 40
1.0
 40
1.0
 40
1.0
 10
56.29014375000001
 20
67.94599062500001
 30
0.0
 10
56.28562993307709
 20
67.9459841327735
 30
0.0
 10
56.25595385675123
 20
67.94594144964907
 30
0.0
 10
56.21063493969554
 20
67.94514456971679
 30
0.0
 10
56.14588666232914
 20
67.94272221303882
 30
0.0
 10
56.06945080962763
 20
67.93833898789092
 30
0.0
 10
55.95130260067727
 20
67.92797355191499
 30
0.0
 10
55.76496668964923
 20
67.90278686377268
 30
0.0
 10
55.32726890947969
 20
67.81083342553717
 30
0.0
 10
54.75922151953597
 20
67.57813284515701
 30
0.0
 10
54.16380184776676
 20
67.185194256671
 30
0.0
 10
53.87067333189395
 20
66.92458312367171
 30
0.0
 10
53.74469361779694
 20
66.81257861285847
 30
0.0
  0
ARC
  5
D3
330
1F
100
AcDbEntity
  8
0
  6
Continuous
 62
     7
370
    25
100
AcDbCircle
 10
56.0074189958
 20
68.0395714163
 30
0.0
 40
2.573992516658606
100
AcDbArc
 50
195.9542434294
 51
208.4693494853
  0
SPLINE
  5
D4
330
1F
100
AcDbEntity
  8
0
  6
Continuous
 62
     7
370
    25
100
AcDbSpline
210
0.0
220
0.0
230
1.0
 70
     8
 71
     3
 72
    12
 73
     8
 74
     0
 42
0.00000001
 43
0.00000001
 40
0.0
 40
0.0
 40
0.0
 40
0.0
 40
0.1835541808817691
 40
0.3708656504822926
 40
0.8083330658171444
 40
0.9944363923102544
 40
0.9999999999999999
 40
0.9999999999999999
 40
0.9999999999999999
 40
0.9999999999999999
 10
53.53257277344668
 20
67.33205911842333
 30
0.0
 10
53.69521396089958
 20
67.40356763730792
 30
0.0
 10
54.02382554299578
 20
67.54804842899436
 30
0.0
 10
54.76285477455767
 20
67.78492484228138
 30
0.0
 10
55.51875482731505
 20
67.92099506181354
 30
0.0
 10
56.10601987057193
 20
67.9458438910199
 30
0.0
 10
56.28494986358806
 20
67.94598648583222
 30
0.0
 10
56.29014375000001
 20
67.94599062500001
 30
0.0
  0
SPLINE
  5
D5
330
1F
100
AcDbEntity
  8
0
  6
Continuous
 62
     7
370
    25
100
AcDbSpline
210
0.0
220
0.0
230
1.0
 70
     8
 71
     3
 72
    17
 73
    13
 74
     0
 42
0.00000001
 43
0.00000001
 40
0.0
 40
0.0
 40
0.0
 40
0.0
 40
0.0051037386011219
 40
0.0335545146957463
 40
0.0512404508406915
 40
0.0783256082042153
 40
0.1200097101225738
 40
0.184942210837869
 40
0.2894088209386605
 40
0.6174789247950602
 40
0.8356014748448779
 40
1.0
 40
1.0
 40
1.0
 40
1.0
 10
27.29014375
 20
67.94599062500001
 30
0.0
 10
27.28562993307709
 20
67.94598413277349
 30
0.0
 10
27.25595385675129
 20
67.94594144964906
 30
0.0
 10
27.21063493969556
 20
67.94514456971679
 30
0.0
 10
27.14588666232919
 20
67.94272221303882
 30
0.0
 10
27.06945080962763
 20
67.93833898789092
 30
0.0
 10
26.95130260067727
 20
67.92797355191499
 30
0.0
 10
26.76496668964925
 20
67.90278686377268
 30
0.0
 10
26.32726890947967
 20
67.81083342553717
 30
0.0
 10
25.75922151953596
 20
67.57813284515701
 30
0.0
 10
25.16380184776676
 20
67.185194256671
 30
0.0
 10
24.87067333189394
 20
66.92458312367172
 30
0.0
 10
24.74469361779693
 20
66.81257861285847
 30
0.0
  0
SPLINE
  5
D6
330
1F
100
AcDbEntity
  8
0
  6
Continuous
 62
     7
370
    25
100
AcDbSpline
210
0.0
220
0.0
230
1.0
 70
     8
 71
     3
 72
    17
 73
    13
 74
     0
 42
0.00000001
 43
0.00000001
 40
0.0
 40
0.0
 40
0.0
 40
0.0
 40
0.164398525155122
 40
0.3825210752049396
 40
0.7105911790613394
 40
0.8150577891621316
 40
0.8799902898774274
 40
0.9216743917957885
 40
0.9487595491592797
 40
0.9664454853042047
 40
0.9948962613988784
 40
1.0
 40
1.0
 40
1.0
 40
1.0
 10
29.83559388220306
 20
66.81257861285847
 30
0.0
 10
29.70961416810605
 20
66.92458312367172
 30
0.0
 10
29.41648565223324
 20
67.18519425667102
 30
0.0
 10
28.82106598046404
 20
67.578132845157
 30
0.0
 10
28.25301859052031
 20
67.81083342553717
 30
0.0
 10
27.81532081035075
 20
67.90278686377268
 30
0.0
 10
27.62898489932272
 20
67.92797355191499
 30
0.0
 10
27.51083669037239
 20
67.9383389878909
 30
0.0
 10
27.43440083767086
 20
67.94272221303883
 30
0.0
 10
27.3696525603045
 20
67.94514456971677
 30
0.0
 10
27.32433364324877
 20
67.94594144964906
 30
0.0
 10
27.29465756692291
 20
67.9459841327735
 30
0.0
 10
27.29014375
 20
67.94599062500001
 30
0.0
  0
SPLINE
  5
D7
330
1F
100
AcDbEntity
  8
0
  6
Continuous
 62
     7
370
    25
100
AcDbSpline
210
0.0
220
0.0
230
1.0
 70
     8
 71
     3
 72
    12
 73
     8
 74
     0
 42
0.00000001
 43
0.00000001
 40
0.0
 40
0.0
 40
0.0
 40
0.0
 40
0.0055634992845842
 40
0.1916631996124148
 40
0.6291220910311054
 40
0.8147446662968201
 40
0.9999999999999999
 40
0.9999999999999999
 40
0.9999999999999999
 40
0.9999999999999999
 10
27.29014375
 20
67.94599062500001
 30
0.0
 10
27.29533763824172
 20
67.94598648733397
 30
0.0
 10
27.47426769429419
 20
67.94584394425577
 30
0.0
 10
28.06151155998206
 20
67.92097773446989
 30
0.0
 10
28.81599768682063
 20
67.78531923043386
 30
0.0
 10
29.55475423511034
 20
67.54843968013759
 30
0.0
 10
29.88350307125653
 20
67.40413834349295
 30
0.0
 10
30.04771472655332
 20
67.33205911842333
 30
0.0
  0
ARC
  5
D8
330
1F
100
AcDbEntity
  8
0
  6
Continuous
 62
     7
370
    25
100
AcDbCircle
 10
27.5728685042
 20
68.0395714163
 30
0.0
 40
2.573992516659024
100
AcDbArc
 50
331.5306505147
 51
344.0457565706
  0
ARC
  5
D9
330
1F
100
AcDbEntity
  8
0
  6
Continuous
 62
     7
370
    25
100
AcDbCircle
 10
27.0074189958
 20
68.0395714163
 30
0.0
 40
2.573992516658799
100
AcDbArc
 50
195.9542434294
 51
208.4693494853
  0
SPLINE
  5
DA
330
1F
100
AcDbEntity
  8
0
  6
Continuous
 62
     7
370
    25
100
AcDbSpline
210
0.0
220
0.0
230
1.0
 70
     8
 71
     3
 72
    12
 73
     8
 74
     0
 42
0.00000001
 43
0.00000001
 40
0.0
 40
0.0
 40
0.0
 40
0.0
 40
0.1835541808817692
 40
0.370865650482293
 40
0.8083330658171449
 40
0.994436392310255
 40
1.0
 40
1.0
 40
1.0
 40
1.0
 10
24.53257277344667
 20
67.33205911842333
 30
0.0
 10
24.69521396089957
 20
67.40356763730792
 30
0.0
 10
25.02382554299577
 20
67.54804842899436
 30
0.0
 10
25.76285477455766
 20
67.78492484228134
 30
0.0
 10
26.51875482731513
 20
67.92099506181387
 30
0.0
 10
27.10601987057182
 20
67.94584389101962
 30
0.0
 10
27.28494986358805
 20
67.94598648583225
 30
0.0
 10
27.29014375
 20
67.94599062500001
 30
0.0
  0
ARC
  5
DB
330
1F
100
AcDbEntity
  8
0
  6
Continuous
 62
     7
370
    25
100
AcDbCircle
 10
56.29014375
 20
61.445990625
 30
0.0
 40
6.500000000000004
100
AcDbArc
 50
308.4313932617
 51
64.8973257832
  0
ARC
  5
DC
330
1F
100
AcDbEntity
  8
0
  6
Continuous
 62
     7
370
    25
100
AcDbCircle
 10
61.1201870375
 20
57.4206192204
 30
0.0
 40
1.327038068257979
100
AcDbArc
 50
213.9678392762
 51
233.4763769747
  0
ARC
  5
DD
330
1F
100
AcDbEntity
  8
0
  6
Continuous
 62
     7
370
    25
100
AcDbCircle
 10
51.7272007857
 20
65.6702131904
 30
0.0
 40
1.252349853183598
100
AcDbArc
 50
219.7659527059
 51
244.5790017319
  0
ARC
  5
DE
330
1F
100
AcDbEntity
  8
0
  6
Continuous
 62
     7
370
    25
100
AcDbCircle
 10
56.29014375
 20
61.445990625
 30
0.0
 40
6.500000000000004
100
AcDbArc
 50
115.1026742168
 51
148.221357821
  0
ARC
  5
DF
330
1F
100
AcDbEntity
  8
0
  6
Continuous
 62
     7
370
    25
100
AcDbCircle
 10
27.29014375
 20
61.445990625
 30
0.0
 40
6.500000000000008
100
AcDbArc
 50
31.778642179
 51
64.8973257832
  0
ARC
  5
E0
330
1F
100
AcDbEntity
  8
0
  6
Continuous
 62
     7
370
    25
100
AcDbCircle
 10
31.8530867143
 20
65.6702131904
 30
0.0
 40
1.252349853183744
100
AcDbArc
 50
295.4209982681
 51
320.2340472941
  0
ARC
  5
E1
330
1F
100
AcDbEntity
  8
0
  6
Continuous
 62
     7
370
    25
100
AcDbCircle
 10
22.4601004625
 20
57.4206192204
 30
0.0
 40
1.327038068257864
100
AcDbArc
 50
306.5236230253
 51
326.0321607238
  0
ARC
  5
E2
330
1F
100
AcDbEntity
  8
0
  6
Continuous
 62
     7
370
    25
100
AcDbCircle
 10
27.29014375
 20
61.445990625
 30
0.0
 40
6.500000000000003
100
AcDbArc
 50
115.1026742168
 51
231.5686067383
  0
ARC
  5
E3
330
1F
100
AcDbEntity
  8
0
  6
Continuous
 62
     7
370
    25
100
AcDbCircle
 10
49.0643867039
 20
65.9224216935
 30
0.0
 40
1.999999999999996
100
AcDbArc
 50
227.5796275115
 51
328.221357821
  0
SPLINE
  5
E4
330
1F
100
AcDbEntity
  8
0
  6
Continuous
 62
     7
370
    25
100
AcDbSpline
210
0.0
220
0.0
230
1.0
 70
    24
 71
     3
 72
    12
 73
     8
 74
     0
 42
0.00000001
 43
0.00000001
 40
0.0
 40
0.0
 40
0.0
 40
0.0
 40
0.2571943124574413
 40
0.5245503439757959
 40
0.7385170215182981
 40
0.8882338470637772
 40
1.0
 40
1.0
 40
1.0
 40
1.0
 10
46.99976198060648
 20
64.44599062500001
 30
0.0
 10
47.08446025812761
 20
64.44599062500001
 30
0.0
 10
47.25720323282003
 20
64.44599062500001
 30
0.0
 10
47.47642826158485
 20
64.44599062500001
 30
0.0
 10
47.62580803696424
 20
64.44599062500001
 30
0.0
 10
47.70320455355829
 20
64.445990625
 30
0.0
 10
47.71164791272211
 20
64.44599062500001
 30
0.0
 10
47.71525687334005
 20
64.44599062500001
 30
0.0
  0
ARC
  5
E5
330
1F
100
AcDbEntity
  8
0
  6
Continuous
 62
     7
370
    25
100
AcDbCircle
 10
34.5159007961
 20
65.9224216935
 30
0.0
 40
1.999999999999996
100
AcDbArc
 50
211.778642179
 51
312.4203724885
  0
SPLINE
  5
E6
330
1F
100
AcDbEntity
  8
0
  6
Continuous
 62
     7
370
    25
100
AcDbSpline
210
0.0
220
0.0
230
1.0
 70
    24
 71
     3
 72
    12
 73
     8
 74
     0
 42
0.00000001
 43
0.00000001
 40
0.0
 40
0.0
 40
0.0
 40
0.0
 40
0.1443005026356249
 40
0.2873275205918763
 40
0.520118538643975
 40
0.7602843466484801
 40
1.0
 40
1.0
 40
1.0
 40
1.0
 10
35.86503062665996
 20
64.44599062500001
 30
0.0
 10
35.87101488668446
 20
64.44599062500001
 30
0.0
 10
35.88293059428083
 20
64.44599062500001
 30
0.0
 10
35.9763158164772
 20
64.44599062500001
 30
0.0
 10
36.12907375987887
 20
64.445990625
 30
0.0
 10
36.34353967506714
 20
64.44599062500001
 30
0.0
 10
36.50157965462189
 20
64.44599062500001
 30
0.0
 10
36.58052551939353
 20
64.44599062500001
 30
0.0
  0
SPLINE
  5
E7
330
1F
100
AcDbEntity
  8
0
  6
Continuous
 62
     7
370
    25
100
AcDbSpline
210
0.0
220
0.0
230
1.0
 70
     8
 71
     3
 72
    16
 73
    12
 74
     0
 42
0.00000001
 43
0.00000001
 40
0.0
 40
0.0
 40
0.0
 40
0.0
 40
0.0400879241033625
 40
0.1620524644868244
 40
0.273689418946181
 40
0.3878458116547636
 40
0.5157289207825617
 40
0.6512866697179734
 40
0.7845176689407765
 40
0.9073172229945061
 40
1.0
 40
1.0
 40
1.0
 40
1.0
 10
49.7901436938945
 20
54.94599045992829
 30
0.0
 10
49.79076670856143
 20
54.94779172741406
 30
0.0
 10
49.79328519921528
 20
54.95507321783285
 30
0.0
 10
49.82881045813819
 20
55.0601652745159
 30
0.0
 10
49.95111223138675
 20
55.3210332783026
 30
0.0
 10
50.19870672107863
 20
55.67200527665571
 30
0.0
 10
50.62399156772037
 20
56.03461667647557
 30
0.0
 10
51.19953141879725
 20
56.27760386958931
 30
0.0
 10
51.81630734366746
 20
56.32713150746352
 30
0.0
 10
52.35897877782199
 20
56.2126413858005
 30
0.0
 10
52.64471227502809
 20
56.05222630576443
 30
0.0
 10
52.767611326075
 20
55.98322893127801
 30
0.0
  0
SPLINE
  5
E8
330
1F
100
AcDbEntity
  8
0
  6
Continuous
 62
     7
370
    25
100
AcDbSpline
210
0.0
220
0.0
230
1.0
 70
     8
 71
     3
 72
    15
 73
    11
 74
     0
 42
0.00000001
 43
0.00000001
 40
0.0
 40
0.0
 40
0.0
 40
0.0
 40
0.0032940745595593
 40
0.0389546595689614
 40
0.0923144308921414
 40
0.2214788780354806
 40
0.4512478393974726
 40
0.689609876606724
 40
0.8424208092306293
 40
1.0
 40
1.0
 40
1.0
 40
1.0
 10
56.29014375000001
 20
54.945990625
 30
0.0
 10
56.29444936473006
 20
54.94599464767975
 30
0.0
 10
56.34536617095645
 20
54.94604221858855
 30
0.0
 10
56.46603141887778
 20
54.94829926564139
 30
0.0
 10
56.75111185765707
 20
54.96458290881512
 30
0.0
 10
57.28885932672774
 20
55.03842620743587
 30
0.0
 10
58.06183022312188
 20
55.26812259946445
 30
0.0
 10
58.84195012175328
 20
55.68080001265013
 30
0.0
 10
59.50187215460544
 20
56.16591199213035
 30
0.0
 10
59.84526978357886
 20
56.50633850401908
 30
0.0
 10
60.01960626018509
 20
56.67916660071693
 30
0.0
  0
SPLINE
  5
E9
330
1F
100
AcDbEntity
  8
0
  6
Continuous
 62
     7
370
    25
100
AcDbSpline
210
0.0
220
0.0
230
1.0
 70
     8
 71
     3
 72
    12
 73
     8
 74
     0
 42
0.00000001
 43
0.00000001
 40
0.0
 40
0.0
 40
0.0
 40
0.0
 40
0.2353653050919993
 40
0.4767533333124103
 40
0.7341407436541081
 40
0.9960857492732753
 40
1.0
 40
1.0
 40
1.0
 40
1.0
 10
52.767611326075
 20
55.98322893127801
 30
0.0
 10
53.0323098437701
 20
55.82782222307419
 30
0.0
 10
53.56848020492281
 20
55.51303213059936
 30
0.0
 10
54.43105270981096
 20
55.19668381719031
 30
0.0
 10
55.33703566505817
 20
54.99276770559909
 30
0.0
 10
55.96620681074089
 20
54.94622537383505
 30
0.0
 10
56.28544362057045
 20
54.94599403106388
 30
0.0
 10
56.29014375000001
 20
54.945990625
 30
0.0
  0
SPLINE
  5
EA
330
1F
100
AcDbEntity
  8
0
  6
Continuous
 62
     7
370
    25
100
AcDbSpline
210
0.0
220
0.0
230
1.0
 70
     8
 71
     3
 72
    14
 73
    10
 74
     0
 42
0.00000001
 43
0.00000001
 40
0.0
 40
0.0
 40
0.0
 40
0.0
 40
0.1525945052627504
 40
0.3054077645105584
 40
0.5406281452054322
 40
0.7761410232968943
 40
0.9796791864300268
 40
0.9965136875876045
 40
0.9999999999999999
 40
0.9999999999999999
 40
0.9999999999999999
 40
0.9999999999999999
 10
60.3303948027005
 20
56.35419610527001
 30
0.0
 10
60.1424102813012
 20
56.21463896901763
 30
0.0
 10
59.76617175066544
 20
55.93532463243033
 30
0.0
 10
59.05728647165709
 20
55.5444206805903
 30
0.0
 10
58.21107128152465
 20
55.20867132256681
 30
0.0
 10
57.27545785498592
 20
54.99878205571996
 30
0.0
 10
56.6368560572441
 20
54.94847640726168
 30
0.0
 10
56.32347298265089
 20
54.94601456053853
 30
0.0
 10
56.29502447846645
 20
54.94599413011714
 30
0.0
 10
56.29014375000001
 20
54.945990625
 30
0.0
  0
SPLINE
  5
EB
330
1F
100
AcDbEntity
  8
0
  6
Continuous
 62
     7
370
    25
100
AcDbSpline
210
0.0
220
0.0
230
1.0
 70
     8
 71
     3
 72
    15
 73
    11
 74
     0
 42
0.00000001
 43
0.00000001
 40
0.0
 40
0.0
 40
0.0
 40
0.0
 40
0.1525119975281641
 40
0.3103908680493854
 40
0.5397217434700959
 40
0.7785238912153802
 40
0.9076867233570571
 40
0.9610458274988164
 40
0.9967059666277488
 40
1.0
 40
1.0
 40
1.0
 40
1.0
 10
23.56068123981492
 20
56.67916660071693
 30
0.0
 10
23.72926008342679
 20
56.511730683227
 30
0.0
 10
24.07235003340787
 20
56.17096680487871
 30
0.0
 10
24.72118154911734
 20
55.69213262085977
 30
0.0
 10
25.50661034102252
 20
55.2729335508615
 30
0.0
 10
26.27967169837591
 20
55.04003026464316
 30
0.0
 10
26.82917346262444
 20
54.96458397821216
 30
0.0
 10
27.114256325748
 20
54.94829914562494
 30
0.0
 10
27.23492132575262
 20
54.94604222020313
 30
0.0
 10
27.28583813501335
 20
54.94599464780564
 30
0.0
 10
27.29014375
 20
54.945990625
 30
0.0
  0
SPLINE
  5
EC
330
1F
100
AcDbEntity
  8
0
  6
Continuous
 62
     7
370
    25
100
AcDbSpline
210
0.0
220
0.0
230
1.0
 70
     8
 71
     3
 72
    16
 73
    12
 74
     0
 42
0.00000001
 43
0.00000001
 40
0.0
 40
0.0
 40
0.0
 40
0.0
 40
0.0093770372722071
 40
0.1449784074793553
 40
0.2782522792466382
 40
0.4010913490990483
 40
0.5131542856948397
 40
0.6266888454485822
 40
0.7537408321063427
 40
0.8891748694388528
 40
1.0
 40
1.0
 40
1.0
 40
1.0
 10
30.81267617392501
 20
55.98322893127796
 30
0.0
 10
30.82450391095269
 20
55.99074375976791
 30
0.0
 10
31.00737259629319
 20
56.1069305504701
 30
0.0
 10
31.41249083241084
 20
56.27736532947765
 30
0.0
 10
32.03029741671062
 20
56.32831650636927
 30
0.0
 10
32.59745594171026
 20
56.2023210465433
 30
0.0
 10
33.07160423412829
 20
55.94747053934636
 30
0.0
 10
33.44283550990452
 20
55.6006143998294
 30
0.0
 10
33.67774118733416
 20
55.23711958034169
 30
0.0
 10
33.77642006137719
 20
54.9884496947961
 30
0.0
 10
33.78588448748561
 20
54.95916816129491
 30
0.0
 10
33.7901438061056
 20
54.94599045992828
 30
0.0
  0
SPLINE
  5
ED
330
1F
100
AcDbEntity
  8
0
  6
Continuous
 62
     7
370
    25
100
AcDbSpline
210
0.0
220
0.0
230
1.0
 70
     8
 71
     3
 72
    12
 73
     8
 74
     0
 42
0.00000001
 43
0.00000001
 40
0.0
 40
0.0
 40
0.0
 40
0.0
 40
0.0039142694629097
 40
0.2613995162853427
 40
0.5232483696209406
 40
0.7589647179150544
 40
1.0
 40
1.0
 40
1.0
 40
1.0
 10
27.29014375
 20
54.945990625
 30
0.0
 10
27.29484388079666
 20
54.94599403125483
 30
0.0
 10
27.60872414079589
 20
54.9462215049567
 30
0.0
 10
28.23784328933739
 20
54.99198536011411
 30
0.0
 10
29.13726586982769
 20
55.19326565593916
 30
0.0
 10
30.00512657530702
 20
55.510067381798
 30
0.0
 10
30.54149827708612
 20
55.82433967658376
 30
0.0
 10
30.81267617392501
 20
55.98322893127796
 30
0.0
  0
SPLINE
  5
EE
330
1F
100
AcDbEntity
  8
0
  6
Continuous
 62
     7
370
    25
100
AcDbSpline
210
0.0
220
0.0
230
1.0
 70
     8
 71
     3
 72
    14
 73
    10
 74
     0
 42
0.00000001
 43
0.00000001
 40
0.0
 40
0.0
 40
0.0
 40
0.0
 40
0.0034863124123955
 40
0.0203208135699722
 40
0.2238589767031064
 40
0.4593718547945684
 40
0.6945922354894416
 40
0.8474054947372496
 40
0.9999999999999999
 40
0.9999999999999999
 40
0.9999999999999999
 40
0.9999999999999999
 10
27.29014375
 20
54.945990625
 30
0.0
 10
27.28526302153355
 20
54.94599413011714
 30
0.0
 10
27.25681451734911
 20
54.94601456053854
 30
0.0
 10
26.94343144275591
 20
54.94847640726166
 30
0.0
 10
26.30482964501406
 20
54.99878205571997
 30
0.0
 10
25.36921621847536
 20
55.20867132256681
 30
0.0
 10
24.5230010283429
 20
55.54442068059031
 30
0.0
 10
23.81411574933457
 20
55.93532463243033
 30
0.0
 10
23.4378772186988
 20
56.21463896901763
 30
0.0
 10
23.2498926972995
 20
56.35419610527001
 30
0.0
  0
ARC
  5
EF
330
1F
100
AcDbEntity
  8
0
  6
Continuous
 62
     7
370
    25
100
AcDbCircle
 10
39.6159690027
 20
62.3898156611
 30
0.0
 40
4.408657033484721
100
AcDbArc
 50
83.0838156236
 51
91.2490959636
  0
SPLINE
  5
F0
330
1F
100
AcDbEntity
  8
0
  6
Continuous
 62
     7
370
    25
100
AcDbSpline
210
0.0
220
0.0
230
1.0
 70
     8
 71
     3
 72
    15
 73
    11
 74
     0
 42
0.00000001
 43
0.00000001
 40
0.0
 40
0.0
 40
0.0
 40
0.0
 40
0.1246337044934918
 40
0.2519069547896618
 40
0.3765407248366567
 40
0.4994048858686675
 40
0.6264509366402855
 40
0.7526069675388761
 40
0.8746808545492513
 40
1.0
 40
1.0
 40
1.0
 40
1.0
 10
40.25207588672757
 20
66.772702135648
 30
0.0
 10
40.24806160323147
 20
66.77206577135013
 30
0.0
 10
40.23994802002962
 20
66.77077956555958
 30
0.0
 10
40.22550993511811
 20
66.769069839662
 30
0.0
 10
40.21037672668654
 20
66.76762628118975
 30
0.0
 10
40.19501410042099
 20
66.76652144018585
 30
0.0
 10
40.18008321807658
 20
66.76578809233945
 30
0.0
 10
40.16658087836137
 20
66.76551670601083
 30
0.0
 10
40.15489485238492
 20
66.76566298869211
 30
0.0
 10
40.14955323953163
 20
66.76614722295807
 30
0.0
 10
40.14684739793438
 20
66.76639251614117
 30
0.0
  0
SPLINE
  5
F1
330
1F
100
AcDbEntity
  8
0
  6
Continuous
 62
     7
370
    25
100
AcDbSpline
210
0.0
220
0.0
230
1.0
 70
     8
 71
     3
 72
    11
 73
     7
 74
     0
 42
0.00000001
 43
0.00000001
 40
0.0
 40
0.0
 40
0.0
 40
0.0
 40
0.250625429633313
 40
0.5000000000003831
 40
0.7493745703670929
 40
1.0
 40
1.0
 40
1.0
 40
1.0
 10
43.32821161645647
 20
66.77270213540709
 30
0.0
 10
43.09849211685097
 20
66.80406019019492
 30
0.0
 10
42.64019963643153
 20
66.8666197932522
 30
0.0
 10
41.79014375160007
 20
66.89266385316085
 30
0.0
 10
40.94008786676266
 20
66.86661979338558
 30
0.0
 10
40.48179538633645
 20
66.80406019039992
 30
0.0
 10
40.25207588672758
 20
66.772702135648
 30
0.0
  0
SPLINE
  5
F2
330
1F
100
AcDbEntity
  8
0
  6
Continuous
 62
     7
370
    25
100
AcDbSpline
210
0.0
220
0.0
230
1.0
 70
     8
 71
     3
 72
    15
 73
    11
 74
     0
 42
0.00000001
 43
0.00000001
 40
0.0
 40
0.0
 40
0.0
 40
0.0
 40
0.1253187789994368
 40
0.2473923090486592
 40
0.3734477209264249
 40
0.500593709173434
 40
0.6235467583552695
 40
0.7480937818221101
 40
0.8753666599534677
 40
1.0
 40
1.0
 40
1.0
 40
1.0
 10
43.43344010524962
 20
66.76639251588368
 30
0.0
 10
43.43073426732204
 20
66.76614722180146
 30
0.0
 10
43.42539266171306
 20
66.76566298576056
 30
0.0
 10
43.4137097181194
 20
66.76551675553416
 30
0.0
 10
43.40020829848581
 20
66.76578792136067
 30
0.0
 10
43.38527396819276
 20
66.76652139829753
 30
0.0
 10
43.36990687298744
 20
66.76762631087557
 30
0.0
 10
43.35477437822085
 20
66.76907030386351
 30
0.0
 10
43.34033945302338
 20
66.77077954753959
 30
0.0
 10
43.33222588997928
 20
66.77206576522438
 30
0.0
 10
43.32821161645646
 20
66.77270213540709
 30
0.0
  0
ARC
  5
F3
330
1F
100
AcDbEntity
  8
0
  6
Continuous
 62
     7
370
    25
100
AcDbCircle
 10
43.9643184998
 20
62.3898156609
 30
0.0
 40
4.408657033329986
100
AcDbArc
 50
88.7509040274
 51
96.9161843676
  0
LINE
  5
F4
330
1F
100
AcDbEntity
  8
0
  6
Continuous
 62
     7
370
    25
100
AcDbLine
 10
40.1468473979
 20
66.7663925161
 30
0.0
 11
40.1468473979
 21
66.8672720005
 31
0.0
  0
SPLINE
  5
F5
330
1F
100
AcDbEntity
  8
0
  6
Continuous
 62
     7
370
    25
100
AcDbSpline
210
0.0
220
0.0
230
1.0
 70
     8
 71
     3
 72
    15
 73
    11
 74
     0
 42
0.00000001
 43
0.00000001
 40
0.0
 40
0.0
 40
0.0
 40
0.0
 40
0.1253191957979138
 40
0.2473928354984065
 40
0.3734492416489706
 40
0.5005950046079967
 40
0.6235484391777611
 40
0.7480947836179483
 40
0.8753671458153899
 40
1.0
 40
1.0
 40
1.0
 40
1.0
 10
40.14684739793438
 20
66.86727200050368
 30
0.0
 10
40.1495531942668
 20
66.86702792136998
 30
0.0
 10
40.15489471136399
 20
66.86654608434107
 30
0.0
 10
40.16657728395307
 20
66.86640056778757
 30
0.0
 10
40.18007826394034
 20
66.86667036214311
 30
0.0
 10
40.19501229279039
 20
66.86740017270881
 30
0.0
 10
40.21037930397944
 20
66.86849958950103
 30
0.0
 10
40.22551204041766
 20
66.86993644477944
 30
0.0
 10
40.23994747019934
 20
66.8716372803624
 30
0.0
 10
40.24806142102857
 20
66.87291720427972
 30
0.0
 10
40.25207588672757
 20
66.87355046060226
 30
0.0
  0
LINE
  5
F6
330
1F
100
AcDbEntity
  8
0
  6
Continuous
 62
     7
370
    25
100
AcDbLine
 10
40.2520758867
 20
66.7727021356
 30
0.0
 11
40.2520758867
 21
66.8735504606
 31
0.0
  0
ARC
  5
F7
330
1F
100
AcDbEntity
  8
0
  6
Continuous
 62
     7
370
    25
100
AcDbCircle
 10
40.821228147
 20
51.4560750377
 30
0.0
 40
15.49681493831156
100
AcDbArc
 50
94.6954834628
 51
94.8171561263
  0
SPLINE
  5
F8
330
1F
100
AcDbEntity
  8
0
  6
Continuous
 62
     7
370
    25
100
AcDbSpline
210
0.0
220
0.0
230
1.0
 70
     8
 71
     3
 72
    15
 73
    11
 74
     0
 42
0.00000001
 43
0.00000001
 40
0.0
 40
0.0
 40
0.0
 40
0.0
 40
0.1241930067305288
 40
0.2496556654892301
 40
0.3743703853151213
 40
0.4998404796364205
 40
0.6240146704162366
 40
0.7475381382242064
 40
0.8745858500551822
 40
1.0
 40
1.0
 40
1.0
 40
1.0
 10
40.33294945013053
 20
66.98236349595649
 30
0.0
 10
40.31738905502083
 20
66.9799678156088
 30
0.0
 10
40.28610918750931
 20
66.97515196335397
 30
0.0
 10
40.20867282802094
 20
66.96554766363103
 30
0.0
 10
40.11531882428203
 20
66.95484461732478
 30
0.0
 10
40.00809321826105
 20
66.94342235978463
 30
0.0
 10
39.89370730754012
 20
66.93182625671854
 30
0.0
 10
39.77603654465479
 20
66.92054164949313
 30
0.0
 10
39.65915281942959
 20
66.90983142323972
 30
0.0
 10
39.58800396853486
 20
66.90385106178451
 30
0.0
 10
39.55265972845143
 20
66.90088022910908
 30
0.0
  0
ARC
  5
F9
330
1F
100
AcDbEntity
  8
0
  6
Continuous
 62
     7
370
    25
100
AcDbCircle
 10
40.7231920808
 20
64.6470666757
 30
0.0
 40
2.367678303596551
100
AcDbArc
 50
93.3632881502
 51
99.4868245016
  0
ARC
  5
FA
330
1F
100
AcDbEntity
  8
0
  6
Continuous
 62
     7
370
    25
100
AcDbCircle
 10
42.8570991058
 20
64.6471079264
 30
0.0
 40
2.367636907676309
100
AcDbArc
 50
80.5187694298
 51
86.6367422679
  0
SPLINE
  5
FB
330
1F
100
AcDbEntity
  8
0
  6
Continuous
 62
     7
370
    25
100
AcDbSpline
210
0.0
220
0.0
230
1.0
 70
     8
 71
     3
 72
    15
 73
    11
 74
     0
 42
0.00000001
 43
0.00000001
 40
0.0
 40
0.0
 40
0.0
 40
0.0
 40
0.1253320172137756
 40
0.252297512925176
 40
0.3758847553984063
 40
0.5001929511416489
 40
0.6255758307380155
 40
0.7502289462456486
 40
0.8757444935777828
 40
1.0
 40
1.0
 40
1.0
 40
1.0
 10
44.01980867926551
 20
66.90156159115102
 30
0.0
 10
43.98455776263751
 20
66.90454118329083
 30
0.0
 10
43.91359649678311
 20
66.91053920122044
 30
0.0
 10
43.79760960599474
 20
66.92119957354438
 30
0.0
 10
43.68101323975436
 20
66.93240869475545
 30
0.0
 10
43.56789263317289
 20
66.943899121984
 30
0.0
 10
43.46201691883344
 20
66.95519688269636
 30
0.0
 10
43.36990783421429
 20
66.96577189629332
 30
0.0
 10
43.29347617034589
 20
66.97526295832189
 30
0.0
 10
43.26251126284659
 20
66.98003033987949
 30
0.0
 10
43.24710691472535
 20
66.98240200545422
 30
0.0
  0
ARC
  5
FC
330
1F
100
AcDbEntity
  8
0
  6
Continuous
 62
     7
370
    25
100
AcDbCircle
 10
42.7198940292
 20
51.1758982088
 30
0.0
 40
15.77929868248621
100
AcDbArc
 50
85.1265666159
 51
85.2745602134
  0
ARC
  5
FD
330
1F
100
AcDbEntity
  8
0
  6
Continuous
 62
     7
370
    25
100
AcDbCircle
 10
43.9643161764
 20
62.468894654
 30
0.0
 40
4.430299389722559
100
AcDbArc
 50
88.7569768639
 51
96.8822041625
  0
SPLINE
  5
FE
330
1F
100
AcDbEntity
  8
0
  6
Continuous
 62
     7
370
    25
100
AcDbSpline
210
0.0
220
0.0
230
1.0
 70
     8
 71
     3
 72
    15
 73
    11
 74
     0
 42
0.00000001
 43
0.00000001
 40
0.0
 40
0.0
 40
0.0
 40
0.0
 40
0.124633218643854
 40
0.2519059530189772
 40
0.3765391000744918
 40
0.4994035903146518
 40
0.6264494152300148
 40
0.7526064410610419
 40
0.874680437736327
 40
1.0
 40
1.0
 40
1.0
 40
1.0
 10
43.32821161645646
 20
66.87355046036251
 30
0.0
 10
43.33222609212461
 20
66.87291720989542
 30
0.0
 10
43.34034006310329
 20
66.871637297813
 30
0.0
 10
43.35477865493983
 20
66.86993598210874
 30
0.0
 10
43.36991210487292
 20
66.868499559322
 30
0.0
 10
43.38527464715469
 20
66.86740021377756
 30
0.0
 10
43.40020522599137
 20
66.86667053176012
 30
0.0
 10
43.41370712602068
 20
66.86640051800114
 30
0.0
 10
43.42539278090709
 20
66.86654608674795
 30
0.0
 10
43.43073430524787
 20
66.8670279220092
 30
0.0
 10
43.43344010524962
 20
66.86727200024745
 30
0.0
  0
SPLINE
  5
FF
330
1F
100
AcDbEntity
  8
0
  6
Continuous
 62
     7
370
    25
100
AcDbSpline
210
0.0
220
0.0
230
1.0
 70
     8
 71
     3
 72
    11
 73
     7
 74
     0
 42
0.00000001
 43
0.00000001
 40
0.0
 40
0.0
 40
0.0
 40
0.0
 40
0.2506252605986011
 40
0.4999999999996215
 40
0.7493747394010042
 40
1.0
 40
1.0
 40
1.0
 40
1.0
 10
40.25207588672758
 20
66.87355046060226
 30
0.0
 10
40.48180358090089
 20
66.90475488347089
 30
0.0
 10
40.94011271866388
 20
66.96700803144584
 30
0.0
 10
41.7901437516
 20
66.99292261724406
 30
0.0
 10
42.64017478453022
 20
66.96700803131314
 30
0.0
 10
43.0984839222865
 20
66.90475488326689
 30
0.0
 10
43.32821161645646
 20
66.87355046036251
 30
0.0
  0
ARC
  5
100
330
1F
100
AcDbEntity
  8
0
  6
Continuous
 62
     7
370
    25
100
AcDbCircle
 10
39.6159713261
 20
62.4688946542
 30
0.0
 40
4.430299389885328
100
AcDbArc
 50
83.1177958287
 51
91.2430231272
  0
SPLINE
  5
101
330
1F
100
AcDbEntity
  8
0
  6
Continuous
 62
     7
370
    25
100
AcDbSpline
210
0.0
220
0.0
230
1.0
 70
     8
 71
     3
 72
    15
 73
    11
 74
     0
 42
0.00000001
 43
0.00000001
 40
0.0
 40
0.0
 40
0.0
 40
0.0
 40
0.1233867499278388
 40
0.2487396502211602
 40
0.3739317114754985
 40
0.4999973617625659
 40
0.6259591330513601
 40
0.7512551380600303
 40
0.8765613478174267
 40
1.0
 40
1.0
 40
1.0
 40
1.0
 10
41.72726088519392
 20
67.04588352230448
 30
0.0
 10
41.73013908638579
 20
67.04588418137662
 30
0.0
 10
41.73594135249743
 20
67.04588551002314
 30
0.0
 10
41.75147075721817
 20
67.04588945965025
 30
0.0
 10
41.76982533909162
 20
67.04589124199967
 30
0.0
 10
41.79013815557453
 20
67.04589279557761
 30
0.0
 10
41.81045657328963
 20
67.04589124144266
 30
0.0
 10
41.82880944245375
 20
67.04588946456211
 30
0.0
 10
41.84434754684925
 20
67.04588549704395
 30
0.0
 10
41.85014810888054
 20
67.04588417724801
 30
0.0
 10
41.85302661480608
 20
67.04588352230449
 30
0.0
  0
ARC
  5
102
330
1F
100
AcDbEntity
  8
0
  6
Continuous
 62
     7
370
    25
100
AcDbCircle
 10
41.7281553128
 20
64.5015341095
 30
0.0
 40
2.544349570051931
100
AcDbArc
 50
90.0201414662
 51
95.4127462174
  0
SPLINE
  5
103
330
1F
100
AcDbEntity
  8
0
  6
Continuous
 62
     7
370
    25
100
AcDbSpline
210
0.0
220
0.0
230
1.0
 70
     8
 71
     3
 72
    15
 73
    11
 74
     0
 42
0.00000001
 43
0.00000001
 40
0.0
 40
0.0
 40
0.0
 40
0.0
 40
0.1261585224210644
 40
0.2513121451548803
 40
0.3762846848783795
 40
0.4993062783340879
 40
0.6261594278645743
 40
0.7521171342021308
 40
0.8758196922692789
 40
1.0
 40
1.0
 40
1.0
 40
1.0
 10
41.55103022432223
 20
67.03264039089376
 30
0.0
 10
41.54579912783356
 20
67.03258946514329
 30
0.0
 10
41.53537860249091
 20
67.03248801928494
 30
0.0
 10
41.52059205197651
 20
67.03248383764766
 30
0.0
 10
41.50740169935101
 20
67.03258317646831
 30
0.0
 10
41.49653112450973
 20
67.03280371867137
 30
0.0
 10
41.4885235371812
 20
67.03312758607282
 30
0.0
 10
41.48435691014851
 20
67.03354745592031
 30
0.0
 10
41.48373585863689
 20
67.03402617298605
 30
0.0
 10
41.48667497099165
 20
67.03436746223161
 30
0.0
 10
41.48814735947439
 20
67.03453843574123
 30
0.0
  0
ARC
  5
104
330
1F
100
AcDbEntity
  8
0
  6
Continuous
 62
     7
370
    25
100
AcDbCircle
 10
41.79014375
 20
46.445990625
 30
0.0
 40
20.58803836847347
100
AcDbArc
 50
89.3345405821
 51
90.66545941
  0
SPLINE
  5
105
330
1F
100
AcDbEntity
  8
0
  6
Continuous
 62
     7
370
    25
100
AcDbSpline
210
0.0
220
0.0
230
1.0
 70
     8
 71
     3
 72
    15
 73
    11
 74
     0
 42
0.00000001
 43
0.00000001
 40
0.0
 40
0.0
 40
0.0
 40
0.0
 40
0.1241186784437694
 40
0.2478474916628982
 40
0.3736574149478942
 40
0.5005082335853298
 40
0.6234527658309924
 40
0.7484986612277525
 40
0.873697649245277
 40
1.0
 40
1.0
 40
1.0
 40
1.0
 10
42.09214014325158
 20
67.03453843570792
 30
0.0
 10
42.09361121586041
 20
67.03436755542944
 30
0.0
 10
42.09654874033878
 20
67.03402633161906
 30
0.0
 10
42.09593200583869
 20
67.03354779533156
 30
0.0
 10
42.09177004424407
 20
67.03312800545966
 30
0.0
 10
42.0837712964457
 20
67.03280421761325
 30
0.0
 10
42.07290520490887
 20
67.03258351940758
 30
0.0
 10
42.05971748708424
 20
67.0324839274974
 30
0.0
 10
42.04492304050903
 20
67.03248784189601
 30
0.0
 10
42.0344944496017
 20
67.03258939270141
 30
0.0
 10
42.02925727848729
 20
67.03264039086113
 30
0.0
  0
ARC
  5
106
330
1F
100
AcDbEntity
  8
0
  6
Continuous
 62
     7
370
    25
100
AcDbCircle
 10
41.8521321871
 20
64.5015340572
 30
0.0
 40
2.54434962229723
100
AcDbArc
 50
84.5872538302
 51
89.9798585321
  0
LINE
  5
107
330
1F
100
AcDbEntity
  8
0
  6
Continuous
 62
     7
370
    25
100
AcDbLine
 10
43.3282116165
 20
66.7727021354
 30
0.0
 11
43.3282116165
 21
66.8735504604
 31
0.0
  0
LINE
  5
108
330
1F
100
AcDbEntity
  8
0
  6
Continuous
 62
     7
370
    25
100
AcDbLine
 10
43.4334401052
 20
66.7663925159
 30
0.0
 11
43.4334401052
 21
66.8672720002
 31
0.0
  0
LINE
  5
109
330
1F
100
AcDbEntity
  8
0
  6
Continuous
 62
     7
370
    25
100
AcDbLine
 10
39.5198642014
 20
66.7974250705
 30
0.0
 11
39.5198642014
 21
66.8981514886
 31
0.0
  0
LINE
  5
10A
330
1F
100
AcDbEntity
  8
0
  6
Continuous
 62
     7
370
    25
100
AcDbLine
 10
44.0604233017
 20
66.7974250701
 30
0.0
 11
44.0604233017
 21
66.8981514882
 31
0.0
  0
SPLINE
  5
10B
330
1F
100
AcDbEntity
  8
0
  6
Continuous
 62
     7
370
    25
100
AcDbSpline
210
0.0
220
0.0
230
1.0
 70
     8
 71
     3
 72
    10
 73
     6
 74
     0
 42
0.00000001
 43
0.00000001
 40
0.0
 40
0.0
 40
0.0
 40
0.0
 40
0.5
 40
0.5
 40
1.0
 40
1.0
 40
1.0
 40
1.0
 10
37.17134159648298
 20
26.12371203026016
 30
0.0
 10
37.92143795835587
 20
25.91694250233659
 30
0.0
 10
38.68288931143557
 20
25.7456102960745
 30
0.0
 10
40.23949337970878
 20
25.50812306844686
 30
0.0
 10
41.01634055816982
 20
25.44599062500001
 30
0.0
 10
41.79014375
 20
25.44599062500001
 30
0.0
  0
LINE
  5
10C
330
1F
100
AcDbEntity
  8
0
  6
Continuous
 62
     7
370
    25
100
AcDbLine
 10
37.1713415965
 20
29.4795940851
 30
0.0
 11
37.1713415965
 21
26.1237120303
 31
0.0
  0
SPLINE
  5
10D
330
1F
100
AcDbEntity
  8
0
  6
Continuous
 62
     7
370
    25
100
AcDbSpline
210
0.0
220
0.0
230
1.0
 70
     8
 71
     3
 72
     8
 73
     4
 74
     0
 42
0.00000001
 43
0.00000001
 40
0.0
 40
0.0
 40
0.0
 40
0.0
 40
1.0
 40
1.0
 40
1.0
 40
1.0
 10
37.17134159648297
 20
29.47959408514501
 30
0.0
 10
37.37652741902627
 20
29.53615505226923
 30
0.0
 10
37.58275061973357
 20
29.59009512368307
 30
0.0
 10
37.79014375000001
 20
29.64107941342603
 30
0.0
  0
LINE
  5
10E
330
1F
100
AcDbEntity
  8
0
  6
Continuous
 62
     7
370
    25
100
AcDbLine
 10
37.79014375
 20
29.6410794134
 30
0.0
 11
37.79014375
 21
33.445990625
 31
0.0
  0
LINE
  5
10F
330
1F
100
AcDbEntity
  8
0
  6
Continuous
 62
     7
370
    25
100
AcDbLine
 10
37.79014375
 20
33.445990625
 30
0.0
 11
35.273907673
 21
33.445990625
 31
0.0
  0
SPLINE
  5
110
330
1F
100
AcDbEntity
  8
0
  6
Continuous
 62
     7
370
    25
100
AcDbSpline
210
0.0
220
0.0
230
1.0
 70
     8
 71
     3
 72
     8
 73
     4
 74
     0
 42
0.00000001
 43
0.00000001
 40
0.0
 40
0.0
 40
0.0
 40
0.0
 40
1.0
 40
1.0
 40
1.0
 40
1.0
 10
35.11242234473983
 20
32.82718847148297
 30
0.0
 10
35.16898571420806
 20
33.03238300899274
 30
0.0
 10
35.2229256370293
 20
33.23860666250989
 30
0.0
 10
35.27390767302083
 20
33.44599062500001
 30
0.0
  0
LINE
  5
111
330
1F
100
AcDbEntity
  8
0
  6
Continuous
 62
     7
370
    25
100
AcDbLine
 10
30.9678651553
 20
32.8271884715
 30
0.0
 11
35.1124223447
 21
32.8271884715
 31
0.0
  0
SPLINE
  5
112
330
1F
100
AcDbEntity
  8
0
  6
Continuous
 62
     7
370
    25
100
AcDbSpline
210
0.0
220
0.0
230
1.0
 70
     8
 71
     3
 72
    10
 73
     6
 74
     0
 42
0.00000001
 43
0.00000001
 40
0.0
 40
0.0
 40
0.0
 40
0.0
 40
0.5
 40
0.5
 40
1.0
 40
1.0
 40
1.0
 40
1.0
 10
30.96786515526019
 20
32.827188471483
 30
0.0
 10
30.75979647902897
 20
33.58199774453229
 30
0.0
 10
30.58939747300444
 20
34.34274413176419
 30
0.0
 10
30.3542374933056
 20
35.88088650938745
 30
0.0
 10
30.29014375
 20
36.65838766191226
 30
0.0
 10
30.29014375
 20
37.44599062500001
 30
0.0
  0
SPLINE
  5
113
330
1F
100
AcDbEntity
  8
0
  6
Continuous
 62
     7
370
    25
100
AcDbSpline
210
0.0
220
0.0
230
1.0
 70
     8
 71
     3
 72
    12
 73
     8
 74
     0
 42
0.00000001
 43
0.00000001
 40
0.0
 40
0.0
 40
0.0
 40
0.0
 40
0.2500000000000001
 40
0.2500000000000001
 40
0.5000000000000001
 40
0.5000000000000001
 40
1.0
 40
1.0
 40
1.0
 40
1.0
 10
30.29014375
 20
37.44599062500001
 30
0.0
 10
30.29014375
 20
37.84030870567185
 30
0.0
 10
30.30614255498108
 20
38.23396774962229
 30
0.0
 10
30.36791269329546
 20
39.01350374916763
 30
0.0
 10
30.41365481759706
 20
39.40045693729306
 30
0.0
 10
30.5903249649439
 20
40.55384350014705
 30
0.0
 10
30.7605800304242
 20
41.31282598935209
 30
0.0
 10
30.96786515526019
 20
42.06479277851702
 30
0.0
  0
LINE
  5
114
330
1F
100
AcDbEntity
  8
0
  6
Continuous
 62
     7
370
    25
100
AcDbLine
 10
35.1124223447
 20
42.0647927785
 30
0.0
 11
30.9678651553
 21
42.0647927785
 31
0.0
  0
SPLINE
  5
115
330
1F
100
AcDbEntity
  8
0
  6
Continuous
 62
     7
370
    25
100
AcDbSpline
210
0.0
220
0.0
230
1.0
 70
     8
 71
     3
 72
     8
 73
     4
 74
     0
 42
0.00000001
 43
0.00000001
 40
0.0
 40
0.0
 40
0.0
 40
0.0
 40
1.0
 40
1.0
 40
1.0
 40
1.0
 10
35.27390767302083
 20
41.44599062500001
 30
0.0
 10
35.22300895609831
 20
41.653035663429
 30
0.0
 10
35.16907481984755
 20
41.85927499310564
 30
0.0
 10
35.11242234473981
 20
42.06479277851702
 30
0.0
  0
SPLINE
  5
116
330
1F
100
AcDbEntity
  8
0
  6
Continuous
 62
     7
370
    25
100
AcDbSpline
210
0.0
220
0.0
230
1.0
 70
     8
 71
     3
 72
     8
 73
     4
 74
     0
 42
0.00000001
 43
0.00000001
 40
0.0
 40
0.0
 40
0.0
 40
0.0
 40
1.0
 40
1.0
 40
1.0
 40
1.0
 10
48.30637982697919
 20
41.44599062500008
 30
0.0
 10
48.35727606023427
 20
41.65302556040384
 30
0.0
 10
48.41121001519792
 20
41.85926532546883
 30
0.0
 10
48.46786515526019
 20
42.06479277851703
 30
0.0
  0
LINE
  5
117
330
1F
100
AcDbEntity
  8
0
  6
Continuous
 62
     7
370
    25
100
AcDbLine
 10
52.6124223447
 20
42.0647927785
 30
0.0
 11
48.4678651553
 21
42.0647927785
 31
0.0
  0
SPLINE
  5
118
330
1F
100
AcDbEntity
  8
0
  6
Continuous
 62
     7
370
    25
100
AcDbSpline
210
0.0
220
0.0
230
1.0
 70
     8
 71
     3
 72
    12
 73
     8
 74
     0
 42
0.00000001
 43
0.00000001
 40
0.0
 40
0.0
 40
0.0
 40
0.0
 40
0.25
 40
0.25
 40
0.5
 40
0.5
 40
1.0
 40
1.0
 40
1.0
 40
1.0
 10
53.29014375000001
 20
37.44599062500001
 30
0.0
 10
53.29014375000001
 20
37.83766255137494
 30
0.0
 10
53.27423794433182
 20
38.23256544289654
 30
0.0
 10
53.2123930734394
 20
39.01350147314383
 30
0.0
 10
53.1665797325732
 20
39.40090960507511
 30
0.0
 10
52.98974655867084
 20
40.55503923173509
 30
0.0
 10
52.8194682951672
 20
41.31369364067162
 30
0.0
 10
52.61242234473981
 20
42.06479277851702
 30
0.0
  0
SPLINE
  5
119
330
1F
100
AcDbEntity
  8
0
  6
Continuous
 62
     7
370
    25
100
AcDbSpline
210
0.0
220
0.0
230
1.0
 70
     8
 71
     3
 72
    10
 73
     6
 74
     0
 42
0.00000001
 43
0.00000001
 40
0.0
 40
0.0
 40
0.0
 40
0.0
 40
0.5
 40
0.5
 40
1.0
 40
1.0
 40
1.0
 40
1.0
 10
52.61242234473981
 20
32.82718847148301
 30
0.0
 10
52.8212276839637
 20
33.58467013168855
 30
0.0
 10
52.99177452812285
 20
34.34713768013202
 30
0.0
 10
53.22655685550468
 20
35.88560181447139
 30
0.0
 10
53.29014375000001
 20
36.66172449291395
 30
0.0
 10
53.29014375000001
 20
37.44599062500001
 30
0.0
  0
LINE
  5
11A
330
1F
100
AcDbEntity
  8
0
  6
Continuous
 62
     7
370
    25
100
AcDbLine
 10
48.4678651553
 20
32.8271884715
 30
0.0
 11
52.6124223447
 21
32.8271884715
 31
0.0
  0
SPLINE
  5
11B
330
1F
100
AcDbEntity
  8
0
  6
Continuous
 62
     7
370
    25
100
AcDbSpline
210
0.0
220
0.0
230
1.0
 70
     8
 71
     3
 72
     8
 73
     4
 74
     0
 42
0.00000001
 43
0.00000001
 40
0.0
 40
0.0
 40
0.0
 40
0.0
 40
1.0
 40
1.0
 40
1.0
 40
1.0
 10
48.46786515526018
 20
32.82718847148298
 30
0.0
 10
48.41130331182324
 20
33.03237747301979
 30
0.0
 10
48.35736329456686
 20
33.23860083908449
 30
0.0
 10
48.30637982697919
 20
33.44599062499995
 30
0.0
  0
LINE
  5
11C
330
1F
100
AcDbEntity
  8
0
  6
Continuous
 62
     7
370
    25
100
AcDbLine
 10
48.306379827
 20
33.445990625
 30
0.0
 11
45.79014375
 21
33.445990625
 31
0.0
  0
SPLINE
  5
11D
330
1F
100
AcDbEntity
  8
0
  6
Continuous
 62
     7
370
    25
100
AcDbSpline
210
0.0
220
0.0
230
1.0
 70
     8
 71
     3
 72
     8
 73
     4
 74
     0
 42
0.00000001
 43
0.00000001
 40
0.0
 40
0.0
 40
0.0
 40
0.0
 40
1.0
 40
1.0
 40
1.0
 40
1.0
 10
45.79014375000001
 20
29.64107941342603
 30
0.0
 10
45.9971728133354
 20
29.5901846237252
 30
0.0
 10
46.20341283060473
 20
29.53625077436377
 30
0.0
 10
46.40894590351701
 20
29.47959408514501
 30
0.0
  0
LINE
  5
11E
330
1F
100
AcDbEntity
  8
0
  6
Continuous
 62
     7
370
    25
100
AcDbLine
 10
46.4089459035
 20
26.1237120303
 30
0.0
 11
46.4089459035
 21
29.4795940851
 31
0.0
  0
SPLINE
  5
11F
330
1F
100
AcDbEntity
  8
0
  6
Continuous
 62
     7
370
    25
100
AcDbSpline
210
0.0
220
0.0
230
1.0
 70
     8
 71
     3
 72
    10
 73
     6
 74
     0
 42
0.00000001
 43
0.00000001
 40
0.0
 40
0.0
 40
0.0
 40
0.0
 40
0.4999999999999999
 40
0.4999999999999999
 40
1.0
 40
1.0
 40
1.0
 40
1.0
 10
41.79014375
 20
25.44599062500001
 30
0.0
 10
42.56627121302466
 20
25.44599062500001
 30
0.0
 10
43.3397952649489
 20
25.50835203290424
 30
0.0
 10
44.88225752420876
 20
25.74292293414716
 30
0.0
 10
45.65553840625274
 20
25.91602976373854
 30
0.0
 10
46.408945903517
 20
26.1237120302602
 30
0.0
  0
ARC
  5
120
330
1F
100
AcDbEntity
  8
0
  6
Continuous
 62
     7
370
    25
100
AcDbCircle
 10
43.3408751057
 20
36.8690716317
 30
0.0
 40
0.8890000000000019
100
AcDbArc
 50
45.0
 51
315.0
  0
LINE
  5
121
330
1F
100
AcDbEntity
  8
0
  6
Continuous
 62
     7
370
    25
100
AcDbLine
 10
43.9694930342
 20
37.4976895602
 30
0.0
 11
44.4361034198
 21
37.9642999458
 31
0.0
  0
ARC
  5
122
330
1F
100
AcDbEntity
  8
0
  6
Continuous
 62
     7
370
    25
100
AcDbCircle
 10
43.3408751057
 20
36.8690716317
 30
0.0
 40
1.548886735692404
100
AcDbArc
 50
45.0
 51
315.0
  0
LINE
  5
123
330
1F
100
AcDbEntity
  8
0
  6
Continuous
 62
     7
370
    25
100
AcDbLine
 10
44.4361034198
 20
35.7738433176
 30
0.0
 11
43.9694930342
 21
36.2404537032
 31
0.0
  0
ARC
  5
124
330
1F
100
AcDbEntity
  8
0
  6
Continuous
 62
     7
370
    25
100
AcDbCircle
 10
46.6830197021
 20
36.8690716317
 30
0.0
 40
0.8889999999999868
100
AcDbArc
 50
45.0
 51
159.0751675724
  0
LINE
  5
125
330
1F
100
AcDbEntity
  8
0
  6
Continuous
 62
     7
370
    25
100
AcDbLine
 10
47.3116376306
 20
37.4976895602
 30
0.0
 11
47.7782480162
 21
37.9642999458
 31
0.0
  0
ARC
  5
126
330
1F
100
AcDbEntity
  8
0
  6
Continuous
 62
     7
370
    25
100
AcDbCircle
 10
46.6830197021
 20
36.8690716317
 30
0.0
 40
1.548886735692389
100
AcDbArc
 50
45.0
 51
315.0
  0
LINE
  5
127
330
1F
100
AcDbEntity
  8
0
  6
Continuous
 62
     7
370
    25
100
AcDbLine
 10
47.7782480162
 20
35.7738433176
 30
0.0
 11
47.3116376306
 21
36.2404537032
 31
0.0
  0
ARC
  5
128
330
1F
100
AcDbEntity
  8
0
  6
Continuous
 62
     7
370
    25
100
AcDbCircle
 10
46.6830197021
 20
36.8690716317
 30
0.0
 40
0.8890000000000007
100
AcDbArc
 50
200.9248324276
 51
315.0
  0
LINE
  5
129
330
1F
100
AcDbEntity
  8
0
  6
Continuous
 62
     7
370
    25
100
AcDbLine
 10
45.8526494533
 20
36.5515716317
 30
0.0
 11
47.7782480162
 21
36.5515716317
 31
0.0
  0
LINE
  5
12A
330
1F
100
AcDbEntity
  8
0
  6
Continuous
 62
     7
370
    25
100
AcDbLine
 10
47.7782480162
 20
36.5515716317
 30
0.0
 11
47.7782480162
 21
37.1865716317
 31
0.0
  0
LINE
  5
12B
330
1F
100
AcDbEntity
  8
0
  6
Continuous
 62
     7
370
    25
100
AcDbLine
 10
47.7782480162
 20
37.1865716317
 30
0.0
 11
45.8526494533
 21
37.1865716317
 31
0.0
  0
LINE
  5
12C
330
1F
100
AcDbEntity
  8
0
  6
Continuous
 62
     7
370
    25
100
AcDbLine
 10
40.888384836
 20
36.0236176074
 30
0.0
 11
40.8467345167
 21
35.9998126776
 31
0.0
  0
ELLIPSE
  5
12D
330
1F
100
AcDbEntity
  8
0
  6
Continuous
 62
     7
370
    25
100
AcDbEllipse
 10
40.4978913372
 20
36.5544951488
 30
0.0
 11
0.678412947925267
 21
6.110667527536863E-13
 31
0.0
210
0.0
220
0.0
230
1.0
 40
0.9533039403
 41
3.470145824140272
 42
5.252469180536294
  0
LINE
  5
12E
330
1F
100
AcDbEntity
  8
0
  6
Continuous
 62
     7
370
    25
100
AcDbLine
 10
39.8557665702
 20
36.3458110338
 30
0.0
 11
38.5961123653
 21
39.8682554305
 31
0.0
  0
ELLIPSE
  5
12F
330
1F
100
AcDbEntity
  8
0
  6
Continuous
 62
     7
370
    25
100
AcDbEllipse
 10
38.0051298073
 20
39.6059161944
 30
0.0
 11
0.6519124952381574
 21
6.110667527536862E-13
 31
0.0
210
0.0
220
0.0
230
1.0
 40
0.9533023292
 41
0.4357905044354907
 42
2.705800116361506
  0
LINE
  5
130
330
1F
100
AcDbEntity
  8
0
  6
Continuous
 62
     7
370
    25
100
AcDbLine
 10
37.4141478088
 20
39.8682565757
 30
0.0
 11
36.1547830072
 21
36.346633174
 31
0.0
  0
ELLIPSE
  5
131
330
1F
100
AcDbEntity
  8
0
  6
Continuous
 62
     7
370
    25
100
AcDbEllipse
 10
35.5126618232
 20
36.5553160076
 30
0.0
 11
-0.6784085062757867
 21
3.197442310920451E-13
 31
0.0
210
0.0
220
0.0
230
1.0
 40
0.9533122623
 41
1.047193771187958
 42
2.81304232019991
  0
LINE
  5
132
330
1F
100
AcDbEntity
  8
0
  6
Continuous
 62
     7
370
    25
100
AcDbLine
 10
35.1734553492
 20
35.9952281624
 30
0.0
 11
35.1218747787
 21
36.0236176074
 31
0.0
  0
LINE
  5
133
330
1F
100
AcDbEntity
  8
0
  6
Continuous
 62
     7
370
    25
100
AcDbLine
 10
35.1218747787
 20
36.0236176074
 30
0.0
 11
35.9181434382
 21
34.505445506
 31
0.0
  0
ELLIPSE
  5
134
330
1F
100
AcDbEntity
  8
0
  6
Continuous
 62
     7
370
    25
100
AcDbEllipse
 10
35.9939923116
 20
34.5415990209
 30
0.0
 11
0.08480161849065837
 21
-2.131628207280301E-14
 31
0.0
210
0.0
220
0.0
230
1.0
 40
0.9533039403
 41
3.605240262591016
 42
5.462183310215314
  0
ELLIPSE
  5
135
330
1F
100
AcDbEntity
  8
0
  6
Continuous
 62
     7
370
    25
100
AcDbEllipse
 10
38.0051298073
 20
32.4827504004
 30
0.0
 11
2.866293551216209
 21
-1.485034317738610E-12
 31
0.0
210
0.0
220
0.0
230
1.0
 40
0.9533046568
 41
0.8210016221243779
 42
2.320591031466436
  0
ELLIPSE
  5
136
330
1F
100
AcDbEntity
  8
0
  6
Continuous
 62
     7
370
    25
100
AcDbEllipse
 10
40.0162673031
 20
34.5415990209
 30
0.0
 11
0.08480161849060863
 21
0.0
 31
0.0
210
0.0
220
0.0
230
1.0
 40
0.9533039403
 41
3.962594650556406
 42
5.819537698177329
  0
LINE
  5
137
330
1F
100
AcDbEntity
  8
0
  6
Continuous
 62
     7
370
    25
100
AcDbLine
 10
40.0921161765
 20
34.505445506
 30
0.0
 11
40.888384836
 21
36.0236176074
 31
0.0
  0
LINE
  5
138
330
1F
100
AcDbEntity
  8
0
  6
Continuous
 62
     7
370
    25
100
AcDbLine
 10
45.79014375
 20
29.6410794134
 30
0.0
 11
45.79014375
 21
33.445990625
 31
0.0
  0
LINE
  5
139
330
1F
100
AcDbEntity
  8
0
  6
Continuous
 62
     7
370
    25
100
AcDbLine
 10
48.306379827
 20
41.445990625
 30
0.0
 11
35.273907673
 21
41.445990625
 31
0.0
  0
LINE
  5
13A
330
1F
100
AcDbEntity
  8
0
  6
Continuous
 62
     7
370
    25
100
AcDbLine
 10
35.79014375
 20
44.8072065572
 30
0.0
 11
35.79014375
 21
41.445990625
 31
0.0
  0
SPLINE
  5
13B
330
1F
100
AcDbEntity
  8
0
  6
Continuous
 62
     7
370
    25
100
AcDbSpline
210
0.0
220
0.0
230
1.0
 70
     8
 71
     3
 72
    10
 73
     6
 74
     0
 42
0.00000001
 43
0.00000001
 40
0.0
 40
0.0
 40
0.0
 40
0.0
 40
0.5
 40
0.5
 40
1.0
 40
1.0
 40
1.0
 40
1.0
 10
35.11242234473981
 20
42.49780548040924
 30
0.0
 10
35.08874695031543
 20
42.45486194950801
 30
0.0
 10
35.07565584043078
 20
42.39141950488388
 30
0.0
 10
35.0755695191425
 20
42.23894066776492
 30
0.0
 10
35.08873845308634
 20
42.15071066565765
 30
0.0
 10
35.11242234473981
 20
42.06479277851702
 30
0.0
  0
SPLINE
  5
13C
330
1F
100
AcDbEntity
  8
0
  6
Continuous
 62
     7
370
    25
100
AcDbSpline
210
0.0
220
0.0
230
1.0
 70
     8
 71
     3
 72
    12
 73
     8
 74
     0
 42
0.00000001
 43
0.00000001
 40
0.0
 40
0.0
 40
0.0
 40
0.0
 40
0.2500000000000001
 40
0.2500000000000001
 40
0.5000000000000002
 40
0.5000000000000002
 40
1.0
 40
1.0
 40
1.0
 40
1.0
 10
35.79014375000001
 20
44.80720655716775
 30
0.0
 10
35.79014375000001
 20
44.61146429428823
 30
0.0
 10
35.77430081391105
 20
44.41479768509767
 30
0.0
 10
35.71279795367338
 20
44.02552945776939
 30
0.0
 10
35.66719431262969
 20
43.83212542481647
 30
0.0
 10
35.49074329514048
 20
43.25519637355971
 30
0.0
 10
35.32034592788862
 20
42.8749469403567
 30
0.0
 10
35.11242234473981
 20
42.49780548040924
 30
0.0
  0
SPLINE
  5
13D
330
1F
100
AcDbEntity
  8
0
  6
Continuous
 62
     7
370
    25
100
AcDbSpline
210
0.0
220
0.0
230
1.0
 70
     8
 71
     3
 72
    10
 73
     6
 74
     0
 42
0.00000001
 43
0.00000001
 40
0.0
 40
0.0
 40
0.0
 40
0.0
 40
0.5
 40
0.5
 40
1.0
 40
1.0
 40
1.0
 40
1.0
 10
46.408945903517
 20
29.47959408514499
 30
0.0
 10
46.49483296531956
 20
29.45591869072058
 30
0.0
 10
46.58224017429976
 20
29.44282758083595
 30
0.0
 10
46.73487661689363
 20
29.44274125954773
 30
0.0
 10
46.79899966183938
 20
29.45591019349167
 30
0.0
 10
46.84195860540962
 20
29.47959408514522
 30
0.0
  0
LINE
  5
13E
330
1F
100
AcDbEntity
  8
0
  6
Continuous
 62
     7
370
    25
100
AcDbLine
 10
46.8419586054
 20
29.4795940851
 30
0.0
 11
46.8419586054
 21
26.1237120303
 31
0.0
  0
SPLINE
  5
13F
330
1F
100
AcDbEntity
  8
0
  6
Continuous
 62
     7
370
    25
100
AcDbSpline
210
0.0
220
0.0
230
1.0
 70
     8
 71
     3
 72
    10
 73
     6
 74
     0
 42
0.00000001
 43
0.00000001
 40
0.0
 40
0.0
 40
0.0
 40
0.0
 40
0.5
 40
0.5
 40
1.0
 40
1.0
 40
1.0
 40
1.0
 10
46.408945903517
 20
26.1237120302602
 30
0.0
 10
46.49482754602347
 20
26.14738593081616
 30
0.0
 10
46.58223675198889
 20
26.16047848799529
 30
0.0
 10
46.73487923706384
 20
26.16056490197758
 30
0.0
 10
46.7990022221462
 20
26.14739451037895
 30
0.0
 10
46.84195860540922
 20
26.1237120302602
 30
0.0
  0
SPLINE
  5
140
330
1F
100
AcDbEntity
  8
0
  6
Continuous
 62
     7
370
    25
100
AcDbSpline
210
0.0
220
0.0
230
1.0
 70
     8
 71
     3
 72
    10
 73
     6
 74
     0
 42
0.00000001
 43
0.00000001
 40
0.0
 40
0.0
 40
0.0
 40
0.0
 40
0.5
 40
0.5
 40
1.0
 40
1.0
 40
1.0
 40
1.0
 10
36.73832889459078
 20
29.47959408514501
 30
0.0
 10
36.78127242549201
 20
29.45591869072062
 30
0.0
 10
36.84471487011613
 20
29.44282758083598
 30
0.0
 10
36.99719370723508
 20
29.4427412595477
 30
0.0
 10
37.08542370934236
 20
29.45591019349154
 30
0.0
 10
37.17134159648298
 20
29.47959408514501
 30
0.0
  0
SPLINE
  5
141
330
1F
100
AcDbEntity
  8
0
  6
Continuous
 62
     7
370
    25
100
AcDbSpline
210
0.0
220
0.0
230
1.0
 70
     8
 71
     3
 72
    10
 73
     6
 74
     0
 42
0.00000001
 43
0.00000001
 40
0.0
 40
0.0
 40
0.0
 40
0.0
 40
0.5
 40
0.5
 40
1.0
 40
1.0
 40
1.0
 40
1.0
 10
36.73832889459078
 20
26.1237120302602
 30
0.0
 10
36.78126670369001
 20
26.14738427017176
 30
0.0
 10
36.84470729358221
 20
26.16047826010702
 30
0.0
 10
36.99719643909105
 20
26.16056512756847
 30
0.0
 10
37.08542582829437
 20
26.14739533780911
 30
0.0
 10
37.17134159648299
 20
26.1237120302602
 30
0.0
  0
LINE
  5
142
330
1F
100
AcDbEntity
  8
0
  6
Continuous
 62
     7
370
    25
100
AcDbLine
 10
36.7383288946
 20
26.1237120303
 30
0.0
 11
36.7383288946
 21
29.4795940851
 31
0.0
  0
SPLINE
  5
143
330
1F
100
AcDbEntity
  8
0
  6
Continuous
 62
     7
370
    25
100
AcDbSpline
210
0.0
220
0.0
230
1.0
 70
     8
 71
     3
 72
    10
 73
     6
 74
     0
 42
0.00000001
 43
0.00000001
 40
0.0
 40
0.0
 40
0.0
 40
0.0
 40
0.5
 40
0.5
 40
1.0
 40
1.0
 40
1.0
 40
1.0
 10
30.96786515525973
 20
42.49780548040921
 30
0.0
 10
30.75905523059347
 20
42.87655462780049
 30
0.0
 10
30.58852109084622
 20
43.2577599042118
 30
0.0
 10
30.3537352858273
 20
44.02699052539958
 30
0.0
 10
30.29014375
 20
44.4150582301979
 30
0.0
 10
30.29014375
 20
44.80720655716775
 30
0.0
  0
SPLINE
  5
144
330
1F
100
AcDbEntity
  8
0
  6
Continuous
 62
     7
370
    25
100
AcDbSpline
210
0.0
220
0.0
230
1.0
 70
     8
 71
     3
 72
    10
 73
     6
 74
     0
 42
0.00000001
 43
0.00000001
 40
0.0
 40
0.0
 40
0.0
 40
0.0
 40
0.5
 40
0.5
 40
1.0
 40
1.0
 40
1.0
 40
1.0
 10
30.96786515526019
 20
42.49780548040924
 30
0.0
 10
30.99153739517176
 20
42.45486767131001
 30
0.0
 10
31.00463138510701
 20
42.3914270814178
 30
0.0
 10
31.00471825256846
 20
42.23893793590896
 30
0.0
 10
30.9915484628091
 20
42.15070854670565
 30
0.0
 10
30.96786515526019
 20
42.06479277851702
 30
0.0
  0
LINE
  5
145
330
1F
100
AcDbEntity
  8
0
  6
Continuous
 62
     7
370
    25
100
AcDbLine
 10
30.29014375
 20
37.445990625
 30
0.0
 11
30.29014375
 21
44.8072065572
 31
0.0
  0
SPLINE
  5
146
330
1F
100
AcDbEntity
  8
0
  6
Continuous
 62
     7
370
    25
100
AcDbSpline
210
0.0
220
0.0
230
1.0
 70
     8
 71
     3
 72
    10
 73
     6
 74
     0
 42
0.00000001
 43
0.00000001
 40
0.0
 40
0.0
 40
0.0
 40
0.0
 40
0.5
 40
0.5
 40
1.0
 40
1.0
 40
1.0
 40
1.0
 10
48.46786515526021
 20
42.06479277851702
 30
0.0
 10
48.49154054968459
 20
42.15067984031947
 30
0.0
 10
48.50463165956922
 20
42.23808704929958
 30
0.0
 10
48.5047179808575
 20
42.39072349189332
 30
0.0
 10
48.49154904691367
 20
42.45484653683889
 30
0.0
 10
48.46786515526021
 20
42.49780548040921
 30
0.0
  0
LINE
  5
147
330
1F
100
AcDbEntity
  8
0
  6
Continuous
 62
     7
370
    25
100
AcDbLine
 10
48.4678651553
 20
42.4978054804
 30
0.0
 11
52.6124223447
 21
42.4978054804
 31
0.0
  0
SPLINE
  5
148
330
1F
100
AcDbEntity
  8
0
  6
Continuous
 62
     7
370
    25
100
AcDbSpline
210
0.0
220
0.0
230
1.0
 70
     8
 71
     3
 72
    10
 73
     6
 74
     0
 42
0.00000001
 43
0.00000001
 40
0.0
 40
0.0
 40
0.0
 40
0.0
 40
0.5
 40
0.5
 40
1.0
 40
1.0
 40
1.0
 40
1.0
 10
52.61242234473981
 20
42.06479277851702
 30
0.0
 10
52.58874844418386
 20
42.15067442102348
 30
0.0
 10
52.57565588700472
 20
42.23808362698891
 30
0.0
 10
52.57556947302243
 20
42.39072611206384
 30
0.0
 10
52.58873986462105
 20
42.45484909714621
 30
0.0
 10
52.61242234473981
 20
42.49780548040924
 30
0.0
  0
SPLINE
  5
149
330
1F
100
AcDbEntity
  8
0
  6
Continuous
 62
     7
370
    25
100
AcDbSpline
210
0.0
220
0.0
230
1.0
 70
     8
 71
     3
 72
    10
 73
     6
 74
     0
 42
0.00000001
 43
0.00000001
 40
0.0
 40
0.0
 40
0.0
 40
0.0
 40
0.5
 40
0.5
 40
1.0
 40
1.0
 40
1.0
 40
1.0
 10
30.9678651552602
 20
32.827188471483
 30
0.0
 10
30.99153905581615
 20
32.74130682897654
 30
0.0
 10
31.00463161299528
 20
32.65389762301111
 30
0.0
 10
31.00471802697756
 20
32.50125513793618
 30
0.0
 10
30.99154763537895
 20
32.43713215285381
 30
0.0
 10
30.9678651552602
 20
32.39417576959079
 30
0.0
  0
SPLINE
  5
14A
330
1F
100
AcDbEntity
  8
0
  6
Continuous
 62
     7
370
    25
100
AcDbSpline
210
0.0
220
0.0
230
1.0
 70
     8
 71
     3
 72
    12
 73
     8
 74
     0
 42
0.00000001
 43
0.00000001
 40
0.0
 40
0.0
 40
0.0
 40
0.0
 40
0.2499999999999999
 40
0.2499999999999999
 40
0.4999999999999998
 40
0.4999999999999998
 40
1.0
 40
1.0
 40
1.0
 40
1.0
 10
30.29014375000001
 20
30.08477469283228
 30
0.0
 10
30.29014375000001
 20
30.27977817283808
 30
0.0
 10
30.30589008002196
 20
30.47631283186249
 30
0.0
 10
30.3673351046074
 20
30.86573251946804
 30
0.0
 10
30.41292386386112
 20
31.0592172125283
 30
0.0
 10
30.58937486611772
 20
31.6364008112839
 30
0.0
 10
30.7598325680812
 20
32.01683659306686
 30
0.0
 10
30.96786515526005
 20
32.3941757695908
 30
0.0
  0
LINE
  5
14B
330
1F
100
AcDbEntity
  8
0
  6
Continuous
 62
     7
370
    25
100
AcDbLine
 10
30.29014375
 20
37.445990625
 30
0.0
 11
30.29014375
 21
30.0847746928
 31
0.0
  0
SPLINE
  5
14C
330
1F
100
AcDbEntity
  8
0
  6
Continuous
 62
     7
370
    25
100
AcDbSpline
210
0.0
220
0.0
230
1.0
 70
     8
 71
     3
 72
     8
 73
     4
 74
     0
 42
0.00000001
 43
0.00000001
 40
0.0
 40
0.0
 40
0.0
 40
0.0
 40
1.0
 40
1.0
 40
1.0
 40
1.0
 10
47.91152724149617
 20
31.03586909167477
 30
0.0
 10
47.8704119658549
 20
31.17189948616432
 30
0.0
 10
47.82992298298705
 20
31.30860355080176
 30
0.0
 10
47.79014375
 20
31.44599062500001
 30
0.0
  0
LINE
  5
14D
330
1F
100
AcDbEntity
  8
0
  6
Continuous
 62
     7
370
    25
100
AcDbLine
 10
47.79014375
 20
33.445990625
 30
0.0
 11
47.79014375
 21
31.445990625
 31
0.0
  0
SPLINE
  5
14E
330
1F
100
AcDbEntity
  8
0
  6
Continuous
 62
     7
370
    25
100
AcDbSpline
210
0.0
220
0.0
230
1.0
 70
     8
 71
     3
 72
    10
 73
     6
 74
     0
 42
0.00000001
 43
0.00000001
 40
0.0
 40
0.0
 40
0.0
 40
0.0
 40
0.5
 40
0.5
 40
1.0
 40
1.0
 40
1.0
 40
1.0
 10
48.46786515525693
 20
32.39417576959079
 30
0.0
 10
48.49154054968128
 20
32.43711930049194
 30
0.0
 10
48.50463165956918
 20
32.50056174511574
 30
0.0
 10
48.50471798085754
 20
32.65304058223482
 30
0.0
 10
48.4915490469137
 20
32.74127058434225
 30
0.0
 10
48.4678651552602
 20
32.82718847148299
 30
0.0
  0
SPLINE
  5
14F
330
1F
100
AcDbEntity
  8
0
  6
Continuous
 62
     7
370
    25
100
AcDbSpline
210
0.0
220
0.0
230
1.0
 70
     8
 71
     3
 72
     8
 73
     4
 74
     0
 42
0.00000001
 43
0.00000001
 40
0.0
 40
0.0
 40
0.0
 40
0.0
 40
1.0
 40
1.0
 40
1.0
 40
1.0
 10
47.91152724149617
 20
31.03586909167477
 30
0.0
 10
48.02715985152523
 20
31.49442002373252
 30
0.0
 10
48.22104925634564
 20
31.94648961949078
 30
0.0
 10
48.46786515526005
 20
32.39417576959053
 30
0.0
  0
LINE
  5
150
330
1F
100
AcDbEntity
  8
0
  6
Continuous
 62
     7
370
    25
100
AcDbLine
 10
35.79014375
 20
33.445990625
 30
0.0
 11
35.79014375
 21
31.445990625
 31
0.0
  0
SPLINE
  5
151
330
1F
100
AcDbEntity
  8
0
  6
Continuous
 62
     7
370
    25
100
AcDbSpline
210
0.0
220
0.0
230
1.0
 70
     8
 71
     3
 72
     8
 73
     4
 74
     0
 42
0.00000001
 43
0.00000001
 40
0.0
 40
0.0
 40
0.0
 40
0.0
 40
1.0
 40
1.0
 40
1.0
 40
1.0
 10
35.79014375000001
 20
31.44599062500001
 30
0.0
 10
35.75036509180983
 20
31.30860553599991
 30
0.0
 10
35.70987612898159
 20
31.17190145418814
 30
0.0
 10
35.66876025850384
 20
31.03586909167477
 30
0.0
  0
SPLINE
  5
152
330
1F
100
AcDbEntity
  8
0
  6
Continuous
 62
     7
370
    25
100
AcDbSpline
210
0.0
220
0.0
230
1.0
 70
     8
 71
     3
 72
     8
 73
     4
 74
     0
 42
0.00000001
 43
0.00000001
 40
0.0
 40
0.0
 40
0.0
 40
0.0
 40
1.0
 40
1.0
 40
1.0
 40
1.0
 10
35.11242234473981
 20
32.39417576959079
 30
0.0
 10
35.35959612562374
 20
31.94584047653946
 30
0.0
 10
35.55331779392773
 20
31.49366598579586
 30
0.0
 10
35.66876025850384
 20
31.03586909167477
 30
0.0
  0
SPLINE
  5
153
330
1F
100
AcDbEntity
  8
0
  6
Continuous
 62
     7
370
    25
100
AcDbSpline
210
0.0
220
0.0
230
1.0
 70
     8
 71
     3
 72
    10
 73
     6
 74
     0
 42
0.00000001
 43
0.00000001
 40
0.0
 40
0.0
 40
0.0
 40
0.0
 40
0.5
 40
0.5
 40
1.0
 40
1.0
 40
1.0
 40
1.0
 10
35.11242234473976
 20
32.827188471483
 30
0.0
 10
35.08874695031537
 20
32.74130140968055
 30
0.0
 10
35.07565584043078
 20
32.65389420070042
 30
0.0
 10
35.0755695191425
 20
32.50125775810668
 30
0.0
 10
35.08873845308634
 20
32.4371347131611
 30
0.0
 10
35.11242234473981
 20
32.39417576959079
 30
0.0
  0
SPLINE
  5
154
330
1F
100
AcDbEntity
  8
0
  6
Continuous
 62
     7
370
    25
100
AcDbSpline
210
0.0
220
0.0
230
1.0
 70
     8
 71
     3
 72
    12
 73
     8
 74
     0
 42
0.00000001
 43
0.00000001
 40
0.0
 40
0.0
 40
0.0
 40
0.0
 40
0.2500000000000001
 40
0.2500000000000001
 40
0.5000000000000002
 40
0.5000000000000002
 40
1.0
 40
1.0
 40
1.0
 40
1.0
 10
53.29014375
 20
44.80720655716775
 30
0.0
 10
53.29014375
 20
44.61220307716194
 30
0.0
 10
53.27439741997804
 20
44.41566841813754
 30
0.0
 10
53.21295239539261
 20
44.026248730532
 30
0.0
 10
53.16736363613889
 20
43.83276403747173
 30
0.0
 10
52.99091263388229
 20
43.25558043871613
 30
0.0
 10
52.8204549319188
 20
42.87514465693317
 30
0.0
 10
52.61242234473995
 20
42.49780548040923
 30
0.0
  0
LINE
  5
155
330
1F
100
AcDbEntity
  8
0
  6
Continuous
 62
     7
370
    25
100
AcDbLine
 10
53.29014375
 20
44.8072065572
 30
0.0
 11
53.29014375
 21
37.445990625
 31
0.0
  0
LINE
  5
156
330
1F
100
AcDbEntity
  8
0
  6
Continuous
 62
     7
370
    25
100
AcDbLine
 10
38.4235923406
 20
36.9795904973
 30
0.0
 11
38.119918163
 21
37.7901731145
 31
0.0
  0
ELLIPSE
  5
157
330
1F
100
AcDbEntity
  8
0
  6
Continuous
 62
     7
370
    25
100
AcDbEllipse
 10
38.3437311023
 20
36.9524004856
 30
0.0
 11
-0.08480161849066548
 21
-4.263256414560601E-14
 31
0.0
210
0.0
220
0.0
230
1.0
 40
0.9533039403
 41
1.570796326794417
 42
3.484616592149199
  0
LINE
  5
158
330
1F
100
AcDbEntity
  8
0
  6
Continuous
 62
     7
370
    25
100
AcDbLine
 10
37.7363827435
 20
36.8715587685
 30
0.0
 11
38.3437311023
 21
36.8715587685
 31
0.0
  0
ELLIPSE
  5
159
330
1F
100
AcDbEntity
  8
0
  6
Continuous
 62
     7
370
    25
100
AcDbEllipse
 10
37.7363827435
 20
36.9524004856
 30
0.0
 11
0.08480161849065837
 21
-1.421085471520200E-14
 31
0.0
210
0.0
220
0.0
230
1.0
 40
0.9533039403
 41
2.798568711308495
 42
4.712388980384862
  0
ELLIPSE
  5
15A
330
1F
100
AcDbEntity
  8
0
  6
Continuous
 62
     7
370
    25
100
AcDbEllipse
 10
38.0400569247
 20
37.7629831026
 30
0.0
 11
0.08480161849065837
 21
7.105427357601002E-15
 31
0.0
210
0.0
220
0.0
230
1.0
 40
0.9533039403
 41
0.3430239404206329
 42
2.798568713169042
  0
LINE
  5
15B
330
1F
100
AcDbEntity
  8
0
  6
Continuous
 62
     7
370
    25
100
AcDbLine
 10
37.9601956864
 20
37.7901731145
 30
0.0
 11
37.6565215052
 21
36.9795904976
 31
0.0
  0
LINE
  5
15C
330
1F
100
AcDbEntity
  8
0
  6
Continuous
 62
     7
370
    25
100
AcDbLine
 10
30.9678651553
 20
42.4978054804
 30
0.0
 11
35.1124223447
 21
42.4978054804
 31
0.0
  0
LINE
  5
15D
330
1F
100
AcDbEntity
  8
0
  6
Continuous
 62
     7
370
    25
100
AcDbLine
 10
47.79014375
 20
44.8072065572
 30
0.0
 11
47.79014375
 21
41.445990625
 31
0.0
  0
SPLINE
  5
15E
330
1F
100
AcDbEntity
  8
0
  6
Continuous
 62
     7
370
    25
100
AcDbSpline
210
0.0
220
0.0
230
1.0
 70
     8
 71
     3
 72
    10
 73
     6
 74
     0
 42
0.00000001
 43
0.00000001
 40
0.0
 40
0.0
 40
0.0
 40
0.0
 40
0.5
 40
0.5
 40
1.0
 40
1.0
 40
1.0
 40
1.0
 10
48.46786515526021
 20
42.49780548040922
 30
0.0
 10
48.25944440244278
 20
42.87584872981138
 30
0.0
 10
48.08898056716535
 20
43.25661823460722
 30
0.0
 10
47.85399813222696
 20
44.02576676016477
 30
0.0
 10
47.79014375
 20
44.41419348834001
 30
0.0
 10
47.79014375
 20
44.80720655716775
 30
0.0
  0
SPLINE
  5
15F
330
1F
100
AcDbEntity
  8
0
  6
Continuous
 62
     7
370
    25
100
AcDbSpline
210
0.0
220
0.0
230
1.0
 70
     8
 71
     3
 72
    10
 73
     6
 74
     0
 42
0.00000001
 43
0.00000001
 40
0.0
 40
0.0
 40
0.0
 40
0.0
 40
0.5
 40
0.5
 40
1.0
 40
1.0
 40
1.0
 40
1.0
 10
36.73832889459081
 20
26.12371203025973
 30
0.0
 10
36.35957974719952
 20
25.91490210559348
 30
0.0
 10
35.97837447078822
 20
25.74436796584622
 30
0.0
 10
35.20914384960044
 20
25.5095821608273
 30
0.0
 10
34.82107614480211
 20
25.44599062500001
 30
0.0
 10
34.42892781783227
 20
25.44599062500001
 30
0.0
  0
LINE
  5
160
330
1F
100
AcDbEntity
  8
0
  6
Continuous
 62
     7
370
    25
100
AcDbLine
 10
41.79014375
 20
25.445990625
 30
0.0
 11
34.4289278178
 21
25.445990625
 31
0.0
  0
SPLINE
  5
161
330
1F
100
AcDbEntity
  8
0
  6
Continuous
 62
     7
370
    25
100
AcDbSpline
210
0.0
220
0.0
230
1.0
 70
     8
 71
     3
 72
     8
 73
     4
 74
     0
 42
0.00000001
 43
0.00000001
 40
0.0
 40
0.0
 40
0.0
 40
0.0
 40
1.0
 40
1.0
 40
1.0
 40
1.0
 10
34.50076756538338
 20
30.15661444037127
 30
0.0
 10
34.80978470802513
 20
30.2576195482014
 30
0.0
 10
35.12510246434312
 20
30.35427633726734
 30
0.0
 10
35.44758179118614
 20
30.44599062500001
 30
0.0
  0
SPLINE
  5
162
330
1F
100
AcDbEntity
  8
0
  6
Continuous
 62
     7
370
    25
100
AcDbSpline
210
0.0
220
0.0
230
1.0
 70
     8
 71
     3
 72
    12
 73
     8
 74
     0
 42
0.00000001
 43
0.00000001
 40
0.0
 40
0.0
 40
0.0
 40
0.0
 40
0.2500000000000002
 40
0.2500000000000002
 40
0.5000000000000004
 40
0.5000000000000004
 40
1.0
 40
1.0
 40
1.0
 40
1.0
 10
34.50076756537813
 20
30.15661444036515
 30
0.0
 10
34.69079374068136
 20
30.15290595450872
 30
0.0
 10
34.88100880336717
 20
30.13432345167104
 30
0.0
 10
35.25794556249957
 20
30.0694564147049
 30
0.0
 10
35.44526835375908
 20
30.02319086145463
 30
0.0
 10
36.00417831007316
 20
29.84746633114766
 30
0.0
 10
36.37271396818348
 20
29.68116292237091
 30
0.0
 10
36.73832889459078
 20
29.47959408514501
 30
0.0
  0
SPLINE
  5
163
330
1F
100
AcDbEntity
  8
0
  6
Continuous
 62
     7
370
    25
100
AcDbSpline
210
0.0
220
0.0
230
1.0
 70
     8
 71
     3
 72
    10
 73
     6
 74
     0
 42
0.00000001
 43
0.00000001
 40
0.0
 40
0.0
 40
0.0
 40
0.0
 40
0.5
 40
0.5
 40
1.0
 40
1.0
 40
1.0
 40
1.0
 10
52.61242234473981
 20
32.39417576959079
 30
0.0
 10
52.58875010482826
 20
32.43711357869002
 30
0.0
 10
52.57565611489299
 20
32.50055416858221
 30
0.0
 10
52.57556924743155
 20
32.65304331409106
 30
0.0
 10
52.5887390371909
 20
32.74127270329438
 30
0.0
 10
52.61242234473981
 20
32.82718847148301
 30
0.0
  0
LINE
  5
164
330
1F
100
AcDbEntity
  8
0
  6
Continuous
 62
     7
370
    25
100
AcDbLine
 10
52.6124223447
 20
32.3941757696
 30
0.0
 11
48.4678651553
 21
32.3941757696
 31
0.0
  0
SPLINE
  5
165
330
1F
100
AcDbEntity
  8
0
  6
Continuous
 62
     7
370
    25
100
AcDbSpline
210
0.0
220
0.0
230
1.0
 70
     8
 71
     3
 72
     8
 73
     4
 74
     0
 42
0.00000001
 43
0.00000001
 40
0.0
 40
0.0
 40
0.0
 40
0.0
 40
1.0
 40
1.0
 40
1.0
 40
1.0
 10
48.13270570881387
 20
30.44599062500001
 30
0.0
 10
48.45518503566314
 20
30.35427633726556
 30
0.0
 10
48.77050279198711
 20
30.25761954819765
 30
0.0
 10
49.07951993463462
 20
30.1566144403654
 30
0.0
  0
SPLINE
  5
166
330
1F
100
AcDbEntity
  8
0
  6
Continuous
 62
     7
370
    25
100
AcDbSpline
210
0.0
220
0.0
230
1.0
 70
     8
 71
     3
 72
    10
 73
     6
 74
     0
 42
0.00000001
 43
0.00000001
 40
0.0
 40
0.0
 40
0.0
 40
0.0
 40
0.5
 40
0.5
 40
1.0
 40
1.0
 40
1.0
 40
1.0
 10
46.8419586054095
 20
29.47959408514516
 30
0.0
 10
47.20847655225004
 20
29.68166077069608
 30
0.0
 10
47.57755677771586
 20
29.84805354296673
 30
0.0
 10
48.32280912594327
 20
30.08210051683679
 30
0.0
 10
48.69902189789104
 20
30.14918877079561
 30
0.0
 10
49.07951993463462
 20
30.1566144403654
 30
0.0
  0
LINE
  5
167
330
1F
100
AcDbEntity
  8
0
  6
Continuous
 62
     7
370
    25
100
AcDbLine
 10
35.1124223447
 20
32.3941757696
 30
0.0
 11
30.9678651553
 21
32.3941757696
 31
0.0
  0
SPLINE
  5
168
330
1F
100
AcDbEntity
  8
0
  6
Continuous
 62
     7
370
    25
100
AcDbSpline
210
0.0
220
0.0
230
1.0
 70
     8
 71
     3
 72
    10
 73
     6
 74
     0
 42
0.00000001
 43
0.00000001
 40
0.0
 40
0.0
 40
0.0
 40
0.0
 40
0.5
 40
0.5
 40
1.0
 40
1.0
 40
1.0
 40
1.0
 10
52.61242234474027
 20
32.39417576959082
 30
0.0
 10
52.82123226940654
 20
32.01542662219953
 30
0.0
 10
52.99176640915379
 20
31.63422134578822
 30
0.0
 10
53.22655221417271
 20
30.86499072460044
 30
0.0
 10
53.29014375000001
 20
30.47692301980212
 30
0.0
 10
53.29014375000001
 20
30.08477469283228
 30
0.0
  0
LINE
  5
169
330
1F
100
AcDbEntity
  8
0
  6
Continuous
 62
     7
370
    25
100
AcDbLine
 10
53.29014375
 20
37.445990625
 30
0.0
 11
53.29014375
 21
30.0847746928
 31
0.0
  0
SPLINE
  5
16A
330
1F
100
AcDbEntity
  8
0
  6
Continuous
 62
     7
370
    25
100
AcDbSpline
210
0.0
220
0.0
230
1.0
 70
     8
 71
     3
 72
    12
 73
     8
 74
     0
 42
0.00000001
 43
0.00000001
 40
0.0
 40
0.0
 40
0.0
 40
0.0
 40
0.2499999999999998
 40
0.2499999999999998
 40
0.4999999999999996
 40
0.4999999999999996
 40
1.0
 40
1.0
 40
1.0
 40
1.0
 10
49.15135968216773
 20
25.44599062500001
 30
0.0
 10
48.95635620216193
 20
25.44599062500001
 30
0.0
 10
48.75982154313753
 20
25.46173695502197
 30
0.0
 10
48.37040185553198
 20
25.5231819796074
 30
0.0
 10
48.17691716247172
 20
25.56877073886112
 30
0.0
 10
47.59973356371611
 20
25.74522174111773
 30
0.0
 10
47.21929778193315
 20
25.91567944308121
 30
0.0
 10
46.84195860540921
 20
26.12371203026006
 30
0.0
  0
LINE
  5
16B
330
1F
100
AcDbEntity
  8
0
  6
Continuous
 62
     7
370
    25
100
AcDbLine
 10
49.1513596822
 20
25.445990625
 30
0.0
 11
41.79014375
 21
25.445990625
 31
0.0
  0
SPLINE
  5
16C
330
1F
100
AcDbEntity
  8
0
  6
Continuous
 62
     7
370
    25
100
AcDbSpline
210
0.0
220
0.0
230
1.0
 70
     8
 71
     3
 72
    12
 73
     8
 74
     0
 42
0.00000001
 43
0.00000001
 40
0.0
 40
0.0
 40
0.0
 40
0.0
 40
0.2499999999999999
 40
0.2499999999999999
 40
0.4999999999999998
 40
0.4999999999999998
 40
1.0
 40
1.0
 40
1.0
 40
1.0
 10
47.79014375
 20
44.80720655716775
 30
0.0
 10
47.79014375
 20
45.00294882004726
 30
0.0
 10
47.80598668608896
 20
45.19961542923782
 30
0.0
 10
47.86748954632662
 20
45.5888836565661
 30
0.0
 10
47.91309318737031
 20
45.78228768951902
 30
0.0
 10
48.08954420485954
 20
46.35921674077579
 30
0.0
 10
48.25994157211139
 20
46.73946617397878
 30
0.0
 10
48.46786515526019
 20
47.11660763392625
 30
0.0
  0
LINE
  5
16D
330
1F
100
AcDbEntity
  8
0
  6
Continuous
 62
     7
370
    25
100
AcDbLine
 10
52.6124223447
 20
47.1166076339
 30
0.0
 11
48.4678651553
 21
47.1166076339
 31
0.0
  0
SPLINE
  5
16E
330
1F
100
AcDbEntity
  8
0
  6
Continuous
 62
     7
370
    25
100
AcDbSpline
210
0.0
220
0.0
230
1.0
 70
     8
 71
     3
 72
    10
 73
     6
 74
     0
 42
0.00000001
 43
0.00000001
 40
0.0
 40
0.0
 40
0.0
 40
0.0
 40
0.5
 40
0.5
 40
1.0
 40
1.0
 40
1.0
 40
1.0
 10
52.61242234474027
 20
47.11660763392628
 30
0.0
 10
52.82123226940654
 20
46.73785848653499
 30
0.0
 10
52.99176640915379
 20
46.35665321012368
 30
0.0
 10
53.22655221417271
 20
45.5874225889359
 30
0.0
 10
53.29014375
 20
45.19935488413758
 30
0.0
 10
53.29014375
 20
44.80720655716775
 30
0.0
  0
ELLIPSE
  5
16F
330
1F
100
AcDbEntity
  8
0
  6
Continuous
 62
     7
370
    25
100
AcDbEllipse
 10
41.79014375
 20
27.6310360488
 30
0.0
 11
8.5
 21
0.0
 31
0.0
210
0.0
220
0.0
230
1.0
 40
0.5773502692
 41
2.374833212873084
 42
2.530692279913058
  0
LINE
  5
170
330
1F
100
AcDbEntity
  8
0
  6
Continuous
 62
     7
370
    25
100
AcDbLine
 10
34.5007675654
 20
30.1566144404
 30
0.0
 11
32.1195267411
 21
27.7753736161
 31
0.0
  0
LINE
  5
171
330
1F
100
AcDbEntity
  8
0
  6
Continuous
 62
     7
370
    25
100
AcDbLine
 10
30.9678651553
 20
27.7753736161
 30
0.0
 11
32.1195267411
 21
27.7753736161
 31
0.0
  0
SPLINE
  5
172
330
1F
100
AcDbEntity
  8
0
  6
Continuous
 62
     7
370
    25
100
AcDbSpline
210
0.0
220
0.0
230
1.0
 70
     8
 71
     3
 72
    10
 73
     6
 74
     0
 42
0.00000001
 43
0.00000001
 40
0.0
 40
0.0
 40
0.0
 40
0.0
 40
0.5
 40
0.5
 40
1.0
 40
1.0
 40
1.0
 40
1.0
 10
30.96786515525973
 20
27.77537361607375
 30
0.0
 10
30.75905523059347
 20
28.15412276346504
 30
0.0
 10
30.58852109084622
 20
28.53532803987634
 30
0.0
 10
30.3537352858273
 20
29.30455866106412
 30
0.0
 10
30.29014375000001
 20
29.69262636586244
 30
0.0
 10
30.29014375000001
 20
30.08477469283228
 30
0.0
  0
LINE
  5
173
330
1F
100
AcDbEntity
  8
0
  6
Continuous
 62
     7
370
    25
100
AcDbLine
 10
51.4607607589
 20
27.7753736161
 30
0.0
 11
49.0795199346
 21
30.1566144404
 31
0.0
  0
LINE
  5
174
330
1F
100
AcDbEntity
  8
0
  6
Continuous
 62
     7
370
    25
100
AcDbLine
 10
51.4607607589
 20
26.1237120303
 30
0.0
 11
51.4607607589
 21
27.7753736161
 31
0.0
  0
SPLINE
  5
175
330
1F
100
AcDbEntity
  8
0
  6
Continuous
 62
     7
370
    25
100
AcDbSpline
210
0.0
220
0.0
230
1.0
 70
     8
 71
     3
 72
    10
 73
     6
 74
     0
 42
0.00000001
 43
0.00000001
 40
0.0
 40
0.0
 40
0.0
 40
0.0
 40
0.5
 40
0.5
 40
1.0
 40
1.0
 40
1.0
 40
1.0
 10
51.46076075892626
 20
26.12371203025973
 30
0.0
 10
51.08201161153497
 20
25.91490210559348
 30
0.0
 10
50.70080633512367
 20
25.74436796584622
 30
0.0
 10
49.93157571393589
 20
25.5095821608273
 30
0.0
 10
49.54350800913757
 20
25.44599062500001
 30
0.0
 10
49.15135968216773
 20
25.44599062500001
 30
0.0
  0
SPLINE
  5
176
330
1F
100
AcDbEntity
  8
0
  6
Continuous
 62
     7
370
    25
100
AcDbSpline
210
0.0
220
0.0
230
1.0
 70
     8
 71
     3
 72
    12
 73
     8
 74
     0
 42
0.00000001
 43
0.00000001
 40
0.0
 40
0.0
 40
0.0
 40
0.0
 40
0.2499999999999999
 40
0.2499999999999999
 40
0.5
 40
0.5
 40
1.0
 40
1.0
 40
1.0
 40
1.0
 10
53.29014375000001
 20
30.08477469283228
 30
0.0
 10
53.29014375
 20
29.88977121282649
 30
0.0
 10
53.27439741997804
 20
29.69323655380208
 30
0.0
 10
53.21295239539261
 20
29.30381686619653
 30
0.0
 10
53.16736363613889
 20
29.11033217313627
 30
0.0
 10
52.99091263388229
 20
28.53314857438067
 30
0.0
 10
52.8204549319188
 20
28.1527127925977
 30
0.0
 10
52.61242234473995
 20
27.77537361607377
 30
0.0
  0
LINE
  5
177
330
1F
100
AcDbEntity
  8
0
  6
Continuous
 62
     7
370
    25
100
AcDbLine
 10
51.4607607589
 20
27.7753736161
 30
0.0
 11
52.6124223447
 21
27.7753736161
 31
0.0
  0
ELLIPSE
  5
178
330
1F
100
AcDbEntity
  8
0
  6
Continuous
 62
     7
370
    25
100
AcDbEllipse
 10
41.79014375
 20
27.6310360488
 30
0.0
 11
8.5
 21
0.0
 31
0.0
210
0.0
220
0.0
230
1.0
 40
0.5773502692
 41
0.6109003736767332
 42
0.766759440716708
  0
SPLINE
  5
179
330
1F
100
AcDbEntity
  8
0
  6
Continuous
 62
     7
370
    25
100
AcDbSpline
210
0.0
220
0.0
230
1.0
 70
     8
 71
     3
 72
    12
 73
     8
 74
     0
 42
0.00000001
 43
0.00000001
 40
0.0
 40
0.0
 40
0.0
 40
0.0
 40
0.2500000000000002
 40
0.2500000000000002
 40
0.5000000000000001
 40
0.5000000000000001
 40
1.0
 40
1.0
 40
1.0
 40
1.0
 10
34.42892781783227
 20
25.44599062500001
 30
0.0
 10
34.23392433782647
 20
25.445990625
 30
0.0
 10
34.03738967880207
 20
25.46173695502197
 30
0.0
 10
33.64796999119653
 20
25.5231819796074
 30
0.0
 10
33.45448529813626
 20
25.56877073886112
 30
0.0
 10
32.87730169938065
 20
25.74522174111772
 30
0.0
 10
32.4968659175977
 20
25.91567944308121
 30
0.0
 10
32.11952674107376
 20
26.12371203026006
 30
0.0
  0
LINE
  5
17A
330
1F
100
AcDbEntity
  8
0
  6
Continuous
 62
     7
370
    25
100
AcDbLine
 10
32.1195267411
 20
27.7753736161
 30
0.0
 11
32.1195267411
 21
26.1237120303
 31
0.0
  0
SPLINE
  5
17B
330
1F
100
AcDbEntity
  8
0
  6
Continuous
 62
     7
370
    25
100
AcDbSpline
210
0.0
220
0.0
230
1.0
 70
     8
 71
     3
 72
    12
 73
     8
 74
     0
 42
0.00000001
 43
0.00000001
 40
0.0
 40
0.0
 40
0.0
 40
0.0
 40
0.2499999999999999
 40
0.2499999999999999
 40
0.5
 40
0.5
 40
1.0
 40
1.0
 40
1.0
 40
1.0
 10
30.29014375
 20
44.80720655716775
 30
0.0
 10
30.29014375000001
 20
45.00221003717353
 30
0.0
 10
30.30589008002196
 20
45.19874469619795
 30
0.0
 10
30.36733510460739
 20
45.58816438380349
 30
0.0
 10
30.41292386386112
 20
45.78164907686376
 30
0.0
 10
30.58937486611772
 20
46.35883267561935
 30
0.0
 10
30.75983256808121
 20
46.73926845740232
 30
0.0
 10
30.96786515526005
 20
47.11660763392626
 30
0.0
  0
LINE
  5
17C
330
1F
100
AcDbEntity
  8
0
  6
Continuous
 62
     7
370
    25
100
AcDbLine
 10
35.1124223447
 20
47.1166076339
 30
0.0
 11
30.9678651553
 21
47.1166076339
 31
0.0
  0
SPLINE
  5
17D
330
1F
100
AcDbEntity
  8
0
  6
Continuous
 62
     7
370
    25
100
AcDbSpline
210
0.0
220
0.0
230
1.0
 70
     8
 71
     3
 72
    10
 73
     6
 74
     0
 42
0.00000001
 43
0.00000001
 40
0.0
 40
0.0
 40
0.0
 40
0.0
 40
0.5
 40
0.5
 40
1.0
 40
1.0
 40
1.0
 40
1.0
 10
35.1124223447398
 20
47.11660763392627
 30
0.0
 10
35.32084309755722
 20
46.73856438452411
 30
0.0
 10
35.49130693283465
 20
46.35779487972825
 30
0.0
 10
35.72628936777304
 20
45.58864635417072
 30
0.0
 10
35.79014375000001
 20
45.20021962599548
 30
0.0
 10
35.79014375000001
 20
44.80720655716775
 30
0.0
  0
LINE
  5
17E
330
1F
100
AcDbEntity
  8
0
  6
Continuous
 62
     7
370
    25
100
AcDbLine
 10
47.79014375
 20
31.445990625
 30
0.0
 11
45.79014375
 21
33.445990625
 31
0.0
  0
LINE
  5
17F
330
1F
100
AcDbEntity
  8
0
  6
Continuous
 62
     7
370
    25
100
AcDbLine
 10
45.79014375
 20
30.445990625
 30
0.0
 11
48.7527648227
 21
30.445990625
 31
0.0
  0
LINE
  5
180
330
1F
100
AcDbEntity
  8
0
  6
Continuous
 62
     7
370
    25
100
AcDbLine
 10
37.79014375
 20
33.445990625
 30
0.0
 11
35.79014375
 21
31.445990625
 31
0.0
  0
LINE
  5
181
330
1F
100
AcDbEntity
  8
0
  6
Continuous
 62
     7
370
    25
100
AcDbLine
 10
34.8275226773
 20
30.445990625
 30
0.0
 11
37.79014375
 21
30.445990625
 31
0.0
  0
LINE
  5
182
330
1F
100
AcDbEntity
  8
0
  6
Continuous
 62
     7
370
    25
100
AcDbLine
 10
35.79014375
 20
45.3804451032
 30
0.0
 11
35.79014375
 21
44.8072065572
 31
0.0
  0
SPLINE
  5
183
330
1F
100
AcDbEntity
  8
0
  6
Continuous
 62
     7
370
    25
100
AcDbSpline
210
0.0
220
0.0
230
1.0
 70
     8
 71
     3
 72
    32
 73
    28
 74
     0
 42
0.00000001
 43
0.00000001
 40
0.0
 40
0.0
 40
0.0
 40
0.0
 40
0.0625000000000001
 40
0.0625000000000001
 40
0.1250000000000001
 40
0.1250000000000001
 40
0.1875000000000002
 40
0.1875000000000002
 40
0.2500000000000003
 40
0.2500000000000003
 40
0.3750000000000003
 40
0.3750000000000003
 40
0.4375000000000003
 40
0.4375000000000003
 40
0.5000000000000002
 40
0.5000000000000002
 40
0.5625000000000002
 40
0.5625000000000002
 40
0.6250000000000001
 40
0.6250000000000001
 40
0.7500000000000001
 40
0.7500000000000001
 40
0.8750000000000002
 40
0.8750000000000002
 40
0.9375000000000001
 40
0.9375000000000001
 40
1.0
 40
1.0
 40
1.0
 40
1.0
 10
47.79014374999153
 20
45.38044510322066
 30
0.0
 10
47.63328741407464
 20
45.28548812532497
 30
0.0
 10
47.46028897991901
 20
45.18273495069978
 30
0.0
 10
47.0835843932932
 20
44.96602374905152
 30
0.0
 10
46.88073161283651
 20
44.85260503856151
 30
0.0
 10
46.45475035003391
 20
44.62451490186334
 30
0.0
 10
46.23057238974589
 20
44.50920801941148
 30
0.0
 10
45.7592212961695
 20
44.28088491703671
 30
0.0
 10
45.51053578080441
 20
44.16723490090295
 30
0.0
 10
44.73996329611277
 20
43.84417086966891
 30
0.0
 10
44.1943258860306
 20
43.65127234550541
 30
0.0
 10
43.31154613753426
 20
43.43967842023171
 30
0.0
 10
43.01290703766141
 20
43.38403603411397
 30
0.0
 10
42.40640543694565
 20
43.30836796475013
 30
0.0
 10
42.09625819827972
 20
43.28839471897381
 30
0.0
 10
41.47617270959595
 20
43.28872848522706
 30
0.0
 10
41.16960167212791
 20
43.30872745054984
 30
0.0
 10
40.56294692481973
 20
43.38476623674632
 30
0.0
 10
40.26057386019442
 20
43.44141933687786
 30
0.0
 10
39.38393755744146
 20
43.6521978869237
 30
0.0
 10
38.83588342546454
 20
43.84574371749546
 30
0.0
 10
37.80538615822127
 20
44.27836301077125
 30
0.0
 10
37.3378261229418
 20
44.51083965546168
 30
0.0
 10
36.69961251931387
 20
44.85257765638072
 30
0.0
 10
36.49640278112404
 20
44.96619517180912
 30
0.0
 10
36.1200658547296
 20
45.18269756416534
 30
0.0
 10
35.94708724623811
 20
45.28543536060974
 30
0.0
 10
35.79014375000001
 20
45.38044510322582
 30
0.0
  0
LINE
  5
184
330
1F
100
AcDbEntity
  8
0
  6
Continuous
 62
     7
370
    25
100
AcDbLine
 10
47.79014375
 20
45.3804451032
 30
0.0
 11
47.79014375
 21
44.8072065572
 31
0.0
  0
SPLINE
  5
185
330
1F
100
AcDbEntity
  8
0
  6
Continuous
 62
     7
370
    25
100
AcDbSpline
210
0.0
220
0.0
230
1.0
 70
     8
 71
     3
 72
    11
 73
     7
 74
     0
 42
0.00000001
 43
0.00000001
 40
0.0
 40
0.0
 40
0.0
 40
0.0
 40
0.0860363962994498
 40
0.3126240132839471
 40
0.544481681962628
 40
1.0
 40
1.0
 40
1.0
 40
1.0
 10
47.96349093746703
 20
46.23889221870113
 30
0.0
 10
47.96467975448713
 20
46.24290584423949
 30
0.0
 10
47.9689994699084
 20
46.25748985493249
 30
0.0
 10
47.93781996158866
 20
46.15093363083021
 30
0.0
 10
47.8553923526808
 20
45.87038569897125
 30
0.0
 10
47.81614959640577
 20
45.5757185551794
 30
0.0
 10
47.79014375
 20
45.38044510321869
 30
0.0
  0
SPLINE
  5
186
330
1F
100
AcDbEntity
  8
0
  6
Continuous
 62
     7
370
    25
100
AcDbSpline
210
0.0
220
0.0
230
1.0
 70
     8
 71
     3
 72
    11
 73
     7
 74
     0
 42
0.00000001
 43
0.00000001
 40
0.0
 40
0.0
 40
0.0
 40
0.0
 40
0.3176334334643865
 40
0.6359539941840588
 40
0.865681407127504
 40
1.0
 40
1.0
 40
1.0
 40
1.0
 10
35.79014375000001
 20
45.38044510322572
 30
0.0
 10
35.77650500286678
 20
45.5117097002454
 30
0.0
 10
35.74919800429161
 20
45.77452285520565
 30
0.0
 10
35.66119321831515
 20
46.08616783946015
 30
0.0
 10
35.61663259895587
 20
46.23991517935342
 30
0.0
 10
35.61698145899692
 20
46.23840131202147
 30
0.0
 10
35.61711017456879
 20
46.23784275478812
 30
0.0
  0
LINE
  5
187
330
1F
100
AcDbEntity
  8
0
  6
Continuous
 62
     7
370
    25
100
AcDbLine
 10
37.0078641231
 20
15.3009386844
 30
0.0
 11
46.5724233769
 21
15.3009386844
 31
0.0
  0
LINE
  5
188
330
1F
100
AcDbEntity
  8
0
  6
Continuous
 62
     7
370
    25
100
AcDbLine
 10
45.79014375
 20
13.945990625
 30
0.0
 11
37.79014375
 21
13.945990625
 31
0.0
  0
SPLINE
  5
189
330
1F
100
AcDbEntity
  8
0
  6
Continuous
 62
     7
370
    25
100
AcDbSpline
210
0.0
220
0.0
230
1.0
 70
     8
 71
     3
 72
    10
 73
     6
 74
     0
 42
0.00000001
 43
0.00000001
 40
0.0
 40
0.0
 40
0.0
 40
0.0
 40
0.1601790552921523
 40
0.7197651707804853
 40
1.0
 40
1.0
 40
1.0
 40
1.0
 10
35.0781929116229
 20
47.17888591267599
 30
0.0
 10
35.07743012152965
 20
47.18027814070236
 30
0.0
 10
35.07400252145592
 20
47.18653412243069
 30
0.0
 10
35.0885099862542
 20
47.16002685770277
 30
0.0
 10
35.10643953937203
 20
47.12747100255763
 30
0.0
 10
35.1124223447398
 20
47.11660763392627
 30
0.0
  0
SPLINE
  5
18A
330
1F
100
AcDbEntity
  8
0
  6
Continuous
 62
     7
370
    25
100
AcDbSpline
210
0.0
220
0.0
230
1.0
 70
     8
 71
     3
 72
    10
 73
     6
 74
     0
 42
0.00000001
 43
0.00000001
 40
0.0
 40
0.0
 40
0.0
 40
0.0
 40
0.1593935212994637
 40
0.7189934545690476
 40
1.0
 40
1.0
 40
1.0
 40
1.0
 10
52.57818535516236
 20
27.71308153660732
 30
0.0
 10
52.57742382816491
 20
27.7116916177807
 30
0.0
 10
52.57398872664898
 20
27.70542196183378
 30
0.0
 10
52.58848334911549
 20
27.73190590365756
 30
0.0
 10
52.60642471960819
 20
27.76448330770443
 30
0.0
 10
52.61242234473981
 20
27.77537361607378
 30
0.0
  0
LINE
  5
18B
330
1F
100
AcDbEntity
  8
0
  6
Continuous
 62
     7
370
    25
100
AcDbLine
 10
53.29014375
 20
30.0847746928
 30
0.0
 11
53.29014375
 21
28.945990625
 31
0.0
  0
SPLINE
  5
18C
330
1F
100
AcDbEntity
  8
0
  6
Continuous
 62
     7
370
    25
100
AcDbSpline
210
0.0
220
0.0
230
1.0
 70
     8
 71
     3
 72
     9
 73
     5
 74
     0
 42
0.00000001
 43
0.00000001
 40
0.0
 40
0.0
 40
0.0
 40
0.0
 40
0.5789479223911503
 40
1.0
 40
1.0
 40
1.0
 40
1.0
 10
51.46076075892623
 20
26.1237120302602
 30
0.0
 10
51.48320212611888
 20
26.13605292057462
 30
0.0
 10
51.52196445054343
 20
26.15736898344852
 30
0.0
 10
51.52273035340252
 20
26.15777715736291
 30
0.0
 10
51.52305283839258
 20
26.15794901983758
 30
0.0
  0
LINE
  5
18D
330
1F
100
AcDbEntity
  8
0
  6
Continuous
 62
     7
370
    25
100
AcDbLine
 10
50.29014375
 20
25.445990625
 30
0.0
 11
49.1513596822
 21
25.445990625
 31
0.0
  0
SPLINE
  5
18E
330
1F
100
AcDbEntity
  8
0
  6
Continuous
 62
     7
370
    25
100
AcDbSpline
210
0.0
220
0.0
230
1.0
 70
     8
 71
     3
 72
    10
 73
     6
 74
     0
 42
0.00000001
 43
0.00000001
 40
0.0
 40
0.0
 40
0.0
 40
0.0
 40
0.1593935213061661
 40
0.7189934545756297
 40
1.0
 40
1.0
 40
1.0
 40
1.0
 10
32.05723466160742
 20
26.15794901983759
 30
0.0
 10
32.05584474278078
 20
26.15871054683505
 30
0.0
 10
32.04957508683398
 20
26.16214564835091
 30
0.0
 10
32.07605902865797
 20
26.14765102588431
 30
0.0
 10
32.10863643270465
 20
26.12970965539169
 30
0.0
 10
32.11952674107377
 20
26.1237120302602
 30
0.0
  0
LINE
  5
18F
330
1F
100
AcDbEntity
  8
0
  6
Continuous
 62
     7
370
    25
100
AcDbLine
 10
34.4289278178
 20
25.445990625
 30
0.0
 11
33.29014375
 21
25.445990625
 31
0.0
  0
SPLINE
  5
190
330
1F
100
AcDbEntity
  8
0
  6
Continuous
 62
     7
370
    25
100
AcDbSpline
210
0.0
220
0.0
230
1.0
 70
     8
 71
     3
 72
    10
 73
     6
 74
     0
 42
0.00000001
 43
0.00000001
 40
0.0
 40
0.0
 40
0.0
 40
0.0
 40
0.1593935212994522
 40
0.7189934545690309
 40
1.0
 40
1.0
 40
1.0
 40
1.0
 10
31.00210214483765
 20
47.17889971339271
 30
0.0
 10
31.00286367183509
 20
47.18028963221932
 30
0.0
 10
31.00629877335102
 20
47.18655928816626
 30
0.0
 10
30.99180415088453
 20
47.16007534634247
 30
0.0
 10
30.97386278039181
 20
47.12749794229559
 30
0.0
 10
30.96786515526019
 20
47.11660763392625
 30
0.0
  0
LINE
  5
191
330
1F
100
AcDbEntity
  8
0
  6
Continuous
 62
     7
370
    25
100
AcDbLine
 10
30.29014375
 20
45.945990625
 30
0.0
 11
30.29014375
 21
44.8072065572
 31
0.0
  0
SPLINE
  5
192
330
1F
100
AcDbEntity
  8
0
  6
Continuous
 62
     7
370
    25
100
AcDbSpline
210
0.0
220
0.0
230
1.0
 70
     8
 71
     3
 72
     9
 73
     5
 74
     0
 42
0.00000001
 43
0.00000001
 40
0.0
 40
0.0
 40
0.0
 40
0.0
 40
0.5797912171256431
 40
1.0
 40
1.0
 40
1.0
 40
1.0
 10
48.46786515526019
 20
47.11660763392625
 30
0.0
 10
48.48022375860667
 20
47.13908128216738
 30
0.0
 10
48.50153936840106
 20
47.1778429045882
 30
0.0
 10
48.50193031090384
 20
47.17857730934641
 30
0.0
 10
48.5020945883771
 20
47.17888591267599
 30
0.0
  0
SPLINE
  5
193
330
1F
100
AcDbEntity
  8
0
  6
Continuous
 62
     7
370
    25
100
AcDbSpline
210
0.0
220
0.0
230
1.0
 70
     8
 71
     3
 72
     9
 73
     5
 74
     0
 42
0.00000001
 43
0.00000001
 40
0.0
 40
0.0
 40
0.0
 40
0.0
 40
0.5789479223839434
 40
1.0
 40
1.0
 40
1.0
 40
1.0
 10
52.61242234473981
 20
47.11660763392625
 30
0.0
 10
52.60008145442555
 20
47.13904900111861
 30
0.0
 10
52.57876539155163
 20
47.17781132554317
 30
0.0
 10
52.57835721763711
 20
47.17857722840253
 30
0.0
 10
52.57818535516235
 20
47.17889971339272
 30
0.0
  0
LINE
  5
194
330
1F
100
AcDbEntity
  8
0
  6
Continuous
 62
     7
370
    25
100
AcDbLine
 10
53.29014375
 20
45.945990625
 30
0.0
 11
53.29014375
 21
44.8072065572
 31
0.0
  0
SPLINE
  5
195
330
1F
100
AcDbEntity
  8
0
  6
Continuous
 62
     7
370
    25
100
AcDbSpline
210
0.0
220
0.0
230
1.0
 70
     8
 71
     3
 72
     9
 73
     5
 74
     0
 42
0.00000001
 43
0.00000001
 40
0.0
 40
0.0
 40
0.0
 40
0.0
 40
0.5789479223839474
 40
0.9999999999999999
 40
0.9999999999999999
 40
0.9999999999999999
 40
0.9999999999999999
 10
30.96786515526019
 20
27.77537361607378
 30
0.0
 10
30.98020604557445
 20
27.75293224888141
 30
0.0
 10
31.00152210844837
 20
27.71416992445685
 30
0.0
 10
31.0019302823629
 20
27.71340402159749
 30
0.0
 10
31.00210214483764
 20
27.71308153660731
 30
0.0
  0
LINE
  5
196
330
1F
100
AcDbEntity
  8
0
  6
Continuous
 62
     7
370
    25
100
AcDbLine
 10
30.29014375
 20
30.0847746928
 30
0.0
 11
30.29014375
 21
28.945990625
 31
0.0
  0
LINE
  5
197
330
1F
100
AcDbEntity
  8
0
  6
Continuous
 62
     7
370
    25
100
AcDbLine
 10
51.527748057
 20
27.708386318
 30
0.0
 11
51.4607607589
 21
27.7753736161
 31
0.0
  0
LINE
  5
198
330
1F
100
AcDbEntity
  8
0
  6
Continuous
 62
     7
370
    25
100
AcDbLine
 10
32.1195267411
 20
27.7753736161
 30
0.0
 11
32.052539443
 21
27.708386318
 31
0.0
  0
LINE
  5
199
330
1F
100
AcDbEntity
  8
0
  6
Continuous
 62
     7
370
    25
100
AcDbLine
 10
34.2569740018
 20
48.4103671
 30
0.0
 11
49.3233134982
 21
48.4103671
 31
0.0
  0
LINE
  5
19A
330
1F
100
AcDbEntity
  8
0
  6
Continuous
 62
     7
370
    25
100
AcDbLine
 10
41.79014375
 20
66.0499464704
 30
0.0
 11
36.2059619662
 21
66.0499464704
 31
0.0
  0
LINE
  5
19B
330
1F
100
AcDbEntity
  8
0
  6
Continuous
 62
     7
370
    25
100
AcDbLine
 10
47.3743255338
 20
66.0499464704
 30
0.0
 11
41.79014375
 21
66.0499464704
 31
0.0
  0
LINE
  5
19C
330
1F
100
AcDbEntity
  8
0
  6
Continuous
 62
     7
370
    25
100
AcDbLine
 10
41.7272608852
 20
67.0339329604
 30
0.0
 11
41.7272608852
 21
67.0458835223
 31
0.0
  0
LINE
  5
19D
330
1F
100
AcDbEntity
  8
0
  6
Continuous
 62
     7
370
    25
100
AcDbLine
 10
41.8530266148
 20
67.0339329604
 30
0.0
 11
41.8530266148
 21
67.0458835223
 31
0.0
  0
SPLINE
  5
19E
330
1F
100
AcDbEntity
  8
0
  6
Continuous
 62
     7
370
    25
100
AcDbSpline
210
0.0
220
0.0
230
1.0
 70
     8
 71
     3
 72
    30
 73
    26
 74
     0
 42
0.00000001
 43
0.00000001
 40
0.0
 40
0.0
 40
0.0
 40
0.0
 40
0.0110312611463839
 40
0.0532775730455075
 40
0.0955510235322454
 40
0.152205222624681
 40
0.2089590923917704
 40
0.2161885856087742
 40
0.2769245774787351
 40
0.3376597955912063
 40
0.3847632176564708
 40
0.4317718836707694
 40
0.4687705912652385
 40
0.5057305592703981
 40
0.5426484487637145
 40
0.5796154154993456
 40
0.6291504402297967
 40
0.6787772165150256
 40
0.7318127621626789
 40
0.7848396244223508
 40
0.8294784755959668
 40
0.8740825267148125
 40
0.9165628171241523
 40
0.9590080991148481
 40
1.0
 40
1.0
 40
1.0
 40
1.0
 10
35.89014375
 20
46.94599062500001
 30
0.0
 10
35.89096779734624
 20
46.9452927931023
 30
0.0
 10
35.89494769067845
 20
46.94192248127571
 30
0.0
 10
35.96572939960766
 20
46.88157283767038
 30
0.0
 10
36.18701812970693
 20
46.69604274201245
 30
0.0
 10
36.57758114510343
 20
46.37549679707082
 30
0.0
 10
36.98082323118965
 20
46.06181989353048
 30
0.0
 10
37.44763747027853
 20
45.71543060564056
 30
0.0
 10
37.98326530435658
 20
45.33500565863714
 30
0.0
 10
38.79901568235906
 20
44.83698210837646
 30
0.0
 10
39.64057548812356
 20
44.42486423530266
 30
0.0
 10
40.42398240675021
 20
44.14786511908757
 30
0.0
 10
41.19696728385505
 20
43.99644796662573
 30
0.0
 10
41.92755758813024
 20
43.95829849608995
 30
0.0
 10
42.65228005058821
 20
44.03763039253033
 30
0.0
 10
43.42564964029625
 20
44.23013357578166
 30
0.0
 10
44.21604460904585
 20
44.54729316870069
 30
0.0
 10
45.01284856572431
 20
44.97257120732845
 30
0.0
 10
45.74021801663346
 20
45.43503390107291
 30
0.0
 10
46.35441545490761
 20
45.87544017158647
 30
0.0
 10
46.84790028862648
 20
46.25392186415669
 30
0.0
 10
47.2228747011375
 20
46.55561332026783
 30
0.0
 10
47.49339843932356
 20
46.77948610699187
 30
0.0
 10
47.66457446723776
 20
46.92427514348405
 30
0.0
 10
47.67998616452719
 20
46.93729087722504
 30
0.0
 10
47.68755778602715
 20
46.94368538443475
 30
0.0
  0
LINE
  5
19F
330
1F
100
AcDbEntity
  8
0
  6
Continuous
 62
     7
370
    18
100
AcDbLine
 10
37.16339375
 20
24.945990625
 30
0.0
 11
37.4909493797
 21
14.4642104758
 31
0.0
  0
LINE
  5
1A0
330
1F
100
AcDbEntity
  8
0
  6
Continuous
 62
     7
370
    18
100
AcDbLine
 10
46.0893381203
 20
14.4642104758
 30
0.0
 11
46.41689375
 21
24.945990625
 31
0.0
  0
LINE
  5
1A1
330
1F
100
AcDbEntity
  8
0
  6
Continuous
 62
     7
370
    18
100
AcDbLine
 10
56.74014375
 20
31.723490625
 30
0.0
 11
60.228670079
 21
31.723490625
 31
0.0
  0
LINE
  5
1A2
330
1F
100
AcDbEntity
  8
0
  6
Continuous
 62
     7
370
    18
100
AcDbLine
 10
60.228670079
 20
43.168490625
 30
0.0
 11
56.74014375
 21
43.168490625
 31
0.0
  0
LINE
  5
1A3
330
1F
100
AcDbEntity
  8
0
  6
Continuous
 62
     7
370
    25
100
AcDbLine
 10
56.74014375
 20
30.867490625
 30
0.0
 11
56.74014375
 21
30.8701733845
 31
0.0
  0
SPLINE
  5
1A4
330
1F
100
AcDbEntity
  8
0
  6
Continuous
 62
     7
370
     0
100
AcDbSpline
210
0.0
220
0.0
230
1.0
 70
     8
 71
     3
 72
    35
 73
    31
 74
     0
 42
0.00000001
 43
0.00000001
 40
0.0
 40
0.0
 40
0.0
 40
0.0
 40
0.0366970760128111
 40
0.0733941520231061
 40
0.1100912280334013
 40
0.1467883040436963
 40
0.1834853800539914
 40
0.2201824560642865
 40
0.2568795320745815
 40
0.2935766080848766
 40
0.3302736840951717
 40
0.3669707601054667
 40
0.4036678361157617
 40
0.4403649121260569
 40
0.4770619881363519
 40
0.513759064146647
 40
0.550456140156942
 40
0.5871532161672373
 40
0.6238502921775322
 40
0.6605473681878273
 40
0.6972444441981225
 40
0.7339415202084176
 40
0.7706385962187127
 40
0.8073356722290077
 40
0.844032748239303
 40
0.8807298242495979
 40
0.9174269002598929
 40
0.9541239762701882
 40
0.9908210522804832
 40
1.0
 40
1.0
 40
1.0
 40
1.0
 10
56.74013495445251
 20
30.87017338447976
 30
0.0
 10
56.74014375000001
 20
30.93445026958629
 30
0.0
 10
56.74014375000001
 20
31.08361504134319
 30
0.0
 10
56.74014375000001
 20
31.31572310883248
 30
0.0
 10
56.74014375000001
 20
31.6277485884309
 30
0.0
 10
56.74014375000001
 20
32.01562375083042
 30
0.0
 10
56.74014375000001
 20
32.47429205011054
 30
0.0
 10
56.74014375000001
 20
32.99777404354739
 30
0.0
 10
56.74014375000001
 20
33.579245342794
 30
0.0
 10
56.74014375000001
 20
34.21112558021894
 30
0.0
 10
56.74014375000001
 20
34.88517723059108
 30
0.0
 10
56.74014375000001
 20
35.59261299981871
 30
0.0
 10
56.74014375000001
 20
36.32421038076634
 30
0.0
 10
56.74014375000001
 20
37.07043188273934
 30
0.0
 10
56.74014375000001
 20
37.82154936726077
 30
0.0
 10
56.74014375000001
 20
38.56777086923377
 30
0.0
 10
56.74014375000001
 20
39.2993682501814
 30
0.0
 10
56.74014375000001
 20
40.00680401940902
 30
0.0
 10
56.74014375000001
 20
40.68085566978116
 30
0.0
 10
56.74014375000001
 20
41.31273590720609
 30
0.0
 10
56.74014375000001
 20
41.89420720645269
 30
0.0
 10
56.74014375000001
 20
42.41768919988954
 30
0.0
 10
56.74014375000001
 20
42.87635749916966
 30
0.0
 10
56.74014375000001
 20
43.26423266156917
 30
0.0
 10
56.74014375000001
 20
43.57625814116758
 30
0.0
 10
56.74014375000001
 20
43.80836620865686
 30
0.0
 10
56.74014375000001
 20
43.95753098041374
 30
0.0
 10
56.74014375000001
 20
44.02180786552027
 30
0.0
 10
56.74014375000001
 20
44.02449062500001
 30
0.0
 10
56.74014375000001
 20
44.02392835374125
 30
0.0
 10
56.74014375000001
 20
44.02449062500001
 30
0.0
  0
LINE
  5
1A5
330
1F
100
AcDbEntity
  8
0
  6
Continuous
 62
     7
370
    18
100
AcDbLine
 10
26.84014375
 20
43.168490625
 30
0.0
 11
23.351617421
 21
43.168490625
 31
0.0
  0
LINE
  5
1A6
330
1F
100
AcDbEntity
  8
0
  6
Continuous
 62
     7
370
    18
100
AcDbLine
 10
23.351617421
 20
31.723490625
 30
0.0
 11
26.84014375
 21
31.723490625
 31
0.0
  0
LINE
  5
1A7
330
1F
100
AcDbEntity
  8
0
  6
Continuous
 62
     7
370
    25
100
AcDbLine
 10
26.84014375
 20
44.024490625
 30
0.0
 11
26.84014375
 21
44.0218078655
 31
0.0
  0
SPLINE
  5
1A8
330
1F
100
AcDbEntity
  8
0
  6
Continuous
 62
     7
370
     0
100
AcDbSpline
210
0.0
220
0.0
230
1.0
 70
     8
 71
     3
 72
    35
 73
    31
 74
     0
 42
0.00000001
 43
0.00000001
 40
0.0
 40
0.0
 40
0.0
 40
0.0
 40
0.036697076012543
 40
0.0733941520228483
 40
0.1100912280331535
 40
0.1467883040434588
 40
0.1834853800537641
 40
0.2201824560640695
 40
0.2568795320743748
 40
0.29357660808468
 40
0.3302736840949854
 40
0.3669707601052905
 40
0.4036678361155958
 40
0.4403649121259012
 40
0.4770619881362063
 40
0.5137590641465115
 40
0.5504561401568171
 40
0.5871532161671222
 40
0.6238502921774276
 40
0.6605473681877327
 40
0.6972444441980381
 40
0.7339415202083434
 40
0.7706385962186487
 40
0.8073356722289541
 40
0.8440327482392593
 40
0.8807298242495647
 40
0.91742690025987
 40
0.9541239762701752
 40
0.9908210522804806
 40
1.0
 40
1.0
 40
1.0
 40
1.0
 10
26.84013545513153
 20
44.02180786552026
 30
0.0
 10
26.84014375
 20
43.95753098041372
 30
0.0
 10
26.84014375
 20
43.80836620865683
 30
0.0
 10
26.84014375
 20
43.57625814116754
 30
0.0
 10
26.84014375
 20
43.26423266156912
 30
0.0
 10
26.84014375
 20
42.87635749916961
 30
0.0
 10
26.84014375
 20
42.41768919988947
 30
0.0
 10
26.84014375
 20
41.89420720645262
 30
0.0
 10
26.84014375
 20
41.31273590720601
 30
0.0
 10
26.84014375
 20
40.68085566978108
 30
0.0
 10
26.84014375
 20
40.00680401940893
 30
0.0
 10
26.84014375
 20
39.29936825018132
 30
0.0
 10
26.84014375
 20
38.56777086923368
 30
0.0
 10
26.84014375
 20
37.82154936726068
 30
0.0
 10
26.84014375
 20
37.07043188273924
 30
0.0
 10
26.84014375
 20
36.32421038076624
 30
0.0
 10
26.84014375
 20
35.59261299981861
 30
0.0
 10
26.84014375
 20
34.885177230591
 30
0.0
 10
26.84014375
 20
34.21112558021886
 30
0.0
 10
26.84014375
 20
33.57924534279393
 30
0.0
 10
26.84014375
 20
32.99777404354732
 30
0.0
 10
26.84014375
 20
32.47429205011047
 30
0.0
 10
26.84014375
 20
32.01562375083036
 30
0.0
 10
26.84014375
 20
31.62774858843085
 30
0.0
 10
26.84014375
 20
31.31572310883243
 30
0.0
 10
26.84014375
 20
31.08361504134316
 30
0.0
 10
26.84014375
 20
30.93445026958627
 30
0.0
 10
26.84014375
 20
30.87017338447975
 30
0.0
 10
26.84014375
 20
30.86749062500001
 30
0.0
 10
26.84014375000001
 20
30.86805289625876
 30
0.0
 10
26.84014375
 20
30.86749062500001
 30
0.0
  0
LINE
  5
1A9
330
1F
100
AcDbEntity
  8
0
  6
CENTERX2
 62
     7
370
    18
100
AcDbLine
 10
6.8340815103
 20
37.445990625
 30
0.0
 11
75.6228099851
 21
37.445990625
 31
0.0
  0
LINE
  5
1AA
330
1F
100
AcDbEntity
  8
0
  6
CENTERX2
 62
     7
370
    18
100
AcDbLine
 10
41.79014375
 20
11.8650675219
 30
0.0
 11
41.79014375
 21
70.2642000165
 31
0.0
  0
LINE
  5
1AB
330
1F
100
AcDbEntity
  8
0
  6
Continuous
 62
     7
370
    25
100
AcDbLine
 10
104.4134466727
 20
54.945990625
 30
0.0
 11
104.4158283273
 21
54.945990625
 31
0.0
  0
LINE
  5
1AC
330
1F
100
AcDbEntity
  8
0
  6
Continuous
 62
     7
370
    25
100
AcDbLine
 10
106.7710021444
 20
67.945990625
 30
0.0
 11
102.0582728556
 21
67.945990625
 31
0.0
  0
ARC
  5
1AD
330
1F
100
AcDbEntity
  8
0
  6
Continuous
 62
     7
370
    25
100
AcDbCircle
 10
78.4988424535
 20
63.8355512358
 30
0.0
 40
20.0
100
AcDbArc
 50
333.6100518522
 51
1.749051671
  0
ARC
  5
1AE
330
1F
100
AcDbEntity
  8
0
  6
Continuous
 62
     7
370
    25
100
AcDbCircle
 10
130.3304325465
 20
63.8355512358
 30
0.0
 40
19.99999999999999
100
AcDbArc
 50
178.250948329
 51
206.3899481478
  0
LINE
  5
1AF
330
1F
100
AcDbEntity
  8
0
  6
Continuous
 62
     7
370
    25
100
AcDbLine
 10
96.4146375118
 20
54.9459904599
 30
0.0
 11
96.8814677518
 21
48.4103671
 31
0.0
  0
LINE
  5
1B0
330
1F
100
AcDbEntity
  8
0
  6
Continuous
 62
     7
370
    25
100
AcDbLine
 10
111.9478072482
 20
48.4103671
 30
0.0
 11
112.4146374882
 21
54.9459904599
 31
0.0
  0
ARC
  5
1B1
330
1F
100
AcDbEntity
  8
0
  6
Continuous
 62
     7
370
    25
100
AcDbCircle
 10
111.4490778983
 20
48.445990625
 30
0.0
 40
0.5
100
AcDbArc
 50
270.0
 51
355.91438322
  0
ARC
  5
1B2
330
1F
100
AcDbEntity
  8
0
  6
Continuous
 62
     7
370
    25
100
AcDbCircle
 10
97.3801971017
 20
48.445990625
 30
0.0
 40
0.5
100
AcDbArc
 50
184.08561678
 51
270.0
  0
LINE
  5
1B3
330
1F
100
AcDbEntity
  8
0
  6
Continuous
 62
     7
370
    25
100
AcDbLine
 10
110.3397506233
 20
64.445990625
 30
0.0
 11
109.9988192838
 21
66.0499464704
 31
0.0
  0
LINE
  5
1B4
330
1F
100
AcDbEntity
  8
0
  6
Continuous
 62
     7
370
    25
100
AcDbLine
 10
98.8304557162
 20
66.0499464704
 30
0.0
 11
98.4895243767
 21
64.445990625
 31
0.0
  0
ARC
  5
1B5
330
1F
100
AcDbEntity
  8
0
  6
Continuous
 62
     7
370
    25
100
AcDbCircle
 10
99.3195295166
 20
65.945990625
 30
0.0
 40
0.5
100
AcDbArc
 50
90.0
 51
168.0
  0
ARC
  5
1B6
330
1F
100
AcDbEntity
  8
0
  6
Continuous
 62
     7
370
    25
100
AcDbCircle
 10
109.5097454834
 20
65.945990625
 30
0.0
 40
0.5000000000000062
100
AcDbArc
 50
12.0
 51
90.0
  0
ARC
  5
1B7
330
1F
100
AcDbEntity
  8
0
  6
Continuous
 62
     7
370
    25
100
AcDbCircle
 10
104.4146375
 20
46.445990625
 30
0.0
 40
20.50000000000001
100
AcDbArc
 50
99.3449833975
 51
102.6803834918
  0
ARC
  5
1B8
330
1F
100
AcDbEntity
  8
0
  6
Continuous
 62
     7
370
    25
100
AcDbCircle
 10
104.4146375
 20
46.445990625
 30
0.0
 40
20.50000000000001
100
AcDbArc
 50
77.3196165082
 51
80.6550166025
  0
LINE
  5
1B9
330
1F
100
AcDbEntity
  8
0
  6
Continuous
 62
     7
370
    25
100
AcDbLine
 10
110.3146375
 20
43.9845192889
 30
0.0
 11
110.3146375
 21
47.945990625
 31
0.0
  0
LINE
  5
1BA
330
1F
100
AcDbEntity
  8
0
  6
Continuous
 62
     7
370
    25
100
AcDbLine
 10
98.5146375
 20
47.945990625
 30
0.0
 11
98.5146375
 21
43.9792168782
 31
0.0
  0
LINE
  5
1BB
330
1F
100
AcDbEntity
  8
0
  6
Continuous
 62
     7
370
    25
100
AcDbLine
 10
99.315325
 20
25.445990625
 30
0.0
 11
99.6323578731
 21
15.3009386844
 31
0.0
  0
LINE
  5
1BC
330
1F
100
AcDbEntity
  8
0
  6
Continuous
 62
     7
370
    25
100
AcDbLine
 10
109.1969171269
 20
15.3009386844
 30
0.0
 11
109.51395
 21
25.445990625
 31
0.0
  0
LINE
  5
1BD
330
1F
100
AcDbEntity
  8
0
  6
Continuous
 62
     7
370
    25
100
AcDbLine
 10
99.6323578731
 20
15.3009386844
 30
0.0
 11
100.4146375
 21
13.945990625
 31
0.0
  0
LINE
  5
1BE
330
1F
100
AcDbEntity
  8
0
  6
Continuous
 62
     7
370
    25
100
AcDbLine
 10
108.4146375
 20
13.945990625
 30
0.0
 11
109.1969171269
 21
15.3009386844
 31
0.0
  0
CIRCLE
  5
1BF
330
1F
100
AcDbEntity
  8
0
  6
Continuous
 62
     7
370
    25
100
AcDbCircle
 10
104.4146375
 20
37.445990625
 30
0.0
 40
3.049999999999999
  0
CIRCLE
  5
1C0
330
1F
100
AcDbEntity
  8
0
  6
Continuous
 62
     7
370
    25
100
AcDbCircle
 10
104.4146375
 20
37.445990625
 30
0.0
 40
8.250000000000014
  0
CIRCLE
  5
1C1
330
1F
100
AcDbEntity
  8
0
  6
Continuous
 62
     7
370
    25
100
AcDbCircle
 10
104.4146375
 20
37.445990625
 30
0.0
 40
3.174999999999997
  0
SPLINE
  5
1C2
330
1F
100
AcDbEntity
  8
0
  6
Continuous
 62
     7
370
    25
100
AcDbSpline
210
0.0
220
0.0
230
1.0
 70
    24
 71
     3
 72
    14
 73
    10
 74
     0
 42
0.00000001
 43
0.00000001
 40
0.0
 40
0.0
 40
0.0
 40
0.0
 40
0.1120237311809919
 40
0.2377726069116394
 40
0.363488949183057
 40
0.4922970128128267
 40
0.6211033992438478
 40
0.809515368839787
 40
1.0
 40
1.0
 40
1.0
 40
1.0
 10
112.9146375000001
 20
32.53851333688826
 30
0.0
 10
112.9146375000001
 20
32.89726391622514
 30
0.0
 10
112.9146375000001
 20
33.65871918628902
 30
0.0
 10
112.9146375
 20
34.84278040215231
 30
0.0
 10
112.9146375
 20
36.09554279847041
 30
0.0
 10
112.9146375
 20
37.36877314422364
 30
0.0
 10
112.9146375
 20
38.85023091070484
 30
0.0
 10
112.9146375
 20
40.52498817907956
 30
0.0
 10
112.9146375
 20
41.74175599112108
 30
0.0
 10
112.9146375
 20
42.35346791311194
 30
0.0
  0
SPLINE
  5
1C3
330
1F
100
AcDbEntity
  8
0
  6
Continuous
 62
     7
370
    25
100
AcDbSpline
210
0.0
220
0.0
230
1.0
 70
    24
 71
     3
 72
    13
 73
     9
 74
     0
 42
0.00000001
 43
0.00000001
 40
0.0
 40
0.0
 40
0.0
 40
0.0
 40
0.1323374700420661
 40
0.2646375235775792
 40
0.3998971812287823
 40
0.535132430788464
 40
0.7654363136792479
 40
1.0
 40
1.0
 40
1.0
 40
1.0
 10
104.4146375000001
 20
27.63103604877636
 30
0.0
 10
104.7818735532446
 20
27.84305988297321
 30
0.0
 10
105.5162418290483
 20
28.26704760469286
 30
0.0
 10
106.6470633165211
 20
28.91992769489068
 30
0.0
 10
107.7993664577172
 20
29.5852102236483
 30
0.0
 10
109.2405148908086
 20
30.41725765943584
 30
0.0
 10
110.9664617111189
 20
31.41373352074899
 30
0.0
 10
112.2612905255457
 20
32.16130328531283
 30
0.0
 10
112.9146375000001
 20
32.53851333688826
 30
0.0
  0
SPLINE
  5
1C4
330
1F
100
AcDbEntity
  8
0
  6
Continuous
 62
     7
370
    25
100
AcDbSpline
210
0.0
220
0.0
230
1.0
 70
    24
 71
     3
 72
    13
 73
     9
 74
     0
 42
0.00000001
 43
0.00000001
 40
0.0
 40
0.0
 40
0.0
 40
0.0
 40
0.1323374700420661
 40
0.2646375235775792
 40
0.3998971812287823
 40
0.5351324307884638
 40
0.7654363136792478
 40
1.0
 40
1.0
 40
1.0
 40
1.0
 10
95.91463750000003
 20
32.53851333688814
 30
0.0
 10
96.28187355324452
 20
32.3264895026913
 30
0.0
 10
97.01624182904831
 20
31.90250178097168
 30
0.0
 10
98.14706331652108
 20
31.24962169077387
 30
0.0
 10
99.29936645771716
 20
30.58433916201626
 30
0.0
 10
100.7405148908086
 20
29.75229172622874
 30
0.0
 10
102.4664617111189
 20
28.75581586491561
 30
0.0
 10
103.7612905255457
 20
28.00824610035179
 30
0.0
 10
104.4146375000001
 20
27.63103604877636
 30
0.0
  0
SPLINE
  5
1C5
330
1F
100
AcDbEntity
  8
0
  6
Continuous
 62
     7
370
    25
100
AcDbSpline
210
0.0
220
0.0
230
1.0
 70
    24
 71
     3
 72
    14
 73
    10
 74
     0
 42
0.00000001
 43
0.00000001
 40
0.0
 40
0.0
 40
0.0
 40
0.0
 40
0.1885762799860082
 40
0.3788955565835291
 40
0.5044823954484109
 40
0.6300701228213249
 40
0.7590052913537331
 40
0.887976329628691
 40
1.0
 40
1.0
 40
1.0
 40
1.0
 10
95.91463749999998
 20
42.35346791311181
 30
0.0
 10
95.91463749999998
 20
41.74792952057636
 30
0.0
 10
95.91463749999998
 20
40.53125578892018
 30
0.0
 10
95.9146375
 20
38.86717123753485
 30
0.0
 10
95.9146375
 20
37.40091870324647
 30
0.0
 10
95.91463750000001
 20
36.13827818285298
 30
0.0
 10
95.91463750000001
 20
34.87433957236742
 30
0.0
 10
95.91463750000001
 20
33.66904198243842
 30
0.0
 10
95.91463750000001
 20
32.89726510694299
 30
0.0
 10
95.91463750000003
 20
32.53851333688814
 30
0.0
  0
SPLINE
  5
1C6
330
1F
100
AcDbEntity
  8
0
  6
Continuous
 62
     7
370
    25
100
AcDbSpline
210
0.0
220
0.0
230
1.0
 70
    24
 71
     3
 72
    13
 73
     9
 74
     0
 42
0.00000001
 43
0.00000001
 40
0.0
 40
0.0
 40
0.0
 40
0.0
 40
0.1323374700420661
 40
0.2646375235775794
 40
0.3998971812287823
 40
0.535132430788464
 40
0.7654363136792479
 40
1.0
 40
1.0
 40
1.0
 40
1.0
 10
104.4146375
 20
47.26094520122366
 30
0.0
 10
104.0474014467555
 20
47.04892136702681
 30
0.0
 10
103.3130331709517
 20
46.62493364530717
 30
0.0
 10
102.182211683479
 20
45.97205355510936
 30
0.0
 10
101.0299085422829
 20
45.30677102635175
 30
0.0
 10
99.58876010919147
 20
44.47472359056422
 30
0.0
 10
97.86281328888117
 20
43.47824772925108
 30
0.0
 10
96.5679844744543
 20
42.73067796468725
 30
0.0
 10
95.91463749999998
 20
42.35346791311181
 30
0.0
  0
SPLINE
  5
1C7
330
1F
100
AcDbEntity
  8
0
  6
Continuous
 62
     7
370
    25
100
AcDbSpline
210
0.0
220
0.0
230
1.0
 70
    24
 71
     3
 72
    13
 73
     9
 74
     0
 42
0.00000001
 43
0.00000001
 40
0.0
 40
0.0
 40
0.0
 40
0.0
 40
0.1323374700420676
 40
0.2646375235775826
 40
0.3998971812287873
 40
0.5351324307884706
 40
0.7654363136792514
 40
1.0
 40
1.0
 40
1.0
 40
1.0
 10
112.9146375
 20
42.35346791311194
 30
0.0
 10
112.5474014467555
 20
42.56549174730878
 30
0.0
 10
111.8130331709517
 20
42.98947946902841
 30
0.0
 10
110.6822116834789
 20
43.64235955922621
 30
0.0
 10
109.5299085422828
 20
44.30764208798382
 30
0.0
 10
108.0887601091914
 20
45.13968952377133
 30
0.0
 10
106.3628132888811
 20
46.13616538508445
 30
0.0
 10
105.0679844744543
 20
46.88373514964824
 30
0.0
 10
104.4146375
 20
47.26094520122366
 30
0.0
  0
CIRCLE
  5
1C8
330
1F
100
AcDbEntity
  8
0
  6
Continuous
 62
     7
370
    25
100
AcDbCircle
 10
104.4146375
 20
37.445990625
 30
0.0
 40
3.075000000000003
  0
CIRCLE
  5
1C9
330
1F
100
AcDbEntity
  8
0
  6
Continuous
 62
     7
370
    25
100
AcDbCircle
 10
104.4146375
 20
37.445990625
 30
0.0
 40
1.999999999999991
  0
SPLINE
  5
1CA
330
1F
100
AcDbEntity
  8
0
  6
Continuous
 62
     7
370
    25
100
AcDbSpline
210
0.0
220
0.0
230
1.0
 70
     8
 71
     3
 72
    12
 73
     8
 74
     0
 42
0.00000001
 43
0.00000001
 40
0.0
 40
0.0
 40
0.0
 40
0.0
 40
0.0055636252767551
 40
0.1916675400573888
 40
0.629136338261788
 40
0.8130584464103863
 40
1.0
 40
1.0
 40
1.0
 40
1.0
 10
102.058272855565
 20
67.94599062500001
 30
0.0
 10
102.0568888603934
 20
67.94598648563125
 30
0.0
 10
102.0092100652214
 20
67.94584388389494
 30
0.0
 10
101.8526600310038
 20
67.92099738079024
 30
0.0
 10
101.6721791104503
 20
67.78547879408036
 30
0.0
 10
101.5613627070805
 20
67.54918863797907
 30
0.0
 10
101.5622800958404
 20
67.40482740491571
 30
0.0
 10
101.5627425247536
 20
67.33205911842333
 30
0.0
  0
SPLINE
  5
1CB
330
1F
100
AcDbEntity
  8
0
  6
Continuous
 62
     7
370
    25
100
AcDbSpline
210
0.0
220
0.0
230
1.0
 70
     8
 71
     3
 72
    12
 73
     8
 74
     0
 42
0.00000001
 43
0.00000001
 40
0.0
 40
0.0
 40
0.0
 40
0.0
 40
0.1835541808817692
 40
0.370865650482293
 40
0.8083330658171449
 40
0.994436392310255
 40
1.0
 40
1.0
 40
1.0
 40
1.0
 10
107.2665324752464
 20
67.33205911842333
 30
0.0
 10
107.26711554267
 20
67.40356763730792
 30
0.0
 10
107.2682936126996
 20
67.54804842899436
 30
0.0
 10
107.1578505711497
 20
67.78492484228134
 30
0.0
 10
106.9766154333202
 20
67.92099506181387
 30
0.0
 10
106.8200649333517
 20
67.94584389101962
 30
0.0
 10
106.7723861395663
 20
67.94598648583225
 30
0.0
 10
106.771002144435
 20
67.94599062500001
 30
0.0
  0
LINE
  5
1CC
330
1F
100
AcDbEntity
  8
0
  6
Continuous
 62
     7
370
    25
100
AcDbLine
 10
105.9024193198
 20
56.3541961053
 30
0.0
 11
107.2665324752
 21
67.3320591184
 31
0.0
  0
SPLINE
  5
1CD
330
1F
100
AcDbEntity
  8
0
  6
Continuous
 62
     7
370
    25
100
AcDbSpline
210
0.0
220
0.0
230
1.0
 70
     8
 71
     3
 72
    14
 73
    10
 74
     0
 42
0.00000001
 43
0.00000001
 40
0.0
 40
0.0
 40
0.0
 40
0.0
 40
0.0034863238848208
 40
0.0203208804397725
 40
0.2238597133569324
 40
0.4563556157495303
 40
0.6945924899112474
 40
0.845724996562609
 40
1.0
 40
1.0
 40
1.0
 40
1.0
 10
104.4158283273316
 20
54.945990625
 30
0.0
 10
104.4180809687324
 20
54.94599413134893
 30
0.0
 10
104.4312110329753
 20
54.94601456895014
 30
0.0
 10
104.5758472162316
 20
54.94847511170332
 30
0.0
 10
104.8678664754175
 20
54.99851837651111
 30
0.0
 10
105.2792508889558
 20
55.20712101370093
 30
0.0
 10
105.6012081187402
 20
55.54149732882971
 30
0.0
 10
105.8176360824515
 20
55.93369891940097
 30
0.0
 10
105.8739650413384
 20
56.21307217106216
 30
0.0
 10
105.9024193197659
 20
56.35419610527001
 30
0.0
  0
SPLINE
  5
1CE
330
1F
100
AcDbEntity
  8
0
  6
Continuous
 62
     7
370
    25
100
AcDbSpline
210
0.0
220
0.0
230
1.0
 70
     8
 71
     3
 72
    14
 73
    10
 74
     0
 42
0.00000001
 43
0.00000001
 40
0.0
 40
0.0
 40
0.0
 40
0.0
 40
0.1509076573000546
 40
0.3054080403738433
 40
0.5376023347316409
 40
0.7761416404828171
 40
0.9796792424551188
 40
0.9965136971994736
 40
1.0
 40
1.0
 40
1.0
 40
1.0
 10
102.9268556802342
 20
56.35419610527001
 30
0.0
 10
102.9545048180035
 20
56.21603672330637
 30
0.0
 10
103.0104613488732
 20
55.93642873747119
 30
0.0
 10
103.2239354460805
 20
55.54765962745567
 30
0.0
 10
103.546379512998
 20
55.20967722791627
 30
0.0
 10
103.957527332236
 20
54.99917955461294
 30
0.0
 10
104.2534274768297
 20
54.94847523696792
 30
0.0
 10
104.3980639690173
 20
54.94601456813685
 30
0.0
 10
104.4111940315594
 20
54.94599413122983
 30
0.0
 10
104.4134466726685
 20
54.945990625
 30
0.0
  0
LINE
  5
1CF
330
1F
100
AcDbEntity
  8
0
  6
Continuous
 62
     7
370
    25
100
AcDbLine
 10
101.5627425248
 20
67.3320591184
 30
0.0
 11
102.9268556802
 21
56.3541961053
 31
0.0
  0
LINE
  5
1D0
330
1F
100
AcDbEntity
  8
0
  6
Continuous
 62
     7
370
    25
100
AcDbLine
 10
102.4313253494
 20
56.6791666007
 30
0.0
 11
101.0672121939
 21
66.8125786129
 31
0.0
  0
ARC
  5
1D1
330
1F
100
AcDbEntity
  8
0
  6
Continuous
 62
     7
370
    25
100
AcDbCircle
 10
101.5501791784
 20
66.8479608119
 30
0.0
 40
0.4842613014163294
100
AcDbArc
 50
88.5133904064
 51
184.1900080067
  0
ARC
  5
1D2
330
1F
100
AcDbEntity
  8
0
  6
Continuous
 62
     7
370
    25
100
AcDbCircle
 10
102.859039237
 20
56.7910756475
 30
0.0
 40
0.4421117555840564
100
AcDbArc
 50
194.6624451414
 51
278.823554246
  0
LINE
  5
1D3
330
1F
100
AcDbEntity
  8
0
  6
Continuous
 62
     7
370
    25
100
AcDbLine
 10
107.7620628061
 20
66.8125786129
 30
0.0
 11
106.3979496506
 21
56.6791666007
 31
0.0
  0
ARC
  5
1D4
330
1F
100
AcDbEntity
  8
0
  6
Continuous
 62
     7
370
    25
100
AcDbCircle
 10
105.970235763
 20
56.7910756475
 30
0.0
 40
0.4421117555840835
100
AcDbArc
 50
261.176445754
 51
345.3375548586
  0
ARC
  5
1D5
330
1F
100
AcDbEntity
  8
0
  6
Continuous
 62
     7
370
    25
100
AcDbCircle
 10
107.2790958216
 20
66.8479608119
 30
0.0
 40
0.4842613014163294
100
AcDbArc
 50
355.8099919933
 51
91.4866095936
  0
SPLINE
  5
1D6
330
1F
100
AcDbEntity
  8
0
  6
Continuous
 62
     7
370
    25
100
AcDbSpline
210
0.0
220
0.0
230
1.0
 70
     8
 71
     3
 72
    15
 73
    11
 74
     0
 42
0.00000001
 43
0.00000001
 40
0.0
 40
0.0
 40
0.0
 40
0.0
 40
0.0032941481656695
 40
0.0389555300109692
 40
0.0923164936584479
 40
0.2214838269818532
 40
0.4557558860746477
 40
0.689612382821521
 40
0.8449486292273382
 40
1.0
 40
1.0
 40
1.0
 40
1.0
 10
104.4134466726685
 20
54.945990625
 30
0.0
 10
104.4105762614147
 20
54.94599464905424
 30
0.0
 10
104.3766317069755
 20
54.94604223621713
 30
0.0
 10
104.2961945527166
 20
54.94829795525479
 30
0.0
 10
104.1064560392787
 20
54.96459458491064
 30
0.0
 10
103.747801065694
 20
55.03907686070633
 30
0.0
 10
103.2569682475433
 20
55.27153650231331
 30
0.0
 10
102.826929450598
 20
55.68605906796244
 30
0.0
 10
102.5417434839918
 20
56.16899758281796
 30
0.0
 10
102.4681088668467
 20
56.50921434575181
 30
0.0
 10
102.4313253494227
 20
56.67916660071693
 30
0.0
  0
SPLINE
  5
1D7
330
1F
100
AcDbEntity
  8
0
  6
Continuous
 62
     7
370
    25
100
AcDbSpline
210
0.0
220
0.0
230
1.0
 70
     8
 71
     3
 72
    15
 73
    11
 74
     0
 42
0.00000001
 43
0.00000001
 40
0.0
 40
0.0
 40
0.0
 40
0.0
 40
0.1525119975281641
 40
0.3103908680493854
 40
0.5397217434700959
 40
0.7785238912153802
 40
0.9076867233570571
 40
0.9610458274988164
 40
0.9967059666277488
 40
1.0
 40
1.0
 40
1.0
 40
1.0
 10
106.3979496505773
 20
56.67916660071693
 30
0.0
 10
106.3619814957094
 20
56.511730683227
 30
0.0
 10
106.288779472311
 20
56.17096680487871
 30
0.0
 10
106.0064714488398
 20
55.69213262085977
 30
0.0
 10
105.5756416291569
 20
55.2729335508615
 30
0.0
 10
105.0854220674404
 20
55.04003026464316
 30
0.0
 10
104.7228157688165
 20
54.96458397821216
 30
0.0
 10
104.5330808055058
 20
54.94829914562494
 30
0.0
 10
104.4526432882038
 20
54.94604222020313
 30
0.0
 10
104.4186987382095
 20
54.94599464780564
 30
0.0
 10
104.4158283273316
 20
54.945990625
 30
0.0
  0
SPLINE
  5
1D8
330
1F
100
AcDbEntity
  8
0
  6
Continuous
 62
     7
370
    25
100
AcDbSpline
210
0.0
220
0.0
230
1.0
 70
     8
 71
     3
 72
    17
 73
    13
 74
     0
 42
0.00000001
 43
0.00000001
 40
0.0
 40
0.0
 40
0.0
 40
0.0
 40
0.164398525155122
 40
0.3825210752049383
 40
0.7105911790613387
 40
0.8150577891621212
 40
0.8799902898774311
 40
0.9216743917957981
 40
0.948759549159293
 40
0.9664454853042714
 40
0.9948962613988914
 40
0.9999999999999999
 40
0.9999999999999999
 40
0.9999999999999999
 40
0.9999999999999999
 10
101.0672121939421
 20
66.81257861285847
 30
0.0
 10
101.063996873566
 20
66.92458312367171
 30
0.0
 10
101.0565154937528
 20
67.185194256671
 30
0.0
 10
101.2398727087704
 20
67.57813284515704
 30
0.0
 10
101.5158708436449
 20
67.81083342553715
 30
0.0
 10
101.7577358476972
 20
67.90278686377269
 30
0.0
 10
101.8633575158813
 20
67.92797355191497
 30
0.0
 10
101.9310545787117
 20
67.93833898789092
 30
0.0
 10
101.975041428035
 20
67.94272221303883
 30
0.0
 10
102.0123720523463
 20
67.94514456971679
 30
0.0
 10
102.0385333108475
 20
67.94594144964908
 30
0.0
 10
102.0556668020641
 20
67.94598413277349
 30
0.0
 10
102.058272855565
 20
67.94599062500001
 30
0.0
  0
SPLINE
  5
1D9
330
1F
100
AcDbEntity
  8
0
  6
Continuous
 62
     7
370
    25
100
AcDbSpline
210
0.0
220
0.0
230
1.0
 70
     8
 71
     3
 72
    17
 73
    13
 74
     0
 42
0.00000001
 43
0.00000001
 40
0.0
 40
0.0
 40
0.0
 40
0.0
 40
0.0051037386011219
 40
0.0335545146957463
 40
0.0512404508406915
 40
0.0783256082042153
 40
0.1200097101225738
 40
0.184942210837869
 40
0.2894088209386605
 40
0.6174789247950602
 40
0.8356014748448779
 40
1.0
 40
1.0
 40
1.0
 40
1.0
 10
106.771002144435
 20
67.94599062500001
 30
0.0
 10
106.773608197936
 20
67.94598413277349
 30
0.0
 10
106.790741689153
 20
67.94594144964906
 30
0.0
 10
106.8169029476537
 20
67.94514456971679
 30
0.0
 10
106.8542335719651
 20
67.94272221303882
 30
0.0
 10
106.8982204212882
 20
67.93833898789092
 30
0.0
 10
106.9659174841188
 20
67.92797355191499
 30
0.0
 10
107.0715391523028
 20
67.90278686377268
 30
0.0
 10
107.3134041563551
 20
67.81083342553717
 30
0.0
 10
107.5894022912296
 20
67.57813284515701
 30
0.0
 10
107.7727595062472
 20
67.185194256671
 30
0.0
 10
107.765278126434
 20
66.92458312367172
 30
0.0
 10
107.7620628060579
 20
66.81257861285847
 30
0.0
  0
LWPOLYLINE
  5
1DA
330
1F
100
AcDbEntity
  8
0
  6
Continuous
 62
     7
370
    25
100
AcDbPolyline
 90
       15
 70
   128
 43
0.0
 10
104.4134466728
 20
54.9459904599
 10
103.5178228808
 20
54.945990461
 10
102.6334749179
 20
54.9459904641
 10
101.7715218673
 20
54.9459904692
 10
100.9428012367
 20
54.9459904763
 10
100.1577326958
 20
54.9459904852
 10
99.4261870679
 20
54.9459904959
 10
98.7573622222
 20
54.9459905083
 10
98.1596674267
 20
54.9459905221
 10
97.6406176174
 20
54.9459905372
 10
97.206738911
 20
54.9459905534
 10
96.863486551
 20
54.9459905705
 10
96.6151763177
 20
54.9459905882
 10
96.4649302654
 20
54.9459906065
 10
96.4146374675
 20
54.945990625
  0
LINE
  5
1DB
330
1F
100
AcDbEntity
  8
0
  6
Continuous
 62
     7
370
    25
100
AcDbLine
 10
101.3857913462
 20
64.445990625
 30
0.0
 11
98.4895243767
 21
64.445990625
 31
0.0
  0
LINE
  5
1DC
330
1F
100
AcDbEntity
  8
0
  6
Continuous
 62
     7
370
    25
100
AcDbLine
 10
110.3397506233
 20
64.445990625
 30
0.0
 11
107.4434836538
 21
64.445990625
 31
0.0
  0
LWPOLYLINE
  5
1DD
330
1F
100
AcDbEntity
  8
0
  6
Continuous
 62
     7
370
    25
100
AcDbPolyline
 90
       15
 70
   128
 43
0.0
 10
112.4146375325
 20
54.945990625
 10
112.3643447346
 20
54.9459906435
 10
112.2140986823
 20
54.9459906617
 10
111.965788449
 20
54.9459906795
 10
111.622536089
 20
54.9459906966
 10
111.1886573826
 20
54.9459907128
 10
110.6696075733
 20
54.9459907279
 10
110.0719127778
 20
54.9459907417
 10
109.4030879321
 20
54.945990754
 10
108.6715423042
 20
54.9459907647
 10
107.8864737633
 20
54.9459907737
 10
107.0577531327
 20
54.9459907808
 10
106.1958000821
 20
54.9459907859
 10
105.3114521192
 20
54.945990789
 10
104.4158283272
 20
54.9459904599
  0
LINE
  5
1DE
330
1F
100
AcDbEntity
  8
0
  6
Continuous
 62
     7
370
    25
100
AcDbLine
 10
111.4490778873
 20
47.945990625
 30
0.0
 11
97.3801971017
 21
47.945990625
 31
0.0
  0
LINE
  5
1DF
330
1F
100
AcDbEntity
  8
0
  6
Continuous
 62
     7
370
    25
100
AcDbLine
 10
99.3195295366
 20
66.445990625
 30
0.0
 11
101.1165605769
 21
66.445990625
 31
0.0
  0
LINE
  5
1E0
330
1F
100
AcDbEntity
  8
0
  6
Continuous
 62
     7
370
    25
100
AcDbLine
 10
107.7127144231
 20
66.445990625
 30
0.0
 11
109.5097454834
 21
66.445990625
 31
0.0
  0
LINE
  5
1E1
330
1F
100
AcDbEntity
  8
0
  6
Continuous
 62
     7
370
    25
100
AcDbLine
 10
108.6646375
 20
25.445990625
 30
0.0
 11
100.1646375
 21
25.445990625
 31
0.0
  0
SPLINE
  5
1E2
330
1F
100
AcDbEntity
  8
0
  6
Continuous
 62
     7
370
    25
100
AcDbSpline
210
0.0
220
0.0
230
1.0
 70
     8
 71
     3
 72
    10
 73
     6
 74
     0
 42
0.00000001
 43
0.00000001
 40
0.0
 40
0.0
 40
0.0
 40
0.0
 40
0.5
 40
0.5
 40
1.0
 40
1.0
 40
1.0
 40
1.0
 10
104.1646375000001
 20
26.12371203025974
 30
0.0
 10
103.508624733395
 20
25.91490210559348
 30
0.0
 10
102.8483578265372
 20
25.74436796584622
 30
0.0
 10
101.5160113079022
 20
25.5095821608273
 30
0.0
 10
100.8438583264149
 20
25.44599062500001
 30
0.0
 10
100.1646375
 20
25.44599062500001
 30
0.0
  0
SPLINE
  5
1E3
330
1F
100
AcDbEntity
  8
0
  6
Continuous
 62
     7
370
    25
100
AcDbSpline
210
0.0
220
0.0
230
1.0
 70
     8
 71
     3
 72
    10
 73
     6
 74
     0
 42
0.00000001
 43
0.00000001
 40
0.0
 40
0.0
 40
0.0
 40
0.0
 40
0.5
 40
0.5
 40
1.0
 40
1.0
 40
1.0
 40
1.0
 10
104.1646375
 20
26.1237120302602
 30
0.0
 10
104.2390122539901
 20
26.14738563475132
 30
0.0
 10
104.326105985556
 20
26.16047841054455
 30
0.0
 10
104.5022718141004
 20
26.1605649786455
 30
0.0
 10
104.5902328379907
 20
26.14739515452222
 30
0.0
 10
104.6646375
 20
26.1237120302602
 30
0.0
  0
SPLINE
  5
1E4
330
1F
100
AcDbEntity
  8
0
  6
Continuous
 62
     7
370
    25
100
AcDbSpline
210
0.0
220
0.0
230
1.0
 70
     8
 71
     3
 72
    12
 73
     8
 74
     0
 42
0.00000001
 43
0.00000001
 40
0.0
 40
0.0
 40
0.0
 40
0.0
 40
0.2500000000000002
 40
0.2500000000000002
 40
0.5000000000000001
 40
0.5000000000000001
 40
1.0
 40
1.0
 40
1.0
 40
1.0
 10
108.6646375
 20
25.44599062500001
 30
0.0
 10
108.3268815649772
 20
25.445990625
 30
0.0
 10
107.9864735500987
 20
25.46173695502197
 30
0.0
 10
107.3119788656983
 20
25.5231819796074
 30
0.0
 10
106.9768535468311
 20
25.56877073886112
 30
0.0
 10
105.9771422284909
 20
25.74522174111772
 30
0.0
 10
105.3182081254257
 20
25.91567944308121
 30
0.0
 10
104.6646375
 20
26.12371203026006
 30
0.0
  0
LINE
  5
1E5
330
1F
100
AcDbEntity
  8
0
  6
Continuous
 62
     7
370
    25
100
AcDbLine
 10
104.6646375
 20
27.7753736161
 30
0.0
 11
104.6646375
 21
26.1237120303
 31
0.0
  0
LINE
  5
1E6
330
1F
100
AcDbEntity
  8
0
  6
Continuous
 62
     7
370
    25
100
AcDbLine
 10
104.1646375
 20
26.1237120303
 30
0.0
 11
104.1646375
 21
27.7753736161
 31
0.0
  0
SPLINE
  5
1E7
330
1F
100
AcDbEntity
  8
0
  6
Continuous
 62
     7
370
    25
100
AcDbSpline
210
0.0
220
0.0
230
1.0
 70
     8
 71
     3
 72
    12
 73
     8
 74
     0
 42
0.00000001
 43
0.00000001
 40
0.0
 40
0.0
 40
0.0
 40
0.0
 40
0.2499999999999999
 40
0.2499999999999999
 40
0.4999999999999998
 40
0.4999999999999998
 40
1.0
 40
1.0
 40
1.0
 40
1.0
 10
100.1646375
 20
25.44599062500001
 30
0.0
 10
99.82688156497723
 20
25.44599062500001
 30
0.0
 10
99.48647355009872
 20
25.46173695502197
 30
0.0
 10
98.81197886569831
 20
25.5231819796074
 30
0.0
 10
98.47685354683107
 20
25.56877073886113
 30
0.0
 10
97.47714222849092
 20
25.74522174111772
 30
0.0
 10
96.81820812542563
 20
25.91567944308121
 30
0.0
 10
96.16463749999997
 20
26.12371203026006
 30
0.0
  0
LINE
  5
1E8
330
1F
100
AcDbEntity
  8
0
  6
Continuous
 62
     7
370
    25
100
AcDbLine
 10
96.1646375
 20
29.4795940851
 30
0.0
 11
96.1646375
 21
26.1237120303
 31
0.0
  0
SPLINE
  5
1E9
330
1F
100
AcDbEntity
  8
0
  6
Continuous
 62
     7
370
    25
100
AcDbSpline
210
0.0
220
0.0
230
1.0
 70
     8
 71
     3
 72
    10
 73
     6
 74
     0
 42
0.00000001
 43
0.00000001
 40
0.0
 40
0.0
 40
0.0
 40
0.0
 40
0.5
 40
0.5
 40
1.0
 40
1.0
 40
1.0
 40
1.0
 10
96.16463750000048
 20
29.47959408514516
 30
0.0
 10
96.79946520581413
 20
29.68166077069608
 30
0.0
 10
97.4387309083899
 20
29.84805354296673
 30
0.0
 10
98.72954583997979
 20
30.08210051683679
 30
0.0
 10
99.38116547544963
 20
30.14918877079561
 30
0.0
 10
100.0402074072697
 20
30.1566144403654
 30
0.0
  0
SPLINE
  5
1EA
330
1F
100
AcDbEntity
  8
0
  6
Continuous
 62
     7
370
    25
100
AcDbSpline
210
0.0
220
0.0
230
1.0
 70
     8
 71
     3
 72
    12
 73
     8
 74
     0
 42
0.00000001
 43
0.00000001
 40
0.0
 40
0.0
 40
0.0
 40
0.0
 40
0.2500000000000002
 40
0.2500000000000002
 40
0.5000000000000004
 40
0.5000000000000004
 40
1.0
 40
1.0
 40
1.0
 40
1.0
 10
108.7890675927523
 20
30.15661444036515
 30
0.0
 10
109.1182025831455
 20
30.15290595450872
 30
0.0
 10
109.4476647360823
 20
30.13432345167104
 30
0.0
 10
110.1005383541399
 20
30.0694564147049
 30
0.0
 10
110.424990946017
 20
30.02319086145463
 30
0.0
 10
111.3930513872091
 20
29.84746633114766
 30
0.0
 10
112.031373871457
 20
29.68116292237091
 30
0.0
 10
112.6646375
 20
29.47959408514501
 30
0.0
  0
LINE
  5
1EB
330
1F
100
AcDbEntity
  8
0
  6
Continuous
 62
     7
370
    25
100
AcDbLine
 10
112.6646375
 20
26.1237120303
 30
0.0
 11
112.6646375
 21
29.4795940851
 31
0.0
  0
SPLINE
  5
1EC
330
1F
100
AcDbEntity
  8
0
  6
Continuous
 62
     7
370
    25
100
AcDbSpline
210
0.0
220
0.0
230
1.0
 70
     8
 71
     3
 72
    10
 73
     6
 74
     0
 42
0.00000001
 43
0.00000001
 40
0.0
 40
0.0
 40
0.0
 40
0.0
 40
0.5
 40
0.5
 40
1.0
 40
1.0
 40
1.0
 40
1.0
 10
112.6646375000001
 20
26.12371203025973
 30
0.0
 10
112.0086247333949
 20
25.91490210559348
 30
0.0
 10
111.3483578265372
 20
25.74436796584622
 30
0.0
 10
110.0160113079022
 20
25.5095821608273
 30
0.0
 10
109.3438583264149
 20
25.44599062500001
 30
0.0
 10
108.6646375
 20
25.44599062500001
 30
0.0
  0
SPLINE
  5
1ED
330
1F
100
AcDbEntity
  8
0
  6
Continuous
 62
     7
370
    25
100
AcDbSpline
210
0.0
220
0.0
230
1.0
 70
     8
 71
     3
 72
    10
 73
     6
 74
     0
 42
0.00000001
 43
0.00000001
 40
0.0
 40
0.0
 40
0.0
 40
0.0
 40
0.5
 40
0.5
 40
1.0
 40
1.0
 40
1.0
 40
1.0
 10
95.91463750000001
 20
26.1237120302602
 30
0.0
 10
95.9146375
 20
26.14738593081616
 30
0.0
 10
95.93742807164745
 20
26.16047848799529
 30
0.0
 10
96.02537406894625
 20
26.16056490197757
 30
0.0
 10
96.09023486167904
 20
26.14739451037896
 30
0.0
 10
96.1646375
 20
26.1237120302602
 30
0.0
  0
LINE
  5
1EE
330
1F
100
AcDbEntity
  8
0
  6
Continuous
 62
     7
370
    25
100
AcDbLine
 10
100.1646375
 20
25.445990625
 30
0.0
 11
95.9146375
 21
25.445990625
 31
0.0
  0
SPLINE
  5
1EF
330
1F
100
AcDbEntity
  8
0
  6
Continuous
 62
     7
370
    25
100
AcDbSpline
210
0.0
220
0.0
230
1.0
 70
    24
 71
     3
 72
    10
 73
     6
 74
     0
 42
0.00000001
 43
0.00000001
 40
0.0
 40
0.0
 40
0.0
 40
0.0
 40
0.5
 40
0.5
 40
1.0
 40
1.0
 40
1.0
 40
1.0
 10
95.91463750000001
 20
26.12371203026016
 30
0.0
 10
95.91463750000001
 20
25.91694250233659
 30
0.0
 10
95.91463750000001
 20
25.7456102960745
 30
0.0
 10
95.91463750000001
 20
25.50812306844686
 30
0.0
 10
95.91463750000001
 20
25.44599062500001
 30
0.0
 10
95.91463750000001
 20
25.44599062500001
 30
0.0
  0
SPLINE
  5
1F0
330
1F
100
AcDbEntity
  8
0
  6
Continuous
 62
     7
370
    25
100
AcDbSpline
210
0.0
220
0.0
230
1.0
 70
     8
 71
     3
 72
    10
 73
     6
 74
     0
 42
0.00000001
 43
0.00000001
 40
0.0
 40
0.0
 40
0.0
 40
0.0
 40
0.5
 40
0.5
 40
1.0
 40
1.0
 40
1.0
 40
1.0
 10
112.6646375
 20
26.1237120302602
 30
0.0
 10
112.7390079669256
 20
26.14738427017176
 30
0.0
 10
112.8033135632134
 20
26.16047826010702
 30
0.0
 10
112.8915363510193
 20
26.16056512756847
 30
0.0
 10
112.9146375
 20
26.14739533780911
 30
0.0
 10
112.9146375
 20
26.1237120302602
 30
0.0
  0
LINE
  5
1F1
330
1F
100
AcDbEntity
  8
0
  6
Continuous
 62
     7
370
    25
100
AcDbLine
 10
112.9146375
 20
25.445990625
 30
0.0
 11
108.6646375
 21
25.445990625
 31
0.0
  0
SPLINE
  5
1F2
330
1F
100
AcDbEntity
  8
0
  6
Continuous
 62
     7
370
    25
100
AcDbSpline
210
0.0
220
0.0
230
1.0
 70
    24
 71
     3
 72
    10
 73
     6
 74
     0
 42
0.00000001
 43
0.00000001
 40
0.0
 40
0.0
 40
0.0
 40
0.0
 40
0.5
 40
0.5
 40
1.0
 40
1.0
 40
1.0
 40
1.0
 10
112.9146375
 20
26.12371203026016
 30
0.0
 10
112.9146375
 20
25.91694250233659
 30
0.0
 10
112.9146375
 20
25.7456102960745
 30
0.0
 10
112.9146375
 20
25.50812306844686
 30
0.0
 10
112.9146375
 20
25.44599062500001
 30
0.0
 10
112.9146375
 20
25.44599062500001
 30
0.0
  0
SPLINE
  5
1F3
330
1F
100
AcDbEntity
  8
0
  6
Continuous
 62
     7
370
    25
100
AcDbSpline
210
0.0
220
0.0
230
1.0
 70
     8
 71
     3
 72
     8
 73
     4
 74
     0
 42
0.00000001
 43
0.00000001
 40
0.0
 40
0.0
 40
0.0
 40
0.0
 40
1.0
 40
1.0
 40
1.0
 40
1.0
 10
97.4864342697245
 20
30.44599062500001
 30
0.0
 10
96.96001340851528
 20
30.18278019439541
 30
0.0
 10
96.43646895180159
 20
29.9136827660087
 30
0.0
 10
95.9146375
 20
29.64107941342604
 30
0.0
  0
SPLINE
  5
1F4
330
1F
100
AcDbEntity
  8
0
  6
Continuous
 62
     7
370
    25
100
AcDbSpline
210
0.0
220
0.0
230
1.0
 70
     8
 71
     3
 72
    10
 73
     6
 74
     0
 42
0.00000001
 43
0.00000001
 40
0.0
 40
0.0
 40
0.0
 40
0.0
 40
0.5
 40
0.5
 40
1.0
 40
1.0
 40
1.0
 40
1.0
 10
95.91463750000001
 20
29.47959408514495
 30
0.0
 10
95.91463750000001
 20
29.45591869072054
 30
0.0
 10
95.93742994932985
 20
29.44282758083595
 30
0.0
 10
96.0253726534231
 20
29.44274125954773
 30
0.0
 10
96.09023042709727
 20
29.45591019349167
 30
0.0
 10
96.16463750000068
 20
29.47959408514522
 30
0.0
  0
SPLINE
  5
1F5
330
1F
100
AcDbEntity
  8
0
  6
Continuous
 62
     7
370
    25
100
AcDbSpline
210
0.0
220
0.0
230
1.0
 70
    24
 71
     3
 72
     8
 73
     4
 74
     0
 42
0.00000001
 43
0.00000001
 40
0.0
 40
0.0
 40
0.0
 40
0.0
 40
1.0
 40
1.0
 40
1.0
 40
1.0
 10
95.91463750000001
 20
29.47959408514501
 30
0.0
 10
95.91463750000001
 20
29.53615505226923
 30
0.0
 10
95.91463750000001
 20
29.59009512368307
 30
0.0
 10
95.91463750000001
 20
29.64107941342603
 30
0.0
  0
SPLINE
  5
1F6
330
1F
100
AcDbEntity
  8
0
  6
Continuous
 62
     7
370
    25
100
AcDbSpline
210
0.0
220
0.0
230
1.0
 70
     8
 71
     3
 72
     8
 73
     4
 74
     0
 42
0.00000001
 43
0.00000001
 40
0.0
 40
0.0
 40
0.0
 40
0.0
 40
1.0
 40
1.0
 40
1.0
 40
1.0
 10
112.9146375
 20
29.64107941342603
 30
0.0
 10
112.3928313486982
 20
29.91366954909538
 30
0.0
 10
111.869177879842
 20
30.18282205021677
 30
0.0
 10
111.3428407302755
 20
30.44599062500001
 30
0.0
  0
SPLINE
  5
1F7
330
1F
100
AcDbEntity
  8
0
  6
Continuous
 62
     7
370
    25
100
AcDbSpline
210
0.0
220
0.0
230
1.0
 70
     8
 71
     3
 72
    10
 73
     6
 74
     0
 42
0.00000001
 43
0.00000001
 40
0.0
 40
0.0
 40
0.0
 40
0.0
 40
0.5
 40
0.5
 40
1.0
 40
1.0
 40
1.0
 40
1.0
 10
112.6646375
 20
29.47959408514501
 30
0.0
 10
112.7390178773773
 20
29.45591869072062
 30
0.0
 10
112.8033185161631
 20
29.44282758083598
 30
0.0
 10
112.891534200946
 20
29.4427412595477
 30
0.0
 10
112.9146375
 20
29.45591019349154
 30
0.0
 10
112.9146375
 20
29.47959408514501
 30
0.0
  0
SPLINE
  5
1F8
330
1F
100
AcDbEntity
  8
0
  6
Continuous
 62
     7
370
    25
100
AcDbSpline
210
0.0
220
0.0
230
1.0
 70
    24
 71
     3
 72
     8
 73
     4
 74
     0
 42
0.00000001
 43
0.00000001
 40
0.0
 40
0.0
 40
0.0
 40
0.0
 40
1.0
 40
1.0
 40
1.0
 40
1.0
 10
112.9146375
 20
29.47959408514501
 30
0.0
 10
112.9146375
 20
29.53615505226923
 30
0.0
 10
112.9146375
 20
29.59009512368307
 30
0.0
 10
112.9146375
 20
29.64107941342603
 30
0.0
  0
LINE
  5
1F9
330
1F
100
AcDbEntity
  8
0
  6
Continuous
 62
     7
370
    25
100
AcDbLine
 10
96.9146375
 20
30.445990625
 30
0.0
 11
99.538993153
 21
30.445990625
 31
0.0
  0
LINE
  5
1FA
330
1F
100
AcDbEntity
  8
0
  6
Continuous
 62
     7
370
    25
100
AcDbLine
 10
96.9146375
 20
31.9611630677
 30
0.0
 11
96.9146375
 21
30.445990625
 31
0.0
  0
LINE
  5
1FB
330
1F
100
AcDbEntity
  8
0
  6
Continuous
 62
     7
370
    25
100
AcDbLine
 10
111.9146375
 20
30.445990625
 30
0.0
 11
111.9146375
 21
31.9611630677
 31
0.0
  0
LINE
  5
1FC
330
1F
100
AcDbEntity
  8
0
  6
Continuous
 62
     7
370
    25
100
AcDbLine
 10
109.290281847
 20
30.445990625
 30
0.0
 11
111.9146375
 21
30.445990625
 31
0.0
  0
LINE
  5
1FD
330
1F
100
AcDbEntity
  8
0
  6
Continuous
 62
     7
370
    25
100
AcDbLine
 10
99.6323578731
 20
15.3009386844
 30
0.0
 11
109.1969171269
 21
15.3009386844
 31
0.0
  0
LINE
  5
1FE
330
1F
100
AcDbEntity
  8
0
  6
Continuous
 62
     7
370
    25
100
AcDbLine
 10
95.9146375
 20
26.1237120303
 30
0.0
 11
95.9146375
 21
29.4795940851
 31
0.0
  0
LINE
  5
1FF
330
1F
100
AcDbEntity
  8
0
  6
Continuous
 62
     7
370
    25
100
AcDbLine
 10
112.9146375
 20
29.4795940851
 30
0.0
 11
112.9146375
 21
26.1237120303
 31
0.0
  0
LINE
  5
200
330
1F
100
AcDbEntity
  8
0
  6
Continuous
 62
     7
370
    25
100
AcDbLine
 10
104.4146375
 20
13.945990625
 30
0.0
 11
100.4146375
 21
13.945990625
 31
0.0
  0
LINE
  5
201
330
1F
100
AcDbEntity
  8
0
  6
Continuous
 62
     7
370
    25
100
AcDbLine
 10
108.4146375
 20
13.945990625
 30
0.0
 11
104.4146375
 21
13.945990625
 31
0.0
  0
LINE
  5
202
330
1F
100
AcDbEntity
  8
0
  6
Continuous
 62
     7
370
    25
100
AcDbLine
 10
95.9146375
 20
29.6410794134
 30
0.0
 11
95.9146375
 21
32.4901614754
 31
0.0
  0
LINE
  5
203
330
1F
100
AcDbEntity
  8
0
  6
Continuous
 62
     7
370
    25
100
AcDbLine
 10
112.9146375
 20
29.6410794134
 30
0.0
 11
112.9146375
 21
32.4901614754
 31
0.0
  0
LINE
  5
204
330
1F
100
AcDbEntity
  8
0
  6
Continuous
 62
     7
370
    25
100
AcDbLine
 10
96.8814677518
 20
48.4103671
 30
0.0
 11
111.9478072482
 21
48.4103671
 31
0.0
  0
LINE
  5
205
330
1F
100
AcDbEntity
  8
0
  6
Continuous
 62
     7
370
    25
100
AcDbLine
 10
109.9988192838
 20
66.0499464704
 30
0.0
 11
107.6594007869
 21
66.0499464704
 31
0.0
  0
LINE
  5
206
330
1F
100
AcDbEntity
  8
0
  6
Continuous
 62
     7
370
    25
100
AcDbLine
 10
101.1698742131
 20
66.0499464704
 30
0.0
 11
98.8304557162
 21
66.0499464704
 31
0.0
  0
SPLINE
  5
207
330
1F
100
AcDbEntity
  8
0
  6
Continuous
 62
     7
370
    25
100
AcDbSpline
210
0.0
220
0.0
230
1.0
 70
     8
 71
     3
 72
    18
 73
    14
 74
     0
 42
0.00000001
 43
0.00000001
 40
0.0
 40
0.0
 40
0.0
 40
0.0
 40
0.0468460163922911
 40
0.1374732954415135
 40
0.2589305186239725
 40
0.3806014192314081
 40
0.3961002557734456
 40
0.5263081668891252
 40
0.6565144191968502
 40
0.757496357660124
 40
0.8582751548379429
 40
0.9375942584128087
 40
1.0
 40
1.0
 40
1.0
 40
1.0
 10
105.0290952869866
 20
46.90618783250132
 30
0.0
 10
105.1717435167911
 20
46.89551772445767
 30
0.0
 10
105.5903558930474
 20
46.86420545868904
 30
0.0
 10
106.3440466247869
 20
46.69166246693815
 30
0.0
 10
107.2415724811135
 20
46.37688195438622
 30
0.0
 10
107.8513561714854
 20
46.06178421152813
 30
0.0
 10
108.4270938446794
 20
45.7154594897234
 30
0.0
 10
108.964466307974
 20
45.33490297275989
 30
0.0
 10
109.5303861540685
 20
44.83727710610378
 30
0.0
 10
109.9319651634103
 20
44.42404354187271
 30
0.0
 10
110.1713036165129
 20
44.15066770533354
 30
0.0
 10
110.296467952957
 20
43.99896203287592
 30
0.0
 10
110.3037829756113
 20
43.98953352722921
 30
0.0
 10
110.307004001628
 20
43.98538187064233
 30
0.0
  0
SPLINE
  5
208
330
1F
100
AcDbEntity
  8
0
  6
Continuous
 62
     7
370
    25
100
AcDbSpline
210
0.0
220
0.0
230
1.0
 70
     8
 71
     3
 72
    19
 73
    15
 74
     0
 42
0.00000001
 43
0.00000001
 40
0.0
 40
0.0
 40
0.0
 40
0.0
 40
0.0663395809851738
 40
0.1059260042226366
 40
0.195310458255181
 40
0.2848611694952463
 40
0.4058543306825552
 40
0.5269337219375323
 40
0.6283679654851728
 40
0.7297349318537573
 40
0.8191459712493886
 40
0.9084830342589771
 40
0.9868723883890933
 40
0.9999999999999999
 40
0.9999999999999999
 40
0.9999999999999999
 40
0.9999999999999999
 10
98.51657972124143
 20
43.97855874483155
 30
0.0
 10
98.52131959586957
 20
43.98435619453539
 30
0.0
 10
98.52888786766776
 20
43.99361312188841
 30
0.0
 10
98.61014525531611
 20
44.09262138323695
 30
0.0
 10
98.7598138455015
 20
44.26945908286709
 30
0.0
 10
99.06820268015923
 20
44.60626983011755
 30
0.0
 10
99.52544653650502
 20
45.04685786008411
 30
0.0
 10
100.1237739758388
 20
45.52887664265265
 30
0.0
 10
100.7936584866334
 20
45.96480438044536
 30
0.0
 10
101.4838125034099
 20
46.32115518252314
 30
0.0
 10
102.2198991163015
 20
46.60799735943927
 30
0.0
 10
102.952706010375
 20
46.79998018463172
 30
0.0
 10
103.4932673916984
 20
46.89968068164996
 30
0.0
 10
103.7742367891339
 20
46.91262250085342
 30
0.0
 10
103.8145403229564
 20
46.91447893451755
 30
0.0
  0
INSERT
  5
214
330
1F
100
AcDbEntity
  8
0
  6
Continuous
 62
     7
370
    18
100
AcDbBlockReference
  2
SW_CENTERMARKSYMBOL_0
 10
104.4146375
 20
37.445990625
 30
0.0
  0
LINE
  5
215
330
1F
100
AcDbEntity
  8
0
  6
Continuous
 62
     7
370
    18
100
AcDbLine
 10
99.7878875
 20
24.945990625
 30
0.0
 11
100.1154431297
 21
14.4642104758
 31
0.0
  0
LINE
  5
216
330
1F
100
AcDbEntity
  8
0
  6
Continuous
 62
     7
370
    18
100
AcDbLine
 10
108.7138318703
 20
14.4642104758
 30
0.0
 11
109.0413875
 21
24.945990625
 31
0.0
  0
LINE
  5
217
330
1F
100
AcDbEntity
  8
0
  6
Continuous
 62
     7
370
    25
100
AcDbLine
 10
60.3730076463
 20
104.0236376499
 30
0.0
 11
60.228670079
 21
103.7736376499
 31
0.0
  0
LINE
  5
218
330
1F
100
AcDbEntity
  8
0
  6
Continuous
 62
     7
370
    25
100
AcDbLine
 10
60.228670079
 20
87.2736376499
 30
0.0
 11
60.3730076463
 21
87.0236376499
 31
0.0
  0
LINE
  5
219
330
1F
100
AcDbEntity
  8
0
  6
Continuous
 62
     7
370
    25
100
AcDbLine
 10
73.0843325117
 20
87.0236376499
 30
0.0
 11
73.228670079
 21
87.2736376499
 31
0.0
  0
LINE
  5
21A
330
1F
100
AcDbEntity
  8
0
  6
Continuous
 62
     7
370
    25
100
AcDbLine
 10
73.228670079
 20
103.7736376499
 30
0.0
 11
73.0843325117
 21
104.0236376499
 31
0.0
  0
LINE
  5
21B
330
1F
100
AcDbEntity
  8
0
  6
Continuous
 62
     7
370
    25
100
AcDbLine
 10
23.2072798537
 20
87.0236376499
 30
0.0
 11
23.351617421
 21
87.2736376499
 31
0.0
  0
LINE
  5
21C
330
1F
100
AcDbEntity
  8
0
  6
Continuous
 62
     7
370
    25
100
AcDbLine
 10
23.351617421
 20
103.7736376499
 30
0.0
 11
23.2072798537
 21
104.0236376499
 31
0.0
  0
LINE
  5
21D
330
1F
100
AcDbEntity
  8
0
  6
Continuous
 62
     7
370
    25
100
AcDbLine
 10
10.4959549883
 20
104.0236376499
 30
0.0
 11
10.351617421
 21
103.7736376499
 31
0.0
  0
LINE
  5
21E
330
1F
100
AcDbEntity
  8
0
  6
Continuous
 62
     7
370
    25
100
AcDbLine
 10
10.351617421
 20
87.2736376499
 30
0.0
 11
10.4959549883
 21
87.0236376499
 31
0.0
  0
LINE
  5
21F
330
1F
100
AcDbEntity
  8
0
  6
Continuous
 62
     7
370
    25
100
AcDbLine
 10
30.29014375
 20
103.5236376499
 30
0.0
 11
27.54014375
 21
103.5236376499
 31
0.0
  0
LINE
  5
220
330
1F
100
AcDbEntity
  8
0
  6
Continuous
 62
     7
370
    25
100
AcDbLine
 10
27.54014375
 20
87.5236376499
 30
0.0
 11
30.29014375
 21
87.5236376499
 31
0.0
  0
LINE
  5
221
330
1F
100
AcDbEntity
  8
0
  6
Continuous
 62
     7
370
    25
100
AcDbLine
 10
27.54014375
 20
103.5236376499
 30
0.0
 11
27.34014375
 21
103.3236376499
 31
0.0
  0
LINE
  5
222
330
1F
100
AcDbEntity
  8
0
  6
Continuous
 62
     7
370
    25
100
AcDbLine
 10
27.34014375
 20
87.7236376499
 30
0.0
 11
27.54014375
 21
87.5236376499
 31
0.0
  0
LINE
  5
223
330
1F
100
AcDbEntity
  8
0
  6
Continuous
 62
     7
370
    25
100
AcDbLine
 10
27.34014375
 20
102.1021376499
 30
0.0
 11
23.351617421
 21
102.1021376499
 31
0.0
  0
LINE
  5
224
330
1F
100
AcDbEntity
  8
0
  6
Continuous
 62
     7
370
    25
100
AcDbLine
 10
23.351617421
 20
88.9451376499
 30
0.0
 11
27.34014375
 21
88.9451376499
 31
0.0
  0
LINE
  5
225
330
1F
100
AcDbEntity
  8
0
  6
Continuous
 62
     7
370
    25
100
AcDbLine
 10
53.29014375
 20
87.5236376499
 30
0.0
 11
56.04014375
 21
87.5236376499
 31
0.0
  0
LINE
  5
226
330
1F
100
AcDbEntity
  8
0
  6
Continuous
 62
     7
370
    25
100
AcDbLine
 10
56.04014375
 20
103.5236376499
 30
0.0
 11
53.29014375
 21
103.5236376499
 31
0.0
  0
LINE
  5
227
330
1F
100
AcDbEntity
  8
0
  6
Continuous
 62
     7
370
    25
100
AcDbLine
 10
56.04014375
 20
87.5236376499
 30
0.0
 11
56.24014375
 21
87.7236376499
 31
0.0
  0
LINE
  5
228
330
1F
100
AcDbEntity
  8
0
  6
Continuous
 62
     7
370
    25
100
AcDbLine
 10
56.24014375
 20
103.3236376499
 30
0.0
 11
56.04014375
 21
103.5236376499
 31
0.0
  0
LINE
  5
229
330
1F
100
AcDbEntity
  8
0
  6
Continuous
 62
     7
370
    25
100
AcDbLine
 10
56.24014375
 20
88.9451376499
 30
0.0
 11
60.228670079
 21
88.9451376499
 31
0.0
  0
LINE
  5
22A
330
1F
100
AcDbEntity
  8
0
  6
Continuous
 62
     7
370
    25
100
AcDbLine
 10
60.228670079
 20
102.1021376499
 30
0.0
 11
56.24014375
 21
102.1021376499
 31
0.0
  0
LINE
  5
22B
330
1F
100
AcDbEntity
  8
0
  6
Continuous
 62
     7
370
    25
100
AcDbLine
 10
58.8664288906
 20
98.8702971087
 30
0.0
 11
58.6776257632
 21
98.875231449
 31
0.0
  0
LINE
  5
22C
330
1F
100
AcDbEntity
  8
0
  6
Continuous
 62
     7
370
    25
100
AcDbLine
 10
62.79014375
 20
93.4031476353
 30
0.0
 11
62.79014375
 21
97.6441276644
 31
0.0
  0
SPLINE
  5
22D
330
1F
100
AcDbEntity
  8
0
  6
Continuous
 62
     7
370
    25
100
AcDbSpline
210
0.0
220
0.0
230
1.0
 70
     8
 71
     3
 72
     9
 73
     5
 74
     0
 42
0.00000001
 43
0.00000001
 40
0.0
 40
0.0
 40
0.0
 40
0.0
 40
0.9896015696765377
 40
1.0
 40
1.0
 40
1.0
 40
1.0
 10
53.90326325330189
 20
98.87347165622278
 30
0.0
 10
53.84006038633209
 20
98.87805856873794
 30
0.0
 10
53.776193402986
 20
98.8826936791255
 30
0.0
 10
53.71364540463972
 20
98.87447995540072
 30
0.0
 10
53.71299500363705
 20
98.87439454556687
 30
0.0
  0
SPLINE
  5
22E
330
1F
100
AcDbEntity
  8
0
  6
Continuous
 62
     7
370
    25
100
AcDbSpline
210
0.0
220
0.0
230
1.0
 70
     8
 71
     3
 72
     9
 73
     5
 74
     0
 42
0.00000001
 43
0.00000001
 40
0.0
 40
0.0
 40
0.0
 40
0.0
 40
0.9896015696769337
 40
1.0
 40
1.0
 40
1.0
 40
1.0
 10
24.90326325330187
 20
98.87347165622278
 30
0.0
 10
24.84006038633197
 20
98.87805856873794
 30
0.0
 10
24.77619340298579
 20
98.88269367912551
 30
0.0
 10
24.71364540463969
 20
98.87447995540072
 30
0.0
 10
24.71299500363704
 20
98.87439454556687
 30
0.0
  0
LINE
  5
22F
330
1F
100
AcDbEntity
  8
0
  6
Continuous
 62
     7
370
    25
100
AcDbLine
 10
29.8662737986
 20
98.870301162
 30
0.0
 11
29.6776257632
 21
98.875231449
 31
0.0
  0
LINE
  5
230
330
1F
100
AcDbEntity
  8
0
  6
Continuous
 62
     7
370
    25
100
AcDbLine
 10
20.79014375
 20
97.6441276644
 30
0.0
 11
20.79014375
 21
93.4031476353
 31
0.0
  0
LINE
  5
231
330
1F
100
AcDbEntity
  8
0
  6
Continuous
 62
     7
370
    25
100
AcDbLine
 10
29.6797735816
 20
98.8800022943
 30
0.0
 11
24.9005139184
 21
98.8800022943
 31
0.0
  0
LINE
  5
232
330
1F
100
AcDbEntity
  8
0
  6
Continuous
 62
     7
370
    25
100
AcDbLine
 10
58.6797735816
 20
98.8800022943
 30
0.0
 11
53.9005139184
 21
98.8800022943
 31
0.0
  0
LINE
  5
233
330
1F
100
AcDbEntity
  8
0
  6
Continuous
 62
     7
370
    25
100
AcDbLine
 10
53.7140137014
 20
92.1769741377
 30
0.0
 11
53.9026617368
 21
92.1720438507
 31
0.0
  0
SPLINE
  5
234
330
1F
100
AcDbEntity
  8
0
  6
Continuous
 62
     7
370
    25
100
AcDbSpline
210
0.0
220
0.0
230
1.0
 70
     8
 71
     3
 72
     9
 73
     5
 74
     0
 42
0.00000001
 43
0.00000001
 40
0.0
 40
0.0
 40
0.0
 40
0.0
 40
0.9896015696963655
 40
1.0
 40
1.0
 40
1.0
 40
1.0
 10
58.67702424669817
 20
92.17380364349758
 30
0.0
 10
58.74022711366919
 20
92.16921673098233
 30
0.0
 10
58.80409409701524
 20
92.16458162059476
 30
0.0
 10
58.86664209536156
 20
92.17279534431951
 30
0.0
 10
58.86729249636299
 20
92.1728807541532
 30
0.0
  0
LINE
  5
235
330
1F
100
AcDbEntity
  8
0
  6
Continuous
 62
     7
370
    25
100
AcDbLine
 10
24.7140137014
 20
92.1769741377
 30
0.0
 11
24.9026617368
 21
92.1720438507
 31
0.0
  0
SPLINE
  5
236
330
1F
100
AcDbEntity
  8
0
  6
Continuous
 62
     7
370
    25
100
AcDbSpline
210
0.0
220
0.0
230
1.0
 70
     8
 71
     3
 72
     9
 73
     5
 74
     0
 42
0.00000001
 43
0.00000001
 40
0.0
 40
0.0
 40
0.0
 40
0.0
 40
0.9881906518078407
 40
1.0
 40
1.0
 40
1.0
 40
1.0
 10
29.67702424669818
 20
92.17380364349759
 30
0.0
 10
29.74022649979342
 20
92.16922271102912
 30
0.0
 10
29.80418404986699
 20
92.16458703423936
 30
0.0
 10
29.86682073172149
 20
92.17281853685783
 30
0.0
 10
29.86756043010711
 20
92.17291574553839
 30
0.0
  0
LINE
  5
237
330
1F
100
AcDbEntity
  8
0
  6
Continuous
 62
     7
370
    25
100
AcDbLine
 10
53.9005139184
 20
92.1672730054
 30
0.0
 11
58.6797735816
 21
92.1672730054
 31
0.0
  0
LINE
  5
238
330
1F
100
AcDbEntity
  8
0
  6
Continuous
 62
     7
370
    25
100
AcDbLine
 10
24.9005139184
 20
92.1672730054
 30
0.0
 11
29.6797735816
 21
92.1672730054
 31
0.0
  0
SPLINE
  5
239
330
1F
100
AcDbEntity
  8
0
  6
Continuous
 62
     7
370
    25
100
AcDbSpline
210
0.0
220
0.0
230
1.0
 70
     8
 71
     3
 72
    19
 73
    15
 74
     0
 42
0.00000001
 43
0.00000001
 40
0.0
 40
0.0
 40
0.0
 40
0.0
 40
0.0196991431418834
 40
0.0725657013751601
 40
0.1246938383625812
 40
0.1832745953393111
 40
0.2586024136997533
 40
0.3669349801388561
 40
0.473021758257186
 40
0.5848621518563659
 40
0.692068078668634
 40
0.7970948007397352
 40
0.9009477705921977
 40
0.9999999999999999
 40
0.9999999999999999
 40
0.9999999999999999
 40
0.9999999999999999
 10
62.78077390952868
 20
97.64537050336526
 30
0.0
 10
62.78312333805354
 20
97.67345429063275
 30
0.0
 10
62.79177792406819
 20
97.77690649186088
 30
0.0
 10
62.72189148100045
 20
97.94281943043353
 30
0.0
 10
62.60746716292465
 20
98.09868700323236
 30
0.0
 10
62.46028634820073
 20
98.21917551159297
 30
0.0
 10
62.26260637246811
 20
98.33015120292659
 30
0.0
 10
61.99249127618483
 20
98.43324724289779
 30
0.0
 10
61.62285552558425
 20
98.5341684121485
 30
0.0
 10
61.18165168608603
 20
98.62408153498527
 30
0.0
 10
60.67032520964239
 20
98.70419727489171
 30
0.0
 10
60.1077357635458
 20
98.77269409122795
 30
0.0
 10
59.50822033508736
 20
98.83050364844539
 30
0.0
 10
59.07738520138854
 20
98.86009542859857
 30
0.0
 10
58.86706441781249
 20
98.87454124766583
 30
0.0
  0
SPLINE
  5
23A
330
1F
100
AcDbEntity
  8
0
  6
Continuous
 62
     7
370
    25
100
AcDbSpline
210
0.0
220
0.0
230
1.0
 70
     8
 71
     3
 72
    13
 73
     9
 74
     0
 42
0.00000001
 43
0.00000001
 40
0.0
 40
0.0
 40
0.0
 40
0.0
 40
0.10866487565664
 40
0.3163236897956725
 40
0.5248731276952955
 40
0.7348163659024678
 40
0.9385113469032289
 40
0.9999999999999999
 40
0.9999999999999999
 40
0.9999999999999999
 40
0.9999999999999999
 10
53.71322308218751
 20
98.87454124766583
 30
0.0
 10
53.59818827388136
 20
98.8669235720738
 30
0.0
 10
53.26332169626413
 20
98.84474850182802
 30
0.0
 10
52.7386024386787
 20
98.79984544926059
 30
0.0
 10
52.16115569787176
 20
98.7369119331927
 30
0.0
 10
51.64585282978389
 20
98.6648896820602
 30
0.0
 10
51.29791444074651
 20
98.60356540094594
 30
0.0
 10
51.12381020344322
 20
98.56664810756226
 30
0.0
 10
51.08344031000446
 20
98.5580880218169
 30
0.0
  0
SPLINE
  5
23B
330
1F
100
AcDbEntity
  8
0
  6
Continuous
 62
     7
370
    25
100
AcDbSpline
210
0.0
220
0.0
230
1.0
 70
     8
 71
     3
 72
    13
 73
     9
 74
     0
 42
0.00000001
 43
0.00000001
 40
0.0
 40
0.0
 40
0.0
 40
0.0
 40
0.1102307606094484
 40
0.3270686589264771
 40
0.5398731220288839
 40
0.7499744924543316
 40
0.9468186283249718
 40
1.0
 40
1.0
 40
1.0
 40
1.0
 10
32.49684718999554
 20
98.5580880218169
 30
0.0
 10
32.42368672937054
 20
98.57332482844645
 30
0.0
 10
32.2066103560355
 20
98.61853436780817
 30
0.0
 10
31.79566254761107
 20
98.68613422842206
 30
0.0
 10
31.24745191829827
 20
98.75740275956967
 30
0.0
 10
30.65945576362884
 20
98.81670451775992
 30
0.0
 10
30.18940705171048
 20
98.85369818627406
 30
0.0
 10
29.92360213049268
 20
98.87088545134098
 30
0.0
 10
29.86706441781249
 20
98.87454124766583
 30
0.0
  0
SPLINE
  5
23C
330
1F
100
AcDbEntity
  8
0
  6
Continuous
 62
     7
370
    25
100
AcDbSpline
210
0.0
220
0.0
230
1.0
 70
     8
 71
     3
 72
    19
 73
    15
 74
     0
 42
0.00000001
 43
0.00000001
 40
0.0
 40
0.0
 40
0.0
 40
0.0
 40
0.0537709431228883
 40
0.1565273325869543
 40
0.259724431887421
 40
0.363611229276704
 40
0.4685559922756867
 40
0.575288118161656
 40
0.6855026466894298
 40
0.8040048269487585
 40
0.8666612962301866
 40
0.9219416377815224
 40
0.9739113371569366
 40
1.0
 40
1.0
 40
1.0
 40
1.0
 10
24.71322308218756
 20
98.87454124766583
 30
0.0
 10
24.59818910789204
 20
98.86692344545598
 30
0.0
 10
24.26332495808156
 20
98.84474800662544
 30
0.0
 10
23.73857454855479
 20
98.79984968348344
 30
0.0
 10
23.16125887962774
 20
98.73689626834476
 30
0.0
 10
22.6385181146191
 20
98.66397798778328
 30
0.0
 10
22.17462116999337
 20
98.58121251510772
 30
0.0
 10
21.77168240178309
 20
98.48751274064624
 30
0.0
 10
21.42467840141388
 20
98.37685189347488
 30
0.0
 10
21.17921919596815
 20
98.26137990161624
 30
0.0
 10
20.99127603145321
 20
98.11785031148591
 30
0.0
 10
20.86944086460548
 20
97.9628110889659
 30
0.0
 10
20.79066466409377
 20
97.78963302531847
 30
0.0
 10
20.79932931417179
 20
97.67783009607352
 30
0.0
 10
20.80222521319034
 20
97.64046332532607
 30
0.0
  0
SPLINE
  5
23D
330
1F
100
AcDbEntity
  8
0
  6
Continuous
 62
     7
370
    25
100
AcDbSpline
210
0.0
220
0.0
230
1.0
 70
     8
 71
     3
 72
    19
 73
    15
 74
     0
 42
0.00000001
 43
0.00000001
 40
0.0
 40
0.0
 40
0.0
 40
0.0
 40
0.0537709431228886
 40
0.1565273325869538
 40
0.2597244318874237
 40
0.3636112292766985
 40
0.4685559922756845
 40
0.5752881181616522
 40
0.6855026466894328
 40
0.8040048269487579
 40
0.8666612962301832
 40
0.9219416377815206
 40
0.9739113371569378
 40
1.0
 40
1.0
 40
1.0
 40
1.0
 10
58.86706441781244
 20
92.1727340520545
 30
0.0
 10
58.98209839210796
 20
92.18035185426433
 30
0.0
 10
59.31696254191844
 20
92.20252729309489
 30
0.0
 10
59.84171295144522
 20
92.24742561623688
 30
0.0
 10
60.41902862037225
 20
92.31037903137555
 30
0.0
 10
60.9417693853809
 20
92.38329731193703
 30
0.0
 10
61.4056663300066
 20
92.4660627846126
 30
0.0
 10
61.80860509821692
 20
92.55976255907407
 30
0.0
 10
62.15560909858611
 20
92.67042340624545
 30
0.0
 10
62.40106830403187
 20
92.78589539810409
 30
0.0
 10
62.58901146854681
 20
92.9294249882344
 30
0.0
 10
62.71084663539452
 20
93.08446421075442
 30
0.0
 10
62.78962283590624
 20
93.25764227440185
 30
0.0
 10
62.78095818582821
 20
93.3694452036468
 30
0.0
 10
62.77806228680967
 20
93.40681197439426
 30
0.0
  0
SPLINE
  5
23E
330
1F
100
AcDbEntity
  8
0
  6
Continuous
 62
     7
370
    25
100
AcDbSpline
210
0.0
220
0.0
230
1.0
 70
     8
 71
     3
 72
    19
 73
    15
 74
     0
 42
0.00000001
 43
0.00000001
 40
0.0
 40
0.0
 40
0.0
 40
0.0
 40
0.019699143141889
 40
0.0725657013751673
 40
0.124693838362593
 40
0.1832745953393234
 40
0.2586024136997702
 40
0.3669349801388836
 40
0.4730217582572177
 40
0.5848621518563978
 40
0.6920680786686686
 40
0.7970948007397679
 40
0.9009477705922238
 40
1.0
 40
1.0
 40
1.0
 40
1.0
 10
20.79951359047131
 20
93.40190479635505
 30
0.0
 10
20.79716416194647
 20
93.37382100908756
 30
0.0
 10
20.78850957593182
 20
93.27036880785943
 30
0.0
 10
20.85839601899957
 20
93.10445586928675
 30
0.0
 10
20.97282033707538
 20
92.94858829648793
 30
0.0
 10
21.12000115179929
 20
92.82809978812732
 30
0.0
 10
21.31768112753191
 20
92.71712409679371
 30
0.0
 10
21.58779622381525
 20
92.6140280568225
 30
0.0
 10
21.95743197441585
 20
92.51310688757178
 30
0.0
 10
22.39863581391412
 20
92.42319376473503
 30
0.0
 10
22.90996229035777
 20
92.34307802482859
 30
0.0
 10
23.47255173645437
 20
92.27458120849234
 30
0.0
 10
24.07206716491276
 20
92.21677165127493
 30
0.0
 10
24.50290229861149
 20
92.18717987112174
 30
0.0
 10
24.7132230821875
 20
92.1727340520545
 30
0.0
  0
SPLINE
  5
23F
330
1F
100
AcDbEntity
  8
0
  6
Continuous
 62
     7
370
    25
100
AcDbSpline
210
0.0
220
0.0
230
1.0
 70
     8
 71
     3
 72
    13
 73
     9
 74
     0
 42
0.00000001
 43
0.00000001
 40
0.0
 40
0.0
 40
0.0
 40
0.0
 40
0.1086648756566398
 40
0.316323689795672
 40
0.5248731276952961
 40
0.7348163659024571
 40
0.938511346903222
 40
1.0
 40
1.0
 40
1.0
 40
1.0
 10
29.86706441781249
 20
92.1727340520545
 30
0.0
 10
29.98209922611865
 20
92.18035172764652
 30
0.0
 10
30.31696580373587
 20
92.20252679789229
 30
0.0
 10
30.8416850613213
 20
92.24742985045974
 30
0.0
 10
31.41913180212823
 20
92.31036336652761
 30
0.0
 10
31.9344346702161
 20
92.38238561766012
 30
0.0
 10
32.28237305925349
 20
92.44370989877437
 30
0.0
 10
32.45647729655678
 20
92.48062719215807
 30
0.0
 10
32.49684718999555
 20
92.48918727790343
 30
0.0
  0
SPLINE
  5
240
330
1F
100
AcDbEntity
  8
0
  6
Continuous
 62
     7
370
    25
100
AcDbSpline
210
0.0
220
0.0
230
1.0
 70
     8
 71
     3
 72
    13
 73
     9
 74
     0
 42
0.00000001
 43
0.00000001
 40
0.0
 40
0.0
 40
0.0
 40
0.0
 40
0.1102307606094482
 40
0.3270686589264767
 40
0.5398731220288836
 40
0.749974492454335
 40
0.9468186283249784
 40
1.0
 40
1.0
 40
1.0
 40
1.0
 10
51.08344031000446
 20
92.48918727790343
 30
0.0
 10
51.15660077062946
 20
92.47395047127388
 30
0.0
 10
51.3736771439645
 20
92.42874093191216
 30
0.0
 10
51.78462495238892
 20
92.36114107129825
 30
0.0
 10
52.33283558170174
 20
92.28987254015065
 30
0.0
 10
52.92083173637116
 20
92.23057078196041
 30
0.0
 10
53.39088044828953
 20
92.19357711344627
 30
0.0
 10
53.65668536950733
 20
92.17638984837933
 30
0.0
 10
53.71322308218751
 20
92.1727340520545
 30
0.0
  0
LINE
  5
241
330
1F
100
AcDbEntity
  8
0
  6
Continuous
 62
     7
370
    25
100
AcDbLine
 10
47.1426385374
 20
98.539073001
 30
0.0
 11
47.1397415681
 21
98.5396140693
 31
0.0
  0
LINE
  5
242
330
1F
100
AcDbEntity
  8
0
  6
Continuous
 62
     7
370
    25
100
AcDbLine
 10
51.08344031
 20
98.5580880218
 30
0.0
 11
50.9987725131
 21
98.5415720245
 31
0.0
  0
LINE
  5
243
330
1F
100
AcDbEntity
  8
0
  6
Continuous
 62
     7
370
    25
100
AcDbLine
 10
32.5541063149
 20
98.5465838407
 30
0.0
 11
32.49684719
 21
98.5580880218
 31
0.0
  0
LINE
  5
244
330
1F
100
AcDbEntity
  8
0
  6
Continuous
 62
     7
370
    25
100
AcDbLine
 10
36.4387760016
 20
98.5395575854
 30
0.0
 11
36.4081748176
 21
98.5339836794
 31
0.0
  0
LINE
  5
245
330
1F
100
AcDbEntity
  8
0
  6
Continuous
 62
     7
370
    25
100
AcDbLine
 10
36.4376489626
 20
92.5082022987
 30
0.0
 11
36.4405459319
 21
92.5076612305
 31
0.0
  0
LINE
  5
246
330
1F
100
AcDbEntity
  8
0
  6
Continuous
 62
     7
370
    25
100
AcDbLine
 10
32.49684719
 20
92.4891872779
 30
0.0
 11
32.5815149869
 21
92.5057032752
 31
0.0
  0
LINE
  5
247
330
1F
100
AcDbEntity
  8
0
  6
Continuous
 62
     7
370
    25
100
AcDbLine
 10
51.0261811851
 20
92.5006914591
 30
0.0
 11
51.08344031
 21
92.4891872779
 31
0.0
  0
LINE
  5
248
330
1F
100
AcDbEntity
  8
0
  6
Continuous
 62
     7
370
    25
100
AcDbLine
 10
47.1415114984
 20
92.5077177143
 30
0.0
 11
47.1721126824
 21
92.5132916204
 31
0.0
  0
SPLINE
  5
249
330
1F
100
AcDbEntity
  8
0
  6
Continuous
 62
     7
370
    25
100
AcDbSpline
210
0.0
220
0.0
230
1.0
 70
     8
 71
     3
 72
    11
 73
     7
 74
     0
 42
0.00000001
 43
0.00000001
 40
0.0
 40
0.0
 40
0.0
 40
0.0
 40
0.0332830875201864
 40
0.2511360934108542
 40
0.6221369479913585
 40
1.0
 40
1.0
 40
1.0
 40
1.0
 10
60.42983114480879
 20
92.31484254434562
 30
0.0
 10
60.42195716210358
 20
92.25581735054762
 30
0.0
 10
60.36254436709255
 20
91.81044531064131
 30
0.0
 10
60.36184360785893
 20
90.69679961811546
 30
0.0
 10
60.54217873210624
 20
88.97210964125088
 30
0.0
 10
60.93432644838484
 20
87.6770839598131
 30
0.0
 10
61.13219702487739
 20
87.02363764986013
 30
0.0
  0
SPLINE
  5
24A
330
1F
100
AcDbEntity
  8
0
  6
Continuous
 62
     7
370
    25
100
AcDbSpline
210
0.0
220
0.0
230
1.0
 70
    24
 71
     3
 72
    10
 73
     6
 74
     0
 42
0.00000001
 43
0.00000001
 40
0.0
 40
0.0
 40
0.0
 40
0.0
 40
0.3771482916294507
 40
0.7577825370299521
 40
1.0
 40
1.0
 40
1.0
 40
1.0
 10
61.13219702487739
 20
87.02363764986013
 30
0.0
 10
60.97192521571193
 20
87.02363764986013
 30
0.0
 10
60.64990021690031
 20
87.02363764986015
 30
0.0
 10
60.40815102007023
 20
87.02363764986015
 30
0.0
 10
60.38447807954152
 20
87.02363764986015
 30
0.0
 10
60.37527203656397
 20
87.02363764986015
 30
0.0
  0
SPLINE
  5
24B
330
1F
100
AcDbEntity
  8
0
  6
Continuous
 62
     7
370
    25
100
AcDbSpline
210
0.0
220
0.0
230
1.0
 70
    24
 71
     3
 72
    10
 73
     6
 74
     0
 42
0.00000001
 43
0.00000001
 40
0.0
 40
0.0
 40
0.0
 40
0.0
 40
0.2422135126000013
 40
0.6190341130996849
 40
1.0
 40
1.0
 40
1.0
 40
1.0
 10
60.37661388471847
 20
104.0236376498602
 30
0.0
 10
60.38527356455759
 20
104.0236376498601
 30
0.0
 10
60.40740543148519
 20
104.0236376498601
 30
0.0
 10
60.64879373375197
 20
104.0236376498601
 30
0.0
 10
60.9704760329477
 20
104.0236376498601
 30
0.0
 10
61.13219702487739
 20
104.0236376498601
 30
0.0
  0
SPLINE
  5
24C
330
1F
100
AcDbEntity
  8
0
  6
Continuous
 62
     7
370
    25
100
AcDbSpline
210
0.0
220
0.0
230
1.0
 70
     8
 71
     3
 72
    12
 73
     8
 74
     0
 42
0.00000001
 43
0.00000001
 40
0.0
 40
0.0
 40
0.0
 40
0.0
 40
0.2128029686070796
 40
0.4255457702511157
 40
0.6430477118539276
 40
0.8605104044493938
 40
1.0
 40
1.0
 40
1.0
 40
1.0
 10
61.13219702487739
 20
104.0236376498601
 30
0.0
 10
61.01676843830926
 20
103.6564135393906
 30
0.0
 10
60.7859439009372
 20
102.9220691457603
 30
0.0
 10
60.53514544266631
 20
101.7910672455939
 30
0.0
 10
60.39392224552797
 20
100.639464421772
 30
0.0
 10
60.33909897595632
 20
99.60911950285407
 30
0.0
 10
60.427582576521
 20
98.9746898798678
 30
0.0
 10
60.46216014351108
 20
98.72676786212332
 30
0.0
  0
LINE
  5
24D
330
1F
100
AcDbEntity
  8
0
  6
Continuous
 62
     7
370
    25
100
AcDbLine
 10
60.228670079
 20
103.7736376499
 30
0.0
 11
60.228670079
 21
98.7725847127
 31
0.0
  0
LINE
  5
24E
330
1F
100
AcDbEntity
  8
0
  6
Continuous
 62
     7
370
    25
100
AcDbLine
 10
60.228670079
 20
92.2834850596
 30
0.0
 11
60.228670079
 21
87.2736376499
 31
0.0
  0
SPLINE
  5
24F
330
1F
100
AcDbEntity
  8
0
  6
Continuous
 62
     7
370
    25
100
AcDbSpline
210
0.0
220
0.0
230
1.0
 70
    24
 71
     3
 72
    10
 73
     6
 74
     0
 42
0.00000001
 43
0.00000001
 40
0.0
 40
0.0
 40
0.0
 40
0.0
 40
0.2422135126000013
 40
0.6190341130996849
 40
1.0
 40
1.0
 40
1.0
 40
1.0
 10
73.08072627333179
 20
104.0236376498602
 30
0.0
 10
73.07206659349269
 20
104.0236376498601
 30
0.0
 10
73.04993472656508
 20
104.0236376498601
 30
0.0
 10
72.8085464242983
 20
104.0236376498601
 30
0.0
 10
72.48686412510256
 20
104.0236376498601
 30
0.0
 10
72.32514313317287
 20
104.0236376498601
 30
0.0
  0
SPLINE
  5
250
330
1F
100
AcDbEntity
  8
0
  6
Continuous
 62
     7
370
    25
100
AcDbSpline
210
0.0
220
0.0
230
1.0
 70
    24
 71
     3
 72
    10
 73
     6
 74
     0
 42
0.00000001
 43
0.00000001
 40
0.0
 40
0.0
 40
0.0
 40
0.0
 40
0.3771482916294507
 40
0.7577825370299521
 40
1.0
 40
1.0
 40
1.0
 40
1.0
 10
72.32514313317287
 20
87.02363764986013
 30
0.0
 10
72.48541494233832
 20
87.02363764986013
 30
0.0
 10
72.80743994114995
 20
87.02363764986015
 30
0.0
 10
73.04918913798004
 20
87.02363764986015
 30
0.0
 10
73.07286207850875
 20
87.02363764986015
 30
0.0
 10
73.08206812148629
 20
87.02363764986015
 30
0.0
  0
SPLINE
  5
251
330
1F
100
AcDbEntity
  8
0
  6
Continuous
 62
     7
370
    25
100
AcDbSpline
210
0.0
220
0.0
230
1.0
 70
     8
 71
     3
 72
    13
 73
     9
 74
     0
 42
0.00000001
 43
0.00000001
 40
0.0
 40
0.0
 40
0.0
 40
0.0
 40
0.1323374700420661
 40
0.2646375235775793
 40
0.3998971812287823
 40
0.535132430788464
 40
0.7654363136792479
 40
1.0
 40
1.0
 40
1.0
 40
1.0
 10
72.32514313317287
 20
95.52363764986016
 30
0.0
 10
72.44071850196623
 20
95.15640159661567
 30
0.0
 10
72.67183656228819
 20
94.42203332081188
 30
0.0
 10
72.92041766516716
 20
93.2912118333391
 30
0.0
 10
73.07024808652284
 20
92.13890869214303
 30
0.0
 10
73.10722700590053
 20
90.69776025905163
 30
0.0
 10
72.9115444757513
 20
88.97181343874132
 30
0.0
 10
72.52180071673189
 20
87.67698462431446
 30
0.0
 10
72.32514313317287
 20
87.02363764986013
 30
0.0
  0
SPLINE
  5
252
330
1F
100
AcDbEntity
  8
0
  6
Continuous
 62
     7
370
    25
100
AcDbSpline
210
0.0
220
0.0
230
1.0
 70
     8
 71
     3
 72
    13
 73
     9
 74
     0
 42
0.00000001
 43
0.00000001
 40
0.0
 40
0.0
 40
0.0
 40
0.0
 40
0.1323374700420676
 40
0.2646375235775826
 40
0.3998971812287874
 40
0.5351324307884706
 40
0.7654363136792514
 40
1.0
 40
1.0
 40
1.0
 40
1.0
 10
72.32514313317287
 20
104.0236376498601
 30
0.0
 10
72.44071850196623
 20
103.6564015966156
 30
0.0
 10
72.67183656228819
 20
102.9220333208118
 30
0.0
 10
72.92041766516715
 20
101.7912118333391
 30
0.0
 10
73.07024808652282
 20
100.638908692143
 30
0.0
 10
73.1072270059005
 20
99.19776025905158
 30
0.0
 10
72.91154447575128
 20
97.4718134387413
 30
0.0
 10
72.52180071673189
 20
96.17698462431447
 30
0.0
 10
72.32514313317289
 20
95.52363764986016
 30
0.0
  0
LINE
  5
253
330
1F
100
AcDbEntity
  8
0
  6
Continuous
 62
     7
370
    25
100
AcDbLine
 10
73.228670079
 20
103.7736376499
 30
0.0
 11
73.228670079
 21
87.2736376499
 31
0.0
  0
LINE
  5
254
330
1F
100
AcDbEntity
  8
0
  6
Continuous
 62
     7
370
    25
100
AcDbLine
 10
72.3251431332
 20
95.5236376499
 30
0.0
 11
62.79014375
 21
95.5236376499
 31
0.0
  0
LINE
  5
255
330
1F
100
AcDbEntity
  8
0
  6
Continuous
 62
     7
370
    25
100
AcDbLine
 10
72.3251431332
 20
104.0236376499
 30
0.0
 11
61.1321970249
 21
104.0236376499
 31
0.0
  0
LINE
  5
256
330
1F
100
AcDbEntity
  8
0
  6
Continuous
 62
     7
370
    25
100
AcDbLine
 10
72.3251431332
 20
87.0236376499
 30
0.0
 11
61.1321970249
 21
87.0236376499
 31
0.0
  0
LINE
  5
257
330
1F
100
AcDbEntity
  8
0
  6
Continuous
 62
     7
370
    25
100
AcDbLine
 10
11.2551443668
 20
104.0236376499
 30
0.0
 11
22.4480904751
 21
104.0236376499
 31
0.0
  0
SPLINE
  5
258
330
1F
100
AcDbEntity
  8
0
  6
Continuous
 62
     7
370
    25
100
AcDbSpline
210
0.0
220
0.0
230
1.0
 70
     8
 71
     3
 72
    11
 73
     7
 74
     0
 42
0.00000001
 43
0.00000001
 40
0.0
 40
0.0
 40
0.0
 40
0.0
 40
0.0332830875202126
 40
0.2511360934108745
 40
0.6221369479913686
 40
1.0
 40
1.0
 40
1.0
 40
1.0
 10
23.1504563551912
 20
98.73243275537455
 30
0.0
 10
23.15833033789641
 20
98.7914579491726
 30
0.0
 10
23.21774313290742
 20
99.23682998907897
 30
0.0
 10
23.2184438921411
 20
100.3504756816048
 30
0.0
 10
23.03810876789375
 20
102.0751656584694
 30
0.0
 10
22.64596105161515
 20
103.3701913399072
 30
0.0
 10
22.44809047512261
 20
104.0236376498602
 30
0.0
  0
LINE
  5
259
330
1F
100
AcDbEntity
  8
0
  6
Continuous
 62
     7
370
    25
100
AcDbLine
 10
11.2551443668
 20
95.5236376499
 30
0.0
 11
20.79014375
 21
95.5236376499
 31
0.0
  0
SPLINE
  5
25A
330
1F
100
AcDbEntity
  8
0
  6
Continuous
 62
     7
370
    25
100
AcDbSpline
210
0.0
220
0.0
230
1.0
 70
     8
 71
     3
 72
    13
 73
     9
 74
     0
 42
0.00000001
 43
0.00000001
 40
0.0
 40
0.0
 40
0.0
 40
0.0
 40
0.1323374700420661
 40
0.2646375235775794
 40
0.3998971812287823
 40
0.535132430788464
 40
0.7654363136792479
 40
1.0
 40
1.0
 40
1.0
 40
1.0
 10
11.25514436682713
 20
95.52363764986016
 30
0.0
 10
11.13956899803378
 20
95.89087370310465
 30
0.0
 10
10.90845093771181
 20
96.62524197890843
 30
0.0
 10
10.65986983483283
 20
97.7560634663812
 30
0.0
 10
10.51003941347716
 20
98.90836660757728
 30
0.0
 10
10.47306049409945
 20
100.3495150406687
 30
0.0
 10
10.66874302424872
 20
102.075461860979
 30
0.0
 10
11.05848678326811
 20
103.3702906754058
 30
0.0
 10
11.25514436682713
 20
104.0236376498602
 30
0.0
  0
SPLINE
  5
25B
330
1F
100
AcDbEntity
  8
0
  6
Continuous
 62
     7
370
    25
100
AcDbSpline
210
0.0
220
0.0
230
1.0
 70
    24
 71
     3
 72
    10
 73
     6
 74
     0
 42
0.00000001
 43
0.00000001
 40
0.0
 40
0.0
 40
0.0
 40
0.0
 40
0.3771482916294462
 40
0.757782537029943
 40
1.0
 40
1.0
 40
1.0
 40
1.0
 10
22.44809047512261
 20
104.0236376498602
 30
0.0
 10
22.60836228428807
 20
104.0236376498602
 30
0.0
 10
22.9303872830997
 20
104.0236376498602
 30
0.0
 10
23.17213647992977
 20
104.0236376498602
 30
0.0
 10
23.19580942045847
 20
104.0236376498602
 30
0.0
 10
23.20501546343603
 20
104.0236376498602
 30
0.0
  0
SPLINE
  5
25C
330
1F
100
AcDbEntity
  8
0
  6
Continuous
 62
     7
370
    25
100
AcDbSpline
210
0.0
220
0.0
230
1.0
 70
    24
 71
     3
 72
    10
 73
     6
 74
     0
 42
0.00000001
 43
0.00000001
 40
0.0
 40
0.0
 40
0.0
 40
0.0
 40
0.2422135125999923
 40
0.6190341130996805
 40
1.0
 40
1.0
 40
1.0
 40
1.0
 10
23.20367361528152
 20
87.02363764986015
 30
0.0
 10
23.19501393544241
 20
87.02363764986015
 30
0.0
 10
23.17288206851481
 20
87.02363764986016
 30
0.0
 10
22.93149376624803
 20
87.02363764986019
 30
0.0
 10
22.60981146705229
 20
87.02363764986019
 30
0.0
 10
22.44809047512262
 20
87.0236376498602
 30
0.0
  0
SPLINE
  5
25D
330
1F
100
AcDbEntity
  8
0
  6
Continuous
 62
     7
370
    25
100
AcDbSpline
210
0.0
220
0.0
230
1.0
 70
     8
 71
     3
 72
    12
 73
     8
 74
     0
 42
0.00000001
 43
0.00000001
 40
0.0
 40
0.0
 40
0.0
 40
0.0
 40
0.2128029686070854
 40
0.4255457702511273
 40
0.6430477118539449
 40
0.860510404449417
 40
1.0
 40
1.0
 40
1.0
 40
1.0
 10
22.44809047512262
 20
87.0236376498602
 30
0.0
 10
22.56351906169074
 20
87.39086176032966
 30
0.0
 10
22.7943435990628
 20
88.12520615396002
 30
0.0
 10
23.0451420573337
 20
89.25620805412643
 30
0.0
 10
23.18636525447203
 20
90.40781087794831
 30
0.0
 10
23.24118852404369
 20
91.4381557968662
 30
0.0
 10
23.152704923479
 20
92.07258541985242
 30
0.0
 10
23.11812735648894
 20
92.32050743759685
 30
0.0
  0
LINE
  5
25E
330
1F
100
AcDbEntity
  8
0
  6
Continuous
 62
     7
370
    25
100
AcDbLine
 10
23.351617421
 20
87.2736376499
 30
0.0
 11
23.351617421
 21
92.274690587
 31
0.0
  0
LINE
  5
25F
330
1F
100
AcDbEntity
  8
0
  6
Continuous
 62
     7
370
    25
100
AcDbLine
 10
23.351617421
 20
98.7637902401
 30
0.0
 11
23.351617421
 21
103.7736376499
 31
0.0
  0
SPLINE
  5
260
330
1F
100
AcDbEntity
  8
0
  6
Continuous
 62
     7
370
    25
100
AcDbSpline
210
0.0
220
0.0
230
1.0
 70
    24
 71
     3
 72
    10
 73
     6
 74
     0
 42
0.00000001
 43
0.00000001
 40
0.0
 40
0.0
 40
0.0
 40
0.0
 40
0.2422135125999923
 40
0.6190341130996805
 40
1.0
 40
1.0
 40
1.0
 40
1.0
 10
10.49956122666821
 20
87.02363764986015
 30
0.0
 10
10.50822090650733
 20
87.02363764986015
 30
0.0
 10
10.53035277343493
 20
87.02363764986016
 30
0.0
 10
10.77174107570172
 20
87.02363764986019
 30
0.0
 10
11.09342337489744
 20
87.02363764986019
 30
0.0
 10
11.25514436682712
 20
87.0236376498602
 30
0.0
  0
SPLINE
  5
261
330
1F
100
AcDbEntity
  8
0
  6
Continuous
 62
     7
370
    25
100
AcDbSpline
210
0.0
220
0.0
230
1.0
 70
    24
 71
     3
 72
    10
 73
     6
 74
     0
 42
0.00000001
 43
0.00000001
 40
0.0
 40
0.0
 40
0.0
 40
0.0
 40
0.3771482916294462
 40
0.757782537029943
 40
1.0
 40
1.0
 40
1.0
 40
1.0
 10
11.25514436682713
 20
104.0236376498602
 30
0.0
 10
11.09487255766167
 20
104.0236376498602
 30
0.0
 10
10.77284755885004
 20
104.0236376498602
 30
0.0
 10
10.53109836201997
 20
104.0236376498602
 30
0.0
 10
10.50742542149125
 20
104.0236376498602
 30
0.0
 10
10.4982193785137
 20
104.0236376498602
 30
0.0
  0
SPLINE
  5
262
330
1F
100
AcDbEntity
  8
0
  6
Continuous
 62
     7
370
    25
100
AcDbSpline
210
0.0
220
0.0
230
1.0
 70
     8
 71
     3
 72
    13
 73
     9
 74
     0
 42
0.00000001
 43
0.00000001
 40
0.0
 40
0.0
 40
0.0
 40
0.0
 40
0.1323374700420676
 40
0.2646375235775826
 40
0.3998971812287873
 40
0.5351324307884706
 40
0.7654363136792514
 40
1.0
 40
1.0
 40
1.0
 40
1.0
 10
11.25514436682712
 20
87.0236376498602
 30
0.0
 10
11.13956899803376
 20
87.39087370310469
 30
0.0
 10
10.9084509377118
 20
88.12524197890849
 30
0.0
 10
10.65986983483286
 20
89.25606346638126
 30
0.0
 10
10.51003941347716
 20
90.40836660757735
 30
0.0
 10
10.4730604940995
 20
91.84951504066873
 30
0.0
 10
10.66874302424872
 20
93.575461860979
 30
0.0
 10
11.05848678326811
 20
94.87029067540585
 30
0.0
 10
11.25514436682712
 20
95.52363764986016
 30
0.0
  0
LINE
  5
263
330
1F
100
AcDbEntity
  8
0
  6
Continuous
 62
     7
370
    25
100
AcDbLine
 10
10.351617421
 20
87.2736376499
 30
0.0
 11
10.351617421
 21
103.7736376499
 31
0.0
  0
LINE
  5
264
330
1F
100
AcDbEntity
  8
0
  6
Continuous
 62
     7
370
    25
100
AcDbLine
 10
11.2551443668
 20
87.0236376499
 30
0.0
 11
22.4480904751
 21
87.0236376499
 31
0.0
  0
LINE
  5
265
330
1F
100
AcDbEntity
  8
0
  6
Continuous
 62
     7
370
    25
100
AcDbLine
 10
27.54014375
 20
103.5236376499
 30
0.0
 11
27.54014375
 21
98.8800022943
 31
0.0
  0
LINE
  5
266
330
1F
100
AcDbEntity
  8
0
  6
Continuous
 62
     7
370
    25
100
AcDbLine
 10
27.54014375
 20
92.1672730054
 30
0.0
 11
27.54014375
 21
87.5236376499
 31
0.0
  0
LINE
  5
267
330
1F
100
AcDbEntity
  8
0
  6
Continuous
 62
     7
370
    25
100
AcDbLine
 10
27.34014375
 20
87.7236376499
 30
0.0
 11
27.34014375
 21
92.1672730054
 31
0.0
  0
LINE
  5
268
330
1F
100
AcDbEntity
  8
0
  6
Continuous
 62
     7
370
    25
100
AcDbLine
 10
27.34014375
 20
98.8800022943
 30
0.0
 11
27.34014375
 21
103.3236376499
 31
0.0
  0
LINE
  5
269
330
1F
100
AcDbEntity
  8
0
  6
Continuous
 62
     7
370
    25
100
AcDbLine
 10
56.04014375
 20
103.298866749
 30
0.0
 11
56.04014375
 21
103.5236376499
 31
0.0
  0
LINE
  5
26A
330
1F
100
AcDbEntity
  8
0
  6
Continuous
 62
     7
370
    25
100
AcDbLine
 10
56.04014375
 20
87.5236376499
 30
0.0
 11
56.04014375
 21
92.1672730054
 31
0.0
  0
LINE
  5
26B
330
1F
100
AcDbEntity
  8
0
  6
Continuous
 62
     7
370
    25
100
AcDbLine
 10
56.04014375
 20
98.8800022943
 30
0.0
 11
56.04014375
 21
103.298866749
 31
0.0
  0
LINE
  5
26C
330
1F
100
AcDbEntity
  8
0
  6
Continuous
 62
     7
370
    25
100
AcDbLine
 10
56.24014375
 20
103.1044860216
 30
0.0
 11
56.24014375
 21
98.8800022943
 31
0.0
  0
LINE
  5
26D
330
1F
100
AcDbEntity
  8
0
  6
Continuous
 62
     7
370
    25
100
AcDbLine
 10
56.24014375
 20
92.1672730054
 30
0.0
 11
56.24014375
 21
87.7236376499
 31
0.0
  0
LINE
  5
26E
330
1F
100
AcDbEntity
  8
0
  6
Continuous
 62
     7
370
    25
100
AcDbLine
 10
56.24014375
 20
103.3236376499
 30
0.0
 11
56.24014375
 21
103.1044860216
 31
0.0
  0
SPLINE
  5
26F
330
1F
100
AcDbEntity
  8
0
  6
Continuous
 62
     7
370
    25
100
AcDbSpline
210
0.0
220
0.0
230
1.0
 70
     8
 71
     3
 72
    12
 73
     8
 74
     0
 42
0.00000001
 43
0.00000001
 40
0.0
 40
0.0
 40
0.0
 40
0.0
 40
0.1835541808817681
 40
0.3708656504822918
 40
0.8083330658171437
 40
0.9944363923102547
 40
1.0
 40
1.0
 40
1.0
 40
1.0
 10
59.04771472655333
 20
98.37553262510659
 30
0.0
 10
58.88507353910044
 20
98.37611569253013
 30
0.0
 10
58.55646195700425
 20
98.37729376255973
 30
0.0
 10
57.81743272544232
 20
98.2668507210099
 30
0.0
 10
57.06153267268501
 20
98.08561558318002
 30
0.0
 10
56.47426762942806
 20
97.92906508321215
 30
0.0
 10
56.29533763641195
 20
97.88138628942649
 30
0.0
 10
56.29014375000001
 20
97.88000229429517
 30
0.0
  0
SPLINE
  5
270
330
1F
100
AcDbEntity
  8
0
  6
Continuous
 62
     7
370
    25
100
AcDbSpline
210
0.0
220
0.0
230
1.0
 70
     8
 71
     3
 72
    12
 73
     8
 74
     0
 42
0.00000001
 43
0.00000001
 40
0.0
 40
0.0
 40
0.0
 40
0.0
 40
0.0055634992845846
 40
0.191663199612416
 40
0.6291220910311065
 40
0.8147446662968212
 40
0.9999999999999999
 40
0.9999999999999999
 40
0.9999999999999999
 40
0.9999999999999999
 10
56.29014375000001
 20
93.16727300542516
 30
0.0
 10
56.29533763824174
 20
93.16588902023982
 30
0.0
 10
56.47426769429421
 20
93.1182105690941
 30
0.0
 10
57.06151155998208
 20
92.96154495641177
 30
0.0
 10
57.81599768682065
 20
92.7815403115484
 30
0.0
 10
58.55475423511036
 20
92.66911363369603
 30
0.0
 10
58.88350307125655
 20
92.67086690633526
 30
0.0
 10
59.04771472655333
 20
92.67174267461371
 30
0.0
  0
SPLINE
  5
271
330
1F
100
AcDbEntity
  8
0
  6
Continuous
 62
     7
370
    25
100
AcDbSpline
210
0.0
220
0.0
230
1.0
 70
     8
 71
     3
 72
    12
 73
     8
 74
     0
 42
0.00000001
 43
0.00000001
 40
0.0
 40
0.0
 40
0.0
 40
0.0
 40
0.1852553337031795
 40
0.3708779089688943
 40
0.8083368003875847
 40
0.9944365007154153
 40
1.0
 40
1.0
 40
1.0
 40
1.0
 10
53.53257277344668
 20
92.67174267461371
 30
0.0
 10
53.69678442874348
 20
92.67086690633526
 30
0.0
 10
54.02553326488966
 20
92.66911363369603
 30
0.0
 10
54.76428981317937
 20
92.7815403115484
 30
0.0
 10
55.51877594001793
 20
92.96154495641179
 30
0.0
 10
56.10601980570582
 20
93.11821056909409
 30
0.0
 10
56.28494986175829
 20
93.16588902023982
 30
0.0
 10
56.29014375000001
 20
93.16727300542516
 30
0.0
  0
ELLIPSE
  5
272
330
1F
100
AcDbEntity
  8
0
  6
Continuous
 62
     7
370
    25
100
AcDbEllipse
 10
56.29014375
 20
93.4031476353
 30
0.0
 11
6.499999999999993
 21
0.0
 31
0.0
210
0.0
220
0.0
230
1.0
 40
0.124260355
 41
3.696234591426898
 42
4.274264664245604
  0
LINE
  5
273
330
1F
100
AcDbEntity
  8
0
  6
Continuous
 62
     7
370
    25
100
AcDbLine
 10
50.7645648324
 20
98.0694898926
 30
0.0
 11
50.7645648324
 21
92.9777854071
 31
0.0
  0
ELLIPSE
  5
274
330
1F
100
AcDbEntity
  8
0
  6
Continuous
 62
     7
370
    25
100
AcDbEllipse
 10
56.29014375
 20
97.6441276644
 30
0.0
 11
6.499999999999993
 21
0.0
 31
0.0
210
0.0
220
0.0
230
1.0
 40
0.124260355
 41
2.008920642934012
 42
2.586950715752785
  0
SPLINE
  5
275
330
1F
100
AcDbEntity
  8
0
  6
Continuous
 62
     7
370
    25
100
AcDbSpline
210
0.0
220
0.0
230
1.0
 70
     8
 71
     3
 72
    12
 73
     8
 74
     0
 42
0.00000001
 43
0.00000001
 40
0.0
 40
0.0
 40
0.0
 40
0.0
 40
0.0055634992845846
 40
0.1916631996124154
 40
0.6291220910311057
 40
0.8147446662968203
 40
1.0
 40
1.0
 40
1.0
 40
1.0
 10
56.29014375000001
 20
97.88000229429517
 30
0.0
 10
56.28494986175829
 20
97.88138627948051
 30
0.0
 10
56.10601980570584
 20
97.92906473062645
 30
0.0
 10
55.5187759400179
 20
98.08573034330828
 30
0.0
 10
54.76428981317937
 20
98.26573498817196
 30
0.0
 10
54.02553326488966
 20
98.37816166602428
 30
0.0
 10
53.69678442874347
 20
98.37640839338505
 30
0.0
 10
53.53257277344668
 20
98.37553262510659
 30
0.0
  0
SPLINE
  5
276
330
1F
100
AcDbEntity
  8
0
  6
Continuous
 62
     7
370
    25
100
AcDbSpline
210
0.0
220
0.0
230
1.0
 70
     8
 71
     3
 72
    12
 73
     8
 74
     0
 42
0.00000001
 43
0.00000001
 40
0.0
 40
0.0
 40
0.0
 40
0.0
 40
0.0055634992845847
 40
0.1916631996124151
 40
0.6291220910311073
 40
0.8147446662968211
 40
1.0
 40
1.0
 40
1.0
 40
1.0
 10
27.29014375
 20
97.88000229429517
 30
0.0
 10
27.28494986175827
 20
97.88138627948052
 30
0.0
 10
27.10601980570585
 20
97.92906473062648
 30
0.0
 10
26.51877594001788
 20
98.08573034330826
 30
0.0
 10
25.76428981317937
 20
98.26573498817196
 30
0.0
 10
25.02553326488965
 20
98.3781616660243
 30
0.0
 10
24.69678442874346
 20
98.37640839338506
 30
0.0
 10
24.53257277344668
 20
98.3755326251066
 30
0.0
  0
LINE
  5
277
330
1F
100
AcDbEntity
  8
0
  6
Continuous
 62
     7
370
    25
100
AcDbLine
 10
29.8355938822
 20
98.8710629559
 30
0.0
 11
29.866743108
 21
98.8745609326
 31
0.0
  0
SPLINE
  5
278
330
1F
100
AcDbEntity
  8
0
  6
Continuous
 62
     7
370
    25
100
AcDbSpline
210
0.0
220
0.0
230
1.0
 70
     8
 71
     3
 72
    12
 73
     8
 74
     0
 42
0.00000001
 43
0.00000001
 40
0.0
 40
0.0
 40
0.0
 40
0.0
 40
0.1835541808817686
 40
0.3708656504822933
 40
0.8083330658171419
 40
0.9944363923102552
 40
1.0
 40
1.0
 40
1.0
 40
1.0
 10
30.04771472655332
 20
98.37553262510659
 30
0.0
 10
29.88507353910042
 20
98.37611569253013
 30
0.0
 10
29.55646195700422
 20
98.37729376255973
 30
0.0
 10
28.81743272544231
 20
98.26685072100992
 30
0.0
 10
28.06153267268505
 20
98.08561558317989
 30
0.0
 10
27.474267629428
 20
97.92906508321227
 30
0.0
 10
27.29533763641194
 20
97.88138628942649
 30
0.0
 10
27.29014375
 20
97.88000229429517
 30
0.0
  0
ELLIPSE
  5
279
330
1F
100
AcDbEntity
  8
0
  6
Continuous
 62
     7
370
    25
100
AcDbEllipse
 10
27.29014375
 20
97.6441276644
 30
0.0
 11
6.499999999999996
 21
-1.421085471520200E-14
 31
0.0
210
0.0
220
0.0
230
1.0
 40
0.124260355
 41
0.5546419378370281
 42
1.132672010655785
  0
LINE
  5
27A
330
1F
100
AcDbEntity
  8
0
  6
Continuous
 62
     7
370
    25
100
AcDbLine
 10
32.8157226676
 20
98.0694898926
 30
0.0
 11
32.8157226676
 21
92.9777854071
 31
0.0
  0
ELLIPSE
  5
27B
330
1F
100
AcDbEntity
  8
0
  6
Continuous
 62
     7
370
    25
100
AcDbEllipse
 10
27.29014375
 20
93.4031476353
 30
0.0
 11
6.499999999999996
 21
0.0
 31
0.0
210
0.0
220
0.0
230
1.0
 40
0.124260355
 41
5.150513296523817
 42
5.728543369342645
  0
SPLINE
  5
27C
330
1F
100
AcDbEntity
  8
0
  6
Continuous
 62
     7
370
    25
100
AcDbSpline
210
0.0
220
0.0
230
1.0
 70
     8
 71
     3
 72
    12
 73
     8
 74
     0
 42
0.00000001
 43
0.00000001
 40
0.0
 40
0.0
 40
0.0
 40
0.0
 40
0.0055634992845842
 40
0.1916631996124148
 40
0.6291220910311054
 40
0.8147446662968201
 40
0.9999999999999999
 40
0.9999999999999999
 40
0.9999999999999999
 40
0.9999999999999999
 10
27.29014375
 20
93.16727300542516
 30
0.0
 10
27.29533763824172
 20
93.16588902023982
 30
0.0
 10
27.47426769429419
 20
93.11821056909422
 30
0.0
 10
28.06151155998206
 20
92.96154495641164
 30
0.0
 10
28.81599768682063
 20
92.78154031154843
 30
0.0
 10
29.55475423511034
 20
92.66911363369603
 30
0.0
 10
29.88350307125653
 20
92.67086690633526
 30
0.0
 10
30.04771472655332
 20
92.67174267461371
 30
0.0
  0
SPLINE
  5
27D
330
1F
100
AcDbEntity
  8
0
  6
Continuous
 62
     7
370
    25
100
AcDbSpline
210
0.0
220
0.0
230
1.0
 70
     8
 71
     3
 72
    12
 73
     8
 74
     0
 42
0.00000001
 43
0.00000001
 40
0.0
 40
0.0
 40
0.0
 40
0.0
 40
0.185255333703179
 40
0.3708779089688945
 40
0.8083368003875852
 40
0.9944365007154158
 40
1.0
 40
1.0
 40
1.0
 40
1.0
 10
24.53257277344667
 20
92.67174267461372
 30
0.0
 10
24.69678442874346
 20
92.67086690633526
 30
0.0
 10
25.02553326488965
 20
92.66911363369603
 30
0.0
 10
25.76428981317936
 20
92.78154031154843
 30
0.0
 10
26.51877594001798
 20
92.96154495641164
 30
0.0
 10
27.10601980570575
 20
93.11821056909422
 30
0.0
 10
27.28494986175827
 20
93.16588902023982
 30
0.0
 10
27.29014375
 20
93.16727300542516
 30
0.0
  0
LINE
  5
27E
330
1F
100
AcDbEntity
  8
0
  6
Continuous
 62
     7
370
    25
100
AcDbLine
 10
53.7446936178
 20
92.1762123438
 30
0.0
 11
53.713544392
 21
92.1727143671
 31
0.0
  0
LINE
  5
27F
330
1F
100
AcDbEntity
  8
0
  6
Continuous
 62
     7
370
    25
100
AcDbLine
 10
24.7446936178
 20
92.1762123438
 30
0.0
 11
24.713544392
 21
92.1727143671
 31
0.0
  0
CIRCLE
  5
280
330
1F
100
AcDbEntity
  8
0
  6
Continuous
 62
     7
370
    25
100
AcDbCircle
 10
41.79014375
 20
95.5236376499
 30
0.0
 40
5.584181783769409
  0
CIRCLE
  5
281
330
1F
100
AcDbEntity
  8
0
  6
Continuous
 62
     7
370
    25
100
AcDbCircle
 10
41.79014375
 20
95.5236376499
 30
0.0
 40
5.095107983402499
  0
CIRCLE
  5
282
330
1F
100
AcDbEntity
  8
0
  6
Continuous
 62
     7
370
    25
100
AcDbCircle
 10
41.79014375
 20
95.5236376499
 30
0.0
 40
4.500000000000014
  0
ARC
  5
283
330
1F
100
AcDbEntity
  8
0
  6
Continuous
 62
     7
370
    25
100
AcDbCircle
 10
41.79014375
 20
95.5236376499
 30
0.0
 40
5.925113123340048
100
AcDbArc
 50
210.7429878176
 51
329.2570121825
  0
ARC
  5
284
330
1F
100
AcDbEntity
  8
0
  6
Continuous
 62
     7
370
    25
100
AcDbCircle
 10
41.79014375
 20
95.5236376499
 30
0.0
 40
5.925113123340047
100
AcDbArc
 50
180.0
 51
210.7429878176
  0
ARC
  5
285
330
1F
100
AcDbEntity
  8
0
  6
Continuous
 62
     7
370
    25
100
AcDbCircle
 10
41.79014375
 20
95.5236376499
 30
0.0
 40
5.925113123340047
100
AcDbArc
 50
149.2570121824
 51
180.0
  0
ARC
  5
286
330
1F
100
AcDbEntity
  8
0
  6
Continuous
 62
     7
370
    25
100
AcDbCircle
 10
41.79014375
 20
95.5236376499
 30
0.0
 40
5.925113123340048
100
AcDbArc
 50
30.7429878175
 51
149.2570121824
  0
ARC
  5
287
330
1F
100
AcDbEntity
  8
0
  6
Continuous
 62
     7
370
    25
100
AcDbCircle
 10
41.79014375
 20
95.5236376499
 30
0.0
 40
5.925113123340054
100
AcDbArc
 50
0.0
 51
30.7429878175
  0
ARC
  5
288
330
1F
100
AcDbEntity
  8
0
  6
Continuous
 62
     7
370
    25
100
AcDbCircle
 10
41.79014375
 20
95.5236376499
 30
0.0
 40
5.925113123340054
100
AcDbArc
 50
329.2570121825
 51
0.0
  0
LINE
  5
289
330
1F
100
AcDbEntity
  8
0
  6
Continuous
 62
     7
370
    25
100
AcDbLine
 10
35.8650306267
 20
95.5236376499
 30
0.0
 11
35.8650306267
 21
93.0489890655
 31
0.0
  0
ELLIPSE
  5
28A
330
1F
100
AcDbEntity
  8
0
  6
Continuous
 62
     7
370
    25
100
AcDbEllipse
 10
34.5159007961
 20
92.8005511453
 30
0.0
 11
2.0
 21
0.0
 31
0.0
210
0.0
220
0.0
230
1.0
 40
0.1682692308
 41
0.8304211569478636
 42
2.586950715752812
  0
ELLIPSE
  5
28B
330
1F
100
AcDbEntity
  8
0
  6
Continuous
 62
     7
370
    25
100
AcDbEllipse
 10
34.5159007961
 20
98.2467241544
 30
0.0
 11
2.0
 21
0.0
 31
0.0
210
0.0
220
0.0
230
1.0
 40
0.1682692308
 41
3.69623459142689
 42
5.452764150231712
  0
LINE
  5
28C
330
1F
100
AcDbEntity
  8
0
  6
Continuous
 62
     7
370
    25
100
AcDbLine
 10
35.8650306267
 20
97.9982862342
 30
0.0
 11
35.8650306267
 21
95.5236376499
 31
0.0
  0
ELLIPSE
  5
28D
330
1F
100
AcDbEntity
  8
0
  6
Continuous
 62
     7
370
    25
100
AcDbEllipse
 10
49.0643867039
 20
98.2467241544
 30
0.0
 11
2.0
 21
0.0
 31
0.0
210
0.0
220
0.0
230
1.0
 40
0.1682692308
 41
3.972013810537773
 42
5.728543369342574
  0
SPLINE
  5
28E
330
1F
100
AcDbEntity
  8
0
  6
Continuous
 62
     7
370
    25
100
AcDbSpline
210
0.0
220
0.0
230
1.0
 70
     8
 71
     3
 72
    12
 73
     8
 74
     0
 42
0.00000001
 43
0.00000001
 40
0.0
 40
0.0
 40
0.0
 40
0.0
 40
0.1443005026356243
 40
0.2873275205918756
 40
0.5201185386439744
 40
0.7602843466484758
 40
1.0
 40
1.0
 40
1.0
 40
1.0
 10
47.71525687334005
 20
97.99828623419394
 30
0.0
 10
47.70927261331555
 20
98.04585768463993
 30
0.0
 10
47.69735690571918
 20
98.14058075668714
 30
0.0
 10
47.6039716835228
 20
98.28863772001331
 30
0.0
 10
47.45121374012114
 20
98.42413731655164
 30
0.0
 10
47.23674782493286
 20
98.53003299765636
 30
0.0
 10
47.07870784537812
 20
98.54500488316795
 30
0.0
 10
46.99976198060649
 20
98.55248380370632
 30
0.0
  0
ELLIPSE
  5
28F
330
1F
100
AcDbEntity
  8
0
  6
Continuous
 62
     7
370
    25
100
AcDbEllipse
 10
49.0643867039
 20
98.7422544852
 30
0.0
 11
2.5
 21
0.0
 31
0.0
210
0.0
220
0.0
230
1.0
 40
0.1346153846
 41
3.82021945843242
 42
5.652227796108837
  0
SPLINE
  5
290
330
1F
100
AcDbEntity
  8
0
  6
Continuous
 62
     7
370
    25
100
AcDbSpline
210
0.0
220
0.0
230
1.0
 70
     8
 71
     3
 72
    12
 73
     8
 74
     0
 42
0.00000001
 43
0.00000001
 40
0.0
 40
0.0
 40
0.0
 40
0.0
 40
0.2571943124574411
 40
0.5245503439757947
 40
0.7385170215182971
 40
0.8882338470637767
 40
1.0
 40
1.0
 40
1.0
 40
1.0
 10
36.58052551939353
 20
98.55248380370632
 30
0.0
 10
36.49582724187239
 20
98.54386852946342
 30
0.0
 10
36.32308426717999
 20
98.52629759243773
 30
0.0
 10
36.10385923841515
 20
98.4077871867099
 30
0.0
 10
35.95447946303577
 20
98.26179904203083
 30
0.0
 10
35.87708294644172
 20
98.12121657904133
 30
0.0
 10
35.86863958727789
 20
98.03509663927251
 30
0.0
 10
35.86503062665995
 20
97.99828623419396
 30
0.0
  0
ELLIPSE
  5
291
330
1F
100
AcDbEntity
  8
0
  6
Continuous
 62
     7
370
    25
100
AcDbEllipse
 10
34.5159007961
 20
98.7422544852
 30
0.0
 11
2.5
 21
0.0
 31
0.0
210
0.0
220
0.0
230
1.0
 40
0.1346153846
 41
3.775441181735537
 42
5.592397000750284
  0
ELLIPSE
  5
292
330
1F
100
AcDbEntity
  8
0
  6
Continuous
 62
     7
370
    25
100
AcDbEllipse
 10
49.0643867039
 20
92.8005511453
 30
0.0
 11
2.0
 21
0.0
 31
0.0
210
0.0
220
0.0
230
1.0
 40
0.1682692308
 41
0.5546419378369625
 42
2.311171496641951
  0
LINE
  5
293
330
1F
100
AcDbEntity
  8
0
  6
Continuous
 62
     7
370
    25
100
AcDbLine
 10
47.7152568733
 20
95.5236376499
 30
0.0
 11
47.7152568733
 21
93.0489890655
 31
0.0
  0
LINE
  5
294
330
1F
100
AcDbEntity
  8
0
  6
Continuous
 62
     7
370
    25
100
AcDbLine
 10
47.7152568733
 20
97.9982862342
 30
0.0
 11
47.7152568733
 21
95.5236376499
 31
0.0
  0
SPLINE
  5
295
330
1F
100
AcDbEntity
  8
0
  6
Continuous
 62
     7
370
    25
100
AcDbSpline
210
0.0
220
0.0
230
1.0
 70
     8
 71
     3
 72
    12
 73
     8
 74
     0
 42
0.00000001
 43
0.00000001
 40
0.0
 40
0.0
 40
0.0
 40
0.0
 40
0.1443005026356249
 40
0.2873275205918763
 40
0.520118538643975
 40
0.7602843466484801
 40
1.0
 40
1.0
 40
1.0
 40
1.0
 10
35.86503062665996
 20
93.04898906552636
 30
0.0
 10
35.87101488668446
 20
93.00141761508038
 30
0.0
 10
35.88293059428083
 20
92.90669454303317
 30
0.0
 10
35.9763158164772
 20
92.75863757970701
 30
0.0
 10
36.12907375987887
 20
92.62313798316868
 30
0.0
 10
36.34353967506714
 20
92.51724230206396
 30
0.0
 10
36.50157965462189
 20
92.50227041655236
 30
0.0
 10
36.58052551939353
 20
92.494791496014
 30
0.0
  0
ELLIPSE
  5
296
330
1F
100
AcDbEntity
  8
0
  6
Continuous
 62
     7
370
    25
100
AcDbEllipse
 10
34.5159007961
 20
92.3050208145
 30
0.0
 11
2.5
 21
0.0
 31
0.0
210
0.0
220
0.0
230
1.0
 40
0.1346153846
 41
0.6786268048425347
 42
2.510635142519007
  0
SPLINE
  5
297
330
1F
100
AcDbEntity
  8
0
  6
Continuous
 62
     7
370
    25
100
AcDbSpline
210
0.0
220
0.0
230
1.0
 70
     8
 71
     3
 72
    12
 73
     8
 74
     0
 42
0.00000001
 43
0.00000001
 40
0.0
 40
0.0
 40
0.0
 40
0.0
 40
0.2571943124574413
 40
0.5245503439757959
 40
0.7385170215182981
 40
0.8882338470637772
 40
1.0
 40
1.0
 40
1.0
 40
1.0
 10
46.99976198060648
 20
92.494791496014
 30
0.0
 10
47.08446025812761
 20
92.5034067702569
 30
0.0
 10
47.25720323282003
 20
92.5209777072826
 30
0.0
 10
47.47642826158485
 20
92.63948811301042
 30
0.0
 10
47.62580803696424
 20
92.78547625768948
 30
0.0
 10
47.70320455355829
 20
92.926058720679
 30
0.0
 10
47.71164791272211
 20
93.0121786604478
 30
0.0
 10
47.71525687334005
 20
93.04898906552636
 30
0.0
  0
ELLIPSE
  5
298
330
1F
100
AcDbEntity
  8
0
  6
Continuous
 62
     7
370
    25
100
AcDbEllipse
 10
49.0643867039
 20
92.3050208145
 30
0.0
 11
2.5
 21
0.0
 31
0.0
210
0.0
220
0.0
230
1.0
 40
0.1346153846
 41
0.6338485281456778
 42
2.45080434716043
  0
ARC
  5
299
330
1F
100
AcDbEntity
  8
0
  6
Continuous
 62
     7
370
    25
100
AcDbCircle
 10
41.79014375
 20
95.5236376499
 30
0.0
 40
7.999999999999988
100
AcDbArc
 50
21.1234840263
 51
158.8765159737
  0
LINE
  5
29A
330
1F
100
AcDbEntity
  8
0
  6
Continuous
 62
     7
370
    25
100
AcDbLine
 10
46.8825946826
 20
98.5524838037
 30
0.0
 11
46.9997619806
 21
98.5524838037
 31
0.0
  0
LINE
  5
29B
330
1F
100
AcDbEntity
  8
0
  6
Continuous
 62
     7
370
    25
100
AcDbLine
 10
36.5805255194
 20
98.5524838037
 30
0.0
 11
36.6976928174
 21
98.5524838037
 31
0.0
  0
ARC
  5
29C
330
1F
100
AcDbEntity
  8
0
  6
Continuous
 62
     7
370
    25
100
AcDbCircle
 10
41.79014375
 20
95.5236376499
 30
0.0
 40
7.999999999999987
100
AcDbArc
 50
201.1234840263
 51
338.8765159737
  0
LINE
  5
29D
330
1F
100
AcDbEntity
  8
0
  6
Continuous
 62
     7
370
    25
100
AcDbLine
 10
46.9997619806
 20
92.494791496
 30
0.0
 11
46.8825946826
 21
92.494791496
 31
0.0
  0
LINE
  5
29E
330
1F
100
AcDbEntity
  8
0
  6
Continuous
 62
     7
370
    25
100
AcDbLine
 10
36.6976928174
 20
92.494791496
 30
0.0
 11
36.5805255194
 21
92.494791496
 31
0.0
  0
LINE
  5
29F
330
1F
100
AcDbEntity
  8
0
  6
Continuous
 62
     7
370
    25
100
AcDbLine
 10
39.5526597285
 20
94.5483651049
 30
0.0
 11
39.5198642014
 21
94.5671091441
 31
0.0
  0
SPLINE
  5
2A0
330
1F
100
AcDbEntity
  8
0
  6
Continuous
 62
     7
370
    25
100
AcDbSpline
210
0.0
220
0.0
230
1.0
 70
     8
 71
     3
 72
    15
 73
    11
 74
     0
 42
0.00000001
 43
0.00000001
 40
0.0
 40
0.0
 40
0.0
 40
0.0
 40
0.1241930067305288
 40
0.2496556654892301
 40
0.3743703853151213
 40
0.4998404796364205
 40
0.6240146704162366
 40
0.7475381382242064
 40
0.8745858500551822
 40
1.0
 40
1.0
 40
1.0
 40
1.0
 10
40.33294945013053
 20
94.82080475544593
 30
0.0
 10
40.31738905502083
 20
94.78495755270202
 30
0.0
 10
40.28610918750931
 20
94.71289667349022
 30
0.0
 10
40.20867282802094
 20
94.62302116014733
 30
0.0
 10
40.11531882428203
 20
94.550697382353
 30
0.0
 10
40.00809321826105
 20
94.50176996384843
 30
0.0
 10
39.89370730754012
 20
94.47544191039364
 30
0.0
 10
39.77603654465479
 20
94.47458281639105
 30
0.0
 10
39.65915281942959
 20
94.49596557702066
 30
0.0
 10
39.58800396853486
 20
94.53097410348141
 30
0.0
 10
39.55265972845143
 20
94.54836510486282
 30
0.0
  0
LINE
  5
2A1
330
1F
100
AcDbEntity
  8
0
  6
Continuous
 62
     7
370
    25
100
AcDbLine
 10
41.3248034948
 20
97.5943839714
 30
0.0
 11
40.3329494501
 21
94.8208047554
 31
0.0
  0
SPLINE
  5
2A2
330
1F
100
AcDbEntity
  8
0
  6
Continuous
 62
     7
370
    25
100
AcDbSpline
210
0.0
220
0.0
230
1.0
 70
     8
 71
     3
 72
    15
 73
    11
 74
     0
 42
0.00000001
 43
0.00000001
 40
0.0
 40
0.0
 40
0.0
 40
0.0
 40
0.1233025178081761
 40
0.2485158700387113
 40
0.3756924668130946
 40
0.4999990880429329
 40
0.6243057092728392
 40
0.751482306047304
 40
0.8766757256079954
 40
1.0
 40
1.0
 40
1.0
 40
1.0
 10
42.25548400835167
 20
97.5943839713593
 30
0.0
 10
42.23133303638931
 20
97.63502910729507
 30
0.0
 10
42.18265682185457
 20
97.71694926188293
 30
0.0
 10
42.06730616364946
 20
97.80676821769539
 30
0.0
 10
41.93414654138758
 20
97.86434236585653
 30
0.0
 10
41.7901438980188
 20
97.88350106152662
 30
0.0
 10
41.64614036932031
 20
97.86434295864157
 30
0.0
 10
41.51299049635481
 20
97.80676884490302
 30
0.0
 10
41.39762813882039
 20
97.71696328275632
 30
0.0
 10
41.34895635314919
 20
97.63503835123157
 30
0.0
 10
41.32480349483237
 20
97.59438397135942
 30
0.0
  0
LINE
  5
2A3
330
1F
100
AcDbEntity
  8
0
  6
Continuous
 62
     7
370
    25
100
AcDbLine
 10
43.2471069147
 20
94.821451101
 30
0.0
 11
42.2554840084
 21
97.5943839714
 31
0.0
  0
SPLINE
  5
2A4
330
1F
100
AcDbEntity
  8
0
  6
Continuous
 62
     7
370
    25
100
AcDbSpline
210
0.0
220
0.0
230
1.0
 70
     8
 71
     3
 72
    15
 73
    11
 74
     0
 42
0.00000001
 43
0.00000001
 40
0.0
 40
0.0
 40
0.0
 40
0.0
 40
0.1253320172137756
 40
0.252297512925176
 40
0.3758847553984063
 40
0.5001929511416489
 40
0.6255758307380155
 40
0.7502289462456486
 40
0.8757444935777828
 40
1.0
 40
1.0
 40
1.0
 40
1.0
 10
44.01980867926551
 20
94.54475525040499
 30
0.0
 10
43.98455776263751
 20
94.52808094192223
 30
0.0
 10
43.91359649678311
 20
94.49451500519294
 30
0.0
 10
43.79760960599474
 20
94.47473338893879
 30
0.0
 10
43.68101323975436
 20
94.47680616928538
 30
0.0
 10
43.56789263317289
 20
94.50388419563598
 30
0.0
 10
43.46201691883344
 20
94.55309701134316
 30
0.0
 10
43.36990783421429
 20
94.62518277521701
 30
0.0
 10
43.29347617034589
 20
94.71447029671647
 30
0.0
 10
43.26251126284659
 20
94.7859109671535
 30
0.0
 10
43.24710691472535
 20
94.82145110101156
 30
0.0
  0
LINE
  5
2A5
330
1F
100
AcDbEntity
  8
0
  6
Continuous
 62
     7
370
    25
100
AcDbLine
 10
44.0604233017
 20
94.5671091441
 30
0.0
 11
44.0198086793
 21
94.5447552504
 31
0.0
  0
LINE
  5
2A6
330
1F
100
AcDbEntity
  8
0
  6
Continuous
 62
     7
370
    25
100
AcDbLine
 10
43.4334401052
 20
93.3716980406
 30
0.0
 11
44.0604233017
 21
94.5671091441
 31
0.0
  0
SPLINE
  5
2A7
330
1F
100
AcDbEntity
  8
0
  6
Continuous
 62
     7
370
    25
100
AcDbSpline
210
0.0
220
0.0
230
1.0
 70
     8
 71
     3
 72
    15
 73
    11
 74
     0
 42
0.00000001
 43
0.00000001
 40
0.0
 40
0.0
 40
0.0
 40
0.0
 40
0.124633218643854
 40
0.2519059530189772
 40
0.3765391000744918
 40
0.4994035903146518
 40
0.6264494152300148
 40
0.7526064410610419
 40
0.874680437736327
 40
1.0
 40
1.0
 40
1.0
 40
1.0
 10
43.32821161645646
 20
93.35358087390749
 30
0.0
 10
43.33222609212461
 20
93.35047563905485
 30
0.0
 10
43.34034006310329
 20
93.34419940585305
 30
0.0
 10
43.35477865493983
 20
93.33858639237319
 30
0.0
 10
43.36991210487292
 20
93.33605003974638
 30
0.0
 10
43.38527464715469
 20
93.33693544331425
 30
0.0
 10
43.40020522599137
 20
93.34106651382989
 30
0.0
 10
43.41370712602068
 20
93.34855721377578
 30
0.0
 10
43.42539278090709
 20
93.35869579569008
 30
0.0
 10
43.43073430524787
 20
93.3673262180329
 30
0.0
 10
43.43344010524962
 20
93.37169804062516
 30
0.0
  0
SPLINE
  5
2A8
330
1F
100
AcDbEntity
  8
0
  6
Continuous
 62
     7
370
    25
100
AcDbSpline
210
0.0
220
0.0
230
1.0
 70
     8
 71
     3
 72
    11
 73
     7
 74
     0
 42
0.00000001
 43
0.00000001
 40
0.0
 40
0.0
 40
0.0
 40
0.0
 40
0.2506252605986011
 40
0.4999999999996215
 40
0.7493747394010042
 40
1.0
 40
1.0
 40
1.0
 40
1.0
 10
40.25207588672758
 20
93.35358087390746
 30
0.0
 10
40.48180358090089
 20
93.51643516586846
 30
0.0
 10
40.94011271866388
 20
93.8413311711073
 30
0.0
 10
41.7901437516
 20
93.9750631180444
 30
0.0
 10
42.64017478453022
 20
93.84133117110213
 30
0.0
 10
43.0984839222865
 20
93.51643516586675
 30
0.0
 10
43.32821161645646
 20
93.3535808739075
 30
0.0
  0
SPLINE
  5
2A9
330
1F
100
AcDbEntity
  8
0
  6
Continuous
 62
     7
370
    25
100
AcDbSpline
210
0.0
220
0.0
230
1.0
 70
     8
 71
     3
 72
    15
 73
    11
 74
     0
 42
0.00000001
 43
0.00000001
 40
0.0
 40
0.0
 40
0.0
 40
0.0
 40
0.1253191957979138
 40
0.2473928354984065
 40
0.3734492416489706
 40
0.5005950046079967
 40
0.6235484391777611
 40
0.7480947836179483
 40
0.8753671458153899
 40
1.0
 40
1.0
 40
1.0
 40
1.0
 10
40.14684739793438
 20
93.37169804062516
 30
0.0
 10
40.1495531942668
 20
93.3673262123412
 30
0.0
 10
40.15489471136399
 20
93.35869577876244
 30
0.0
 10
40.16657728395307
 20
93.34856000126265
 30
0.0
 10
40.18007826394034
 20
93.34106788538902
 30
0.0
 10
40.19501229279039
 20
93.33693544009688
 30
0.0
 10
40.21037930397944
 20
93.33604749832334
 30
0.0
 10
40.22551204041766
 20
93.33858844058088
 30
0.0
 10
40.23994747019934
 20
93.34419921884806
 30
0.0
 10
40.24806142102857
 20
93.35047557715683
 30
0.0
 10
40.25207588672757
 20
93.35358087390748
 30
0.0
  0
LINE
  5
2AA
330
1F
100
AcDbEntity
  8
0
  6
Continuous
 62
     7
370
    25
100
AcDbLine
 10
39.5198642014
 20
94.5671091441
 30
0.0
 11
40.1468473979
 21
93.3716980406
 31
0.0
  0
SPLINE
  5
2AB
330
1F
100
AcDbEntity
  8
0
  6
Continuous
 62
     7
370
    25
100
AcDbSpline
210
0.0
220
0.0
230
1.0
 70
     8
 71
     3
 72
    15
 73
    11
 74
     0
 42
0.00000001
 43
0.00000001
 40
0.0
 40
0.0
 40
0.0
 40
0.0
 40
0.1233867499278388
 40
0.2487396502211602
 40
0.3739317114754985
 40
0.4999973617625659
 40
0.6259591330513601
 40
0.7512551380600303
 40
0.8765613478174267
 40
1.0
 40
1.0
 40
1.0
 40
1.0
 10
41.72726088519392
 20
95.54504710800296
 30
0.0
 10
41.73013908638579
 20
95.55106190408591
 30
0.0
 10
41.73594135249743
 20
95.5631873411746
 30
0.0
 10
41.75147075721817
 20
95.57657860152467
 30
0.0
 10
41.76982533909162
 20
95.58545631310461
 30
0.0
 10
41.79013815557453
 20
95.58821297640108
 30
0.0
 10
41.81045657328963
 20
95.58545829520047
 30
0.0
 10
41.82880944245375
 20
95.576582596911
 30
0.0
 10
41.84434754684925
 20
95.5631922296573
 30
0.0
 10
41.85014810888054
 20
95.55106513211126
 30
0.0
 10
41.85302661480608
 20
95.54504710800295
 30
0.0
  0
LINE
  5
2AC
330
1F
100
AcDbEntity
  8
0
  6
Continuous
 62
     7
370
    25
100
AcDbLine
 10
41.4881473595
 20
94.9067930787
 30
0.0
 11
41.7272608852
 21
95.545047108
 31
0.0
  0
SPLINE
  5
2AD
330
1F
100
AcDbEntity
  8
0
  6
Continuous
 62
     7
370
    25
100
AcDbSpline
210
0.0
220
0.0
230
1.0
 70
     8
 71
     3
 72
    15
 73
    11
 74
     0
 42
0.00000001
 43
0.00000001
 40
0.0
 40
0.0
 40
0.0
 40
0.0
 40
0.1261585224210644
 40
0.2513121451548803
 40
0.3762846848783795
 40
0.4993062783340879
 40
0.6261594278645743
 40
0.7521171342021308
 40
0.8758196922692789
 40
1.0
 40
1.0
 40
1.0
 40
1.0
 10
41.55103022432223
 20
94.82172872538041
 30
0.0
 10
41.54579912783356
 20
94.82205103197276
 30
0.0
 10
41.53537860249091
 20
94.82269307786524
 30
0.0
 10
41.52059205197651
 20
94.82814131824044
 30
0.0
 10
41.50740169935101
 20
94.83636392082606
 30
0.0
 10
41.49653112450973
 20
94.84762052713863
 30
0.0
 10
41.4885235371812
 20
94.86114127247974
 30
0.0
 10
41.48435691014851
 20
94.87627816005653
 30
0.0
 10
41.48373585863689
 20
94.8919672916277
 30
0.0
 10
41.48667497099165
 20
94.90184480398632
 30
0.0
 10
41.48814735947439
 20
94.90679307873037
 30
0.0
  0
LINE
  5
2AE
330
1F
100
AcDbEntity
  8
0
  6
Continuous
 62
     7
370
    25
100
AcDbLine
 10
42.0292572785
 20
94.8217287254
 30
0.0
 11
41.5510302243
 21
94.8217287254
 31
0.0
  0
SPLINE
  5
2AF
330
1F
100
AcDbEntity
  8
0
  6
Continuous
 62
     7
370
    25
100
AcDbSpline
210
0.0
220
0.0
230
1.0
 70
     8
 71
     3
 72
    15
 73
    11
 74
     0
 42
0.00000001
 43
0.00000001
 40
0.0
 40
0.0
 40
0.0
 40
0.0
 40
0.1241186784437694
 40
0.2478474916628982
 40
0.3736574149478942
 40
0.5005082335853298
 40
0.6234527658309924
 40
0.7484986612277525
 40
0.873697649245277
 40
1.0
 40
1.0
 40
1.0
 40
1.0
 10
42.09214014325158
 20
94.90679307895347
 30
0.0
 10
42.09361121586041
 20
94.90184723329533
 30
0.0
 10
42.09654874033878
 20
94.89197107721718
 30
0.0
 10
42.09593200583869
 20
94.87628968159149
 30
0.0
 10
42.09177004424407
 20
94.86115714951119
 30
0.0
 10
42.0837712964457
 20
94.84764224189678
 30
0.0
 10
42.07290520490887
 20
94.83638218070078
 30
0.0
 10
42.05971748708424
 20
94.8281524682673
 30
0.0
 10
42.04492304050903
 20
94.82269289788226
 30
0.0
 10
42.0344944496017
 20
94.8220510548253
 30
0.0
 10
42.02925727848729
 20
94.8217287253804
 30
0.0
  0
LINE
  5
2B0
330
1F
100
AcDbEntity
  8
0
  6
Continuous
 62
     7
370
    25
100
AcDbLine
 10
41.8530266148
 20
95.545047108
 30
0.0
 11
42.0921401433
 21
94.906793079
 31
0.0
  0
SPLINE
  5
2B1
330
1F
100
AcDbEntity
  8
0
  6
Continuous
 62
     7
370
    25
100
AcDbSpline
210
0.0
220
0.0
230
1.0
 70
     8
 71
     3
 72
     9
 73
     5
 74
     0
 42
0.00000001
 43
0.00000001
 40
0.0
 40
0.0
 40
0.0
 40
0.0
 40
0.531249470117554
 40
1.0
 40
1.0
 40
1.0
 40
1.0
 10
53.29014375000001
 20
99.77363764986016
 30
0.0
 10
53.29074778999344
 20
99.60745890191488
 30
0.0
 10
53.29188480758576
 20
99.29465153495696
 30
0.0
 10
53.24688141857898
 20
98.98433388085378
 30
0.0
 10
53.22578605613555
 20
98.83887231606104
 30
0.0
  0
LINE
  5
2B2
330
1F
100
AcDbEntity
  8
0
  6
Continuous
 62
     7
370
    25
100
AcDbLine
 10
53.29014375
 20
99.7736376499
 30
0.0
 11
53.29014375
 21
98.8634117201
 31
0.0
  0
LINE
  5
2B3
330
1F
100
AcDbEntity
  8
0
  6
Continuous
 62
     7
370
    25
100
AcDbLine
 10
53.29014375
 20
92.188465368
 30
0.0
 11
53.29014375
 21
91.2736376499
 31
0.0
  0
LINE
  5
2B4
330
1F
100
AcDbEntity
  8
0
  6
Continuous
 62
     7
370
    25
100
AcDbLine
 10
53.2468942301
 20
92.2070684738
 30
0.0
 11
53.29014375
 21
91.2736376499
 31
0.0
  0
SPLINE
  5
2B5
330
1F
100
AcDbEntity
  8
0
  6
Continuous
 62
     7
370
    25
100
AcDbSpline
210
0.0
220
0.0
230
1.0
 70
     8
 71
     3
 72
     9
 73
     5
 74
     0
 42
0.00000001
 43
0.00000001
 40
0.0
 40
0.0
 40
0.0
 40
0.0
 40
0.5312494701176385
 40
1.0
 40
1.0
 40
1.0
 40
1.0
 10
30.29014375
 20
91.27363764986016
 30
0.0
 10
30.28953971000657
 20
91.43981639780543
 30
0.0
 10
30.28840269241424
 20
91.75262376476331
 30
0.0
 10
30.33340608142101
 20
92.06294141886643
 30
0.0
 10
30.35450144386443
 20
92.20840298365913
 30
0.0
  0
LINE
  5
2B6
330
1F
100
AcDbEntity
  8
0
  6
Continuous
 62
     7
370
    25
100
AcDbLine
 10
30.29014375
 20
99.7736376499
 30
0.0
 11
30.29014375
 21
98.8626720953
 31
0.0
  0
LINE
  5
2B7
330
1F
100
AcDbEntity
  8
0
  6
Continuous
 62
     7
370
    25
100
AcDbLine
 10
30.29014375
 20
92.1877225389
 30
0.0
 11
30.29014375
 21
91.2736376499
 31
0.0
  0
LINE
  5
2B8
330
1F
100
AcDbEntity
  8
0
  6
Continuous
 62
     7
370
    25
100
AcDbLine
 10
30.3333932699
 20
98.8402068259
 30
0.0
 11
30.29014375
 21
99.7736376499
 31
0.0
  0
SPLINE
  5
2B9
330
1F
100
AcDbEntity
  8
0
  6
Continuous
 62
     7
370
    25
100
AcDbSpline
210
0.0
220
0.0
230
1.0
 70
     8
 71
     3
 72
     9
 73
     5
 74
     0
 42
0.00000001
 43
0.00000001
 40
0.0
 40
0.0
 40
0.0
 40
0.0
 40
0.3923375090281997
 40
1.0
 40
1.0
 40
1.0
 40
1.0
 10
47.8635581646828
 20
100.7120998802472
 30
0.0
 10
47.89640200356867
 20
101.1187743265241
 30
0.0
 10
47.98011523039525
 20
102.155316683344
 30
0.0
 10
48.28350597789606
 20
103.1619464800857
 30
0.0
 10
48.46786515526019
 20
103.7736376498601
 30
0.0
  0
LINE
  5
2BA
330
1F
100
AcDbEntity
  8
0
  6
Continuous
 62
     7
370
    25
100
AcDbLine
 10
52.6124223447
 20
103.7736376499
 30
0.0
 11
48.4678651553
 21
103.7736376499
 31
0.0
  0
SPLINE
  5
2BB
330
1F
100
AcDbEntity
  8
0
  6
Continuous
 62
     7
370
    25
100
AcDbSpline
210
0.0
220
0.0
230
1.0
 70
     8
 71
     3
 72
    10
 73
     6
 74
     0
 42
0.00000001
 43
0.00000001
 40
0.0
 40
0.0
 40
0.0
 40
0.0
 40
0.5
 40
0.5
 40
1.0
 40
1.0
 40
1.0
 40
1.0
 10
52.61242234474027
 20
103.7736376498602
 30
0.0
 10
52.82123226940654
 20
103.1176248832551
 30
0.0
 10
52.99176640915379
 20
102.4573579763974
 30
0.0
 10
53.22655221417271
 20
101.1250114577624
 30
0.0
 10
53.29014375
 20
100.4528584762751
 30
0.0
 10
53.29014375
 20
99.77363764986016
 30
0.0
  0
SPLINE
  5
2BC
330
1F
100
AcDbEntity
  8
0
  6
Continuous
 62
     7
370
    25
100
AcDbSpline
210
0.0
220
0.0
230
1.0
 70
     8
 71
     3
 72
    12
 73
     8
 74
     0
 42
0.00000001
 43
0.00000001
 40
0.0
 40
0.0
 40
0.0
 40
0.0
 40
0.2500000000000001
 40
0.2500000000000001
 40
0.5000000000000002
 40
0.5000000000000002
 40
1.0
 40
1.0
 40
1.0
 40
1.0
 10
30.29014375000001
 20
99.77363764986016
 30
0.0
 10
30.29014375
 20
100.1113935848829
 30
0.0
 10
30.30589008002196
 20
100.4518015997614
 30
0.0
 10
30.36733510460739
 20
101.1262962841619
 30
0.0
 10
30.41292386386112
 20
101.4614216030291
 30
0.0
 10
30.58937486611772
 20
102.4611329213692
 30
0.0
 10
30.75983256808121
 20
103.1200670244345
 30
0.0
 10
30.96786515526005
 20
103.7736376498602
 30
0.0
  0
LINE
  5
2BD
330
1F
100
AcDbEntity
  8
0
  6
Continuous
 62
     7
370
    25
100
AcDbLine
 10
35.1124223447
 20
103.7736376499
 30
0.0
 11
30.9678651553
 21
103.7736376499
 31
0.0
  0
SPLINE
  5
2BE
330
1F
100
AcDbEntity
  8
0
  6
Continuous
 62
     7
370
    25
100
AcDbSpline
210
0.0
220
0.0
230
1.0
 70
     8
 71
     3
 72
    10
 73
     6
 74
     0
 42
0.00000001
 43
0.00000001
 40
0.0
 40
0.0
 40
0.0
 40
0.0
 40
0.64540299288436
 40
0.9738351849875898
 40
0.9999999999999999
 40
0.9999999999999999
 40
0.9999999999999999
 40
0.9999999999999999
 10
35.1124223447398
 20
103.7736376498602
 30
0.0
 10
35.29390674426643
 20
103.1224745360664
 30
0.0
 10
35.56774478923046
 20
102.1399480241511
 30
0.0
 10
35.72938789466932
 20
101.1084904696761
 30
0.0
 10
35.74540659261939
 20
100.7407965356704
 30
0.0
 10
35.7465885717681
 20
100.7136653315954
 30
0.0
  0
SPLINE
  5
2BF
330
1F
100
AcDbEntity
  8
0
  6
Continuous
 62
     7
370
    25
100
AcDbSpline
210
0.0
220
0.0
230
1.0
 70
     8
 71
     3
 72
     9
 73
     5
 74
     0
 42
0.00000001
 43
0.00000001
 40
0.0
 40
0.0
 40
0.0
 40
0.0
 40
0.3923375090281863
 40
1.0
 40
1.0
 40
1.0
 40
1.0
 10
35.71672933531719
 20
90.33517541947306
 30
0.0
 10
35.68388549643134
 20
89.92850097319614
 30
0.0
 10
35.60017226960475
 20
88.89195861637624
 30
0.0
 10
35.29678152210395
 20
87.88532881963462
 30
0.0
 10
35.11242234473981
 20
87.27363764986015
 30
0.0
  0
LINE
  5
2C0
330
1F
100
AcDbEntity
  8
0
  6
Continuous
 62
     7
370
    25
100
AcDbLine
 10
30.9678651553
 20
87.2736376499
 30
0.0
 11
35.1124223447
 21
87.2736376499
 31
0.0
  0
SPLINE
  5
2C1
330
1F
100
AcDbEntity
  8
0
  6
Continuous
 62
     7
370
    25
100
AcDbSpline
210
0.0
220
0.0
230
1.0
 70
     8
 71
     3
 72
    10
 73
     6
 74
     0
 42
0.00000001
 43
0.00000001
 40
0.0
 40
0.0
 40
0.0
 40
0.0
 40
0.5
 40
0.5
 40
1.0
 40
1.0
 40
1.0
 40
1.0
 10
30.96786515525973
 20
87.2736376498601
 30
0.0
 10
30.75905523059347
 20
87.92965041646521
 30
0.0
 10
30.58852109084622
 20
88.58991732332292
 30
0.0
 10
30.3537352858273
 20
89.92226384195794
 30
0.0
 10
30.29014375
 20
90.59441682344527
 30
0.0
 10
30.29014375
 20
91.27363764986016
 30
0.0
  0
SPLINE
  5
2C2
330
1F
100
AcDbEntity
  8
0
  6
Continuous
 62
     7
370
    25
100
AcDbSpline
210
0.0
220
0.0
230
1.0
 70
     8
 71
     3
 72
    12
 73
     8
 74
     0
 42
0.00000001
 43
0.00000001
 40
0.0
 40
0.0
 40
0.0
 40
0.0
 40
0.2500000000000001
 40
0.2500000000000001
 40
0.5000000000000002
 40
0.5000000000000002
 40
1.0
 40
1.0
 40
1.0
 40
1.0
 10
53.29014375
 20
91.27363764986016
 30
0.0
 10
53.29014375
 20
90.93588171483738
 30
0.0
 10
53.27439741997804
 20
90.59547369995887
 30
0.0
 10
53.21295239539261
 20
89.92097901555846
 30
0.0
 10
53.16736363613889
 20
89.58585369669123
 30
0.0
 10
52.99091263388229
 20
88.58614237835108
 30
0.0
 10
52.8204549319188
 20
87.9272082752858
 30
0.0
 10
52.61242234473995
 20
87.27363764986012
 30
0.0
  0
LINE
  5
2C3
330
1F
100
AcDbEntity
  8
0
  6
Continuous
 62
     7
370
    25
100
AcDbLine
 10
48.4678651553
 20
87.2736376499
 30
0.0
 11
52.6124223447
 21
87.2736376499
 31
0.0
  0
SPLINE
  5
2C4
330
1F
100
AcDbEntity
  8
0
  6
Continuous
 62
     7
370
    25
100
AcDbSpline
210
0.0
220
0.0
230
1.0
 70
     8
 71
     3
 72
    10
 73
     6
 74
     0
 42
0.00000001
 43
0.00000001
 40
0.0
 40
0.0
 40
0.0
 40
0.0
 40
0.6454029928843747
 40
0.973835184987612
 40
1.0
 40
1.0
 40
1.0
 40
1.0
 10
48.46786515526021
 20
87.2736376498601
 30
0.0
 10
48.28638075573357
 20
87.92480076365388
 30
0.0
 10
48.01254271076955
 20
88.90732727556927
 30
0.0
 10
47.85089960533069
 20
89.93878483004424
 30
0.0
 10
47.83488090738061
 20
90.30647876404986
 30
0.0
 10
47.83369892823191
 20
90.33360996812483
 30
0.0
  0
LINE
  5
2C5
330
1F
100
AcDbEntity
  8
0
  6
Continuous
 62
     7
370
    25
100
AcDbLine
 10
47.79014375
 20
90.2321350277
 30
0.0
 11
47.79014375
 21
88.0236376499
 31
0.0
  0
LINE
  5
2C6
330
1F
100
AcDbEntity
  8
0
  6
Continuous
 62
     7
370
    25
100
AcDbLine
 10
47.79014375
 20
88.0236376499
 30
0.0
 11
44.5740259314
 21
88.0236376499
 31
0.0
  0
LINE
  5
2C7
330
1F
100
AcDbEntity
  8
0
  6
Continuous
 62
     7
370
    25
100
AcDbLine
 10
39.0062615686
 20
88.0236376499
 30
0.0
 11
35.79014375
 21
88.0236376499
 31
0.0
  0
LINE
  5
2C8
330
1F
100
AcDbEntity
  8
0
  6
Continuous
 62
     7
370
    25
100
AcDbLine
 10
35.79014375
 20
90.2321350277
 30
0.0
 11
35.79014375
 21
88.0236376499
 31
0.0
  0
LINE
  5
2C9
330
1F
100
AcDbEntity
  8
0
  6
Continuous
 62
     7
370
    25
100
AcDbLine
 10
35.79014375
 20
103.0236376499
 30
0.0
 11
35.79014375
 21
100.815140272
 31
0.0
  0
LINE
  5
2CA
330
1F
100
AcDbEntity
  8
0
  6
Continuous
 62
     7
370
    25
100
AcDbLine
 10
35.79014375
 20
103.0236376499
 30
0.0
 11
39.0062615686
 21
103.0236376499
 31
0.0
  0
LINE
  5
2CB
330
1F
100
AcDbEntity
  8
0
  6
Continuous
 62
     7
370
    25
100
AcDbLine
 10
44.5740259314
 20
103.0236376499
 30
0.0
 11
47.79014375
 21
103.0236376499
 31
0.0
  0
LINE
  5
2CC
330
1F
100
AcDbEntity
  8
0
  6
Continuous
 62
     7
370
    25
100
AcDbLine
 10
47.79014375
 20
103.0236376499
 30
0.0
 11
47.79014375
 21
100.815140272
 31
0.0
  0
SPLINE
  5
2CD
330
1F
100
AcDbEntity
  8
0
  6
Continuous
 62
     7
370
    25
100
AcDbSpline
210
0.0
220
0.0
230
1.0
 70
     8
 71
     3
 72
     8
 73
     4
 74
     0
 42
0.00000001
 43
0.00000001
 40
0.0
 40
0.0
 40
0.0
 40
0.0
 40
1.0
 40
1.0
 40
1.0
 40
1.0
 10
35.27390767302083
 20
104.0236376498602
 30
0.0
 10
35.4476107492406
 20
103.6911262277247
 30
0.0
 10
35.6199129683033
 20
103.3577991278258
 30
0.0
 10
35.79014375000001
 20
103.0236376498601
 30
0.0
  0
SPLINE
  5
2CE
330
1F
100
AcDbEntity
  8
0
  6
Continuous
 62
     7
370
    25
100
AcDbSpline
210
0.0
220
0.0
230
1.0
 70
     8
 71
     3
 72
    10
 73
     6
 74
     0
 42
0.00000001
 43
0.00000001
 40
0.0
 40
0.0
 40
0.0
 40
0.0
 40
0.5
 40
0.5
 40
1.0
 40
1.0
 40
1.0
 40
1.0
 10
35.11242234474546
 20
104.0236376498601
 30
0.0
 10
35.08874695032115
 20
104.0236376498601
 30
0.0
 10
35.07565584043084
 20
104.0008452005307
 30
0.0
 10
35.07556951914244
 20
103.9129024964376
 30
0.0
 10
35.08873845308628
 20
103.8480447227636
 30
0.0
 10
35.11242234473979
 20
103.7736376498602
 30
0.0
  0
SPLINE
  5
2CF
330
1F
100
AcDbEntity
  8
0
  6
Continuous
 62
     7
370
    25
100
AcDbSpline
210
0.0
220
0.0
230
1.0
 70
    24
 71
     3
 72
     8
 73
     4
 74
     0
 42
0.00000001
 43
0.00000001
 40
0.0
 40
0.0
 40
0.0
 40
0.0
 40
1.0
 40
1.0
 40
1.0
 40
1.0
 10
35.27390767302082
 20
104.0236376498601
 30
0.0
 10
35.22300895609842
 20
104.0236376498601
 30
0.0
 10
35.16907481984779
 20
104.0236376498601
 30
0.0
 10
35.11242234474019
 20
104.0236376498601
 30
0.0
  0
SPLINE
  5
2D0
330
1F
100
AcDbEntity
  8
0
  6
Continuous
 62
     7
370
    25
100
AcDbSpline
210
0.0
220
0.0
230
1.0
 70
     8
 71
     3
 72
     8
 73
     4
 74
     0
 42
0.00000001
 43
0.00000001
 40
0.0
 40
0.0
 40
0.0
 40
0.0
 40
1.0
 40
1.0
 40
1.0
 40
1.0
 10
47.79014375
 20
103.0236376498601
 30
0.0
 10
47.96042135734372
 20
103.3578910461455
 30
0.0
 10
48.13269310596939
 20
103.6911575357144
 30
0.0
 10
48.30637982697906
 20
104.0236376498599
 30
0.0
  0
SPLINE
  5
2D1
330
1F
100
AcDbEntity
  8
0
  6
Continuous
 62
     7
370
    25
100
AcDbSpline
210
0.0
220
0.0
230
1.0
 70
    24
 71
     3
 72
     8
 73
     4
 74
     0
 42
0.00000001
 43
0.00000001
 40
0.0
 40
0.0
 40
0.0
 40
0.0
 40
1.0
 40
1.0
 40
1.0
 40
1.0
 10
48.30637982697865
 20
104.0236376498601
 30
0.0
 10
48.35727606023389
 20
104.0236376498601
 30
0.0
 10
48.41121001519772
 20
104.0236376498601
 30
0.0
 10
48.46786515526019
 20
104.0236376498601
 30
0.0
  0
SPLINE
  5
2D2
330
1F
100
AcDbEntity
  8
0
  6
Continuous
 62
     7
370
    25
100
AcDbSpline
210
0.0
220
0.0
230
1.0
 70
     8
 71
     3
 72
    10
 73
     6
 74
     0
 42
0.00000001
 43
0.00000001
 40
0.0
 40
0.0
 40
0.0
 40
0.0
 40
0.5
 40
0.5
 40
1.0
 40
1.0
 40
1.0
 40
1.0
 10
48.46786515526019
 20
103.7736376498601
 30
0.0
 10
48.49154054968458
 20
103.8480180272375
 30
0.0
 10
48.50463165956923
 20
103.9123186660233
 30
0.0
 10
48.5047179808575
 20
104.0005343508062
 30
0.0
 10
48.49154904691366
 20
104.0236376498601
 30
0.0
 10
48.46786515526019
 20
104.0236376498601
 30
0.0
  0
SPLINE
  5
2D3
330
1F
100
AcDbEntity
  8
0
  6
Continuous
 62
     7
370
    25
100
AcDbSpline
210
0.0
220
0.0
230
1.0
 70
     8
 71
     3
 72
    10
 73
     6
 74
     0
 42
0.00000001
 43
0.00000001
 40
0.0
 40
0.0
 40
0.0
 40
0.0
 40
0.5
 40
0.5
 40
1.0
 40
1.0
 40
1.0
 40
1.0
 10
30.9678651552602
 20
104.0236376498601
 30
0.0
 10
30.99153905581613
 20
104.0236376498601
 30
0.0
 10
31.00463161299528
 20
104.0008470782127
 30
0.0
 10
31.00471802697757
 20
103.9129010809139
 30
0.0
 10
30.99154763537895
 20
103.8480402881811
 30
0.0
 10
30.96786515526019
 20
103.7736376498601
 30
0.0
  0
SPLINE
  5
2D4
330
1F
100
AcDbEntity
  8
0
  6
Continuous
 62
     7
370
    25
100
AcDbSpline
210
0.0
220
0.0
230
1.0
 70
    24
 71
     3
 72
    12
 73
     8
 74
     0
 42
0.00000001
 43
0.00000001
 40
0.0
 40
0.0
 40
0.0
 40
0.0
 40
0.2499999999999999
 40
0.2499999999999999
 40
0.4999999999999998
 40
0.4999999999999998
 40
1.0
 40
1.0
 40
1.0
 40
1.0
 10
30.29014375
 20
104.0236376498601
 30
0.0
 10
30.29014375000001
 20
104.0236376498602
 30
0.0
 10
30.30614255498108
 20
104.0236376498601
 30
0.0
 10
30.36791269329547
 20
104.0236376498601
 30
0.0
 10
30.41365481759706
 20
104.0236376498601
 30
0.0
 10
30.5903249649439
 20
104.0236376498601
 30
0.0
 10
30.7605800304242
 20
104.0236376498602
 30
0.0
 10
30.9678651552602
 20
104.0236376498601
 30
0.0
  0
LINE
  5
2D5
330
1F
100
AcDbEntity
  8
0
  6
Continuous
 62
     7
370
    25
100
AcDbLine
 10
30.29014375
 20
104.0236376499
 30
0.0
 11
30.29014375
 21
99.7736376499
 31
0.0
  0
SPLINE
  5
2D6
330
1F
100
AcDbEntity
  8
0
  6
Continuous
 62
     7
370
    25
100
AcDbSpline
210
0.0
220
0.0
230
1.0
 70
     8
 71
     3
 72
    10
 73
     6
 74
     0
 42
0.00000001
 43
0.00000001
 40
0.0
 40
0.0
 40
0.0
 40
0.0
 40
0.5
 40
0.5
 40
1.0
 40
1.0
 40
1.0
 40
1.0
 10
52.61242234473981
 20
103.7736376498602
 30
0.0
 10
52.58875010482825
 20
103.8480081167857
 30
0.0
 10
52.57565611489299
 20
103.9123137130736
 30
0.0
 10
52.57556924743155
 20
104.0005365008794
 30
0.0
 10
52.5887390371909
 20
104.0236376498602
 30
0.0
 10
52.61242234473981
 20
104.0236376498601
 30
0.0
  0
SPLINE
  5
2D7
330
1F
100
AcDbEntity
  8
0
  6
Continuous
 62
     7
370
    25
100
AcDbSpline
210
0.0
220
0.0
230
1.0
 70
    24
 71
     3
 72
    12
 73
     8
 74
     0
 42
0.00000001
 43
0.00000001
 40
0.0
 40
0.0
 40
0.0
 40
0.0
 40
0.25
 40
0.25
 40
0.5
 40
0.5
 40
1.0
 40
1.0
 40
1.0
 40
1.0
 10
53.29014375000001
 20
104.0236376498601
 30
0.0
 10
53.29014375000001
 20
104.0236376498601
 30
0.0
 10
53.27423794433182
 20
104.0236376498601
 30
0.0
 10
53.2123930734394
 20
104.0236376498601
 30
0.0
 10
53.1665797325732
 20
104.0236376498601
 30
0.0
 10
52.98974655867084
 20
104.0236376498602
 30
0.0
 10
52.8194682951672
 20
104.0236376498601
 30
0.0
 10
52.61242234473981
 20
104.0236376498601
 30
0.0
  0
LINE
  5
2D8
330
1F
100
AcDbEntity
  8
0
  6
Continuous
 62
     7
370
    25
100
AcDbLine
 10
53.29014375
 20
104.0236376499
 30
0.0
 11
53.29014375
 21
99.7736376499
 31
0.0
  0
SPLINE
  5
2D9
330
1F
100
AcDbEntity
  8
0
  6
Continuous
 62
     7
370
    25
100
AcDbSpline
210
0.0
220
0.0
230
1.0
 70
     8
 71
     3
 72
     8
 73
     4
 74
     0
 42
0.00000001
 43
0.00000001
 40
0.0
 40
0.0
 40
0.0
 40
0.0
 40
1.0
 40
1.0
 40
1.0
 40
1.0
 10
48.30637982697917
 20
87.02363764986015
 30
0.0
 10
48.13267675075941
 20
87.35614907199566
 30
0.0
 10
47.9603745316967
 20
87.68947617189453
 30
0.0
 10
47.79014375
 20
88.02363764986015
 30
0.0
  0
SPLINE
  5
2DA
330
1F
100
AcDbEntity
  8
0
  6
Continuous
 62
     7
370
    25
100
AcDbSpline
210
0.0
220
0.0
230
1.0
 70
     8
 71
     3
 72
    10
 73
     6
 74
     0
 42
0.00000001
 43
0.00000001
 40
0.0
 40
0.0
 40
0.0
 40
0.0
 40
0.5
 40
0.5
 40
1.0
 40
1.0
 40
1.0
 40
1.0
 10
48.46786515526021
 20
87.02363764986015
 30
0.0
 10
48.49154054968459
 20
87.02363764986015
 30
0.0
 10
48.50463165956922
 20
87.04643009918995
 30
0.0
 10
48.5047179808575
 20
87.134372803283
 30
0.0
 10
48.49154904691367
 20
87.19923057695685
 30
0.0
 10
48.46786515526021
 20
87.27363764986009
 30
0.0
  0
SPLINE
  5
2DB
330
1F
100
AcDbEntity
  8
0
  6
Continuous
 62
     7
370
    25
100
AcDbSpline
210
0.0
220
0.0
230
1.0
 70
    24
 71
     3
 72
     8
 73
     4
 74
     0
 42
0.00000001
 43
0.00000001
 40
0.0
 40
0.0
 40
0.0
 40
0.0
 40
1.0
 40
1.0
 40
1.0
 40
1.0
 10
48.30637982697919
 20
87.02363764986015
 30
0.0
 10
48.35727606023427
 20
87.02363764986015
 30
0.0
 10
48.41121001519792
 20
87.02363764986015
 30
0.0
 10
48.46786515526019
 20
87.02363764986015
 30
0.0
  0
SPLINE
  5
2DC
330
1F
100
AcDbEntity
  8
0
  6
Continuous
 62
     7
370
    25
100
AcDbSpline
210
0.0
220
0.0
230
1.0
 70
     8
 71
     3
 72
     8
 73
     4
 74
     0
 42
0.00000001
 43
0.00000001
 40
0.0
 40
0.0
 40
0.0
 40
0.0
 40
1.0
 40
1.0
 40
1.0
 40
1.0
 10
35.79014375000001
 20
88.02363764986015
 30
0.0
 10
35.61986614265625
 20
87.68938425357476
 30
0.0
 10
35.44759439403053
 20
87.35611776400573
 30
0.0
 10
35.27390767302083
 20
87.02363764986015
 30
0.0
  0
SPLINE
  5
2DD
330
1F
100
AcDbEntity
  8
0
  6
Continuous
 62
     7
370
    25
100
AcDbSpline
210
0.0
220
0.0
230
1.0
 70
    24
 71
     3
 72
     8
 73
     4
 74
     0
 42
0.00000001
 43
0.00000001
 40
0.0
 40
0.0
 40
0.0
 40
0.0
 40
1.0
 40
1.0
 40
1.0
 40
1.0
 10
35.27390767302083
 20
87.02363764986015
 30
0.0
 10
35.22300895609831
 20
87.02363764986015
 30
0.0
 10
35.16907481984755
 20
87.02363764986015
 30
0.0
 10
35.11242234473981
 20
87.02363764986015
 30
0.0
  0
SPLINE
  5
2DE
330
1F
100
AcDbEntity
  8
0
  6
Continuous
 62
     7
370
    25
100
AcDbSpline
210
0.0
220
0.0
230
1.0
 70
     8
 71
     3
 72
    10
 73
     6
 74
     0
 42
0.00000001
 43
0.00000001
 40
0.0
 40
0.0
 40
0.0
 40
0.0
 40
0.5
 40
0.5
 40
1.0
 40
1.0
 40
1.0
 40
1.0
 10
35.11242234473981
 20
87.27363764986015
 30
0.0
 10
35.08874695031543
 20
87.19925727248282
 30
0.0
 10
35.07565584043078
 20
87.13495663369706
 30
0.0
 10
35.0755695191425
 20
87.0467409489141
 30
0.0
 10
35.08873845308634
 20
87.02363764986015
 30
0.0
 10
35.11242234473981
 20
87.02363764986015
 30
0.0
  0
SPLINE
  5
2DF
330
1F
100
AcDbEntity
  8
0
  6
Continuous
 62
     7
370
    25
100
AcDbSpline
210
0.0
220
0.0
230
1.0
 70
    24
 71
     3
 72
    12
 73
     8
 74
     0
 42
0.00000001
 43
0.00000001
 40
0.0
 40
0.0
 40
0.0
 40
0.0
 40
0.25
 40
0.25
 40
0.5
 40
0.5
 40
1.0
 40
1.0
 40
1.0
 40
1.0
 10
53.29014375000001
 20
87.02363764986015
 30
0.0
 10
53.29014375000001
 20
87.02363764986015
 30
0.0
 10
53.27423794433182
 20
87.02363764986015
 30
0.0
 10
53.2123930734394
 20
87.02363764986015
 30
0.0
 10
53.1665797325732
 20
87.02363764986015
 30
0.0
 10
52.98974655867084
 20
87.02363764986015
 30
0.0
 10
52.8194682951672
 20
87.02363764986015
 30
0.0
 10
52.61242234473981
 20
87.02363764986015
 30
0.0
  0
SPLINE
  5
2E0
330
1F
100
AcDbEntity
  8
0
  6
Continuous
 62
     7
370
    25
100
AcDbSpline
210
0.0
220
0.0
230
1.0
 70
     8
 71
     3
 72
    10
 73
     6
 74
     0
 42
0.00000001
 43
0.00000001
 40
0.0
 40
0.0
 40
0.0
 40
0.0
 40
0.5
 40
0.5
 40
1.0
 40
1.0
 40
1.0
 40
1.0
 10
52.61242234473981
 20
87.02363764986015
 30
0.0
 10
52.58874844418386
 20
87.02363764986015
 30
0.0
 10
52.57565588700472
 20
87.0464282215076
 30
0.0
 10
52.57556947302243
 20
87.1343742188064
 30
0.0
 10
52.58873986462105
 20
87.19923501153919
 30
0.0
 10
52.61242234473981
 20
87.27363764986015
 30
0.0
  0
LINE
  5
2E1
330
1F
100
AcDbEntity
  8
0
  6
Continuous
 62
     7
370
    25
100
AcDbLine
 10
53.29014375
 20
91.2736376499
 30
0.0
 11
53.29014375
 21
87.0236376499
 31
0.0
  0
SPLINE
  5
2E2
330
1F
100
AcDbEntity
  8
0
  6
Continuous
 62
     7
370
    25
100
AcDbSpline
210
0.0
220
0.0
230
1.0
 70
     8
 71
     3
 72
    10
 73
     6
 74
     0
 42
0.00000001
 43
0.00000001
 40
0.0
 40
0.0
 40
0.0
 40
0.0
 40
0.5
 40
0.5
 40
1.0
 40
1.0
 40
1.0
 40
1.0
 10
30.96786515526019
 20
87.27363764986015
 30
0.0
 10
30.99153739517176
 20
87.19926718293459
 30
0.0
 10
31.00463138510701
 20
87.13496158664674
 30
0.0
 10
31.00471825256846
 20
87.04673879884089
 30
0.0
 10
30.9915484628091
 20
87.02363764986015
 30
0.0
 10
30.96786515526019
 20
87.02363764986015
 30
0.0
  0
SPLINE
  5
2E3
330
1F
100
AcDbEntity
  8
0
  6
Continuous
 62
     7
370
    25
100
AcDbSpline
210
0.0
220
0.0
230
1.0
 70
    24
 71
     3
 72
    12
 73
     8
 74
     0
 42
0.00000001
 43
0.00000001
 40
0.0
 40
0.0
 40
0.0
 40
0.0
 40
0.2500000000000001
 40
0.2500000000000001
 40
0.5000000000000001
 40
0.5000000000000001
 40
1.0
 40
1.0
 40
1.0
 40
1.0
 10
30.29014375
 20
87.02363764986015
 30
0.0
 10
30.29014375
 20
87.02363764986015
 30
0.0
 10
30.30614255498108
 20
87.02363764986015
 30
0.0
 10
30.36791269329546
 20
87.02363764986015
 30
0.0
 10
30.41365481759706
 20
87.02363764986015
 30
0.0
 10
30.5903249649439
 20
87.02363764986015
 30
0.0
 10
30.7605800304242
 20
87.02363764986015
 30
0.0
 10
30.96786515526019
 20
87.02363764986015
 30
0.0
  0
LINE
  5
2E4
330
1F
100
AcDbEntity
  8
0
  6
Continuous
 62
     7
370
    25
100
AcDbLine
 10
30.29014375
 20
87.0236376499
 30
0.0
 11
30.29014375
 21
91.2736376499
 31
0.0
  0
LINE
  5
2E5
330
1F
100
AcDbEntity
  8
0
  6
Continuous
 62
     7
370
    25
100
AcDbLine
 10
48.4678651553
 20
104.0236376499
 30
0.0
 11
52.6124223447
 21
104.0236376499
 31
0.0
  0
LINE
  5
2E6
330
1F
100
AcDbEntity
  8
0
  6
Continuous
 62
     7
370
    25
100
AcDbLine
 10
30.9678651553
 20
104.0236376499
 30
0.0
 11
35.1124223447
 21
104.0236376499
 31
0.0
  0
LINE
  5
2E7
330
1F
100
AcDbEntity
  8
0
  6
Continuous
 62
     7
370
    25
100
AcDbLine
 10
35.1124223447
 20
87.0236376499
 30
0.0
 11
30.9678651553
 21
87.0236376499
 31
0.0
  0
LINE
  5
2E8
330
1F
100
AcDbEntity
  8
0
  6
Continuous
 62
     7
370
    25
100
AcDbLine
 10
52.6124223447
 20
87.0236376499
 30
0.0
 11
48.4678651553
 21
87.0236376499
 31
0.0
  0
LINE
  5
2E9
330
1F
100
AcDbEntity
  8
0
  6
Continuous
 62
     7
370
    25
100
AcDbLine
 10
48.306379827
 20
104.0236376499
 30
0.0
 11
35.273907673
 21
104.0236376499
 31
0.0
  0
LINE
  5
2EA
330
1F
100
AcDbEntity
  8
0
  6
Continuous
 62
     7
370
    25
100
AcDbLine
 10
48.306379827
 20
87.0236376499
 30
0.0
 11
35.273907673
 21
87.0236376499
 31
0.0
  0
LWPOLYLINE
  5
2EB
330
1F
100
AcDbEntity
  8
0
  6
Continuous
 62
     7
370
    25
100
AcDbPolyline
 90
        9
 70
   128
 43
0.0
 10
59.0477147266
 20
98.3755326251
 10
59.0484076902
 20
98.4803193283
 10
59.0396175272
 20
98.5804366654
 10
59.021735933
 20
98.6714233403
 10
58.9955597236
 20
98.7492249255
 10
58.9622553284
 20
98.81037453
 10
58.9233068139
 20
98.852147286
 10
58.8804497519
 20
98.8726817715
 10
58.8668822168
 20
98.8745525522
  0
SPLINE
  5
2EC
330
1F
100
AcDbEntity
  8
0
  6
Continuous
 62
     7
370
    25
100
AcDbSpline
210
0.0
220
0.0
230
1.0
 70
     8
 71
     3
 72
    17
 73
    13
 74
     0
 42
0.00000001
 43
0.00000001
 40
0.0
 40
0.0
 40
0.0
 40
0.0
 40
0.0054763651156592
 40
0.0360043466396819
 40
0.0549815418512614
 40
0.084044200135789
 40
0.1287716792378175
 40
0.1984449343909186
 40
0.3105387040802216
 40
0.662561370730811
 40
0.8966091575379025
 40
1.0
 40
1.0
 40
1.0
 40
1.0
 10
56.29014375000001
 20
97.88000229429517
 30
0.0
 10
56.29465756695781
 20
97.88260834793127
 30
0.0
 10
56.3243336435131
 20
97.89974184003674
 30
0.0
 10
56.3696525540125
 20
97.92590307312507
 30
0.0
 10
56.43440085401799
 20
97.9632337851898
 30
0.0
 10
56.51083656712229
 20
98.00722009340686
 30
0.0
 10
56.62898580948508
 20
98.07492116194805
 30
0.0
 10
56.81531389096033
 20
98.18051248123759
 30
0.0
 10
57.25310220897884
 20
98.42272842789252
 30
0.0
 10
57.82016110033454
 20
98.69489494680595
 30
0.0
 10
58.36108542923213
 20
98.87045923691711
 30
0.0
 10
58.60296370014721
 20
98.86776357329323
 30
0.0
 10
58.67707494893147
 20
98.86693762478322
 30
0.0
  0
ELLIPSE
  5
2ED
330
1F
100
AcDbEntity
  8
0
  6
Continuous
 62
     7
370
    25
100
AcDbEllipse
 10
56.29014375
 20
93.4031476353
 30
0.0
 11
6.499999999999993
 21
0.0
 31
0.0
210
0.0
220
0.0
230
1.0
 40
0.124260355
 41
5.150513296523819
 42
6.283185307179586
  0
ELLIPSE
  5
2EE
330
1F
100
AcDbEntity
  8
0
  6
Continuous
 62
     7
370
    25
100
AcDbEllipse
 10
56.29014375
 20
97.6441276644
 30
0.0
 11
6.499999999999993
 21
0.0
 31
0.0
210
0.0
220
0.0
230
1.0
 40
0.124260355
 41
0.0
 42
1.132672010655782
  0
LWPOLYLINE
  5
2EF
330
1F
100
AcDbEntity
  8
0
  6
Continuous
 62
     7
370
    25
100
AcDbPolyline
 90
        9
 70
   128
 43
0.0
 10
53.5325727734
 20
98.3755326251
 10
53.5318798098
 20
98.4803193283
 10
53.5406699728
 20
98.5804366654
 10
53.558551567
 20
98.6714233403
 10
53.5847277764
 20
98.7492249255
 10
53.6180321716
 20
98.81037453
 10
53.6569806861
 20
98.852147286
 10
53.6998377481
 20
98.8726817715
 10
53.7133062805
 20
98.8745464558
  0
SPLINE
  5
2F0
330
1F
100
AcDbEntity
  8
0
  6
Continuous
 62
     7
370
    25
100
AcDbSpline
210
0.0
220
0.0
230
1.0
 70
     8
 71
     3
 72
    17
 73
    13
 74
     0
 42
0.00000001
 43
0.00000001
 40
0.0
 40
0.0
 40
0.0
 40
0.0
 40
0.1033473541043506
 40
0.3374064929635571
 40
0.6894462338181441
 40
0.801545440407033
 40
0.8712220749316473
 40
0.9159517234567693
 40
0.9450157913714239
 40
0.9639939070365225
 40
0.9945233692634475
 40
1.0
 40
1.0
 40
1.0
 40
1.0
 10
53.90331785499941
 20
98.86693488433085
 30
0.0
 10
53.97739456204506
 20
98.86775957731452
 30
0.0
 10
54.2192387984183
 20
98.87045201941714
 30
0.0
 10
54.76012714204196
 20
98.69489206920788
 30
0.0
 10
55.32718522241941
 20
98.42272869380655
 30
0.0
 10
55.76497361471645
 20
98.18051245923333
 30
0.0
 10
55.95130168976822
 20
98.07492116484245
 30
0.0
 10
56.06945093297885
 20
98.00722009301491
 30
0.0
 10
56.14588664596862
 20
97.96323378524178
 30
0.0
 10
56.21063494599268
 20
97.92590307310506
 30
0.0
 10
56.25595385648669
 20
97.89974184003758
 30
0.0
 10
56.28562993304217
 20
97.88260834793138
 30
0.0
 10
56.29014375000001
 20
97.88000229429517
 30
0.0
  0
LWPOLYLINE
  5
2F1
330
1F
100
AcDbEntity
  8
0
  6
Continuous
 62
     7
370
    25
100
AcDbPolyline
 90
        9
 70
   128
 43
0.0
 10
24.5325727734
 20
98.3755326251
 10
24.5318798098
 20
98.4803193283
 10
24.5406699728
 20
98.5804366654
 10
24.558551567
 20
98.6714233403
 10
24.5847277764
 20
98.7492249255
 10
24.6180321716
 20
98.81037453
 10
24.6569806861
 20
98.852147286
 10
24.6998377481
 20
98.8726817715
 10
24.7133062805
 20
98.8745464558
  0
SPLINE
  5
2F2
330
1F
100
AcDbEntity
  8
0
  6
Continuous
 62
     7
370
    25
100
AcDbSpline
210
0.0
220
0.0
230
1.0
 70
     8
 71
     3
 72
    17
 73
    13
 74
     0
 42
0.00000001
 43
0.00000001
 40
0.0
 40
0.0
 40
0.0
 40
0.0
 40
0.1033473541043518
 40
0.3374064929635566
 40
0.6894462338181437
 40
0.8015454404070319
 40
0.8712220749316564
 40
0.9159517234567817
 40
0.9450157913714368
 40
0.9639939070365394
 40
0.9945233692634479
 40
0.9999999999999999
 40
0.9999999999999999
 40
0.9999999999999999
 40
0.9999999999999999
 10
24.9033178549994
 20
98.86693488433085
 30
0.0
 10
24.97739456204505
 20
98.86775957731452
 30
0.0
 10
25.21923879841829
 20
98.87045201941716
 30
0.0
 10
25.76012714204196
 20
98.6948920692079
 30
0.0
 10
26.32718522241938
 20
98.42272869380652
 30
0.0
 10
26.76497361471644
 20
98.18051245923334
 30
0.0
 10
26.95130168976823
 20
98.07492116484245
 30
0.0
 10
27.06945093297883
 20
98.00722009301484
 30
0.0
 10
27.14588664596865
 20
97.9632337852418
 30
0.0
 10
27.21063494599271
 20
97.92590307310508
 30
0.0
 10
27.25595385648668
 20
97.89974184003752
 30
0.0
 10
27.28562993304215
 20
97.88260834793138
 30
0.0
 10
27.29014375
 20
97.88000229429517
 30
0.0
  0
LWPOLYLINE
  5
2F3
330
1F
100
AcDbEntity
  8
0
  6
Continuous
 62
     7
370
    25
100
AcDbPolyline
 90
        9
 70
   128
 43
0.0
 10
29.866743108
 20
98.8745609326
 10
29.8804497519
 20
98.8726817715
 10
29.9233068139
 20
98.852147286
 10
29.9622553284
 20
98.81037453
 10
29.9955597236
 20
98.7492249255
 10
30.021735933
 20
98.6714233403
 10
30.0396175272
 20
98.5804366654
 10
30.0484076902
 20
98.4803193283
 10
30.0477147266
 20
98.3755326251
  0
SPLINE
  5
2F4
330
1F
100
AcDbEntity
  8
0
  6
Continuous
 62
     7
370
    25
100
AcDbSpline
210
0.0
220
0.0
230
1.0
 70
     8
 71
     3
 72
    17
 73
    13
 74
     0
 42
0.00000001
 43
0.00000001
 40
0.0
 40
0.0
 40
0.0
 40
0.0
 40
0.0054763651156588
 40
0.0360043466397238
 40
0.0549815418512485
 40
0.0840442001357921
 40
0.1287716792378272
 40
0.1984449343909153
 40
0.310538704080225
 40
0.6625613707308059
 40
0.8966091575378986
 40
1.0
 40
1.0
 40
1.0
 40
1.0
 10
27.29014375
 20
97.88000229429517
 30
0.0
 10
27.2946575669578
 20
97.88260834793127
 30
0.0
 10
27.32433364351314
 20
97.89974184003675
 30
0.0
 10
27.36965255401246
 20
97.92590307312517
 30
0.0
 10
27.43440085401796
 20
97.96323378518989
 30
0.0
 10
27.5108365671223
 20
98.00722009340681
 30
0.0
 10
27.62898580948507
 20
98.07492116194807
 30
0.0
 10
27.81531389096033
 20
98.18051248123761
 30
0.0
 10
28.25310220897884
 20
98.42272842789248
 30
0.0
 10
28.82016110033454
 20
98.69489494680596
 30
0.0
 10
29.36108542923211
 20
98.87045923691711
 30
0.0
 10
29.60296370014721
 20
98.86776357329323
 30
0.0
 10
29.67707494893147
 20
98.86693762478322
 30
0.0
  0
ELLIPSE
  5
2F5
330
1F
100
AcDbEntity
  8
0
  6
Continuous
 62
     7
370
    25
100
AcDbEllipse
 10
27.29014375
 20
93.4031476353
 30
0.0
 11
6.499999999999996
 21
0.0
 31
0.0
210
0.0
220
0.0
230
1.0
 40
0.124260355
 41
3.141592653589792
 42
4.274264664245596
  0
ELLIPSE
  5
2F6
330
1F
100
AcDbEntity
  8
0
  6
Continuous
 62
     7
370
    25
100
AcDbEllipse
 10
27.29014375
 20
97.6441276644
 30
0.0
 11
6.499999999999996
 21
-1.421085471520200E-14
 31
0.0
210
0.0
220
0.0
230
1.0
 40
0.124260355
 41
2.008920642934014
 42
3.141592653589924
  0
LWPOLYLINE
  5
2F7
330
1F
100
AcDbEntity
  8
0
  6
Continuous
 62
     7
370
    25
100
AcDbPolyline
 90
        9
 70
   128
 43
0.0
 10
53.713544392
 20
92.1727143671
 10
53.6998377481
 20
92.1745935282
 10
53.6569806861
 20
92.1951280137
 10
53.6180321716
 20
92.2369007698
 10
53.5847277764
 20
92.2980503742
 10
53.558551567
 20
92.3758519594
 10
53.5406699728
 20
92.4668386343
 10
53.5318798098
 20
92.5669559714
 10
53.5325727734
 20
92.6717426746
  0
SPLINE
  5
2F8
330
1F
100
AcDbEntity
  8
0
  6
Continuous
 62
     7
370
    25
100
AcDbSpline
210
0.0
220
0.0
230
1.0
 70
     8
 71
     3
 72
    17
 73
    13
 74
     0
 42
0.00000001
 43
0.00000001
 40
0.0
 40
0.0
 40
0.0
 40
0.0
 40
0.0054763651156735
 40
0.0360043466397402
 40
0.0549815418512476
 40
0.0840442001357925
 40
0.128771679237829
 40
0.1984449343909203
 40
0.3105387040802239
 40
0.6625613707308161
 40
0.8966091575379105
 40
1.0
 40
1.0
 40
1.0
 40
1.0
 10
56.29014375000001
 20
93.16727300542516
 30
0.0
 10
56.28562993304222
 20
93.16466695178899
 30
0.0
 10
56.25595385648706
 20
93.14753345968317
 30
0.0
 10
56.21063494598747
 20
93.12137222659523
 30
0.0
 10
56.14588664598205
 20
93.0840415145304
 30
0.0
 10
56.06945093287769
 20
93.04005520631353
 30
0.0
 10
55.95130169051492
 20
92.97235413777223
 30
0.0
 10
55.76497360903968
 20
92.8667628184827
 30
0.0
 10
55.32718529102117
 20
92.62454687182782
 30
0.0
 10
54.76012639966547
 20
92.35238035291435
 30
0.0
 10
54.2192020707679
 20
92.1768160628032
 30
0.0
 10
53.97732379985281
 20
92.17951172642708
 30
0.0
 10
53.90321255106856
 20
92.1803376749371
 30
0.0
  0
LWPOLYLINE
  5
2F9
330
1F
100
AcDbEntity
  8
0
  6
Continuous
 62
     7
370
    25
100
AcDbPolyline
 90
        9
 70
   128
 43
0.0
 10
59.0477147266
 20
92.6717426746
 10
59.0484076902
 20
92.5669559714
 10
59.0396175272
 20
92.4668386343
 10
59.021735933
 20
92.3758519594
 10
58.9955597236
 20
92.2980503742
 10
58.9622553284
 20
92.2369007698
 10
58.9233068139
 20
92.1951280137
 10
58.8804497519
 20
92.1745935282
 10
58.8669812195
 20
92.1727288439
  0
SPLINE
  5
2FA
330
1F
100
AcDbEntity
  8
0
  6
Continuous
 62
     7
370
    25
100
AcDbSpline
210
0.0
220
0.0
230
1.0
 70
     8
 71
     3
 72
    17
 73
    13
 74
     0
 42
0.00000001
 43
0.00000001
 40
0.0
 40
0.0
 40
0.0
 40
0.0
 40
0.1033473541043634
 40
0.3374064929635658
 40
0.6894462338181483
 40
0.8015454404070345
 40
0.8712220749316395
 40
0.9159517234567762
 40
0.9450157913714327
 40
0.9639939070365144
 40
0.9945233692634338
 40
1.0
 40
1.0
 40
1.0
 40
1.0
 10
58.67696964500063
 20
92.18034041538945
 30
0.0
 10
58.60289293795497
 20
92.17951572240581
 30
0.0
 10
58.36104870158172
 20
92.17682328030315
 30
0.0
 10
57.82016035795806
 20
92.35238323051243
 30
0.0
 10
57.25310227758061
 20
92.6245466059138
 30
0.0
 10
56.81531388528357
 20
92.86676284048697
 30
0.0
 10
56.62898581023179
 20
92.97235413487783
 30
0.0
 10
56.51083656702122
 20
93.04005520670549
 30
0.0
 10
56.43440085403137
 20
93.08404151447849
 30
0.0
 10
56.36965255400735
 20
93.12137222661525
 30
0.0
 10
56.32433364351344
 20
93.14753345968289
 30
0.0
 10
56.29465756695787
 20
93.16466695178894
 30
0.0
 10
56.29014375000001
 20
93.16727300542516
 30
0.0
  0
LWPOLYLINE
  5
2FB
330
1F
100
AcDbEntity
  8
0
  6
Continuous
 62
     7
370
    25
100
AcDbPolyline
 90
        9
 70
   128
 43
0.0
 10
24.713544392
 20
92.1727143671
 10
24.6998377481
 20
92.1745935282
 10
24.6569806861
 20
92.1951280137
 10
24.6180321716
 20
92.2369007698
 10
24.5847277764
 20
92.2980503742
 10
24.558551567
 20
92.3758519594
 10
24.5406699728
 20
92.4668386343
 10
24.5318798098
 20
92.5669559714
 10
24.5325727734
 20
92.6717426746
  0
SPLINE
  5
2FC
330
1F
100
AcDbEntity
  8
0
  6
Continuous
 62
     7
370
    25
100
AcDbSpline
210
0.0
220
0.0
230
1.0
 70
     8
 71
     3
 72
    17
 73
    13
 74
     0
 42
0.00000001
 43
0.00000001
 40
0.0
 40
0.0
 40
0.0
 40
0.0
 40
0.0054763651156732
 40
0.0360043466396843
 40
0.0549815418512322
 40
0.0840442001357919
 40
0.1287716792378146
 40
0.1984449343909105
 40
0.3105387040802233
 40
0.662561370730814
 40
0.8966091575379079
 40
1.0
 40
1.0
 40
1.0
 40
1.0
 10
27.29014375
 20
93.16727300542516
 30
0.0
 10
27.28562993304221
 20
93.16466695178899
 30
0.0
 10
27.25595385648712
 20
93.14753345968319
 30
0.0
 10
27.2106349459875
 20
93.1213722265953
 30
0.0
 10
27.14588664598209
 20
93.08404151453045
 30
0.0
 10
27.06945093287769
 20
93.04005520631355
 30
0.0
 10
26.95130169051494
 20
92.97235413777224
 30
0.0
 10
26.76497360903968
 20
92.86676281848271
 30
0.0
 10
26.32718529102117
 20
92.62454687182783
 30
0.0
 10
25.76012639966546
 20
92.35238035291437
 30
0.0
 10
25.21920207076789
 20
92.1768160628032
 30
0.0
 10
24.97732379985279
 20
92.1795117264271
 30
0.0
 10
24.90321255106854
 20
92.1803376749371
 30
0.0
  0
SPLINE
  5
2FD
330
1F
100
AcDbEntity
  8
0
  6
Continuous
 62
     7
370
    25
100
AcDbSpline
210
0.0
220
0.0
230
1.0
 70
     8
 71
     3
 72
    17
 73
    13
 74
     0
 42
0.00000001
 43
0.00000001
 40
0.0
 40
0.0
 40
0.0
 40
0.0
 40
0.1033473541043693
 40
0.3374064929635711
 40
0.6894462338181505
 40
0.801545440407047
 40
0.871222074931655
 40
0.9159517234567729
 40
0.9450157913714237
 40
0.9639939070364685
 40
0.9945233692634341
 40
1.0
 40
1.0
 40
1.0
 40
1.0
 10
29.67696964500063
 20
92.18034041538945
 30
0.0
 10
29.60289293795497
 20
92.17951572240581
 30
0.0
 10
29.36104870158172
 20
92.17682328030315
 30
0.0
 10
28.82016035795803
 20
92.35238323051243
 30
0.0
 10
28.2531022775806
 20
92.6245466059138
 30
0.0
 10
27.81531388528354
 20
92.86676284048698
 30
0.0
 10
27.62898581023176
 20
92.97235413487785
 30
0.0
 10
27.5108365670212
 20
93.0400552067055
 30
0.0
 10
27.43440085403138
 20
93.08404151447843
 30
0.0
 10
27.3696525540074
 20
93.12137222661526
 30
0.0
 10
27.32433364351316
 20
93.14753345968235
 30
0.0
 10
27.29465756695782
 20
93.16466695178889
 30
0.0
 10
27.29014375
 20
93.16727300542516
 30
0.0
  0
LWPOLYLINE
  5
2FE
330
1F
100
AcDbEntity
  8
0
  6
Continuous
 62
     7
370
    25
100
AcDbPolyline
 90
        9
 70
   128
 43
0.0
 10
29.8670167298
 20
92.1727310573
 10
29.8804497519
 20
92.1745935282
 10
29.9233068139
 20
92.1951280137
 10
29.9622553284
 20
92.2369007698
 10
29.9955597236
 20
92.2980503742
 10
30.021735933
 20
92.3758519594
 10
30.0396175272
 20
92.4668386343
 10
30.0484076902
 20
92.5669559714
 10
30.0477147266
 20
92.6717426746
  0
ARC
  5
2FF
330
1F
100
AcDbEntity
  8
0
  6
Continuous
 62
     7
370
    25
100
AcDbCircle
 10
51.2151837717
 20
98.1237645009
 30
0.0
 40
0.4538757115706845
100
AcDbArc
 50
106.8912050746
 51
186.8678829692
  0
ARC
  5
300
330
1F
100
AcDbEntity
  8
0
  6
Continuous
 62
     7
370
    25
100
AcDbCircle
 10
32.3773897731
 20
98.1317744316
 30
0.0
 40
0.4427359147349856
100
AcDbArc
 50
351.912744303
 51
74.3423011081
  0
ARC
  5
301
330
1F
100
AcDbEntity
  8
0
  6
Continuous
 62
     7
370
    25
100
AcDbCircle
 10
32.3651037283
 20
92.9235107989
 30
0.0
 40
0.4538757115706688
100
AcDbArc
 50
286.8912050746
 51
6.8678829692
  0
ARC
  5
302
330
1F
100
AcDbEntity
  8
0
  6
Continuous
 62
     7
370
    25
100
AcDbCircle
 10
51.2028977269
 20
92.9155008682
 30
0.0
 40
0.4427359147349001
100
AcDbArc
 50
171.912744303
 51
254.3423011081
  0
MTEXT
  5
304
330
1F
100
AcDbEntity
  8
0
  6
Continuous
 62
     7
370
     0
100
AcDbMText
 10
48.6944490165
 20
78.6100638228
 30
0.0
 40
3.5
 41
0.0
 71
     1
 72
     1
  1
エースボール アングル BR-5166
  7
SLDTEXTSTYLE0
 73
     1
 44
1.0
  0
INSERT
  5
310
330
1F
100
AcDbEntity
  8
0
  6
Continuous
 62
     7
370
    18
100
AcDbBlockReference
  2
SW_CENTERMARKSYMBOL_1
 10
41.79014375
 20
95.5236376499
 30
0.0
  0
ENDSEC
  0
SECTION
  2
OBJECTS
  0
DICTIONARY
  5
C
330
0
100
AcDbDictionary
281
     1
  3
ACAD_GROUP
350
D
  3
ACAD_LAYOUT
350
1A
  3
ACAD_MLINESTYLE
350
17
  3
ACAD_PLOTSETTINGS
350
19
  3
ACAD_PLOTSTYLENAME
350
E
  3
ACAD_SCALELIST
350
47
  3
DWGPROPS
350
311
  0
DICTIONARY
  5
D
102
{ACAD_REACTORS
330
C
102
}
330
C
100
AcDbDictionary
281
     1
  0
DICTIONARY
  5
1A
102
{ACAD_REACTORS
330
C
102
}
330
C
100
AcDbDictionary
281
     1
  3
Layout1
350
1E
  3
Layout2
350
26
  3
Model
350
22
  0
DICTIONARY
  5
17
102
{ACAD_REACTORS
330
C
102
}
330
C
100
AcDbDictionary
281
     1
  3
Standard
350
18
  0
DICTIONARY
  5
19
102
{ACAD_REACTORS
330
C
102
}
330
C
100
AcDbDictionary
281
     1
  0
ACDBDICTIONARYWDFLT
  5
E
102
{ACAD_REACTORS
330
C
102
}
330
C
100
AcDbDictionary
281
     1
  3
Normal
350
F
100
AcDbDictionaryWithDefault
340
F
  0
DICTIONARY
  5
47
102
{ACAD_REACTORS
330
C
102
}
330
C
100
AcDbDictionary
281
     1
  3
A0
350
48
  3
A1
350
49
  3
A2
350
4A
  3
A3
350
4B
  3
A4
350
4C
  3
A5
350
4D
  3
A6
350
4E
  3
A7
350
4F
  3
A8
350
50
  3
A9
350
51
  3
B0
350
52
  3
B1
350
53
  3
B2
350
54
  3
B3
350
55
  3
B4
350
56
  3
B5
350
57
  3
B6
350
58
  0
XRECORD
  5
311
102
{ACAD_REACTORS
330
C
102
}
330
C
100
AcDbXrecord
280
     1
  1
DWGPROPS COOKIE
  2

  3

  4

  6

  7

  8
user52
  9

300
=
301
=
302
=
303
=
304
=
305
=
306
=
307
=
308
=
309
=
 40
0.0
 41
2460389.354625104
 42
2460389.354625648
  1

 90
        0
  0
LAYOUT
  5
1E
102
{ACAD_REACTORS
330
1A
102
}
330
1A
100
AcDbPlotSettings
  1

  2
none_device
  4

  6

 40
0.0
 41
0.0
 42
0.0
 43
0.0
 44
0.0
 45
0.0
 46
0.0
 47
0.0
 48
0.0
 49
0.0
140
0.0
141
0.0
142
1.0
143
1.0
 70
   688
 72
     1
 73
     0
 74
     5
  7

 75
    16
147
1.0
148
0.0
149
0.0
100
AcDbLayout
  1
Layout1
 70
     1
 71
     1
 10
0.0
 20
0.0
 11
420.0
 21
297.0
 12
0.0
 22
0.0
 32
0.0
 14
1.0000000000E+20
 24
1.0000000000E+20
 34
1.0000000000E+20
 15
-1.0000000000E+20
 25
-1.0000000000E+20
 35
-1.0000000000E+20
146
0.0
 13
0.0
 23
0.0
 33
0.0
 16
1.0
 26
0.0
 36
0.0
 17
0.0
 27
1.0
 37
0.0
 76
     0
330
1B
  0
LAYOUT
  5
26
102
{ACAD_REACTORS
330
1A
102
}
330
1A
100
AcDbPlotSettings
  1

  2
none_device
  4

  6

 40
0.0
 41
0.0
 42
0.0
 43
0.0
 44
0.0
 45
0.0
 46
0.0
 47
0.0
 48
0.0
 49
0.0
140
0.0
141
0.0
142
1.0
143
1.0
 70
   688
 72
     1
 73
     0
 74
     5
  7

 75
    16
147
1.0
148
0.0
149
0.0
100
AcDbLayout
  1
Layout2
 70
     1
 71
     2
 10
0.0
 20
0.0
 11
0.0
 21
0.0
 12
0.0
 22
0.0
 32
0.0
 14
0.0
 24
0.0
 34
0.0
 15
0.0
 25
0.0
 35
0.0
146
0.0
 13
0.0
 23
0.0
 33
0.0
 16
1.0
 26
0.0
 36
0.0
 17
0.0
 27
1.0
 37
0.0
 76
     0
330
23
  0
LAYOUT
  5
22
102
{ACAD_REACTORS
330
1A
102
}
330
1A
100
AcDbPlotSettings
  1

  2
none_device
  4
Letter_(8.50_x_11.00_Inches)
  6

 40
6.35
 41
6.35
 42
6.35000508
 43
6.35000508
 44
215.9
 45
279.4
 46
0.0
 47
0.0
 48
0.0
 49
0.0
140
0.0
141
0.0
142
1.0
143
1.0
 70
  1712
 72
     1
 73
     0
 74
     0
  7

 75
     0
147
1.0
148
0.0
149
0.0
100
AcDbLayout
  1
Model
 70
     1
 71
     0
 10
0.0
 20
0.0
 11
431.8
 21
279.4
 12
0.0
 22
0.0
 32
0.0
 14
0.0
 24
0.0
 34
0.0
 15
431.8
 25
279.4
 35
0.0
146
0.0
 13
0.0
 23
0.0
 33
0.0
 16
1.0
 26
0.0
 36
0.0
 17
0.0
 27
1.0
 37
0.0
 76
     0
330
1F
331
29
  0
MLINESTYLE
  5
18
102
{ACAD_REACTORS
330
17
102
}
330
17
100
AcDbMlineStyle
  2
Standard
 70
     0
  3

 62
   256
 51
90.0
 52
90.0
 71
     2
 49
0.5
 62
   256
  6
BYLAYER
 49
-0.5
 62
   256
  6
BYLAYER
  0
ACDBPLACEHOLDER
  5
F
102
{ACAD_REACTORS
330
E
102
}
330
E
  0
SCALE
  5
48
102
{ACAD_REACTORS
330
47
102
}
330
47
100
AcDbScale
 70
     0
300
1:1
140
1.0
141
1.0
290
     1
  0
SCALE
  5
49
102
{ACAD_REACTORS
330
47
102
}
330
47
100
AcDbScale
 70
     0
300
1:2
140
1.0
141
2.0
290
     0
  0
SCALE
  5
4A
102
{ACAD_REACTORS
330
47
102
}
330
47
100
AcDbScale
 70
     0
300
1:4
140
1.0
141
4.0
290
     0
  0
SCALE
  5
4B
102
{ACAD_REACTORS
330
47
102
}
330
47
100
AcDbScale
 70
     0
300
1:5
140
1.0
141
5.0
290
     0
  0
SCALE
  5
4C
102
{ACAD_REACTORS
330
47
102
}
330
47
100
AcDbScale
 70
     0
300
1:8
140
1.0
141
8.0
290
     0
  0
SCALE
  5
4D
102
{ACAD_REACTORS
330
47
102
}
330
47
100
AcDbScale
 70
     0
300
1:10
140
1.0
141
10.0
290
     0
  0
SCALE
  5
4E
102
{ACAD_REACTORS
330
47
102
}
330
47
100
AcDbScale
 70
     0
300
1:16
140
1.0
141
16.0
290
     0
  0
SCALE
  5
4F
102
{ACAD_REACTORS
330
47
102
}
330
47
100
AcDbScale
 70
     0
300
1:20
140
1.0
141
20.0
290
     0
  0
SCALE
  5
50
102
{ACAD_REACTORS
330
47
102
}
330
47
100
AcDbScale
 70
     0
300
1:30
140
1.0
141
30.0
290
     0
  0
SCALE
  5
51
102
{ACAD_REACTORS
330
47
102
}
330
47
100
AcDbScale
 70
     0
300
1:40
140
1.0
141
40.0
290
     0
  0
SCALE
  5
52
102
{ACAD_REACTORS
330
47
102
}
330
47
100
AcDbScale
 70
     0
300
1:50
140
1.0
141
50.0
290
     0
  0
SCALE
  5
53
102
{ACAD_REACTORS
330
47
102
}
330
47
100
AcDbScale
 70
     0
300
1:100
140
1.0
141
100.0
290
     0
  0
SCALE
  5
54
102
{ACAD_REACTORS
330
47
102
}
330
47
100
AcDbScale
 70
     0
300
2:1
140
2.0
141
1.0
290
     0
  0
SCALE
  5
55
102
{ACAD_REACTORS
330
47
102
}
330
47
100
AcDbScale
 70
     0
300
4:1
140
4.0
141
1.0
290
     0
  0
SCALE
  5
56
102
{ACAD_REACTORS
330
47
102
}
330
47
100
AcDbScale
 70
     0
300
8:1
140
8.0
141
1.0
290
     0
  0
SCALE
  5
57
102
{ACAD_REACTORS
330
47
102
}
330
47
100
AcDbScale
 70
     0
300
10:1
140
10.0
141
1.0
290
     0
  0
SCALE
  5
58
102
{ACAD_REACTORS
330
47
102
}
330
47
100
AcDbScale
 70
     0
300
100:1
140
100.0
141
1.0
290
     0
  0
ENDSEC
  0
EOF
