  0
SECTION
  2
HEADER
  9
$ACADVER
  1
AC1015
  9
$ACADMAINTVER
 70
     6
  9
$DWGCODEPAGE
  3
DOS932
  9
$INSBASE
 10
0.0
 20
0.0
 30
0.0
  9
$EXTMIN
 10
0.0
 20
0.0
 30
0.0
  9
$EXTMAX
 10
431.8
 20
279.4
 30
0.0
  9
$LIMMIN
 10
0.0
 20
0.0
  9
$LIMMAX
 10
431.8
 20
279.4
  9
$ORTHOMODE
 70
     0
  9
$REGENMODE
 70
     1
  9
$FILLMODE
 70
     1
  9
$QTEXTMODE
 70
     0
  9
$MIRRTEXT
 70
     1
  9
$LTSCALE
 40
1.0
  9
$ATTMODE
 70
     1
  9
$TEXTSIZE
 40
3.5
  9
$TRACEWID
 40
1.0
  9
$TEXTSTYLE
  7
Standard
  9
$CLAYER
  8
0
  9
$CELTYPE
  6
ByLayer
  9
$CECOLOR
 62
   256
  9
$CELTSCALE
 40
1.0
  9
$DISPSILH
 70
     0
  9
$DIMSCALE
 40
1.0
  9
$DIMASZ
 40
3.556
  9
$DIMEXO
 40
1.0
  9
$DIMDLI
 40
3.75
  9
$DIMRND
 40
0.0
  9
$DIMDLE
 40
0.0
  9
$DIMEXE
 40
1.0
  9
$DIMTP
 40
0.0
  9
$DIMTM
 40
0.0
  9
$DIMTXT
 40
3.5
  9
$DIMCEN
 40
2.5
  9
$DIMTSZ
 40
0.0
  9
$DIMTOL
 70
     0
  9
$DIMLIM
 70
     0
  9
$DIMTIH
 70
     1
  9
$DIMTOH
 70
     1
  9
$DIMSE1
 70
     0
  9
$DIMSE2
 70
     0
  9
$DIMTAD
 70
     1
  9
$DIMZIN
 70
     0
  9
$DIMBLK
  1

  9
$DIMASO
 70
     1
  9
$DIMSHO
 70
     1
  9
$DIMPOST
  1

  9
$DIMAPOST
  1

  9
$DIMALT
 70
     0
  9
$DIMALTD
 70
     3
  9
$DIMALTF
 40
0.0393700787
  9
$DIMLFAC
 40
1.0
  9
$DIMTOFL
 70
     1
  9
$DIMTVP
 40
0.0
  9
$DIMTIX
 70
     0
  9
$DIMSOXD
 70
     0
  9
$DIMSAH
 70
     0
  9
$DIMBLK1
  1

  9
$DIMBLK2
  1

  9
$DIMSTYLE
  2
ISO-25
  9
$DIMCLRD
 70
     0
  9
$DIMCLRE
 70
     0
  9
$DIMCLRT
 70
     0
  9
$DIMTFAC
 40
1.0
  9
$DIMGAP
 40
1.524
  9
$DIMJUST
 70
     0
  9
$DIMSD1
 70
     0
  9
$DIMSD2
 70
     0
  9
$DIMTOLJ
 70
     0
  9
$DIMTZIN
 70
     0
  9
$DIMALTZ
 70
     0
  9
$DIMALTTZ
 70
     0
  9
$DIMUPT
 70
     0
  9
$DIMDEC
 70
     3
  9
$DIMTDEC
 70
     3
  9
$DIMALTU
 70
     2
  9
$DIMALTTD
 70
     3
  9
$DIMTXSTY
  7
Standard
  9
$DIMAUNIT
 70
     0
  9
$DIMADEC
 70
     2
  9
$DIMALTRND
 40
0.0
  9
$DIMAZIN
 70
     0
  9
$DIMDSEP
 70
    44
  9
$DIMATFIT
 70
     3
  9
$DIMFRAC
 70
     0
  9
$DIMLDRBLK
  1

  9
$DIMLUNIT
 70
     2
  9
$DIMLWD
 70
    -2
  9
$DIMLWE
 70
    -2
  9
$DIMTMOVE
 70
     0
  9
$LUNITS
 70
     2
  9
$LUPREC
 70
     3
  9
$SKETCHINC
 40
1.0
  9
$FILLETRAD
 40
0.0
  9
$AUNITS
 70
     0
  9
$AUPREC
 70
     2
  9
$MENU
  1
.
  9
$ELEVATION
 40
0.0
  9
$PELEVATION
 40
0.0
  9
$THICKNESS
 40
0.0
  9
$LIMCHECK
 70
     0
  9
$CHAMFERA
 40
0.0
  9
$CHAMFERB
 40
0.0
  9
$CHAMFERC
 40
0.0
  9
$CHAMFERD
 40
0.0
  9
$SKPOLY
 70
     0
  9
$TDCREATE
 40
2460339.568539931
  9
$TDUCREATE
 40
2460339.193539931
  9
$TDUPDATE
 40
2460339.568540452
  9
$TDUUPDATE
 40
2460339.193540452
  9
$TDINDWG
 40
0.0000000116
  9
$TDUSRTIMER
 40
0.0000000116
  9
$USRTIMER
 70
     1
  9
$ANGBASE
 50
0.0
  9
$ANGDIR
 70
     0
  9
$PDMODE
 70
     0
  9
$PDSIZE
 40
-1.0
  9
$PLINEWID
 40
0.0
  9
$SPLFRAME
 70
     0
  9
$SPLINETYPE
 70
     6
  9
$SPLINESEGS
 70
     8
  9
$HANDSEED
  5
286
  9
$SURFTAB1
 70
     6
  9
$SURFTAB2
 70
     6
  9
$SURFTYPE
 70
     6
  9
$SURFU
 70
     6
  9
$SURFV
 70
     6
  9
$UCSBASE
  2

  9
$UCSNAME
  2

  9
$UCSORG
 10
0.0
 20
0.0
 30
0.0
  9
$UCSXDIR
 10
1.0
 20
0.0
 30
0.0
  9
$UCSYDIR
 10
0.0
 20
1.0
 30
0.0
  9
$UCSORTHOREF
  2

  9
$UCSORTHOVIEW
 70
     0
  9
$UCSORGTOP
 10
0.0
 20
0.0
 30
0.0
  9
$UCSORGBOTTOM
 10
0.0
 20
0.0
 30
0.0
  9
$UCSORGLEFT
 10
0.0
 20
0.0
 30
0.0
  9
$UCSORGRIGHT
 10
0.0
 20
0.0
 30
0.0
  9
$UCSORGFRONT
 10
0.0
 20
0.0
 30
0.0
  9
$UCSORGBACK
 10
0.0
 20
0.0
 30
0.0
  9
$PUCSBASE
  2

  9
$PUCSNAME
  2

  9
$PUCSORG
 10
0.0
 20
0.0
 30
0.0
  9
$PUCSXDIR
 10
1.0
 20
0.0
 30
0.0
  9
$PUCSYDIR
 10
0.0
 20
1.0
 30
0.0
  9
$PUCSORTHOREF
  2

  9
$PUCSORTHOVIEW
 70
     0
  9
$PUCSORGTOP
 10
0.0
 20
0.0
 30
0.0
  9
$PUCSORGBOTTOM
 10
0.0
 20
0.0
 30
0.0
  9
$PUCSORGLEFT
 10
0.0
 20
0.0
 30
0.0
  9
$PUCSORGRIGHT
 10
0.0
 20
0.0
 30
0.0
  9
$PUCSORGFRONT
 10
0.0
 20
0.0
 30
0.0
  9
$PUCSORGBACK
 10
0.0
 20
0.0
 30
0.0
  9
$USERI1
 70
     0
  9
$USERI2
 70
     0
  9
$USERI3
 70
     0
  9
$USERI4
 70
     0
  9
$USERI5
 70
     0
  9
$USERR1
 40
0.0
  9
$USERR2
 40
0.0
  9
$USERR3
 40
0.0
  9
$USERR4
 40
0.0
  9
$USERR5
 40
0.0
  9
$WORLDVIEW
 70
     1
  9
$SHADEDGE
 70
     3
  9
$SHADEDIF
 70
    70
  9
$TILEMODE
 70
     1
  9
$MAXACTVP
 70
    64
  9
$PINSBASE
 10
0.0
 20
0.0
 30
0.0
  9
$PLIMCHECK
 70
     0
  9
$PEXTMIN
 10
1.0000000000E+20
 20
1.0000000000E+20
 30
1.0000000000E+20
  9
$PEXTMAX
 10
-1.0000000000E+20
 20
-1.0000000000E+20
 30
-1.0000000000E+20
  9
$PLIMMIN
 10
0.0
 20
0.0
  9
$PLIMMAX
 10
420.0
 20
297.0
  9
$UNITMODE
 70
     0
  9
$VISRETAIN
 70
     1
  9
$PLINEGEN
 70
     0
  9
$PSLTSCALE
 70
     1
  9
$TREEDEPTH
 70
  3020
  9
$CMLSTYLE
  2
Standard
  9
$CMLJUST
 70
     0
  9
$CMLSCALE
 40
20.0
  9
$PROXYGRAPHICS
 70
     1
  9
$MEASUREMENT
 70
     1
  9
$CELWEIGHT
370
    -1
  9
$ENDCAPS
280
     0
  9
$JOINSTYLE
280
     0
  9
$LWDISPLAY
290
     1
  9
$INSUNITS
 70
     4
  9
$HYPERLINKBASE
  1

  9
$STYLESHEET
  1

  9
$XEDIT
290
     1
  9
$CEPSNTYPE
380
     0
  9
$PSTYLEMODE
290
     1
  9
$FINGERPRINTGUID
  2
{0d8c1107-7ce6-4781-826e-8f7b0a539db7}
  9
$VERSIONGUID
  2
{FAEB1C32-E019-11D5-929B-00C0DF256EC4}
  9
$EXTNAMES
290
     1
  9
$PSVPSCALE
 40
0.0
  9
$OLESTARTUP
290
     0
  0
ENDSEC
  0
SECTION
  2
CLASSES
  0
CLASS
  1
ACDBDICTIONARYWDFLT
  2
AcDbDictionaryWithDefault
  3
ObjectDBX Classes
 90
        0
280
     0
281
     0
  0
CLASS
  1
VISUALSTYLE
  2
AcDbVisualStyle
  3
ObjectDBX Classes
 90
     4095
280
     0
281
     0
  0
CLASS
  1
MATERIAL
  2
AcDbMaterial
  3
ObjectDBX Classes
 90
     1153
280
     0
281
     0
  0
CLASS
  1
SCALE
  2
AcDbScale
  3
ObjectDBX Classes
 90
     1153
280
     0
281
     0
  0
CLASS
  1
TABLESTYLE
  2
AcDbTableStyle
  3
ObjectDBX Classes
 90
     4095
280
     0
281
     0
  0
CLASS
  1
MLEADERSTYLE
  2
AcDbMLeaderStyle
  3
ACDB_MLEADERSTYLE_CLASS
 90
     4095
280
     0
281
     0
  0
CLASS
  1
SUN
  2
AcDbSun
  3
SCENEOE
 90
     1153
280
     0
281
     0
  0
CLASS
  1
ACDBPLACEHOLDER
  2
AcDbPlaceHolder
  3
ObjectDBX Classes
 90
        0
280
     0
281
     0
  0
CLASS
  1
LAYOUT
  2
AcDbLayout
  3
ObjectDBX Classes
 90
        0
280
     0
281
     0
  0
ENDSEC
  0
SECTION
  2
TABLES
  0
TABLE
  2
VPORT
  5
8
330
0
100
AcDbSymbolTable
 70
     1
  0
VPORT
  5
29
330
8
100
AcDbSymbolTableRecord
100
AcDbViewportTableRecord
  2
*Active
 70
     0
 10
0.0
 20
0.0
 11
1.0
 21
1.0
 12
215.9
 22
139.7
 13
0.0
 23
0.0
 14
10.0
 24
10.0
 15
10.0
 25
10.0
 16
0.0
 26
0.0
 36
1.0
 17
0.0
 27
0.0
 37
0.0
 40
279.4
 41
1.5454545455
 42
50.0
 43
0.0
 44
0.0
 50
0.0
 51
0.0
 71
     0
 72
  2000
 73
     1
 74
     3
 75
     0
 76
     0
 77
     0
 78
     0
281
     0
 65
     1
110
0.0
120
0.0
130
0.0
111
1.0
121
0.0
131
0.0
112
0.0
122
1.0
132
0.0
 79
     0
146
0.0
  0
ENDTAB
  0
TABLE
  2
LTYPE
  5
5
330
0
100
AcDbSymbolTable
 70
     6
  0
LTYPE
  5
14
330
5
100
AcDbSymbolTableRecord
100
AcDbLinetypeTableRecord
  2
ByBlock
 70
     0
  3

 72
    65
 73
     0
 40
0.0
  0
LTYPE
  5
15
330
5
100
AcDbSymbolTableRecord
100
AcDbLinetypeTableRecord
  2
ByLayer
 70
     0
  3

 72
    65
 73
     0
 40
0.0
  0
LTYPE
  5
16
330
5
100
AcDbSymbolTableRecord
100
AcDbLinetypeTableRecord
  2
Continuous
 70
     0
  3
Solid line
 72
    65
 73
     0
 40
0.0
  0
LTYPE
  5
5E
330
5
100
AcDbSymbolTableRecord
100
AcDbLinetypeTableRecord
  2
HIDDEN
 70
     0
  3
Hidden __ __ __ __ __ __ __ __ __ __ __ __ __ __
 72
    65
 73
     2
 40
1.905
 49
1.27
 74
     0
 49
-0.635
 74
     0
  0
LTYPE
  5
5F
330
5
100
AcDbSymbolTableRecord
100
AcDbLinetypeTableRecord
  2
PHANTOM
 70
     0
  3
Phantom ______  __  __  ______  __  __  ______
 72
    65
 73
     6
 40
12.7
 49
6.35
 74
     0
 49
-1.27
 74
     0
 49
1.27
 74
     0
 49
-1.27
 74
     0
 49
1.27
 74
     0
 49
-1.27
 74
     0
  0
LTYPE
  5
60
330
5
100
AcDbSymbolTableRecord
100
AcDbLinetypeTableRecord
  2
CENTER
 70
     0
  3
Center ____ _ ____ _ ____ _ ____ _ ____ _ ____
 72
    65
 73
     4
 40
10.16
 49
6.35
 74
     0
 49
-1.27
 74
     0
 49
1.27
 74
     0
 49
-1.27
 74
     0
  0
LTYPE
  5
61
330
5
100
AcDbSymbolTableRecord
100
AcDbLinetypeTableRecord
  2
CENTERX2
 70
     0
  3
Center (2x) ________  __  ________  __  _____
 72
    65
 73
     4
 40
20.32
 49
12.7
 74
     0
 49
-2.54
 74
     0
 49
2.54
 74
     0
 49
-2.54
 74
     0
  0
LTYPE
  5
62
330
5
100
AcDbSymbolTableRecord
100
AcDbLinetypeTableRecord
  2
DOT2
 70
     0
  3
Dot (.5x) ........................................
 72
    65
 73
     2
 40
0.635
 49
0.0
 74
     0
 49
-0.635
 74
     0
  0
ENDTAB
  0
TABLE
  2
LAYER
  5
2
330
0
100
AcDbSymbolTable
 70
     1
  0
LAYER
  5
10
330
2
100
AcDbSymbolTableRecord
100
AcDbLayerTableRecord
  2
0
 70
     0
 62
     7
  6
Continuous
370
    -3
390
F
  0
ENDTAB
  0
TABLE
  2
STYLE
  5
3
330
0
100
AcDbSymbolTable
 70
     2
  0
STYLE
  5
11
330
3
100
AcDbSymbolTableRecord
100
AcDbTextStyleTableRecord
  2
Standard
 70
     0
 40
0.0
 41
1.0
 50
0.0
 71
     0
 42
3.5
  3
txt
  4
bigfont
  0
STYLE
  5
276
330
3
100
AcDbSymbolTableRecord
100
AcDbTextStyleTableRecord
  2
SLDTEXTSTYLE0
 70
     0
 40
0.0
 41
0.75
 50
0.0
 71
     0
 42
3.5
  3
TXT
  4
bigfont
  0
ENDTAB
  0
TABLE
  2
VIEW
  5
6
330
0
100
AcDbSymbolTable
 70
     0
  0
ENDTAB
  0
TABLE
  2
UCS
  5
7
330
0
100
AcDbSymbolTable
 70
     0
  0
ENDTAB
  0
TABLE
  2
APPID
  5
9
330
0
100
AcDbSymbolTable
 70
     1
  0
APPID
  5
12
330
9
100
AcDbSymbolTableRecord
100
AcDbRegAppTableRecord
  2
ACAD
 70
     0
  0
ENDTAB
  0
TABLE
  2
DIMSTYLE
  5
A
330
0
100
AcDbSymbolTable
 70
     1
100
AcDbDimStyleTable
  0
DIMSTYLE
105
27
330
A
100
AcDbSymbolTableRecord
100
AcDbDimStyleTableRecord
  2
ISO-25
 70
     0
 41
2.5
 42
0.625
 43
3.75
 44
1.25
 73
     0
 74
     0
 77
     1
 78
     8
140
2.5
141
2.5
143
0.0393700787
147
0.625
171
     3
172
     1
178
     0
271
     2
272
     2
274
     3
278
    44
283
     0
284
     8
340
11
  0
ENDTAB
  0
TABLE
  2
BLOCK_RECORD
  5
1
330
0
100
AcDbSymbolTable
 70
     3
  0
BLOCK_RECORD
  5
1F
330
1
100
AcDbSymbolTableRecord
100
AcDbBlockTableRecord
  2
*Model_Space
340
22
  0
BLOCK_RECORD
  5
1B
330
1
100
AcDbSymbolTableRecord
100
AcDbBlockTableRecord
  2
*Paper_Space
340
1E
  0
BLOCK_RECORD
  5
23
330
1
100
AcDbSymbolTableRecord
100
AcDbBlockTableRecord
  2
*Paper_Space0
340
26
  0
BLOCK_RECORD
  5
1DC
330
1
100
AcDbSymbolTableRecord
100
AcDbBlockTableRecord
  2
SW_CENTERMARKSYMBOL_0
340
0
102
{BLKREFS
331
1E7
102
}
  0
BLOCK_RECORD
  5
279
330
1
100
AcDbSymbolTableRecord
100
AcDbBlockTableRecord
  2
SW_CENTERMARKSYMBOL_1
340
0
102
{BLKREFS
331
284
102
}
  0
ENDTAB
  0
ENDSEC
  0
SECTION
  2
BLOCKS
  0
BLOCK
  5
20
330
1F
100
AcDbEntity
  8
0
100
AcDbBlockBegin
  2
*Model_Space
 70
     0
 10
0.0
 20
0.0
 30
0.0
  3
*Model_Space
  1

  0
ENDBLK
  5
21
330
1F
100
AcDbEntity
  8
0
100
AcDbBlockEnd
  0
BLOCK
  5
1C
330
1B
100
AcDbEntity
 67
     1
  8
0
100
AcDbBlockBegin
  2
*Paper_Space
 70
     0
 10
0.0
 20
0.0
 30
0.0
  3
*Paper_Space
  1

  0
ENDBLK
  5
1D
330
1B
100
AcDbEntity
 67
     1
  8
0
100
AcDbBlockEnd
  0
BLOCK
  5
24
330
23
100
AcDbEntity
  8
0
100
AcDbBlockBegin
  2
*Paper_Space0
 70
     0
 10
0.0
 20
0.0
 30
0.0
  3
*Paper_Space0
  1

  0
ENDBLK
  5
25
330
23
100
AcDbEntity
  8
0
100
AcDbBlockEnd
  0
BLOCK
  5
1DD
330
1DC
100
AcDbEntity
  8
0
100
AcDbBlockBegin
  2
SW_CENTERMARKSYMBOL_0
 70
     0
 10
0.0
 20
0.0
 30
0.0
  3
SW_CENTERMARKSYMBOL_0
  1

  0
LINE
  5
1DF
330
1DC
100
AcDbEntity
  8
0
  6
Continuous
 62
     0
370
    18
100
AcDbLine
 10
0.0
 20
0.0
 30
0.0
 11
0.0
 21
2.5
 31
0.0
  0
LINE
  5
1E0
330
1DC
100
AcDbEntity
  8
0
  6
Continuous
 62
     0
370
    18
100
AcDbLine
 10
0.0
 20
0.0
 30
0.0
 11
-2.5
 21
0.0
 31
0.0
  0
LINE
  5
1E1
330
1DC
100
AcDbEntity
  8
0
  6
Continuous
 62
     0
370
    18
100
AcDbLine
 10
0.0
 20
0.0
 30
0.0
 11
0.0
 21
-2.5
 31
0.0
  0
LINE
  5
1E2
330
1DC
100
AcDbEntity
  8
0
  6
Continuous
 62
     0
370
    18
100
AcDbLine
 10
0.0
 20
0.0
 30
0.0
 11
2.5
 21
0.0
 31
0.0
  0
LINE
  5
1E3
330
1DC
100
AcDbEntity
  8
0
  6
Continuous
 62
     0
370
    18
100
AcDbLine
 10
0.0
 20
5.0
 30
0.0
 11
0.0
 21
32.0762274157
 31
0.0
  0
LINE
  5
1E4
330
1DC
100
AcDbEntity
  8
0
  6
Continuous
 62
     0
370
    18
100
AcDbLine
 10
-5.0
 20
0.0
 30
0.0
 11
-14.3875925646
 21
0.0
 31
0.0
  0
LINE
  5
1E5
330
1DC
100
AcDbEntity
  8
0
  6
Continuous
 62
     0
370
    18
100
AcDbLine
 10
0.0
 20
-5.0
 30
0.0
 11
0.0
 21
-26.1397153812
 31
0.0
  0
LINE
  5
1E6
330
1DC
100
AcDbEntity
  8
0
  6
Continuous
 62
     0
370
    18
100
AcDbLine
 10
5.0
 20
0.0
 30
0.0
 11
14.5373098313
 21
0.0
 31
0.0
  0
ENDBLK
  5
1DE
330
1DC
100
AcDbEntity
  8
0
100
AcDbBlockEnd
  0
BLOCK
  5
27A
330
279
100
AcDbEntity
  8
0
100
AcDbBlockBegin
  2
SW_CENTERMARKSYMBOL_1
 70
     0
 10
0.0
 20
0.0
 30
0.0
  3
SW_CENTERMARKSYMBOL_1
  1

  0
LINE
  5
27C
330
279
100
AcDbEntity
  8
0
  6
Continuous
 62
     0
370
    18
100
AcDbLine
 10
0.0
 20
0.0
 30
0.0
 11
0.0
 21
2.5
 31
0.0
  0
LINE
  5
27D
330
279
100
AcDbEntity
  8
0
  6
Continuous
 62
     0
370
    18
100
AcDbLine
 10
0.0
 20
0.0
 30
0.0
 11
-2.5
 21
0.0
 31
0.0
  0
LINE
  5
27E
330
279
100
AcDbEntity
  8
0
  6
Continuous
 62
     0
370
    18
100
AcDbLine
 10
0.0
 20
0.0
 30
0.0
 11
0.0
 21
-2.5
 31
0.0
  0
LINE
  5
27F
330
279
100
AcDbEntity
  8
0
  6
Continuous
 62
     0
370
    18
100
AcDbLine
 10
0.0
 20
0.0
 30
0.0
 11
2.5
 21
0.0
 31
0.0
  0
LINE
  5
280
330
279
100
AcDbEntity
  8
0
  6
Continuous
 62
     0
370
    18
100
AcDbLine
 10
0.0
 20
5.0
 30
0.0
 11
0.0
 21
12.4293980476
 31
0.0
  0
LINE
  5
281
330
279
100
AcDbEntity
  8
0
  6
Continuous
 62
     0
370
    18
100
AcDbLine
 10
-5.0
 20
0.0
 30
0.0
 11
-42.9376043054
 21
0.0
 31
0.0
  0
LINE
  5
282
330
279
100
AcDbEntity
  8
0
  6
Continuous
 62
     0
370
    18
100
AcDbLine
 10
0.0
 20
-5.0
 30
0.0
 11
0.0
 21
-12.8375522107
 31
0.0
  0
LINE
  5
283
330
279
100
AcDbEntity
  8
0
  6
Continuous
 62
     0
370
    18
100
AcDbLine
 10
5.0
 20
0.0
 30
0.0
 11
16.0594979967
 21
0.0
 31
0.0
  0
ENDBLK
  5
27B
330
279
100
AcDbEntity
  8
0
100
AcDbBlockEnd
  0
ENDSEC
  0
SECTION
  2
ENTITIES
  0
LINE
  5
63
330
1F
100
AcDbEntity
  8
0
  6
Continuous
 62
     7
370
    25
100
AcDbLine
 10
35.6472881056
 20
25.0209726464
 30
0.0
 11
36.7294478464
 21
26.8953282994
 31
0.0
  0
LINE
  5
64
330
1F
100
AcDbEntity
  8
0
  6
Continuous
 62
     7
370
    25
100
AcDbLine
 10
36.7294478464
 20
47.3953282994
 30
0.0
 11
35.6472881056
 21
49.2696839524
 31
0.0
  0
LINE
  5
65
330
1F
100
AcDbEntity
  8
0
  6
Continuous
 62
     7
370
    25
100
AcDbLine
 10
22.8116075872
 20
49.2696839524
 30
0.0
 11
21.7294478464
 21
47.3953282994
 31
0.0
  0
LINE
  5
66
330
1F
100
AcDbEntity
  8
0
  6
Continuous
 62
     7
370
    25
100
AcDbLine
 10
21.7294478464
 20
26.8953282994
 30
0.0
 11
22.8116075872
 21
25.0209726464
 31
0.0
  0
LINE
  5
67
330
1F
100
AcDbEntity
  8
0
  6
Continuous
 62
     7
370
    25
100
AcDbLine
 10
63.9947690946
 20
55.6453282994
 30
0.0
 11
62.0447690946
 21
63.6453282994
 31
0.0
  0
LINE
  5
68
330
1F
100
AcDbEntity
  8
0
  6
Continuous
 62
     7
370
    25
100
AcDbLine
 10
63.5447690946
 20
47.6453282994
 30
0.0
 11
63.9947690946
 21
55.6453282994
 31
0.0
  0
LINE
  5
69
330
1F
100
AcDbEntity
  8
0
  6
Continuous
 62
     7
370
    25
100
AcDbLine
 10
49.476023677
 20
48.8674690567
 30
0.0
 11
49.5447690946
 21
47.6453282994
 31
0.0
  0
LINE
  5
6A
330
1F
100
AcDbEntity
  8
0
  6
Continuous
 62
     7
370
    25
100
AcDbLine
 10
51.0447690947
 20
63.6453282994
 30
0.0
 11
50.7915375601
 21
62.6064296962
 31
0.0
  0
LINE
  5
6B
330
1F
100
AcDbEntity
  8
0
  6
Continuous
 62
     7
370
    25
100
AcDbLine
 10
45.0447690946
 20
45.6453282994
 30
0.0
 11
42.0447690946
 21
45.6453282994
 31
0.0
  0
LINE
  5
6C
330
1F
100
AcDbEntity
  8
0
  6
Continuous
 62
     7
370
    25
100
AcDbLine
 10
42.0447690946
 20
28.6453282994
 30
0.0
 11
45.0447690946
 21
28.6453282994
 31
0.0
  0
LINE
  5
6D
330
1F
100
AcDbEntity
  8
0
  6
Continuous
 62
     7
370
    25
100
AcDbLine
 10
42.0447690946
 20
45.4763282994
 30
0.0
 11
36.7294478464
 21
45.4763282994
 31
0.0
  0
LINE
  5
6E
330
1F
100
AcDbEntity
  8
0
  6
Continuous
 62
     7
370
    25
100
AcDbLine
 10
36.7294478464
 20
28.8143282994
 30
0.0
 11
42.0447690946
 21
28.8143282994
 31
0.0
  0
LINE
  5
6F
330
1F
100
AcDbEntity
  8
0
  6
Continuous
 62
     7
370
    25
100
AcDbLine
 10
67.6859003475
 20
27.4077239924
 30
0.0
 11
68.5447690946
 21
28.8953282994
 31
0.0
  0
LINE
  5
70
330
1F
100
AcDbEntity
  8
0
  6
Continuous
 62
     7
370
    25
100
AcDbLine
 10
68.5447690946
 20
45.3953282994
 30
0.0
 11
67.6859003475
 21
46.8829326065
 31
0.0
  0
LINE
  5
71
330
1F
100
AcDbEntity
  8
0
  6
Continuous
 62
     7
370
    25
100
AcDbLine
 10
48.0184565946
 20
26.6453282994
 30
0.0
 11
48.3440931001
 21
16.2249601254
 31
0.0
  0
LINE
  5
72
330
1F
100
AcDbEntity
  8
0
  6
Continuous
 62
     7
370
    25
100
AcDbLine
 10
64.7454450892
 20
16.2249601254
 30
0.0
 11
65.0710815946
 21
26.6453282994
 31
0.0
  0
LINE
  5
73
330
1F
100
AcDbEntity
  8
0
  6
Continuous
 62
     7
370
    25
100
AcDbLine
 10
48.3440931001
 20
16.2249601254
 30
0.0
 11
49.5447690946
 21
14.1453282994
 31
0.0
  0
LINE
  5
74
330
1F
100
AcDbEntity
  8
0
  6
Continuous
 62
     7
370
    25
100
AcDbLine
 10
63.5447690946
 20
14.1453282994
 30
0.0
 11
64.7454450892
 21
16.2249601254
 31
0.0
  0
SPLINE
  5
75
330
1F
100
AcDbEntity
  8
0
  6
Continuous
 62
     7
370
    25
100
AcDbSpline
210
0.0
220
0.0
230
1.0
 70
     8
 71
     3
 72
    11
 73
     7
 74
     0
 42
0.00000001
 43
0.00000001
 40
0.0
 40
0.0
 40
0.0
 40
0.0
 40
0.2213341714956496
 40
0.5720700650549748
 40
0.8769002039997472
 40
1.0
 40
1.0
 40
1.0
 40
1.0
 10
62.71428091127284
 20
45.93384492702068
 30
0.0
 10
62.67348071309608
 20
45.97558587179974
 30
0.0
 10
62.56802672075722
 20
46.08347135931327
 30
0.0
 10
62.47313572765691
 20
46.29756154459745
 30
0.0
 10
62.42373826149955
 20
46.49866227514995
 30
0.0
 10
62.43015715653751
 20
46.61100594814685
 30
0.0
 10
62.43200363794765
 20
46.64332311527753
 30
0.0
  0
SPLINE
  5
76
330
1F
100
AcDbEntity
  8
0
  6
Continuous
 62
     7
370
    25
100
AcDbSpline
210
0.0
220
0.0
230
1.0
 70
     8
 71
     3
 72
    11
 73
     7
 74
     0
 42
0.00000001
 43
0.00000001
 40
0.0
 40
0.0
 40
0.0
 40
0.0
 40
0.1394749898402463
 40
0.4646168389612405
 40
0.8009765711299256
 40
1.0
 40
1.0
 40
1.0
 40
1.0
 10
50.65203033013822
 20
46.64492138437737
 30
0.0
 10
50.6540096011192
 20
46.60838815360448
 30
0.0
 10
50.66060291672137
 20
46.48668924387029
 30
0.0
 10
50.60461534811221
 20
46.28148471455302
 30
0.0
 10
50.5080969755694
 20
46.07376438248419
 30
0.0
 10
50.40737491535891
 20
45.97542674264302
 30
0.0
 10
50.36993247927808
 20
45.93887069140263
 30
0.0
  0
LINE
  5
77
330
1F
100
AcDbEntity
  8
0
  6
Continuous
 62
     7
370
    25
100
AcDbLine
 10
62.4447690946
 20
46.6407974793
 30
0.0
 11
62.4447690946
 21
47.6453282994
 31
0.0
  0
LINE
  5
78
330
1F
100
AcDbEntity
  8
0
  6
Continuous
 62
     7
370
    25
100
AcDbLine
 10
50.6447690946
 20
47.6453282994
 30
0.0
 11
50.6447690946
 21
46.6453282994
 31
0.0
  0
LINE
  5
79
330
1F
100
AcDbEntity
  8
0
  6
Continuous
 62
     7
370
    25
100
AcDbLine
 10
50.3746021873
 20
45.9400660287
 30
0.0
 11
49.8302379148
 21
46.8829326065
 31
0.0
  0
LINE
  5
7A
330
1F
100
AcDbEntity
  8
0
  6
Continuous
 62
     7
370
    25
100
AcDbLine
 10
63.2593002745
 20
46.8829326065
 30
0.0
 11
62.714936002
 21
45.9400660287
 31
0.0
  0
LINE
  5
7B
330
1F
100
AcDbEntity
  8
0
  6
Continuous
 62
     7
370
    25
100
AcDbLine
 10
45.7593002745
 20
46.8829326065
 30
0.0
 11
45.0447690946
 21
45.6453282994
 31
0.0
  0
LINE
  5
7C
330
1F
100
AcDbEntity
  8
0
  6
Continuous
 62
     7
370
    25
100
AcDbLine
 10
45.0447690946
 20
28.6453282994
 30
0.0
 11
45.7593002745
 21
27.4077239924
 31
0.0
  0
LINE
  5
7D
330
1F
100
AcDbEntity
  8
0
  6
Continuous
 62
     7
370
    25
100
AcDbLine
 10
66.2823734017
 20
27.4077239924
 30
0.0
 11
67.688468403
 21
27.4077239924
 31
0.0
  0
LINE
  5
7E
330
1F
100
AcDbEntity
  8
0
  6
Continuous
 62
     7
370
    25
100
AcDbLine
 10
66.2823734017
 20
26.6453282994
 30
0.0
 11
66.2823734017
 21
27.4077239924
 31
0.0
  0
LINE
  5
7F
330
1F
100
AcDbEntity
  8
0
  6
Continuous
 62
     7
370
    25
100
AcDbLine
 10
49.8328059703
 20
46.8829326065
 30
0.0
 11
45.7567398931
 21
46.8829326065
 31
0.0
  0
LINE
  5
80
330
1F
100
AcDbEntity
  8
0
  6
Continuous
 62
     7
370
    25
100
AcDbLine
 10
67.688468403
 20
46.8829326065
 30
0.0
 11
63.256732219
 21
46.8829326065
 31
0.0
  0
LINE
  5
81
330
1F
100
AcDbEntity
  8
0
  6
Continuous
 62
     7
370
    25
100
AcDbLine
 10
45.7567398931
 20
27.4077239924
 30
0.0
 11
46.8071647876
 21
27.4077239924
 31
0.0
  0
LINE
  5
82
330
1F
100
AcDbEntity
  8
0
  6
Continuous
 62
     7
370
    25
100
AcDbLine
 10
46.8071647876
 20
27.4077239924
 30
0.0
 11
46.8071647876
 21
26.6453282994
 31
0.0
  0
SPLINE
  5
83
330
1F
100
AcDbEntity
  8
0
  6
Continuous
 62
     7
370
    25
100
AcDbSpline
210
0.0
220
0.0
230
1.0
 70
     8
 71
     3
 72
    15
 73
    11
 74
     0
 42
0.00000001
 43
0.00000001
 40
0.0
 40
0.0
 40
0.0
 40
0.0
 40
0.1323060649947139
 40
0.2645747216258911
 40
0.3998023269484416
 40
0.5350055300348284
 40
0.6501955637891816
 40
0.765403565940611
 40
0.8826904433746946
 40
1.0
 40
1.0
 40
1.0
 40
1.0
 10
35.64728810556907
 20
31.08315047293476
 30
0.0
 10
35.79005185459631
 20
30.82123862692777
 30
0.0
 10
36.07553898747007
 20
30.29748898815957
 30
0.0
 10
36.38271137416059
 20
29.49096072185651
 30
0.0
 10
36.56740408610928
 20
28.66922914876329
 30
0.0
 10
36.60397838644206
 20
27.87726693004003
 30
0.0
 10
36.50907856661615
 20
27.12809391379157
 30
0.0
 10
36.31463113094931
 20
26.42106264029018
 30
0.0
 10
36.02939996312481
 20
25.71722811211693
 30
0.0
 10
35.77466693337453
 20
25.25307275879794
 30
0.0
 10
35.64728810556907
 20
25.02097264644359
 30
0.0
  0
SPLINE
  5
84
330
1F
100
AcDbEntity
  8
0
  6
Continuous
 62
     7
370
    25
100
AcDbSpline
210
0.0
220
0.0
230
1.0
 70
     8
 71
     3
 72
    14
 73
    10
 74
     0
 42
0.00000001
 43
0.00000001
 40
0.0
 40
0.0
 40
0.0
 40
0.0
 40
0.1851527717470165
 40
0.3719409992820295
 40
0.4970731810911709
 40
0.6222048041171802
 40
0.7506723895444802
 40
0.8791751389606529
 40
0.9999999999999999
 40
0.9999999999999999
 40
0.9999999999999999
 40
0.9999999999999999
 10
35.64728810556907
 20
43.20750612591694
 30
0.0
 10
35.84289085242281
 20
42.47315423893235
 30
0.0
 10
36.23582410662492
 20
40.99796392937062
 30
0.0
 10
36.52624611893443
 20
38.97369559364822
 30
0.0
 10
36.60618652750927
 20
37.18103105449453
 30
0.0
 10
36.54423986764795
 20
35.62660423335588
 30
0.0
 10
36.34880992329524
 20
34.06992519930267
 30
0.0
 10
36.04871120311065
 20
32.54790877975137
 30
0.0
 10
35.77832029828298
 20
31.56127565784197
 30
0.0
 10
35.64728810556907
 20
31.08315047293476
 30
0.0
  0
SPLINE
  5
85
330
1F
100
AcDbEntity
  8
0
  6
Continuous
 62
     7
370
    25
100
AcDbSpline
210
0.0
220
0.0
230
1.0
 70
     8
 71
     3
 72
    15
 73
    11
 74
     0
 42
0.00000001
 43
0.00000001
 40
0.0
 40
0.0
 40
0.0
 40
0.0
 40
0.1323060649947154
 40
0.2645747216258943
 40
0.3998023269484466
 40
0.535005530034835
 40
0.6501955637891867
 40
0.7654035659406145
 40
0.8826904433746964
 40
0.9999999999999999
 40
0.9999999999999999
 40
0.9999999999999999
 40
0.9999999999999999
 10
35.64728810556907
 20
49.2696839524079
 30
0.0
 10
35.79005185459631
 20
49.00777210640091
 30
0.0
 10
36.07553898747007
 20
48.48402246763273
 30
0.0
 10
36.38271137416058
 20
47.67749420132968
 30
0.0
 10
36.56740408610926
 20
46.85576262823648
 30
0.0
 10
36.60397838644203
 20
46.06380040951323
 30
0.0
 10
36.50907856661613
 20
45.31462739326481
 30
0.0
 10
36.31463113094927
 20
44.60759611976346
 30
0.0
 10
36.02939996312479
 20
43.90376159159024
 30
0.0
 10
35.77466693337453
 20
43.43960623827127
 30
0.0
 10
35.64728810556907
 20
43.20750612591694
 30
0.0
  0
LINE
  5
86
330
1F
100
AcDbEntity
  8
0
  6
Continuous
 62
     7
370
    25
100
AcDbLine
 10
36.7294478464
 20
47.3953282994
 30
0.0
 11
36.7294478464
 21
26.8953282994
 31
0.0
  0
LINE
  5
87
330
1F
100
AcDbEntity
  8
0
  6
Continuous
 62
     7
370
    25
100
AcDbLine
 10
22.8116075872
 20
31.0831504729
 30
0.0
 11
35.6472881056
 21
31.0831504729
 31
0.0
  0
SPLINE
  5
88
330
1F
100
AcDbEntity
  8
0
  6
Continuous
 62
     7
370
    25
100
AcDbSpline
210
0.0
220
0.0
230
1.0
 70
     8
 71
     3
 72
    14
 73
    10
 74
     0
 42
0.00000001
 43
0.00000001
 40
0.0
 40
0.0
 40
0.0
 40
0.0
 40
0.1851527717470166
 40
0.3719409992820295
 40
0.4970731810911709
 40
0.6222048041171803
 40
0.7506723895444802
 40
0.8791751389606528
 40
1.0
 40
1.0
 40
1.0
 40
1.0
 10
22.81160758718174
 20
43.20750612591694
 30
0.0
 10
22.61600484032799
 20
42.47315423893235
 30
0.0
 10
22.22307158612589
 20
40.99796392937062
 30
0.0
 10
21.93264957381638
 20
38.97369559364822
 30
0.0
 10
21.85270916524154
 20
37.18103105449453
 30
0.0
 10
21.91465582510285
 20
35.62660423335588
 30
0.0
 10
22.11008576945558
 20
34.06992519930267
 30
0.0
 10
22.41018448964016
 20
32.54790877975137
 30
0.0
 10
22.68057539446783
 20
31.56127565784197
 30
0.0
 10
22.81160758718174
 20
31.08315047293476
 30
0.0
  0
LINE
  5
89
330
1F
100
AcDbEntity
  8
0
  6
Continuous
 62
     7
370
    25
100
AcDbLine
 10
22.8116075872
 20
43.2075061259
 30
0.0
 11
35.6472881056
 21
43.2075061259
 31
0.0
  0
SPLINE
  5
8A
330
1F
100
AcDbEntity
  8
0
  6
Continuous
 62
     7
370
    25
100
AcDbSpline
210
0.0
220
0.0
230
1.0
 70
     8
 71
     3
 72
    15
 73
    11
 74
     0
 42
0.00000001
 43
0.00000001
 40
0.0
 40
0.0
 40
0.0
 40
0.0
 40
0.1323060649947156
 40
0.2645747216258943
 40
0.3998023269484466
 40
0.5350055300348351
 40
0.6501955637891867
 40
0.7654035659406145
 40
0.8826904433746964
 40
1.0
 40
1.0
 40
1.0
 40
1.0
 10
22.81160758718174
 20
49.2696839524079
 30
0.0
 10
22.6688438381545
 20
49.00777210640091
 30
0.0
 10
22.38335670528073
 20
48.48402246763273
 30
0.0
 10
22.07618431859023
 20
47.67749420132968
 30
0.0
 10
21.89149160664154
 20
46.85576262823647
 30
0.0
 10
21.85491730630877
 20
46.06380040951323
 30
0.0
 10
21.94981712613467
 20
45.31462739326481
 30
0.0
 10
22.14426456180153
 20
44.60759611976347
 30
0.0
 10
22.42949572962601
 20
43.90376159159024
 30
0.0
 10
22.68422875937629
 20
43.43960623827127
 30
0.0
 10
22.81160758718174
 20
43.20750612591694
 30
0.0
  0
SPLINE
  5
8B
330
1F
100
AcDbEntity
  8
0
  6
Continuous
 62
     7
370
    25
100
AcDbSpline
210
0.0
220
0.0
230
1.0
 70
     8
 71
     3
 72
    15
 73
    11
 74
     0
 42
0.00000001
 43
0.00000001
 40
0.0
 40
0.0
 40
0.0
 40
0.0
 40
0.1323060649947139
 40
0.2645747216258911
 40
0.3998023269484416
 40
0.5350055300348283
 40
0.6501955637891815
 40
0.7654035659406108
 40
0.8826904433746945
 40
1.0
 40
1.0
 40
1.0
 40
1.0
 10
22.81160758718174
 20
31.08315047293476
 30
0.0
 10
22.6688438381545
 20
30.82123862692777
 30
0.0
 10
22.38335670528073
 20
30.29748898815957
 30
0.0
 10
22.07618431859021
 20
29.49096072185651
 30
0.0
 10
21.89149160664151
 20
28.66922914876329
 30
0.0
 10
21.85491730630875
 20
27.87726693004003
 30
0.0
 10
21.94981712613464
 20
27.12809391379157
 30
0.0
 10
22.14426456180152
 20
26.42106264029018
 30
0.0
 10
22.42949572962598
 20
25.71722811211693
 30
0.0
 10
22.68422875937627
 20
25.25307275879794
 30
0.0
 10
22.81160758718174
 20
25.02097264644359
 30
0.0
  0
LINE
  5
8C
330
1F
100
AcDbEntity
  8
0
  6
Continuous
 62
     7
370
    25
100
AcDbLine
 10
21.7294478464
 20
47.3953282994
 30
0.0
 11
21.7294478464
 21
26.8953282994
 31
0.0
  0
LINE
  5
8D
330
1F
100
AcDbEntity
  8
0
  6
Continuous
 62
     7
370
    25
100
AcDbLine
 10
22.8116075872
 20
25.0209726464
 30
0.0
 11
35.6472881056
 21
25.0209726464
 31
0.0
  0
LINE
  5
8E
330
1F
100
AcDbEntity
  8
0
  6
Continuous
 62
     7
370
    25
100
AcDbLine
 10
22.8116075872
 20
49.2696839524
 30
0.0
 11
35.6472881056
 21
49.2696839524
 31
0.0
  0
LINE
  5
8F
330
1F
100
AcDbEntity
  8
0
  6
Continuous
 62
     7
370
    25
100
AcDbLine
 10
51.305683762
 20
64.2453282994
 30
0.0
 11
51.305683762
 21
63.6453282994
 31
0.0
  0
LINE
  5
90
330
1F
100
AcDbEntity
  8
0
  6
Continuous
 62
     7
370
    25
100
AcDbLine
 10
61.7838544273
 20
64.2453282994
 30
0.0
 11
51.305683762
 21
64.2453282994
 31
0.0
  0
LINE
  5
91
330
1F
100
AcDbEntity
  8
0
  6
Continuous
 62
     7
370
    25
100
AcDbLine
 10
61.7838544273
 20
63.6453282994
 30
0.0
 11
61.7838544273
 21
64.2453282994
 31
0.0
  0
LINE
  5
92
330
1F
100
AcDbEntity
  8
0
  6
Continuous
 62
     7
370
    25
100
AcDbLine
 10
51.305683762
 20
63.6453282994
 30
0.0
 11
61.7838544273
 21
63.6453282994
 31
0.0
  0
SPLINE
  5
93
330
1F
100
AcDbEntity
  8
0
  6
Continuous
 62
     7
370
    25
100
AcDbSpline
210
0.0
220
0.0
230
1.0
 70
     8
 71
     3
 72
    15
 73
    11
 74
     0
 42
0.00000001
 43
0.00000001
 40
0.0
 40
0.0
 40
0.0
 40
0.0
 40
0.0081667445812695
 40
0.3321939991490083
 40
0.4756279600585602
 40
0.6866830973284899
 40
0.8457435502264811
 40
0.8967566214763185
 40
0.9909540928118029
 40
1.0
 40
1.0
 40
1.0
 40
1.0
 10
51.44574958105086
 20
64.49532829942574
 30
0.0
 10
51.44526204690797
 20
64.49532562307996
 30
0.0
 10
51.4254308993759
 20
64.49521675889312
 30
0.0
 10
51.39715011936663
 20
64.48567074662373
 30
0.0
 10
51.35932082087781
 20
64.44830836336918
 30
0.0
 10
51.33273692431031
 20
64.4034428486345
 30
0.0
 10
51.31556710055534
 20
64.3455665490576
 30
0.0
 10
51.30775010433889
 20
64.29489050908568
 30
0.0
 10
51.305754417903
 20
64.26619622956564
 30
0.0
 10
51.3056894539522
 20
64.24700939801016
 30
0.0
 10
51.30568376198553
 20
64.24532829942574
 30
0.0
  0
LINE
  5
94
330
1F
100
AcDbEntity
  8
0
  6
Continuous
 62
     7
370
    25
100
AcDbLine
 10
51.4457495811
 20
64.4953282994
 30
0.0
 11
61.6437886082
 21
64.4953282994
 31
0.0
  0
SPLINE
  5
95
330
1F
100
AcDbEntity
  8
0
  6
Continuous
 62
     7
370
    25
100
AcDbSpline
210
0.0
220
0.0
230
1.0
 70
     8
 71
     3
 72
    15
 73
    11
 74
     0
 42
0.00000001
 43
0.00000001
 40
0.0
 40
0.0
 40
0.0
 40
0.0
 40
0.0090459071881971
 40
0.1032433785236874
 40
0.1542564497735246
 40
0.313316902671511
 40
0.5243720399414428
 40
0.6678060008509903
 40
0.9918332554187292
 40
1.0
 40
1.0
 40
1.0
 40
1.0
 10
61.78385442730175
 20
64.24532829942574
 30
0.0
 10
61.78384873533508
 20
64.24700939801016
 30
0.0
 10
61.7837837713843
 20
64.2661962295657
 30
0.0
 10
61.78178808494842
 20
64.29489050908566
 30
0.0
 10
61.77397108873195
 20
64.34556654905762
 30
0.0
 10
61.75680126497697
 20
64.4034428486345
 30
0.0
 10
61.73021736840948
 20
64.44830836336918
 30
0.0
 10
61.69238806992065
 20
64.48567074662373
 30
0.0
 10
61.6641072899114
 20
64.49521675889318
 30
0.0
 10
61.64427614237931
 20
64.49532562307996
 30
0.0
 10
61.64378860823643
 20
64.49532829942574
 30
0.0
  0
LINE
  5
96
330
1F
100
AcDbEntity
  8
0
  6
Continuous
 62
     7
370
    25
100
AcDbLine
 10
51.0675435196
 20
64.2453282994
 30
0.0
 11
51.305683762
 21
64.2453282994
 31
0.0
  0
SPLINE
  5
97
330
1F
100
AcDbEntity
  8
0
  6
Continuous
 62
     7
370
    25
100
AcDbSpline
210
0.0
220
0.0
230
1.0
 70
     8
 71
     3
 72
    15
 73
    11
 74
     0
 42
0.00000001
 43
0.00000001
 40
0.0
 40
0.0
 40
0.0
 40
0.0
 40
0.0089557228015919
 40
0.0999003359608148
 40
0.153163246058169
 40
0.3125636920784848
 40
0.5249666935694999
 40
0.6689893599352451
 40
0.9919152533810159
 40
1.0
 40
1.0
 40
1.0
 40
1.0
 10
51.06754351959199
 20
64.24532829942574
 30
0.0
 10
51.06755927517059
 20
64.24700942499865
 30
0.0
 10
51.06773502732716
 20
64.26576223962309
 30
0.0
 10
51.07316404334668
 20
64.29452446873056
 30
0.0
 10
51.09469952705398
 20
64.34541154219892
 30
0.0
 10
51.14240495531881
 20
64.40354719233154
 30
0.0
 10
51.21479590031072
 20
64.44825506551497
 30
0.0
 10
51.3167150123285
 20
64.48553688897671
 30
0.0
 10
51.39207010378296
 20
64.49521604381428
 30
0.0
 10
51.44446974950672
 20
64.49532562301606
 30
0.0
 10
51.44574958105086
 20
64.49532829942574
 30
0.0
  0
LINE
  5
98
330
1F
100
AcDbEntity
  8
0
  6
Continuous
 62
     7
370
    25
100
AcDbLine
 10
61.7838544273
 20
64.2453282994
 30
0.0
 11
62.0219946697
 21
64.2453282994
 31
0.0
  0
SPLINE
  5
99
330
1F
100
AcDbEntity
  8
0
  6
Continuous
 62
     7
370
    25
100
AcDbSpline
210
0.0
220
0.0
230
1.0
 70
     8
 71
     3
 72
    15
 73
    11
 74
     0
 42
0.00000001
 43
0.00000001
 40
0.0
 40
0.0
 40
0.0
 40
0.0
 40
0.0080847466189818
 40
0.3310106400647567
 40
0.4750333064304972
 40
0.6874363079215137
 40
0.8468367539418253
 40
0.9000996640391794
 40
0.9910442771984082
 40
1.0
 40
1.0
 40
1.0
 40
1.0
 10
61.64378860823643
 20
64.49532829942574
 30
0.0
 10
61.64506843978057
 20
64.49532562301606
 30
0.0
 10
61.69746808550435
 20
64.49521604381428
 30
0.0
 10
61.77282317695879
 20
64.48553688897671
 30
0.0
 10
61.87474228897658
 20
64.44825506551497
 30
0.0
 10
61.94713323396847
 20
64.40354719233154
 30
0.0
 10
61.99483866223331
 20
64.34541154219889
 30
0.0
 10
62.01637414594062
 20
64.29452446873059
 30
0.0
 10
62.02180316196015
 20
64.2657622396231
 30
0.0
 10
62.0219789141167
 20
64.24700942499865
 30
0.0
 10
62.02199466969531
 20
64.24532829942574
 30
0.0
  0
LINE
  5
9A
330
1F
100
AcDbEntity
  8
0
  6
Continuous
 62
     7
370
    25
100
AcDbLine
 10
51.0675435196
 20
63.6453282994
 30
0.0
 11
51.0675435196
 21
64.2453282994
 31
0.0
  0
LINE
  5
9B
330
1F
100
AcDbEntity
  8
0
  6
Continuous
 62
     7
370
    25
100
AcDbLine
 10
51.305683762
 20
63.6453282994
 30
0.0
 11
51.0675435196
 21
63.6453282994
 31
0.0
  0
LINE
  5
9C
330
1F
100
AcDbEntity
  8
0
  6
Continuous
 62
     7
370
    25
100
AcDbLine
 10
62.0219946697
 20
64.2453282994
 30
0.0
 11
62.0219946697
 21
63.6453282994
 31
0.0
  0
LINE
  5
9D
330
1F
100
AcDbEntity
  8
0
  6
Continuous
 62
     7
370
    25
100
AcDbLine
 10
62.0219946697
 20
63.6453282994
 30
0.0
 11
61.7838544273
 21
63.6453282994
 31
0.0
  0
LINE
  5
9E
330
1F
100
AcDbEntity
  8
0
  6
Continuous
 62
     7
370
    25
100
AcDbLine
 10
50.5447690946
 20
63.6453282994
 30
0.0
 11
50.5447690946
 21
64.2453282994
 31
0.0
  0
LINE
  5
9F
330
1F
100
AcDbEntity
  8
0
  6
Continuous
 62
     7
370
    25
100
AcDbLine
 10
50.5447690946
 20
64.2453282994
 30
0.0
 11
50.7947690946
 21
64.2453282994
 31
0.0
  0
LINE
  5
A0
330
1F
100
AcDbEntity
  8
0
  6
Continuous
 62
     7
370
    25
100
AcDbLine
 10
50.7947690946
 20
64.2453282994
 30
0.0
 11
50.7947690946
 21
63.6453282994
 31
0.0
  0
LINE
  5
A1
330
1F
100
AcDbEntity
  8
0
  6
Continuous
 62
     7
370
    25
100
AcDbLine
 10
50.7947690946
 20
63.6453282994
 30
0.0
 11
50.5447690946
 21
63.6453282994
 31
0.0
  0
LINE
  5
A2
330
1F
100
AcDbEntity
  8
0
  6
Continuous
 62
     7
370
    25
100
AcDbLine
 10
51.0675435196
 20
64.2453282994
 30
0.0
 11
50.7947690946
 21
64.2453282994
 31
0.0
  0
LINE
  5
A3
330
1F
100
AcDbEntity
  8
0
  6
Continuous
 62
     7
370
    25
100
AcDbLine
 10
51.0675435196
 20
63.6453282994
 30
0.0
 11
50.7947690946
 21
63.6453282994
 31
0.0
  0
ARC
  5
A4
330
1F
100
AcDbEntity
  8
0
  6
Continuous
 62
     7
370
    25
100
AcDbCircle
 10
50.7947690946
 20
64.2453282994
 30
0.0
 40
0.25
100
AcDbArc
 50
90.0
 51
180.0
  0
LINE
  5
A5
330
1F
100
AcDbEntity
  8
0
  6
Continuous
 62
     7
370
    25
100
AcDbLine
 10
50.7947690946
 20
64.4953282994
 30
0.0
 11
50.7947690946
 21
64.2453282994
 31
0.0
  0
LINE
  5
A6
330
1F
100
AcDbEntity
  8
0
  6
Continuous
 62
     7
370
    25
100
AcDbLine
 10
50.7947690946
 20
64.4953282994
 30
0.0
 11
51.4457495811
 21
64.4953282994
 31
0.0
  0
LINE
  5
A7
330
1F
100
AcDbEntity
  8
0
  6
Continuous
 62
     7
370
    25
100
AcDbLine
 10
62.2947690946
 20
64.2453282994
 30
0.0
 11
62.2947690946
 21
64.4953282994
 31
0.0
  0
LINE
  5
A8
330
1F
100
AcDbEntity
  8
0
  6
Continuous
 62
     7
370
    25
100
AcDbLine
 10
62.2947690946
 20
64.2453282994
 30
0.0
 11
62.0219946697
 21
64.2453282994
 31
0.0
  0
LINE
  5
A9
330
1F
100
AcDbEntity
  8
0
  6
Continuous
 62
     7
370
    25
100
AcDbLine
 10
61.6437886082
 20
64.4953282994
 30
0.0
 11
62.2947690946
 21
64.4953282994
 31
0.0
  0
LINE
  5
AA
330
1F
100
AcDbEntity
  8
0
  6
Continuous
 62
     7
370
    25
100
AcDbLine
 10
62.2947690946
 20
63.6453282994
 30
0.0
 11
62.2947690946
 21
64.2453282994
 31
0.0
  0
LINE
  5
AB
330
1F
100
AcDbEntity
  8
0
  6
Continuous
 62
     7
370
    25
100
AcDbLine
 10
62.2947690946
 20
63.6453282994
 30
0.0
 11
62.0219946697
 21
63.6453282994
 31
0.0
  0
LINE
  5
AC
330
1F
100
AcDbEntity
  8
0
  6
Continuous
 62
     7
370
    25
100
AcDbLine
 10
62.2947690946
 20
64.2453282994
 30
0.0
 11
62.5447690946
 21
64.2453282994
 31
0.0
  0
LINE
  5
AD
330
1F
100
AcDbEntity
  8
0
  6
Continuous
 62
     7
370
    25
100
AcDbLine
 10
62.5447690946
 20
64.2453282994
 30
0.0
 11
62.5447690946
 21
63.6453282994
 31
0.0
  0
LINE
  5
AE
330
1F
100
AcDbEntity
  8
0
  6
Continuous
 62
     7
370
    25
100
AcDbLine
 10
62.5447690946
 20
63.6453282994
 30
0.0
 11
62.2947690946
 21
63.6453282994
 31
0.0
  0
ARC
  5
AF
330
1F
100
AcDbEntity
  8
0
  6
Continuous
 62
     7
370
    25
100
AcDbCircle
 10
62.2947690946
 20
64.2453282994
 30
0.0
 40
0.2500000000000071
100
AcDbArc
 50
0.0
 51
90.0
  0
LINE
  5
B0
330
1F
100
AcDbEntity
  8
0
  6
Continuous
 62
     7
370
    25
100
AcDbLine
 10
51.5447690946
 20
64.4953282994
 30
0.0
 11
51.5447690946
 21
64.5053282994
 31
0.0
  0
LINE
  5
B1
330
1F
100
AcDbEntity
  8
0
  6
Continuous
 62
     7
370
    25
100
AcDbLine
 10
51.5447690946
 20
64.5053282994
 30
0.0
 11
61.5447690946
 21
64.5053282994
 31
0.0
  0
LINE
  5
B2
330
1F
100
AcDbEntity
  8
0
  6
Continuous
 62
     7
370
    25
100
AcDbLine
 10
61.5447690946
 20
64.4953282994
 30
0.0
 11
61.5447690946
 21
64.5053282994
 31
0.0
  0
LINE
  5
B3
330
1F
100
AcDbEntity
  8
0
  6
Continuous
 62
     7
370
    25
100
AcDbLine
 10
52.0702222106
 20
55.6453282994
 30
0.0
 11
63.9947690946
 21
55.6453282994
 31
0.0
  0
LINE
  5
B4
330
1F
100
AcDbEntity
  8
0
  6
Continuous
 62
     7
370
    25
100
AcDbLine
 10
52.8304329663
 20
56.6400718774
 30
0.0
 11
52.0702222106
 21
55.6453282994
 31
0.0
  0
LINE
  5
B5
330
1F
100
AcDbEntity
  8
0
  6
Continuous
 62
     7
370
    25
100
AcDbLine
 10
51.3209669203
 20
63.6453282994
 30
0.0
 11
49.5928282563
 21
56.6400718774
 31
0.0
  0
LINE
  5
B6
330
1F
100
AcDbEntity
  8
0
  6
Continuous
 62
     7
370
    25
100
AcDbLine
 10
61.7838544273
 20
63.6453282994
 30
0.0
 11
51.3209669203
 21
63.6453282994
 31
0.0
  0
LINE
  5
B7
330
1F
100
AcDbEntity
  8
0
  6
Continuous
 62
     7
370
    25
100
AcDbLine
 10
54.5447690946
 20
47.6453282994
 30
0.0
 11
63.5447690946
 21
47.6453282994
 31
0.0
  0
LINE
  5
B8
330
1F
100
AcDbEntity
  8
0
  6
Continuous
 62
     7
370
    25
100
AcDbLine
 10
54.5447690946
 20
47.6831452232
 30
0.0
 11
54.5447690946
 21
47.6453282994
 31
0.0
  0
SPLINE
  5
B9
330
1F
100
AcDbEntity
  8
0
  6
Continuous
 62
     7
370
    25
100
AcDbSpline
210
0.0
220
0.0
230
1.0
 70
     8
 71
     3
 72
     9
 73
     5
 74
     0
 42
0.00000001
 43
0.00000001
 40
0.0
 40
0.0
 40
0.0
 40
0.0
 40
0.4875141023677128
 40
0.9999999999999999
 40
0.9999999999999999
 40
0.9999999999999999
 40
0.9999999999999999
 10
54.38882384421645
 20
47.64532829942581
 30
0.0
 10
54.41513041813903
 20
47.64705564539751
 30
0.0
 10
54.46909106008728
 20
47.65059881668898
 30
0.0
 10
54.51912659078204
 20
47.67211730263831
 30
0.0
 10
54.54476909464365
 20
47.68314522322573
 30
0.0
  0
SPLINE
  5
BA
330
1F
100
AcDbEntity
  8
0
  6
Continuous
 62
     7
370
    25
100
AcDbSpline
210
0.0
220
0.0
230
1.0
 70
     8
 71
     3
 72
    17
 73
    13
 74
     0
 42
0.00000001
 43
0.00000001
 40
0.0
 40
0.0
 40
0.0
 40
0.0
 40
0.3241697628029869
 40
0.5422758463620718
 40
0.6895090526939279
 40
0.7894036290694505
 40
0.8577090008137825
 40
0.9049823971474138
 40
0.9551712229700868
 40
0.9753097783197817
 40
0.9919572060138849
 40
1.0
 40
1.0
 40
1.0
 40
1.0
 10
52.07022221056148
 20
55.64532829942338
 30
0.0
 10
52.21293757057866
 20
54.7327147968177
 30
0.0
 10
52.45167387952064
 20
53.20608179055636
 30
0.0
 10
52.83126107397228
 20
51.27930888827539
 30
0.0
 10
53.14039528231935
 20
49.99167341734262
 30
0.0
 10
53.39650881051948
 20
49.13252145062088
 30
0.0
 10
53.61081981341447
 20
48.55905356224347
 30
0.0
 10
53.81405403444238
 20
48.13752140821351
 30
0.0
 10
53.99859929898498
 20
47.85702886541808
 30
0.0
 10
54.18467038535312
 20
47.70148019683742
 30
0.0
 10
54.29988098460903
 20
47.65086959763992
 30
0.0
 10
54.36696979008192
 20
47.64668984583528
 30
0.0
 10
54.38882384421645
 20
47.64532829942581
 30
0.0
  0
SPLINE
  5
BB
330
1F
100
AcDbEntity
  8
0
  6
Continuous
 62
     7
370
    25
100
AcDbSpline
210
0.0
220
0.0
230
1.0
 70
     8
 71
     3
 72
    14
 73
    10
 74
     0
 42
0.00000001
 43
0.00000001
 40
0.0
 40
0.0
 40
0.0
 40
0.0
 40
0.1576095309202822
 40
0.3152382602707094
 40
0.4726926441579501
 40
0.6301650083177253
 40
0.7907313191165902
 40
0.9513050385928076
 40
1.0
 40
1.0
 40
1.0
 40
1.0
 10
50.04476909464365
 20
47.64532829942575
 30
0.0
 10
49.97819807986162
 20
47.85883008790315
 30
0.0
 10
49.84504794127668
 20
48.28585967152866
 30
0.0
 10
49.51648097952599
 20
48.87110675038497
 30
0.0
 10
49.10309133879397
 20
49.39326129120739
 30
0.0
 10
48.60741641984932
 20
49.84223941862725
 30
0.0
 10
48.04112671456482
 20
50.20152115043363
 30
0.0
 10
47.56487605817179
 20
50.40608732953483
 30
0.0
 10
47.28468148997901
 20
50.48688187788612
 30
0.0
 10
47.219482705206
 20
50.5056820509329
 30
0.0
  0
LINE
  5
BC
330
1F
100
AcDbEntity
  8
0
  6
Continuous
 62
     7
370
    25
100
AcDbLine
 10
47.2194827052
 20
50.5056820509
 30
0.0
 11
41.4397258554
 21
52.0743034914
 31
0.0
  0
SPLINE
  5
BD
330
1F
100
AcDbEntity
  8
0
  6
Continuous
 62
     7
370
    25
100
AcDbSpline
210
0.0
220
0.0
230
1.0
 70
     8
 71
     3
 72
    11
 73
     7
 74
     0
 42
0.00000001
 43
0.00000001
 40
0.0
 40
0.0
 40
0.0
 40
0.0
 40
0.2488466353289361
 40
0.4976946020535205
 40
0.7488461225871278
 40
1.0
 40
1.0
 40
1.0
 40
1.0
 10
34.369332233107
 20
53.39750399240129
 30
0.0
 10
34.96376828224326
 20
53.32797961590766
 30
0.0
 10
36.15264356090667
 20
53.18893049094649
 30
0.0
 10
37.9273682316157
 20
52.8886017528212
 30
0.0
 10
39.69394887335807
 20
52.52669213456606
 30
0.0
 10
40.85779837437774
 20
52.2251001775015
 30
0.0
 10
41.43972585535073
 20
52.07430349141577
 30
0.0
  0
LINE
  5
BE
330
1F
100
AcDbEntity
  8
0
  6
Continuous
 62
     7
370
    25
100
AcDbLine
 10
34.3693322331
 20
53.3975039924
 30
0.0
 11
34.3693322331
 21
56.6400718774
 31
0.0
  0
LINE
  5
BF
330
1F
100
AcDbEntity
  8
0
  6
Continuous
 62
     7
370
    25
100
AcDbLine
 10
34.3693322331
 20
56.6400718774
 30
0.0
 11
52.8304329663
 21
56.6400718774
 31
0.0
  0
LINE
  5
C0
330
1F
100
AcDbEntity
  8
0
  6
Continuous
 62
     7
370
    25
100
AcDbLine
 10
54.3888238442
 20
47.6453282994
 30
0.0
 11
50.0447690946
 21
47.6453282994
 31
0.0
  0
LINE
  5
C1
330
1F
100
AcDbEntity
  8
0
  6
Continuous
 62
     7
370
    25
100
AcDbLine
 10
54.5447690946
 20
47.6831452232
 30
0.0
 11
54.5379697367
 21
47.6453282994
 31
0.0
  0
LINE
  5
C2
330
1F
100
AcDbEntity
  8
0
  6
Continuous
 62
     7
370
    25
100
AcDbLine
 10
54.5379697367
 20
47.6453282994
 30
0.0
 11
54.3888238442
 21
47.6453282994
 31
0.0
  0
LINE
  5
C3
330
1F
100
AcDbEntity
  8
0
  6
Continuous
 62
     7
370
    25
100
AcDbLine
 10
54.5447690946
 20
47.6453282994
 30
0.0
 11
54.5379697367
 21
47.6453282994
 31
0.0
  0
LINE
  5
C4
330
1F
100
AcDbEntity
  8
0
  6
Continuous
 62
     7
370
    25
100
AcDbLine
 10
16.5447690946
 20
65.6453282994
 30
0.0
 11
34.3693322331
 21
65.6453282994
 31
0.0
  0
LINE
  5
C5
330
1F
100
AcDbEntity
  8
0
  6
Continuous
 62
     7
370
    25
100
AcDbLine
 10
34.3693322331
 20
65.6453282994
 30
0.0
 11
34.3693322331
 21
56.6400718774
 31
0.0
  0
LINE
  5
C6
330
1F
100
AcDbEntity
  8
0
  6
Continuous
 62
     7
370
    25
100
AcDbLine
 10
29.6531012369
 20
53.6453282994
 30
0.0
 11
21.5447690946
 21
53.6453282994
 31
0.0
  0
ARC
  5
C7
330
1F
100
AcDbEntity
  8
0
  6
Continuous
 62
     7
370
    25
100
AcDbCircle
 10
21.5447690946
 20
58.6453282994
 30
0.0
 40
4.999999999999996
100
AcDbArc
 50
180.0
 51
270.0
  0
LINE
  5
C8
330
1F
100
AcDbEntity
  8
0
  6
Continuous
 62
     7
370
    25
100
AcDbLine
 10
16.5447690946
 20
58.6453282994
 30
0.0
 11
16.5447690946
 21
65.6453282994
 31
0.0
  0
ARC
  5
C9
330
1F
100
AcDbEntity
  8
0
  6
Continuous
 62
     7
370
    25
100
AcDbCircle
 10
29.6531012369
 20
8.6451990452
 30
0.0
 40
45.00012925418375
100
AcDbArc
 50
83.9840777705
 51
90.0
  0
LINE
  5
CA
330
1F
100
AcDbEntity
  8
0
  6
Continuous
 62
     7
370
    25
100
AcDbLine
 10
36.5447690946
 20
65.6453282994
 30
0.0
 11
36.5447690946
 21
63.6642838228
 31
0.0
  0
ARC
  5
CB
330
1F
100
AcDbEntity
  8
0
  6
Continuous
 62
     7
370
    25
100
AcDbCircle
 10
42.5447690946
 20
63.6642838228
 30
0.0
 40
6.000000000000003
100
AcDbArc
 50
180.0
 51
275.5801667845
  0
ARC
  5
CC
330
1F
100
AcDbEntity
  8
0
  6
Continuous
 62
     7
370
    25
100
AcDbCircle
 10
42.1558155304
 20
67.6453282994
 30
0.0
 40
10.00000000000848
100
AcDbArc
 50
275.5801667845
 51
336.4218215217
  0
LINE
  5
CD
330
1F
100
AcDbEntity
  8
0
  6
Continuous
 62
     7
370
    25
100
AcDbLine
 10
34.3693322331
 20
65.6453282994
 30
0.0
 11
36.5447690946
 21
65.6453282994
 31
0.0
  0
LINE
  5
CE
330
1F
100
AcDbEntity
  8
0
  6
Continuous
 62
     7
370
    25
100
AcDbLine
 10
50.0447690946
 20
47.6453282994
 30
0.0
 11
49.5447690946
 21
47.6453282994
 31
0.0
  0
LINE
  5
CF
330
1F
100
AcDbEntity
  8
0
  6
Continuous
 62
     7
370
    25
100
AcDbLine
 10
51.305683762
 20
63.6453282994
 30
0.0
 11
51.3209669203
 21
63.6453282994
 31
0.0
  0
LINE
  5
D0
330
1F
100
AcDbEntity
  8
0
  6
Continuous
 62
     7
370
    25
100
AcDbLine
 10
42.0447690946
 20
33.3891140712
 30
0.0
 11
42.0447690946
 21
45.6453282994
 31
0.0
  0
LINE
  5
D1
330
1F
100
AcDbEntity
  8
0
  6
Continuous
 62
     7
370
    25
100
AcDbLine
 10
42.0447690946
 20
28.6453282994
 30
0.0
 11
42.0447690946
 21
33.3891140712
 31
0.0
  0
LINE
  5
D2
330
1F
100
AcDbEntity
  8
0
  6
Continuous
 62
     7
370
    25
100
AcDbLine
 10
45.0447690946
 20
33.3891140712
 30
0.0
 11
45.0447690946
 21
45.6453282994
 31
0.0
  0
LINE
  5
D3
330
1F
100
AcDbEntity
  8
0
  6
Continuous
 62
     7
370
    25
100
AcDbLine
 10
45.0447690946
 20
28.6453282994
 30
0.0
 11
45.0447690946
 21
33.3891140712
 31
0.0
  0
SPLINE
  5
D4
330
1F
100
AcDbEntity
  8
0
  6
Continuous
 62
     7
370
    25
100
AcDbSpline
210
0.0
220
0.0
230
1.0
 70
     8
 71
     3
 72
    22
 73
    18
 74
     0
 42
0.00000001
 43
0.00000001
 40
0.0
 40
0.0
 40
0.0
 40
0.0
 40
0.2499999999999979
 40
0.2499999999999979
 40
0.3749999999999969
 40
0.3749999999999969
 40
0.4374999999999972
 40
0.4374999999999972
 40
0.4999999999999974
 40
0.4999999999999974
 40
0.5624999999999978
 40
0.5624999999999978
 40
0.6249999999999982
 40
0.6249999999999982
 40
0.7499999999999988
 40
0.7499999999999988
 40
1.0
 40
1.0
 40
1.0
 40
1.0
 10
55.8754374521403
 20
26.64532829942575
 30
0.0
 10
55.94488254372735
 20
26.47087803022626
 30
0.0
 10
56.02195464341668
 20
26.29874131999815
 30
0.0
 10
56.17144117645361
 20
26.06089474365847
 30
0.0
 10
56.22758473999887
 20
25.98374335045063
 30
0.0
 10
56.3307763485758
 20
25.8872884936969
 30
0.0
 10
56.36887647367455
 20
25.85826268950489
 30
0.0
 10
56.45258568063581
 20
25.8160271267452
 30
0.0
 10
56.49945427534659
 20
25.80298441625731
 30
0.0
 10
56.5940295530073
 20
25.80368683489302
 30
0.0
 10
56.64074229921559
 20
25.81734025758336
 30
0.0
 10
56.72482029344013
 20
25.8610193534402
 30
0.0
 10
56.76218679464289
 20
25.89007568186606
 30
0.0
 10
56.86522247305284
 20
25.98769146580778
 30
0.0
 10
56.91984454271748
 20
26.06337705929342
 30
0.0
 10
57.06896606007466
 20
26.30155222150806
 30
0.0
 10
57.1454326706254
 20
26.47282996417487
 30
0.0
 10
57.21410073714704
 20
26.64532829942573
 30
0.0
  0
LINE
  5
D5
330
1F
100
AcDbEntity
  8
0
  6
Continuous
 62
     7
370
    25
100
AcDbLine
 10
55.8754374521
 20
26.6453282994
 30
0.0
 11
51.9259669411
 21
26.6453282994
 31
0.0
  0
LINE
  5
D6
330
1F
100
AcDbEntity
  8
0
  6
Continuous
 62
     7
370
    25
100
AcDbLine
 10
51.9259669411
 20
29.1789317596
 30
0.0
 11
51.9259669411
 21
26.6453282994
 31
0.0
  0
SPLINE
  5
D7
330
1F
100
AcDbEntity
  8
0
  6
Continuous
 62
     7
370
    25
100
AcDbSpline
210
0.0
220
0.0
230
1.0
 70
     8
 71
     3
 72
     8
 73
     4
 74
     0
 42
0.00000001
 43
0.00000001
 40
0.0
 40
0.0
 40
0.0
 40
0.0
 40
1.0
 40
1.0
 40
1.0
 40
1.0
 10
51.92596694112662
 20
29.17893175957075
 30
0.0
 10
52.1311527636699
 20
29.23549272669497
 30
0.0
 10
52.33737596437722
 20
29.28943279810881
 30
0.0
 10
52.54476909464366
 20
29.34041708785177
 30
0.0
  0
LINE
  5
D8
330
1F
100
AcDbEntity
  8
0
  6
Continuous
 62
     7
370
    25
100
AcDbLine
 10
52.5447690946
 20
29.3404170879
 30
0.0
 11
52.5447690946
 21
33.1453282994
 31
0.0
  0
LINE
  5
D9
330
1F
100
AcDbEntity
  8
0
  6
Continuous
 62
     7
370
    25
100
AcDbLine
 10
52.5447690946
 20
33.1453282994
 30
0.0
 11
50.0285330177
 21
33.1453282994
 31
0.0
  0
SPLINE
  5
DA
330
1F
100
AcDbEntity
  8
0
  6
Continuous
 62
     7
370
    25
100
AcDbSpline
210
0.0
220
0.0
230
1.0
 70
     8
 71
     3
 72
     8
 73
     4
 74
     0
 42
0.00000001
 43
0.00000001
 40
0.0
 40
0.0
 40
0.0
 40
0.0
 40
1.0
 40
1.0
 40
1.0
 40
1.0
 10
49.86704768938346
 20
32.52652614590871
 30
0.0
 10
49.92361105885169
 20
32.73172068341847
 30
0.0
 10
49.97755098167295
 20
32.93794433693564
 30
0.0
 10
50.02853301766447
 20
33.14532829942574
 30
0.0
  0
LINE
  5
DB
330
1F
100
AcDbEntity
  8
0
  6
Continuous
 62
     7
370
    25
100
AcDbLine
 10
45.7224904999
 20
32.5265261459
 30
0.0
 11
49.8670476894
 21
32.5265261459
 31
0.0
  0
SPLINE
  5
DC
330
1F
100
AcDbEntity
  8
0
  6
Continuous
 62
     7
370
    25
100
AcDbSpline
210
0.0
220
0.0
230
1.0
 70
     8
 71
     3
 72
    10
 73
     6
 74
     0
 42
0.00000001
 43
0.00000001
 40
0.0
 40
0.0
 40
0.0
 40
0.0
 40
0.5
 40
0.5
 40
1.0
 40
1.0
 40
1.0
 40
1.0
 10
45.72249049990383
 20
32.52652614590873
 30
0.0
 10
45.51442182367261
 20
33.28133541895802
 30
0.0
 10
45.34402281764809
 20
34.04208180618992
 30
0.0
 10
45.10886283794924
 20
35.58022418381319
 30
0.0
 10
45.04476909464365
 20
36.357725336338
 30
0.0
 10
45.04476909464365
 20
37.14532829942575
 30
0.0
  0
SPLINE
  5
DD
330
1F
100
AcDbEntity
  8
0
  6
Continuous
 62
     7
370
    25
100
AcDbSpline
210
0.0
220
0.0
230
1.0
 70
     8
 71
     3
 72
    12
 73
     8
 74
     0
 42
0.00000001
 43
0.00000001
 40
0.0
 40
0.0
 40
0.0
 40
0.0
 40
0.2500000000000001
 40
0.2500000000000001
 40
0.5000000000000001
 40
0.5000000000000001
 40
1.0
 40
1.0
 40
1.0
 40
1.0
 10
45.04476909464365
 20
37.14532829942575
 30
0.0
 10
45.04476909464365
 20
37.53964638009759
 30
0.0
 10
45.06076789962471
 20
37.93330542404802
 30
0.0
 10
45.12253803793911
 20
38.71284142359336
 30
0.0
 10
45.1682801622407
 20
39.09979461171879
 30
0.0
 10
45.34495030958755
 20
40.25318117457279
 30
0.0
 10
45.51520537506785
 20
41.01216366377782
 30
0.0
 10
45.72249049990384
 20
41.76413045294276
 30
0.0
  0
LINE
  5
DE
330
1F
100
AcDbEntity
  8
0
  6
Continuous
 62
     7
370
    25
100
AcDbLine
 10
49.8670476894
 20
41.7641304529
 30
0.0
 11
45.7224904999
 21
41.7641304529
 31
0.0
  0
SPLINE
  5
DF
330
1F
100
AcDbEntity
  8
0
  6
Continuous
 62
     7
370
    25
100
AcDbSpline
210
0.0
220
0.0
230
1.0
 70
     8
 71
     3
 72
     8
 73
     4
 74
     0
 42
0.00000001
 43
0.00000001
 40
0.0
 40
0.0
 40
0.0
 40
0.0
 40
1.0
 40
1.0
 40
1.0
 40
1.0
 10
50.02853301766447
 20
41.14532829942575
 30
0.0
 10
49.97763430074195
 20
41.35237333785474
 30
0.0
 10
49.92370016449119
 20
41.55861266753138
 30
0.0
 10
49.86704768938345
 20
41.76413045294276
 30
0.0
  0
LINE
  5
E0
330
1F
100
AcDbEntity
  8
0
  6
Continuous
 62
     7
370
    25
100
AcDbLine
 10
63.0610051716
 20
41.1453282994
 30
0.0
 11
50.0285330177
 21
41.1453282994
 31
0.0
  0
SPLINE
  5
E1
330
1F
100
AcDbEntity
  8
0
  6
Continuous
 62
     7
370
    25
100
AcDbSpline
210
0.0
220
0.0
230
1.0
 70
     8
 71
     3
 72
     8
 73
     4
 74
     0
 42
0.00000001
 43
0.00000001
 40
0.0
 40
0.0
 40
0.0
 40
0.0
 40
1.0
 40
1.0
 40
1.0
 40
1.0
 10
63.06100517162283
 20
41.14532829942581
 30
0.0
 10
63.11190140487791
 20
41.35236323482957
 30
0.0
 10
63.16583535984157
 20
41.55860299989457
 30
0.0
 10
63.22249049990383
 20
41.76413045294277
 30
0.0
  0
LINE
  5
E2
330
1F
100
AcDbEntity
  8
0
  6
Continuous
 62
     7
370
    25
100
AcDbLine
 10
67.7227101221
 20
41.7641304529
 30
0.0
 11
63.2224904999
 21
41.7641304529
 31
0.0
  0
SPLINE
  5
E3
330
1F
100
AcDbEntity
  8
0
  6
Continuous
 62
     7
370
    25
100
AcDbSpline
210
0.0
220
0.0
230
1.0
 70
     8
 71
     3
 72
    14
 73
    10
 74
     0
 42
0.00000001
 43
0.00000001
 40
0.0
 40
0.0
 40
0.0
 40
0.0
 40
0.25
 40
0.25
 40
0.5
 40
0.5
 40
0.75
 40
0.75
 40
1.0
 40
1.0
 40
1.0
 40
1.0
 10
67.72271012208606
 20
32.5265261459087
 30
0.0
 10
67.93066048279184
 20
33.28090620655867
 30
0.0
 10
68.10288229148071
 20
34.05034737402418
 30
0.0
 10
68.33751741423161
 20
35.59085873496534
 30
0.0
 10
68.40046147285928
 20
36.36571311497236
 30
0.0
 10
68.4004015601278
 20
37.92607406985792
 30
0.0
 10
68.33578689383569
 20
38.71653026264294
 30
0.0
 10
68.09922755443448
 20
40.25880992545141
 30
0.0
 10
67.92888241435504
 20
41.0162006786526
 30
0.0
 10
67.72271012208606
 20
41.76413045294276
 30
0.0
  0
LINE
  5
E4
330
1F
100
AcDbEntity
  8
0
  6
Continuous
 62
     7
370
    25
100
AcDbLine
 10
63.2224904999
 20
32.5265261459
 30
0.0
 11
67.7227101221
 21
32.5265261459
 31
0.0
  0
SPLINE
  5
E5
330
1F
100
AcDbEntity
  8
0
  6
Continuous
 62
     7
370
    25
100
AcDbSpline
210
0.0
220
0.0
230
1.0
 70
     8
 71
     3
 72
     8
 73
     4
 74
     0
 42
0.00000001
 43
0.00000001
 40
0.0
 40
0.0
 40
0.0
 40
0.0
 40
1.0
 40
1.0
 40
1.0
 40
1.0
 10
63.22249049990383
 20
32.52652614590872
 30
0.0
 10
63.16592865646689
 20
32.73171514744552
 30
0.0
 10
63.11198863921049
 20
32.93793851351023
 30
0.0
 10
63.06100517162283
 20
33.14532829942568
 30
0.0
  0
LINE
  5
E6
330
1F
100
AcDbEntity
  8
0
  6
Continuous
 62
     7
370
    25
100
AcDbLine
 10
63.0610051716
 20
33.1453282994
 30
0.0
 11
60.5447690946
 21
33.1453282994
 31
0.0
  0
LINE
  5
E7
330
1F
100
AcDbEntity
  8
0
  6
Continuous
 62
     7
370
    25
100
AcDbLine
 10
60.5447690946
 20
29.3404170879
 30
0.0
 11
60.5447690946
 21
33.1453282994
 31
0.0
  0
SPLINE
  5
E8
330
1F
100
AcDbEntity
  8
0
  6
Continuous
 62
     7
370
    25
100
AcDbSpline
210
0.0
220
0.0
230
1.0
 70
     8
 71
     3
 72
     8
 73
     4
 74
     0
 42
0.00000001
 43
0.00000001
 40
0.0
 40
0.0
 40
0.0
 40
0.0
 40
1.0
 40
1.0
 40
1.0
 40
1.0
 10
60.54476909464365
 20
29.34041708785176
 30
0.0
 10
60.75179815797904
 20
29.28952229815094
 30
0.0
 10
60.95803817524838
 20
29.2355884487895
 30
0.0
 10
61.16357124816065
 20
29.17893175957074
 30
0.0
  0
LINE
  5
E9
330
1F
100
AcDbEntity
  8
0
  6
Continuous
 62
     7
370
    25
100
AcDbLine
 10
61.1635712482
 20
26.6453282994
 30
0.0
 11
61.1635712482
 21
29.1789317596
 31
0.0
  0
LINE
  5
EA
330
1F
100
AcDbEntity
  8
0
  6
Continuous
 62
     7
370
    25
100
AcDbLine
 10
61.1635712482
 20
26.6453282994
 30
0.0
 11
57.2141007371
 21
26.6453282994
 31
0.0
  0
LINE
  5
EB
330
1F
100
AcDbEntity
  8
0
  6
Continuous
 62
     7
370
    25
100
AcDbLine
 10
55.6430101807
 20
35.7229552818
 30
0.0
 11
55.6013598614
 21
35.699150352
 31
0.0
  0
ELLIPSE
  5
EC
330
1F
100
AcDbEntity
  8
0
  6
Continuous
 62
     7
370
    25
100
AcDbEllipse
 10
55.2525166818
 20
36.2538328232
 30
0.0
 11
0.6784129479252741
 21
6.110667527536862E-13
 31
0.0
210
0.0
220
0.0
230
1.0
 40
0.9533039403
 41
3.470145824140282
 42
5.252469180536314
  0
LINE
  5
ED
330
1F
100
AcDbEntity
  8
0
  6
Continuous
 62
     7
370
    25
100
AcDbLine
 10
54.6103919148
 20
36.0451487082
 30
0.0
 11
53.3507377099
 21
39.5675931049
 31
0.0
  0
ELLIPSE
  5
EE
330
1F
100
AcDbEntity
  8
0
  6
Continuous
 62
     7
370
    25
100
AcDbEllipse
 10
52.759755152
 20
39.3052538688
 30
0.0
 11
0.6519124952381574
 21
6.110667527536862E-13
 31
0.0
210
0.0
220
0.0
230
1.0
 40
0.9533023292
 41
0.4357905044354863
 42
2.705800116361511
  0
LINE
  5
EF
330
1F
100
AcDbEntity
  8
0
  6
Continuous
 62
     7
370
    25
100
AcDbLine
 10
52.1687731535
 20
39.5675942501
 30
0.0
 11
50.9094083518
 21
36.0459708484
 31
0.0
  0
ELLIPSE
  5
F0
330
1F
100
AcDbEntity
  8
0
  6
Continuous
 62
     7
370
    25
100
AcDbEllipse
 10
50.2672871678
 20
36.2546536821
 30
0.0
 11
-0.6784085062757796
 21
3.268496584496460E-13
 31
0.0
210
0.0
220
0.0
230
1.0
 40
0.9533122623
 41
1.047193771187953
 42
2.813042320199941
  0
LINE
  5
F1
330
1F
100
AcDbEntity
  8
0
  6
Continuous
 62
     7
370
    25
100
AcDbLine
 10
49.9280806938
 20
35.6945658368
 30
0.0
 11
49.8765001233
 21
35.7229552818
 31
0.0
  0
LINE
  5
F2
330
1F
100
AcDbEntity
  8
0
  6
Continuous
 62
     7
370
    25
100
AcDbLine
 10
49.8765001233
 20
35.7229552818
 30
0.0
 11
50.6727687828
 21
34.2047831804
 31
0.0
  0
ELLIPSE
  5
F3
330
1F
100
AcDbEntity
  8
0
  6
Continuous
 62
     7
370
    25
100
AcDbEllipse
 10
50.7486176563
 20
34.2409366954
 30
0.0
 11
0.08480161849065837
 21
-2.131628207280301E-14
 31
0.0
210
0.0
220
0.0
230
1.0
 40
0.9533039403
 41
3.605240262590865
 42
5.462183310215357
  0
ELLIPSE
  5
F4
330
1F
100
AcDbEntity
  8
0
  6
Continuous
 62
     7
370
    25
100
AcDbEllipse
 10
52.759755152
 20
32.1820880748
 30
0.0
 11
2.866293551216209
 21
-1.492139745096211E-12
 31
0.0
210
0.0
220
0.0
230
1.0
 40
0.9533046568
 41
0.821001622124378
 42
2.32059103146644
  0
ELLIPSE
  5
F5
330
1F
100
AcDbEntity
  8
0
  6
Continuous
 62
     7
370
    25
100
AcDbEllipse
 10
54.7708926477
 20
34.2409366954
 30
0.0
 11
0.08480161849060153
 21
-7.105427357601002E-15
 31
0.0
210
0.0
220
0.0
230
1.0
 40
0.9533039403
 41
3.962594650556534
 42
5.819537698177299
  0
LINE
  5
F6
330
1F
100
AcDbEntity
  8
0
  6
Continuous
 62
     7
370
    25
100
AcDbLine
 10
54.8467415211
 20
34.2047831804
 30
0.0
 11
55.6430101807
 21
35.7229552818
 31
0.0
  0
ARC
  5
F7
330
1F
100
AcDbEntity
  8
0
  6
Continuous
 62
     7
370
    25
100
AcDbCircle
 10
61.4376450467
 20
36.5684093061
 30
0.0
 40
0.8889999999999818
100
AcDbArc
 50
45.0
 51
159.0751675724
  0
LINE
  5
F8
330
1F
100
AcDbEntity
  8
0
  6
Continuous
 62
     7
370
    25
100
AcDbLine
 10
62.0662629752
 20
37.1970272346
 30
0.0
 11
62.5328733608
 21
37.6636376202
 31
0.0
  0
ARC
  5
F9
330
1F
100
AcDbEntity
  8
0
  6
Continuous
 62
     7
370
    25
100
AcDbCircle
 10
61.4376450467
 20
36.5684093061
 30
0.0
 40
1.548886735692373
100
AcDbArc
 50
45.0
 51
315.0
  0
LINE
  5
FA
330
1F
100
AcDbEntity
  8
0
  6
Continuous
 62
     7
370
    25
100
AcDbLine
 10
62.5328733608
 20
35.473180992
 30
0.0
 11
62.0662629752
 21
35.9397913776
 31
0.0
  0
ARC
  5
FB
330
1F
100
AcDbEntity
  8
0
  6
Continuous
 62
     7
370
    25
100
AcDbCircle
 10
61.4376450467
 20
36.5684093061
 30
0.0
 40
0.8890000000000099
100
AcDbArc
 50
200.9248324276
 51
315.0
  0
LINE
  5
FC
330
1F
100
AcDbEntity
  8
0
  6
Continuous
 62
     7
370
    25
100
AcDbLine
 10
60.607274798
 20
36.2509093061
 30
0.0
 11
62.5328733608
 21
36.2509093061
 31
0.0
  0
LINE
  5
FD
330
1F
100
AcDbEntity
  8
0
  6
Continuous
 62
     7
370
    25
100
AcDbLine
 10
62.5328733608
 20
36.2509093061
 30
0.0
 11
62.5328733608
 21
36.8859093061
 31
0.0
  0
LINE
  5
FE
330
1F
100
AcDbEntity
  8
0
  6
Continuous
 62
     7
370
    25
100
AcDbLine
 10
62.5328733608
 20
36.8859093061
 30
0.0
 11
60.607274798
 21
36.8859093061
 31
0.0
  0
ARC
  5
FF
330
1F
100
AcDbEntity
  8
0
  6
Continuous
 62
     7
370
    25
100
AcDbCircle
 10
58.0955004504
 20
36.5684093061
 30
0.0
 40
0.889000000000007
100
AcDbArc
 50
45.0
 51
315.0
  0
LINE
  5
100
330
1F
100
AcDbEntity
  8
0
  6
Continuous
 62
     7
370
    25
100
AcDbLine
 10
58.7241183788
 20
37.1970272346
 30
0.0
 11
59.1907287645
 21
37.6636376202
 31
0.0
  0
ARC
  5
101
330
1F
100
AcDbEntity
  8
0
  6
Continuous
 62
     7
370
    25
100
AcDbCircle
 10
58.0955004504
 20
36.5684093061
 30
0.0
 40
1.548886735692399
100
AcDbArc
 50
45.0
 51
315.0
  0
LINE
  5
102
330
1F
100
AcDbEntity
  8
0
  6
Continuous
 62
     7
370
    25
100
AcDbLine
 10
59.1907287645
 20
35.473180992
 30
0.0
 11
58.7241183788
 21
35.9397913776
 31
0.0
  0
LINE
  5
103
330
1F
100
AcDbEntity
  8
0
  6
Continuous
 62
     7
370
    25
100
AcDbLine
 10
50.5447690946
 20
44.5065442316
 30
0.0
 11
50.5447690946
 21
41.1453282994
 31
0.0
  0
SPLINE
  5
104
330
1F
100
AcDbEntity
  8
0
  6
Continuous
 62
     7
370
    25
100
AcDbSpline
210
0.0
220
0.0
230
1.0
 70
     8
 71
     3
 72
    10
 73
     6
 74
     0
 42
0.00000001
 43
0.00000001
 40
0.0
 40
0.0
 40
0.0
 40
0.0
 40
0.5
 40
0.5
 40
1.0
 40
1.0
 40
1.0
 40
1.0
 10
49.86704768938345
 20
42.19714315483497
 30
0.0
 10
49.84337229495907
 20
42.15419962393375
 30
0.0
 10
49.83028118507443
 20
42.09075717930962
 30
0.0
 10
49.83019486378615
 20
41.93827834219066
 30
0.0
 10
49.84336379772999
 20
41.85004834008338
 30
0.0
 10
49.86704768938345
 20
41.76413045294276
 30
0.0
  0
SPLINE
  5
105
330
1F
100
AcDbEntity
  8
0
  6
Continuous
 62
     7
370
    25
100
AcDbSpline
210
0.0
220
0.0
230
1.0
 70
     8
 71
     3
 72
    12
 73
     8
 74
     0
 42
0.00000001
 43
0.00000001
 40
0.0
 40
0.0
 40
0.0
 40
0.0
 40
0.2500000000000001
 40
0.2500000000000001
 40
0.5000000000000002
 40
0.5000000000000002
 40
1.0
 40
1.0
 40
1.0
 40
1.0
 10
50.54476909464365
 20
44.50654423159347
 30
0.0
 10
50.54476909464365
 20
44.31080196871397
 30
0.0
 10
50.52892615855469
 20
44.1141353595234
 30
0.0
 10
50.46742329831702
 20
43.72486713219512
 30
0.0
 10
50.42181965727334
 20
43.5314630992422
 30
0.0
 10
50.24536863978411
 20
42.95453404798544
 30
0.0
 10
50.07497127253226
 20
42.57428461478244
 30
0.0
 10
49.86704768938345
 20
42.19714315483497
 30
0.0
  0
SPLINE
  5
106
330
1F
100
AcDbEntity
  8
0
  6
Continuous
 62
     7
370
    25
100
AcDbSpline
210
0.0
220
0.0
230
1.0
 70
     8
 71
     3
 72
    10
 73
     6
 74
     0
 42
0.00000001
 43
0.00000001
 40
0.0
 40
0.0
 40
0.0
 40
0.0
 40
0.5
 40
0.5
 40
1.0
 40
1.0
 40
1.0
 40
1.0
 10
45.72249049990384
 20
42.19714315483497
 30
0.0
 10
45.7461627398154
 20
42.15420534573574
 30
0.0
 10
45.75925672975065
 20
42.09076475584354
 30
0.0
 10
45.75934359721211
 20
41.9382756103347
 30
0.0
 10
45.74617380745274
 20
41.85004622113138
 30
0.0
 10
45.72249049990384
 20
41.76413045294276
 30
0.0
  0
LINE
  5
107
330
1F
100
AcDbEntity
  8
0
  6
Continuous
 62
     7
370
    25
100
AcDbLine
 10
45.7224904999
 20
42.1971431548
 30
0.0
 11
49.8670476894
 21
42.1971431548
 31
0.0
  0
SPLINE
  5
108
330
1F
100
AcDbEntity
  8
0
  6
Continuous
 62
     7
370
    25
100
AcDbSpline
210
0.0
220
0.0
230
1.0
 70
     8
 71
     3
 72
    10
 73
     6
 74
     0
 42
0.00000001
 43
0.00000001
 40
0.0
 40
0.0
 40
0.0
 40
0.0
 40
0.5
 40
0.5
 40
1.0
 40
1.0
 40
1.0
 40
1.0
 10
49.8670476893834
 20
32.52652614590874
 30
0.0
 10
49.84337229495901
 20
32.44063908410629
 30
0.0
 10
49.83028118507443
 20
32.35323187512616
 30
0.0
 10
49.83019486378615
 20
32.20059543253242
 30
0.0
 10
49.84336379772999
 20
32.13647238758683
 30
0.0
 10
49.86704768938345
 20
32.09351344401652
 30
0.0
  0
LINE
  5
109
330
1F
100
AcDbEntity
  8
0
  6
Continuous
 62
     7
370
    25
100
AcDbLine
 10
49.8670476894
 20
32.093513444
 30
0.0
 11
45.7224904999
 21
32.093513444
 31
0.0
  0
SPLINE
  5
10A
330
1F
100
AcDbEntity
  8
0
  6
Continuous
 62
     7
370
    25
100
AcDbSpline
210
0.0
220
0.0
230
1.0
 70
     8
 71
     3
 72
    10
 73
     6
 74
     0
 42
0.00000001
 43
0.00000001
 40
0.0
 40
0.0
 40
0.0
 40
0.0
 40
0.5
 40
0.5
 40
1.0
 40
1.0
 40
1.0
 40
1.0
 10
45.72249049990384
 20
32.52652614590873
 30
0.0
 10
45.74616440045979
 20
32.44064450340228
 30
0.0
 10
45.75925695763893
 20
32.35323529743685
 30
0.0
 10
45.75934337162121
 20
32.20059281236191
 30
0.0
 10
45.74617298002259
 20
32.13646982727955
 30
0.0
 10
45.72249049990384
 20
32.09351344401652
 30
0.0
  0
SPLINE
  5
10B
330
1F
100
AcDbEntity
  8
0
  6
Continuous
 62
     7
370
    25
100
AcDbSpline
210
0.0
220
0.0
230
1.0
 70
     8
 71
     3
 72
     8
 73
     4
 74
     0
 42
0.00000001
 43
0.00000001
 40
0.0
 40
0.0
 40
0.0
 40
0.0
 40
1.0
 40
1.0
 40
1.0
 40
1.0
 10
62.88733105345751
 20
30.14532829942575
 30
0.0
 10
63.20981038030679
 20
30.05361401169129
 30
0.0
 10
63.52512813663075
 20
29.95695722262338
 30
0.0
 10
63.83414527927826
 20
29.85595211479113
 30
0.0
  0
SPLINE
  5
10C
330
1F
100
AcDbEntity
  8
0
  6
Continuous
 62
     7
370
    25
100
AcDbSpline
210
0.0
220
0.0
230
1.0
 70
     8
 71
     3
 72
    10
 73
     6
 74
     0
 42
0.00000001
 43
0.00000001
 40
0.0
 40
0.0
 40
0.0
 40
0.0
 40
0.5
 40
0.5
 40
1.0
 40
1.0
 40
1.0
 40
1.0
 10
61.59658395005314
 20
29.1789317595709
 30
0.0
 10
61.96310189689368
 20
29.38099844512182
 30
0.0
 10
62.33218212235951
 20
29.54739121739247
 30
0.0
 10
63.07743447058692
 20
29.78143819126252
 30
0.0
 10
63.45364724253467
 20
29.84852644522135
 30
0.0
 10
63.83414527927826
 20
29.85595211479113
 30
0.0
  0
SPLINE
  5
10D
330
1F
100
AcDbEntity
  8
0
  6
Continuous
 62
     7
370
    25
100
AcDbSpline
210
0.0
220
0.0
230
1.0
 70
     8
 71
     3
 72
    10
 73
     6
 74
     0
 42
0.00000001
 43
0.00000001
 40
0.0
 40
0.0
 40
0.0
 40
0.0
 40
0.5
 40
0.5
 40
1.0
 40
1.0
 40
1.0
 40
1.0
 10
61.16357124816065
 20
29.17893175957072
 30
0.0
 10
61.2494583099632
 20
29.15525636514631
 30
0.0
 10
61.33686551894341
 20
29.14216525526168
 30
0.0
 10
61.48950196153728
 20
29.14207893397346
 30
0.0
 10
61.55362500648302
 20
29.15524786791741
 30
0.0
 10
61.59658395005326
 20
29.17893175957096
 30
0.0
  0
SPLINE
  5
10E
330
1F
100
AcDbEntity
  8
0
  6
Continuous
 62
     7
370
    25
100
AcDbSpline
210
0.0
220
0.0
230
1.0
 70
     8
 71
     3
 72
     8
 73
     4
 74
     0
 42
0.00000001
 43
0.00000001
 40
0.0
 40
0.0
 40
0.0
 40
0.0
 40
1.0
 40
1.0
 40
1.0
 40
1.0
 10
62.66615258613981
 20
30.7352067661005
 30
0.0
 10
62.62503731049854
 20
30.87123716059005
 30
0.0
 10
62.58454832763069
 20
31.00794122522749
 30
0.0
 10
62.54476909464366
 20
31.14532829942575
 30
0.0
  0
LINE
  5
10F
330
1F
100
AcDbEntity
  8
0
  6
Continuous
 62
     7
370
    25
100
AcDbLine
 10
62.5447690946
 20
33.1453282994
 30
0.0
 11
62.5447690946
 21
31.1453282994
 31
0.0
  0
SPLINE
  5
110
330
1F
100
AcDbEntity
  8
0
  6
Continuous
 62
     7
370
    25
100
AcDbSpline
210
0.0
220
0.0
230
1.0
 70
     8
 71
     3
 72
    10
 73
     6
 74
     0
 42
0.00000001
 43
0.00000001
 40
0.0
 40
0.0
 40
0.0
 40
0.0
 40
0.5
 40
0.5
 40
1.0
 40
1.0
 40
1.0
 40
1.0
 10
63.22249049990057
 20
32.09351344401652
 30
0.0
 10
63.24616589432491
 20
32.13645697491768
 30
0.0
 10
63.25925700421283
 20
32.19989941954147
 30
0.0
 10
63.25934332550118
 20
32.35237825666056
 30
0.0
 10
63.24617439155735
 20
32.44060825876798
 30
0.0
 10
63.22249049990383
 20
32.52652614590873
 30
0.0
  0
SPLINE
  5
111
330
1F
100
AcDbEntity
  8
0
  6
Continuous
 62
     7
370
    25
100
AcDbSpline
210
0.0
220
0.0
230
1.0
 70
     8
 71
     3
 72
     8
 73
     4
 74
     0
 42
0.00000001
 43
0.00000001
 40
0.0
 40
0.0
 40
0.0
 40
0.0
 40
1.0
 40
1.0
 40
1.0
 40
1.0
 10
62.66615258613981
 20
30.7352067661005
 30
0.0
 10
62.78178519616887
 20
31.19375769815826
 30
0.0
 10
62.97567460098929
 20
31.64582729391652
 30
0.0
 10
63.22249049990369
 20
32.09351344401627
 30
0.0
  0
LINE
  5
112
330
1F
100
AcDbEntity
  8
0
  6
Continuous
 62
     7
370
    25
100
AcDbLine
 10
67.7227101221
 20
32.093513444
 30
0.0
 11
63.2224904999
 21
32.093513444
 31
0.0
  0
SPLINE
  5
113
330
1F
100
AcDbEntity
  8
0
  6
Continuous
 62
     7
370
    25
100
AcDbSpline
210
0.0
220
0.0
230
1.0
 70
     8
 71
     3
 72
    10
 73
     6
 74
     0
 42
0.00000001
 43
0.00000001
 40
0.0
 40
0.0
 40
0.0
 40
0.0
 40
0.5
 40
0.5
 40
1.0
 40
1.0
 40
1.0
 40
1.0
 10
67.72271012208591
 20
32.52652614590875
 30
0.0
 10
67.69903472766153
 20
32.44063908410628
 30
0.0
 10
67.68594361777703
 20
32.35323187512614
 30
0.0
 10
67.68585729648873
 20
32.20059543253241
 30
0.0
 10
67.69902623043258
 20
32.13647238758683
 30
0.0
 10
67.72271012208606
 20
32.09351344401652
 30
0.0
  0
SPLINE
  5
114
330
1F
100
AcDbEntity
  8
0
  6
Continuous
 62
     7
370
    25
100
AcDbSpline
210
0.0
220
0.0
230
1.0
 70
     8
 71
     3
 72
    10
 73
     6
 74
     0
 42
0.00000001
 43
0.00000001
 40
0.0
 40
0.0
 40
0.0
 40
0.0
 40
0.5
 40
0.5
 40
1.0
 40
1.0
 40
1.0
 40
1.0
 10
63.22249049990386
 20
41.76413045294276
 30
0.0
 10
63.24616589432824
 20
41.85001751474521
 30
0.0
 10
63.25925700421286
 20
41.93742472372531
 30
0.0
 10
63.25934332550115
 20
42.09006116631905
 30
0.0
 10
63.24617439155732
 20
42.15418421126463
 30
0.0
 10
63.22249049990386
 20
42.19714315483494
 30
0.0
  0
LINE
  5
115
330
1F
100
AcDbEntity
  8
0
  6
Continuous
 62
     7
370
    25
100
AcDbLine
 10
63.2224904999
 20
42.1971431548
 30
0.0
 11
67.7227101221
 21
42.1971431548
 31
0.0
  0
SPLINE
  5
116
330
1F
100
AcDbEntity
  8
0
  6
Continuous
 62
     7
370
    25
100
AcDbSpline
210
0.0
220
0.0
230
1.0
 70
     8
 71
     3
 72
    10
 73
     6
 74
     0
 42
0.00000001
 43
0.00000001
 40
0.0
 40
0.0
 40
0.0
 40
0.0
 40
0.5
 40
0.5
 40
1.0
 40
1.0
 40
1.0
 40
1.0
 10
67.72271012208606
 20
42.19714315483498
 30
0.0
 10
67.69903472766165
 20
42.15419962393375
 30
0.0
 10
67.68594361777703
 20
42.09075717930962
 30
0.0
 10
67.68585729648873
 20
41.93827834219066
 30
0.0
 10
67.69902623043258
 20
41.85004834008338
 30
0.0
 10
67.72271012208606
 20
41.76413045294276
 30
0.0
  0
LINE
  5
117
330
1F
100
AcDbEntity
  8
0
  6
Continuous
 62
     7
370
    25
100
AcDbLine
 10
45.0447690946
 20
37.1453282994
 30
0.0
 11
45.0447690946
 21
29.7841123673
 31
0.0
  0
SPLINE
  5
118
330
1F
100
AcDbEntity
  8
0
  6
Continuous
 62
     7
370
    25
100
AcDbSpline
210
0.0
220
0.0
230
1.0
 70
     8
 71
     3
 72
    12
 73
     8
 74
     0
 42
0.00000001
 43
0.00000001
 40
0.0
 40
0.0
 40
0.0
 40
0.0
 40
0.2499999999999999
 40
0.2499999999999999
 40
0.4999999999999998
 40
0.4999999999999998
 40
1.0
 40
1.0
 40
1.0
 40
1.0
 10
45.04476909464365
 20
29.78411236725801
 30
0.0
 10
45.04476909464365
 20
29.97911584726381
 30
0.0
 10
45.0605154246656
 20
30.17565050628822
 30
0.0
 10
45.12196044925104
 20
30.56507019389377
 30
0.0
 10
45.16754920850477
 20
30.75855488695403
 30
0.0
 10
45.34400021076137
 20
31.33573848570963
 30
0.0
 10
45.51445791272485
 20
31.7161742674926
 30
0.0
 10
45.72249049990369
 20
32.09351344401654
 30
0.0
  0
LINE
  5
119
330
1F
100
AcDbEntity
  8
0
  6
Continuous
 62
     7
370
    25
100
AcDbLine
 10
45.0447690946
 20
37.1453282994
 30
0.0
 11
45.0447690946
 21
44.5065442316
 31
0.0
  0
SPLINE
  5
11A
330
1F
100
AcDbEntity
  8
0
  6
Continuous
 62
     7
370
    25
100
AcDbSpline
210
0.0
220
0.0
230
1.0
 70
     8
 71
     3
 72
    10
 73
     6
 74
     0
 42
0.00000001
 43
0.00000001
 40
0.0
 40
0.0
 40
0.0
 40
0.0
 40
0.5
 40
0.5
 40
1.0
 40
1.0
 40
1.0
 40
1.0
 10
45.72249049990337
 20
42.19714315483494
 30
0.0
 10
45.51368057523712
 20
42.57589230222624
 30
0.0
 10
45.34314643548986
 20
42.95709757863754
 30
0.0
 10
45.10836063047094
 20
43.72632819982532
 30
0.0
 10
45.04476909464365
 20
44.11439590462364
 30
0.0
 10
45.04476909464365
 20
44.50654423159347
 30
0.0
  0
SPLINE
  5
11B
330
1F
100
AcDbEntity
  8
0
  6
Continuous
 62
     7
370
    25
100
AcDbSpline
210
0.0
220
0.0
230
1.0
 70
     8
 71
     3
 72
     8
 73
     4
 74
     0
 42
0.00000001
 43
0.00000001
 40
0.0
 40
0.0
 40
0.0
 40
0.0
 40
1.0
 40
1.0
 40
1.0
 40
1.0
 10
49.25539291002702
 20
29.85595211479701
 30
0.0
 10
49.56441005266878
 20
29.95695722262714
 30
0.0
 10
49.87972780898676
 20
30.05361401169307
 30
0.0
 10
50.20220713582978
 20
30.14532829942575
 30
0.0
  0
SPLINE
  5
11C
330
1F
100
AcDbEntity
  8
0
  6
Continuous
 62
     7
370
    25
100
AcDbSpline
210
0.0
220
0.0
230
1.0
 70
     8
 71
     3
 72
    10
 73
     6
 74
     0
 42
0.00000001
 43
0.00000001
 40
0.0
 40
0.0
 40
0.0
 40
0.0
 40
0.5
 40
0.5
 40
1.0
 40
1.0
 40
1.0
 40
1.0
 10
51.49295423923441
 20
29.17893175957074
 30
0.0
 10
51.53589777013565
 20
29.15525636514636
 30
0.0
 10
51.59934021475977
 20
29.14216525526172
 30
0.0
 10
51.75181905187873
 20
29.14207893397343
 30
0.0
 10
51.84004905398601
 20
29.15524786791728
 30
0.0
 10
51.92596694112662
 20
29.17893175957074
 30
0.0
  0
SPLINE
  5
11D
330
1F
100
AcDbEntity
  8
0
  6
Continuous
 62
     7
370
    25
100
AcDbSpline
210
0.0
220
0.0
230
1.0
 70
     8
 71
     3
 72
    12
 73
     8
 74
     0
 42
0.00000001
 43
0.00000001
 40
0.0
 40
0.0
 40
0.0
 40
0.0
 40
0.2500000000000002
 40
0.2500000000000002
 40
0.5000000000000004
 40
0.5000000000000004
 40
1.0
 40
1.0
 40
1.0
 40
1.0
 10
49.25539291002178
 20
29.85595211479088
 30
0.0
 10
49.445419085325
 20
29.85224362893445
 30
0.0
 10
49.63563414801082
 20
29.83366112609678
 30
0.0
 10
50.01257090714321
 20
29.76879408913063
 30
0.0
 10
50.19989369840272
 20
29.72252853588036
 30
0.0
 10
50.75880365471681
 20
29.5468040055734
 30
0.0
 10
51.12733931282713
 20
29.38050059679665
 30
0.0
 10
51.49295423923441
 20
29.17893175957074
 30
0.0
  0
LINE
  5
11E
330
1F
100
AcDbEntity
  8
0
  6
Continuous
 62
     7
370
    25
100
AcDbLine
 10
50.5447690946
 20
33.1453282994
 30
0.0
 11
50.5447690946
 21
31.1453282994
 31
0.0
  0
SPLINE
  5
11F
330
1F
100
AcDbEntity
  8
0
  6
Continuous
 62
     7
370
    25
100
AcDbSpline
210
0.0
220
0.0
230
1.0
 70
     8
 71
     3
 72
     8
 73
     4
 74
     0
 42
0.00000001
 43
0.00000001
 40
0.0
 40
0.0
 40
0.0
 40
0.0
 40
1.0
 40
1.0
 40
1.0
 40
1.0
 10
50.54476909464364
 20
31.14532829942575
 30
0.0
 10
50.50499043645347
 20
31.00794321042564
 30
0.0
 10
50.46450147362523
 20
30.87123912861387
 30
0.0
 10
50.42338560314748
 20
30.7352067661005
 30
0.0
  0
SPLINE
  5
120
330
1F
100
AcDbEntity
  8
0
  6
Continuous
 62
     7
370
    25
100
AcDbSpline
210
0.0
220
0.0
230
1.0
 70
     8
 71
     3
 72
     8
 73
     4
 74
     0
 42
0.00000001
 43
0.00000001
 40
0.0
 40
0.0
 40
0.0
 40
0.0
 40
1.0
 40
1.0
 40
1.0
 40
1.0
 10
49.86704768938345
 20
32.09351344401652
 30
0.0
 10
50.11422147026738
 20
31.64517815096519
 30
0.0
 10
50.30794313857137
 20
31.1930036602216
 30
0.0
 10
50.42338560314749
 20
30.7352067661005
 30
0.0
  0
LINE
  5
121
330
1F
100
AcDbEntity
  8
0
  6
Continuous
 62
     7
370
    25
100
AcDbLine
 10
62.5447690946
 20
44.5065442316
 30
0.0
 11
62.5447690946
 21
41.1453282994
 31
0.0
  0
SPLINE
  5
122
330
1F
100
AcDbEntity
  8
0
  6
Continuous
 62
     7
370
    25
100
AcDbSpline
210
0.0
220
0.0
230
1.0
 70
     8
 71
     3
 72
    10
 73
     6
 74
     0
 42
0.00000001
 43
0.00000001
 40
0.0
 40
0.0
 40
0.0
 40
0.0
 40
0.5
 40
0.5
 40
1.0
 40
1.0
 40
1.0
 40
1.0
 10
63.22249049990385
 20
42.19714315483495
 30
0.0
 10
63.01406974708642
 20
42.57518640423712
 30
0.0
 10
62.843605911809
 20
42.95595590903297
 30
0.0
 10
62.6086234768706
 20
43.72510443459051
 30
0.0
 10
62.54476909464364
 20
44.11353116276575
 30
0.0
 10
62.54476909464364
 20
44.50654423159347
 30
0.0
  0
SPLINE
  5
123
330
1F
100
AcDbEntity
  8
0
  6
Continuous
 62
     7
370
    25
100
AcDbSpline
210
0.0
220
0.0
230
1.0
 70
     8
 71
     3
 72
    16
 73
    12
 74
     0
 42
0.00000001
 43
0.00000001
 40
0.0
 40
0.0
 40
0.0
 40
0.0
 40
0.2500000000000001
 40
0.2500000000000001
 40
0.5000000000000001
 40
0.5000000000000001
 40
0.6250000000000001
 40
0.6250000000000001
 40
0.7500000000000002
 40
0.7500000000000002
 40
1.0
 40
1.0
 40
1.0
 40
1.0
 10
67.72271012208606
 20
46.81594530835198
 30
0.0
 10
67.93072557019181
 20
46.43863721947548
 30
0.0
 10
68.10093187516478
 20
46.05861348910128
 30
0.0
 10
68.33586790673237
 20
45.29099017369059
 30
0.0
 10
68.39994003839602
 20
44.90334335690179
 30
0.0
 10
68.40067298731704
 20
44.31502280501394
 30
0.0
 10
68.385013507234
 20
44.1179496124583
 30
0.0
 10
68.32373838059708
 20
43.72789263490419
 30
0.0
 10
68.27818210809795
 20
43.53409973431616
 30
0.0
 10
68.10169607534168
 20
42.95601874955274
 30
0.0
 10
67.93103962185599
 20
42.57502088521791
 30
0.0
 10
67.72271012208606
 20
42.19714315483498
 30
0.0
  0
SPLINE
  5
124
330
1F
100
AcDbEntity
  8
0
  6
Continuous
 62
     7
370
    25
100
AcDbSpline
210
0.0
220
0.0
230
1.0
 70
     8
 71
     3
 72
    10
 73
     6
 74
     0
 42
0.00000001
 43
0.00000001
 40
0.0
 40
0.0
 40
0.0
 40
0.0
 40
0.1601790552921226
 40
0.7197651707803578
 40
1.0
 40
1.0
 40
1.0
 40
1.0
 10
67.68848068896912
 20
46.87822358710172
 30
0.0
 10
67.6877178988759
 20
46.8796158151281
 30
0.0
 10
67.68429029880214
 20
46.88587179685641
 30
0.0
 10
67.69879776360044
 20
46.85936453212852
 30
0.0
 10
67.71672731671828
 20
46.82680867698335
 30
0.0
 10
67.72271012208606
 20
46.81594530835198
 30
0.0
  0
SPLINE
  5
125
330
1F
100
AcDbEntity
  8
0
  6
Continuous
 62
     7
370
    25
100
AcDbSpline
210
0.0
220
0.0
230
1.0
 70
     8
 71
     3
 72
     9
 73
     5
 74
     0
 42
0.00000001
 43
0.00000001
 40
0.0
 40
0.0
 40
0.0
 40
0.0
 40
0.5797912171256352
 40
1.0
 40
1.0
 40
1.0
 40
1.0
 10
67.72271012208606
 20
27.47471129049951
 30
0.0
 10
67.71035151873959
 20
27.45223764225838
 30
0.0
 10
67.68903590894517
 20
27.41347601983756
 30
0.0
 10
67.68864496644241
 20
27.41274161507935
 30
0.0
 10
67.68848068896912
 20
27.41243301174977
 30
0.0
  0
SPLINE
  5
126
330
1F
100
AcDbEntity
  8
0
  6
Continuous
 62
     7
370
    25
100
AcDbSpline
210
0.0
220
0.0
230
1.0
 70
     8
 71
     3
 72
    16
 73
    12
 74
     0
 42
0.00000001
 43
0.00000001
 40
0.0
 40
0.0
 40
0.0
 40
0.0
 40
0.2500000000000001
 40
0.2500000000000001
 40
0.5000000000000002
 40
0.5000000000000002
 40
0.6250000000000001
 40
0.6250000000000001
 40
0.7500000000000001
 40
0.7500000000000001
 40
1.0
 40
1.0
 40
1.0
 40
1.0
 10
67.72271012208606
 20
32.09351344401652
 30
0.0
 10
67.93072557019181
 20
31.71620535514003
 30
0.0
 10
68.10093187516479
 20
31.33618162476583
 30
0.0
 10
68.33586790673237
 20
30.56855830935513
 30
0.0
 10
68.39994003839602
 20
30.18091149256633
 30
0.0
 10
68.40067298731704
 20
29.59259094067848
 30
0.0
 10
68.38501350723402
 20
29.39551774812283
 30
0.0
 10
68.32373838059708
 20
29.00546077056873
 30
0.0
 10
68.27818210809794
 20
28.8116678699807
 30
0.0
 10
68.10169607534168
 20
28.23358688521727
 30
0.0
 10
67.93103962185599
 20
27.85258902088244
 30
0.0
 10
67.72271012208606
 20
27.47471129049951
 30
0.0
  0
LINE
  5
127
330
1F
100
AcDbEntity
  8
0
  6
Continuous
 62
     7
370
    25
100
AcDbLine
 10
68.5447690946
 20
45.3953282994
 30
0.0
 11
68.5447690946
 21
28.8953282994
 31
0.0
  0
LINE
  5
128
330
1F
100
AcDbEntity
  8
0
  6
Continuous
 62
     7
370
    25
100
AcDbLine
 10
48.3440931001
 20
16.2249601254
 30
0.0
 11
64.7454450892
 21
16.2249601254
 31
0.0
  0
SPLINE
  5
129
330
1F
100
AcDbEntity
  8
0
  6
Continuous
 62
     7
370
    25
100
AcDbSpline
210
0.0
220
0.0
230
1.0
 70
     8
 71
     3
 72
    22
 73
    18
 74
     0
 42
0.00000001
 43
0.00000001
 40
0.0
 40
0.0
 40
0.0
 40
0.0
 40
0.249999999999999
 40
0.249999999999999
 40
0.3749999999999976
 40
0.3749999999999976
 40
0.4374999999999975
 40
0.4374999999999975
 40
0.4999999999999973
 40
0.4999999999999973
 40
0.5624999999999972
 40
0.5624999999999972
 40
0.6249999999999971
 40
0.6249999999999971
 40
0.7499999999999972
 40
0.7499999999999972
 40
1.0
 40
1.0
 40
1.0
 40
1.0
 10
49.5182189837276
 20
26.64532829942575
 30
0.0
 10
49.48348480835015
 20
26.47081960179018
 30
0.0
 10
49.44489235683137
 20
26.2984811448903
 30
0.0
 10
49.3701634117857
 20
26.06074571158325
 30
0.0
 10
49.34222049049204
 20
25.98396314220122
 30
0.0
 10
49.29074191382561
 20
25.88760874569165
 30
0.0
 10
49.27188618771863
 20
25.85883514522954
 30
0.0
 10
49.23040959411383
 20
25.81662158020056
 30
0.0
 10
49.20703098248869
 20
25.80324848223808
 30
0.0
 10
49.15962597208645
 20
25.80340887683461
 30
0.0
 10
49.1362071767233
 20
25.81691356895401
 30
0.0
 10
49.09437816725502
 20
25.85990501169145
 30
0.0
 10
49.07546095208434
 20
25.88908964786219
 30
0.0
 10
49.0241789809048
 20
25.98572229832886
 30
0.0
 10
48.99636263863137
 20
26.06238354382501
 30
0.0
 10
48.92168296241259
 20
26.30059398385888
 30
0.0
 10
48.8835458842811
 20
26.47119958771447
 30
0.0
 10
48.84888734122411
 20
26.64532829942561
 30
0.0
  0
SPLINE
  5
12A
330
1F
100
AcDbEntity
  8
0
  6
Continuous
 62
     7
370
    25
100
AcDbSpline
210
0.0
220
0.0
230
1.0
 70
     8
 71
     3
 72
    22
 73
    18
 74
     0
 42
0.00000001
 43
0.00000001
 40
0.0
 40
0.0
 40
0.0
 40
0.0
 40
0.2499999999999977
 40
0.2499999999999977
 40
0.3749999999999955
 40
0.3749999999999955
 40
0.4374999999999958
 40
0.4374999999999958
 40
0.4999999999999961
 40
0.4999999999999961
 40
0.5624999999999964
 40
0.5624999999999964
 40
0.6249999999999967
 40
0.6249999999999967
 40
0.7499999999999978
 40
0.7499999999999978
 40
1.0
 40
1.0
 40
1.0
 40
1.0
 10
64.24065084806304
 20
26.64532829942575
 30
0.0
 10
64.20591667268559
 20
26.47081960179013
 30
0.0
 10
64.16732422116681
 20
26.29848114489019
 30
0.0
 10
64.0925952761211
 20
26.0607457115831
 30
0.0
 10
64.06465235482742
 20
25.98396314220105
 30
0.0
 10
64.01317377816095
 20
25.88760874569148
 30
0.0
 10
63.99431805205397
 20
25.85883514522935
 30
0.0
 10
63.95284145844909
 20
25.8166215802004
 30
0.0
 10
63.92946284682397
 20
25.80324848223801
 30
0.0
 10
63.88205783642166
 20
25.80340887683469
 30
0.0
 10
63.85863904105855
 20
25.81691356895414
 30
0.0
 10
63.81681003159031
 20
25.85990501169164
 30
0.0
 10
63.79789281641963
 20
25.88908964786244
 30
0.0
 10
63.74661084524016
 20
25.98572229832912
 30
0.0
 10
63.71879450296672
 20
26.06238354382536
 30
0.0
 10
63.64411482674802
 20
26.30059398385907
 30
0.0
 10
63.60597774861654
 20
26.47119958771456
 30
0.0
 10
63.57131920555957
 20
26.64532829942561
 30
0.0
  0
LINE
  5
12B
330
1F
100
AcDbEntity
  8
0
  6
Continuous
 62
     7
370
    25
100
AcDbLine
 10
52.4910080881
 20
36.5708964429
 30
0.0
 11
53.0983564469
 21
36.5708964429
 31
0.0
  0
LINE
  5
12C
330
1F
100
AcDbEntity
  8
0
  6
Continuous
 62
     7
370
    25
100
AcDbLine
 10
52.714821031
 20
37.4895107889
 30
0.0
 11
52.4111468499
 21
36.678928172
 31
0.0
  0
ELLIPSE
  5
12D
330
1F
100
AcDbEntity
  8
0
  6
Continuous
 62
     7
370
    25
100
AcDbEllipse
 10
52.7946822693
 20
37.462320777
 30
0.0
 11
0.08480161849065837
 21
0.0
 31
0.0
210
0.0
220
0.0
230
1.0
 40
0.9533039403
 41
0.3430239404205541
 42
2.798568713169156
  0
LINE
  5
12E
330
1F
100
AcDbEntity
  8
0
  6
Continuous
 62
     7
370
    25
100
AcDbLine
 10
53.1782176853
 20
36.6789281717
 30
0.0
 11
52.8745435076
 21
37.4895107889
 31
0.0
  0
ELLIPSE
  5
12F
330
1F
100
AcDbEntity
  8
0
  6
Continuous
 62
     7
370
    25
100
AcDbEllipse
 10
52.4910080881
 20
36.65173816
 30
0.0
 11
0.08480161849066548
 21
-7.105427357601002E-15
 31
0.0
210
0.0
220
0.0
230
1.0
 40
0.9533039403
 41
2.798568711308299
 42
4.712388980384782
  0
ELLIPSE
  5
130
330
1F
100
AcDbEntity
  8
0
  6
Continuous
 62
     7
370
    25
100
AcDbEllipse
 10
53.0983564469
 20
36.65173816
 30
0.0
 11
-0.08480161849065126
 21
-4.973799150320701E-14
 31
0.0
210
0.0
220
0.0
230
1.0
 40
0.9533039403
 41
1.570796326794337
 42
3.484616592149142
  0
LINE
  5
131
330
1F
100
AcDbEntity
  8
0
  6
Continuous
 62
     7
370
    25
100
AcDbLine
 10
51.4929542392
 20
26.6453282994
 30
0.0
 11
51.9259669411
 21
26.6453282994
 31
0.0
  0
LINE
  5
132
330
1F
100
AcDbEntity
  8
0
  6
Continuous
 62
     7
370
    25
100
AcDbLine
 10
51.4929542392
 20
26.6453282994
 30
0.0
 11
51.4929542392
 21
29.1789317596
 31
0.0
  0
LINE
  5
133
330
1F
100
AcDbEntity
  8
0
  6
Continuous
 62
     7
370
    25
100
AcDbLine
 10
61.5965839501
 20
29.1789317596
 30
0.0
 11
61.5965839501
 21
26.6453282994
 31
0.0
  0
LINE
  5
134
330
1F
100
AcDbEntity
  8
0
  6
Continuous
 62
     7
370
    25
100
AcDbLine
 10
61.1635712482
 20
26.6453282994
 30
0.0
 11
61.5965839501
 21
26.6453282994
 31
0.0
  0
SPLINE
  5
135
330
1F
100
AcDbEntity
  8
0
  6
Continuous
 62
     7
370
    25
100
AcDbSpline
210
0.0
220
0.0
230
1.0
 70
     8
 71
     3
 72
    12
 73
     8
 74
     0
 42
0.00000001
 43
0.00000001
 40
0.0
 40
0.0
 40
0.0
 40
0.0
 40
0.2499999999999999
 40
0.2499999999999999
 40
0.4999999999999998
 40
0.4999999999999998
 40
1.0
 40
1.0
 40
1.0
 40
1.0
 10
62.54476909464364
 20
44.50654423159347
 30
0.0
 10
62.54476909464364
 20
44.702286494473
 30
0.0
 10
62.5606120307326
 20
44.89895310366356
 30
0.0
 10
62.62211489097026
 20
45.28822133099183
 30
0.0
 10
62.66771853201396
 20
45.48162536394475
 30
0.0
 10
62.84416954950317
 20
46.05855441520151
 30
0.0
 10
63.01456691675504
 20
46.43880384840452
 30
0.0
 10
63.22249049990383
 20
46.81594530835198
 30
0.0
  0
LINE
  5
136
330
1F
100
AcDbEntity
  8
0
  6
Continuous
 62
     7
370
    25
100
AcDbLine
 10
67.7227101221
 20
46.8159453084
 30
0.0
 11
63.2224904999
 21
46.8159453084
 31
0.0
  0
ELLIPSE
  5
137
330
1F
100
AcDbEntity
  8
0
  6
Continuous
 62
     7
370
    25
100
AcDbEllipse
 10
56.5447690946
 20
27.3303737232
 30
0.0
 11
8.499999999999993
 21
0.0
 31
0.0
210
0.0
220
0.0
230
1.0
 40
0.5773502692
 41
2.374833212873086
 42
2.53069227991306
  0
LINE
  5
138
330
1F
100
AcDbEntity
  8
0
  6
Continuous
 62
     7
370
    25
100
AcDbLine
 10
49.25539291
 20
29.8559521148
 30
0.0
 11
46.8741520857
 21
27.4747112905
 31
0.0
  0
LINE
  5
139
330
1F
100
AcDbEntity
  8
0
  6
Continuous
 62
     7
370
    25
100
AcDbLine
 10
45.7224904999
 20
27.4747112905
 30
0.0
 11
46.8741520857
 21
27.4747112905
 31
0.0
  0
SPLINE
  5
13A
330
1F
100
AcDbEntity
  8
0
  6
Continuous
 62
     7
370
    25
100
AcDbSpline
210
0.0
220
0.0
230
1.0
 70
     8
 71
     3
 72
    10
 73
     6
 74
     0
 42
0.00000001
 43
0.00000001
 40
0.0
 40
0.0
 40
0.0
 40
0.0
 40
0.5
 40
0.5
 40
1.0
 40
1.0
 40
1.0
 40
1.0
 10
45.72249049990337
 20
27.47471129049948
 30
0.0
 10
45.51368057523711
 20
27.85346043789077
 30
0.0
 10
45.34314643548986
 20
28.23466571430207
 30
0.0
 10
45.10836063047094
 20
29.00389633548985
 30
0.0
 10
45.04476909464365
 20
29.39196404028818
 30
0.0
 10
45.04476909464365
 20
29.78411236725801
 30
0.0
  0
ELLIPSE
  5
13B
330
1F
100
AcDbEntity
  8
0
  6
Continuous
 62
     7
370
    25
100
AcDbEllipse
 10
56.5447690946
 20
27.3303737232
 30
0.0
 11
8.499999999999993
 21
0.0
 31
0.0
210
0.0
220
0.0
230
1.0
 40
0.5773502692
 41
0.6109003736767326
 42
0.7667594407167072
  0
LINE
  5
13C
330
1F
100
AcDbEntity
  8
0
  6
Continuous
 62
     7
370
    25
100
AcDbLine
 10
66.2153861036
 20
27.4747112905
 30
0.0
 11
67.7227101221
 21
27.4747112905
 31
0.0
  0
LINE
  5
13D
330
1F
100
AcDbEntity
  8
0
  6
Continuous
 62
     7
370
    25
100
AcDbLine
 10
66.2153861036
 20
27.4747112905
 30
0.0
 11
63.8341452793
 21
29.8559521148
 31
0.0
  0
LINE
  5
13E
330
1F
100
AcDbEntity
  8
0
  6
Continuous
 62
     7
370
    25
100
AcDbLine
 10
48.8488873412
 20
26.6453282994
 30
0.0
 11
46.8741520857
 21
26.6453282994
 31
0.0
  0
LINE
  5
13F
330
1F
100
AcDbEntity
  8
0
  6
Continuous
 62
     7
370
    25
100
AcDbLine
 10
46.8741520857
 20
27.4747112905
 30
0.0
 11
46.8741520857
 21
26.6453282994
 31
0.0
  0
LINE
  5
140
330
1F
100
AcDbEntity
  8
0
  6
Continuous
 62
     7
370
    25
100
AcDbLine
 10
51.4929542392
 20
26.6453282994
 30
0.0
 11
49.5182189837
 21
26.6453282994
 31
0.0
  0
SPLINE
  5
141
330
1F
100
AcDbEntity
  8
0
  6
Continuous
 62
     7
370
    25
100
AcDbSpline
210
0.0
220
0.0
230
1.0
 70
     8
 71
     3
 72
    12
 73
     8
 74
     0
 42
0.00000001
 43
0.00000001
 40
0.0
 40
0.0
 40
0.0
 40
0.0
 40
0.2499999999999999
 40
0.2499999999999999
 40
0.5
 40
0.5
 40
1.0
 40
1.0
 40
1.0
 40
1.0
 10
45.04476909464365
 20
44.50654423159347
 30
0.0
 10
45.04476909464365
 20
44.70154771159928
 30
0.0
 10
45.0605154246656
 20
44.89808237062368
 30
0.0
 10
45.12196044925103
 20
45.28750205822924
 30
0.0
 10
45.16754920850477
 20
45.48098675128949
 30
0.0
 10
45.34400021076137
 20
46.0581703500451
 30
0.0
 10
45.51445791272485
 20
46.43860613182805
 30
0.0
 10
45.72249049990369
 20
46.81594530835199
 30
0.0
  0
LINE
  5
142
330
1F
100
AcDbEntity
  8
0
  6
Continuous
 62
     7
370
    25
100
AcDbLine
 10
49.8670476894
 20
46.8159453084
 30
0.0
 11
45.7224904999
 21
46.8159453084
 31
0.0
  0
SPLINE
  5
143
330
1F
100
AcDbEntity
  8
0
  6
Continuous
 62
     7
370
    25
100
AcDbSpline
210
0.0
220
0.0
230
1.0
 70
     8
 71
     3
 72
    10
 73
     6
 74
     0
 42
0.00000001
 43
0.00000001
 40
0.0
 40
0.0
 40
0.0
 40
0.0
 40
0.5
 40
0.5
 40
1.0
 40
1.0
 40
1.0
 40
1.0
 10
49.86704768938344
 20
46.81594530835201
 30
0.0
 10
50.07546844220087
 20
46.43790205894985
 30
0.0
 10
50.2459322774783
 20
46.05713255415399
 30
0.0
 10
50.48091471241668
 20
45.28798402859645
 30
0.0
 10
50.54476909464365
 20
44.89955730042121
 30
0.0
 10
50.54476909464365
 20
44.50654423159347
 30
0.0
  0
LINE
  5
144
330
1F
100
AcDbEntity
  8
0
  6
Continuous
 62
     7
370
    25
100
AcDbLine
 10
66.2153861036
 20
26.6453282994
 30
0.0
 11
66.2153861036
 21
27.4747112905
 31
0.0
  0
LINE
  5
145
330
1F
100
AcDbEntity
  8
0
  6
Continuous
 62
     7
370
    25
100
AcDbLine
 10
66.2153861036
 20
26.6453282994
 30
0.0
 11
64.2406508481
 21
26.6453282994
 31
0.0
  0
LINE
  5
146
330
1F
100
AcDbEntity
  8
0
  6
Continuous
 62
     7
370
    25
100
AcDbLine
 10
63.5713192056
 20
26.6453282994
 30
0.0
 11
61.5965839501
 21
26.6453282994
 31
0.0
  0
LINE
  5
147
330
1F
100
AcDbEntity
  8
0
  6
Continuous
 62
     7
370
    25
100
AcDbLine
 10
63.5447690946
 20
14.1453282994
 30
0.0
 11
49.5447690946
 21
14.1453282994
 31
0.0
  0
LINE
  5
148
330
1F
100
AcDbEntity
  8
0
  6
Continuous
 62
     7
370
    25
100
AcDbLine
 10
62.5447690946
 20
31.1453282994
 30
0.0
 11
60.5447690946
 21
33.1453282994
 31
0.0
  0
LINE
  5
149
330
1F
100
AcDbEntity
  8
0
  6
Continuous
 62
     7
370
    25
100
AcDbLine
 10
60.5447690946
 20
30.1453282994
 30
0.0
 11
63.5073901673
 21
30.1453282994
 31
0.0
  0
LINE
  5
14A
330
1F
100
AcDbEntity
  8
0
  6
Continuous
 62
     7
370
    25
100
AcDbLine
 10
52.5447690946
 20
33.1453282994
 30
0.0
 11
50.5447690946
 21
31.1453282994
 31
0.0
  0
LINE
  5
14B
330
1F
100
AcDbEntity
  8
0
  6
Continuous
 62
     7
370
    25
100
AcDbLine
 10
49.582148022
 20
30.1453282994
 30
0.0
 11
52.5447690946
 21
30.1453282994
 31
0.0
  0
LINE
  5
14C
330
1F
100
AcDbEntity
  8
0
  6
Continuous
 62
     7
370
    25
100
AcDbLine
 10
50.5447690946
 20
45.0797827777
 30
0.0
 11
50.5447690946
 21
44.5065442316
 31
0.0
  0
SPLINE
  5
14D
330
1F
100
AcDbEntity
  8
0
  6
Continuous
 62
     7
370
    25
100
AcDbSpline
210
0.0
220
0.0
230
1.0
 70
     8
 71
     3
 72
    32
 73
    28
 74
     0
 42
0.00000001
 43
0.00000001
 40
0.0
 40
0.0
 40
0.0
 40
0.0
 40
0.0625000000000001
 40
0.0625000000000001
 40
0.1250000000000001
 40
0.1250000000000001
 40
0.1875000000000002
 40
0.1875000000000002
 40
0.2500000000000003
 40
0.2500000000000003
 40
0.3750000000000003
 40
0.3750000000000003
 40
0.4375000000000003
 40
0.4375000000000003
 40
0.5000000000000002
 40
0.5000000000000002
 40
0.5625000000000002
 40
0.5625000000000002
 40
0.6250000000000001
 40
0.6250000000000001
 40
0.7500000000000001
 40
0.7500000000000001
 40
0.8750000000000002
 40
0.8750000000000002
 40
0.9375000000000001
 40
0.9375000000000001
 40
1.0
 40
1.0
 40
1.0
 40
1.0
 10
62.54476909463517
 20
45.07978277764639
 30
0.0
 10
62.38791275871828
 20
44.9848257997507
 30
0.0
 10
62.21491432456264
 20
44.88207262512552
 30
0.0
 10
61.83820973793684
 20
44.66536142347725
 30
0.0
 10
61.63535695748016
 20
44.55194271298725
 30
0.0
 10
61.20937569467755
 20
44.32385257628907
 30
0.0
 10
60.98519773438954
 20
44.20854569383722
 30
0.0
 10
60.51384664081315
 20
43.98022259146244
 30
0.0
 10
60.26516112544805
 20
43.86657257532869
 30
0.0
 10
59.49458864075641
 20
43.54350854409465
 30
0.0
 10
58.94895123067424
 20
43.35061001993115
 30
0.0
 10
58.06617148217791
 20
43.13901609465744
 30
0.0
 10
57.76753238230505
 20
43.0833737085397
 30
0.0
 10
57.16103078158929
 20
43.00770563917586
 30
0.0
 10
56.85088354292336
 20
42.98773239339954
 30
0.0
 10
56.2307980542396
 20
42.9880661596528
 30
0.0
 10
55.92422701677155
 20
43.00806512497557
 30
0.0
 10
55.31757226946337
 20
43.08410391117204
 30
0.0
 10
55.01519920483806
 20
43.1407570113036
 30
0.0
 10
54.13856290208511
 20
43.35153556134944
 30
0.0
 10
53.59050877010819
 20
43.54508139192119
 30
0.0
 10
52.56001150286491
 20
43.97770068519699
 30
0.0
 10
52.09245146758544
 20
44.21017732988741
 30
0.0
 10
51.45423786395752
 20
44.55191533080646
 30
0.0
 10
51.25102812576768
 20
44.66553284623485
 30
0.0
 10
50.87469119937325
 20
44.88203523859109
 30
0.0
 10
50.70171259088174
 20
44.98477303503548
 30
0.0
 10
50.54476909464366
 20
45.07978277765155
 30
0.0
  0
LINE
  5
14E
330
1F
100
AcDbEntity
  8
0
  6
Continuous
 62
     7
370
    25
100
AcDbLine
 10
62.5447690946
 20
45.0797827776
 30
0.0
 11
62.5447690946
 21
44.5065442316
 31
0.0
  0
SPLINE
  5
14F
330
1F
100
AcDbEntity
  8
0
  6
Continuous
 62
     7
370
    25
100
AcDbSpline
210
0.0
220
0.0
230
1.0
 70
     8
 71
     3
 72
    12
 73
     8
 74
     0
 42
0.00000001
 43
0.00000001
 40
0.0
 40
0.0
 40
0.0
 40
0.0
 40
0.0860276384484858
 40
0.3125921905364371
 40
0.5444262578673806
 40
0.772029644149985
 40
1.0
 40
1.0
 40
1.0
 40
1.0
 10
62.71811628211066
 20
45.93822989312687
 30
0.0
 10
62.71932653120252
 20
45.94225981676868
 30
0.0
 10
62.72372412273869
 20
45.95690304866029
 30
0.0
 10
62.69120172944745
 20
45.84932562238706
 30
0.0
 10
62.63517355326299
 20
45.64317680654634
 30
0.0
 10
62.56698072546735
 20
45.35993632913568
 30
0.0
 10
62.55217694645282
 20
45.17321742950462
 30
0.0
 10
62.54476909464366
 20
45.07978277764442
 30
0.0
  0
SPLINE
  5
150
330
1F
100
AcDbEntity
  8
0
  6
Continuous
 62
     7
370
    25
100
AcDbSpline
210
0.0
220
0.0
230
1.0
 70
     8
 71
     3
 72
    11
 73
     7
 74
     0
 42
0.00000001
 43
0.00000001
 40
0.0
 40
0.0
 40
0.0
 40
0.0
 40
0.3176285299018559
 40
0.6359441764512622
 40
0.865668042908048
 40
1.0
 40
1.0
 40
1.0
 40
1.0
 10
50.54476909464364
 20
45.07978277765146
 30
0.0
 10
50.5311303633202
 20
45.21104731991942
 30
0.0
 10
50.50382339639879
 20
45.47386036525778
 30
0.0
 10
50.41581839470205
 20
45.78550609658517
 30
0.0
 10
50.37125729962425
 20
45.93925507100156
 30
0.0
 10
50.37160637997107
 20
45.9377404277522
 30
0.0
 10
50.37173518616819
 20
45.93718154370524
 30
0.0
  0
LINE
  5
151
330
1F
100
AcDbEntity
  8
0
  6
Continuous
 62
     7
370
    25
100
AcDbLine
 10
62.439550278
 20
46.6407974793
 30
0.0
 11
62.442181888
 21
46.6430220084
 31
0.0
  0
SPLINE
  5
152
330
1F
100
AcDbEntity
  8
0
  6
Continuous
 62
     7
370
    25
100
AcDbSpline
210
0.0
220
0.0
230
1.0
 70
     8
 71
     3
 72
    10
 73
     6
 74
     0
 42
0.00000001
 43
0.00000001
 40
0.0
 40
0.0
 40
0.0
 40
0.0
 40
0.1601790552921523
 40
0.7197651707804853
 40
1.0
 40
1.0
 40
1.0
 40
1.0
 10
49.83281825626654
 20
46.87822358710172
 30
0.0
 10
49.8320554661733
 20
46.8796158151281
 30
0.0
 10
49.82862786609956
 20
46.88587179685642
 30
0.0
 10
49.84313533089784
 20
46.85936453212852
 30
0.0
 10
49.86106488401568
 20
46.82680867698336
 30
0.0
 10
49.86704768938344
 20
46.81594530835201
 30
0.0
  0
SPLINE
  5
153
330
1F
100
AcDbEntity
  8
0
  6
Continuous
 62
     7
370
    25
100
AcDbSpline
210
0.0
220
0.0
230
1.0
 70
     8
 71
     3
 72
     9
 73
     5
 74
     0
 42
0.00000001
 43
0.00000001
 40
0.0
 40
0.0
 40
0.0
 40
0.0
 40
0.5797912171256431
 40
1.0
 40
1.0
 40
1.0
 40
1.0
 10
63.22249049990383
 20
46.81594530835198
 30
0.0
 10
63.2348491032503
 20
46.83841895659312
 30
0.0
 10
63.25616471304471
 20
46.87718057901394
 30
0.0
 10
63.25655565554748
 20
46.87791498377214
 30
0.0
 10
63.25671993302076
 20
46.87822358710172
 30
0.0
  0
SPLINE
  5
154
330
1F
100
AcDbEntity
  8
0
  6
Continuous
 62
     7
370
    25
100
AcDbSpline
210
0.0
220
0.0
230
1.0
 70
     8
 71
     3
 72
    10
 73
     6
 74
     0
 42
0.00000001
 43
0.00000001
 40
0.0
 40
0.0
 40
0.0
 40
0.0
 40
0.1593935212994522
 40
0.7189934545690309
 40
1.0
 40
1.0
 40
1.0
 40
1.0
 10
45.75672748948129
 20
46.87823738781844
 30
0.0
 10
45.75748901647874
 20
46.87962730664506
 30
0.0
 10
45.76092411799466
 20
46.88589696259199
 30
0.0
 10
45.74642949552817
 20
46.85941302076819
 30
0.0
 10
45.72848812503545
 20
46.82683561672133
 30
0.0
 10
45.72249049990384
 20
46.81594530835198
 30
0.0
  0
LINE
  5
155
330
1F
100
AcDbEntity
  8
0
  6
Continuous
 62
     7
370
    25
100
AcDbLine
 10
45.0447690946
 20
45.6453282994
 30
0.0
 11
45.0447690946
 21
44.5065442316
 31
0.0
  0
SPLINE
  5
156
330
1F
100
AcDbEntity
  8
0
  6
Continuous
 62
     7
370
    25
100
AcDbSpline
210
0.0
220
0.0
230
1.0
 70
     8
 71
     3
 72
     9
 73
     5
 74
     0
 42
0.00000001
 43
0.00000001
 40
0.0
 40
0.0
 40
0.0
 40
0.0
 40
0.5789479223839474
 40
0.9999999999999999
 40
0.9999999999999999
 40
0.9999999999999999
 40
0.9999999999999999
 10
45.72249049990384
 20
27.47471129049951
 30
0.0
 10
45.7348313902181
 20
27.45226992330714
 30
0.0
 10
45.75614745309201
 20
27.41350759888259
 30
0.0
 10
45.75655562700654
 20
27.41274169602323
 30
0.0
 10
45.75672748948129
 20
27.41241921103305
 30
0.0
  0
LINE
  5
157
330
1F
100
AcDbEntity
  8
0
  6
Continuous
 62
     7
370
    25
100
AcDbLine
 10
45.0447690946
 20
29.7841123673
 30
0.0
 11
45.0447690946
 21
28.6453282994
 31
0.0
  0
LINE
  5
158
330
1F
100
AcDbEntity
  8
0
  6
Continuous
 62
     7
370
    25
100
AcDbLine
 10
66.2823734017
 20
27.4077239924
 30
0.0
 11
66.2153861036
 21
27.4747112905
 31
0.0
  0
LINE
  5
159
330
1F
100
AcDbEntity
  8
0
  6
Continuous
 62
     7
370
    25
100
AcDbLine
 10
66.2153861036
 20
26.6453282994
 30
0.0
 11
66.2823734017
 21
26.6453282994
 31
0.0
  0
LINE
  5
15A
330
1F
100
AcDbEntity
  8
0
  6
Continuous
 62
     7
370
    25
100
AcDbLine
 10
46.8741520857
 20
27.4747112905
 30
0.0
 11
46.8071647876
 21
27.4077239924
 31
0.0
  0
LINE
  5
15B
330
1F
100
AcDbEntity
  8
0
  6
Continuous
 62
     7
370
    25
100
AcDbLine
 10
46.8071647876
 20
26.6453282994
 30
0.0
 11
46.8741520857
 21
26.6453282994
 31
0.0
  0
SPLINE
  5
15C
330
1F
100
AcDbEntity
  8
0
  6
Continuous
 62
     7
370
    25
100
AcDbSpline
210
0.0
220
0.0
230
1.0
 70
     8
 71
     3
 72
    30
 73
    26
 74
     0
 42
0.00000001
 43
0.00000001
 40
0.0
 40
0.0
 40
0.0
 40
0.0
 40
0.0110569947995957
 40
0.0534018586163523
 40
0.0957739243294413
 40
0.152560285963683
 40
0.2094465507836707
 40
0.2166929089147469
 40
0.2775705853057713
 40
0.3384474861342897
 40
0.3856607907517328
 40
0.4327791182719195
 40
0.4698641362073264
 40
0.5069103241819656
 40
0.5439143354842868
 40
0.5809675385159896
 40
0.6306181182252716
 40
0.6803606635267528
 40
0.7335199301453341
 40
0.786670493119384
 40
0.8314134775104652
 40
0.876121580665438
 40
0.9187009688159357
 40
0.961245266880381
 40
1.0
 40
1.0
 40
1.0
 40
1.0
 10
50.64476909464365
 20
46.64532829942575
 30
0.0
 10
50.64559314198988
 20
46.64463046752804
 30
0.0
 10
50.6495730353221
 20
46.64126015570145
 30
0.0
 10
50.72035474425131
 20
46.5809105120961
 30
0.0
 10
50.94164347435057
 20
46.39538041643818
 30
0.0
 10
51.33220648974709
 20
46.07483447149657
 30
0.0
 10
51.73544857583325
 20
45.76115756795617
 30
0.0
 10
52.20226281492226
 20
45.41476828006637
 30
0.0
 10
52.73789064899662
 20
45.03434333305981
 30
0.0
 10
53.55364102701432
 20
44.53631978281201
 30
0.0
 10
54.39520083273469
 20
44.12420190970088
 30
0.0
 10
55.17860775150498
 20
43.84720279360732
 30
0.0
 10
55.9515926281809
 20
43.6957856407826
 30
0.0
 10
56.68218293396746
 20
43.65763617152552
 30
0.0
 10
57.4069053907778
 20
43.73696806318768
 30
0.0
 10
58.18027500398118
 20
43.92947126631737
 30
0.0
 10
58.9706698551861
 20
44.24663075978712
 30
0.0
 10
59.76747428582554
 20
44.67190919941203
 30
0.0
 10
60.49484185378314
 20
45.13437030007552
 30
0.0
 10
61.10904603645783
 20
45.57478227672428
 30
0.0
 10
61.60250950380284
 20
45.95324589216265
 30
0.0
 10
61.97755931931222
 20
46.25500114337317
 30
0.0
 10
62.2478142485552
 20
46.47864650289124
 30
0.0
 10
62.41678904893191
 20
46.62157383243657
 30
0.0
 10
62.43220269198009
 20
46.63459186546995
 30
0.0
 10
62.43955027797261
 20
46.64079747934507
 30
0.0
  0
LINE
  5
15D
330
1F
100
AcDbEntity
  8
0
  6
Continuous
 62
     7
370
    18
100
AcDbLine
 10
48.6947690946
 20
26.1453282994
 30
0.0
 11
49.042587731
 21
15.0151319359
 31
0.0
  0
LINE
  5
15E
330
1F
100
AcDbEntity
  8
0
  6
Continuous
 62
     7
370
    18
100
AcDbLine
 10
64.0469504583
 20
15.0151319359
 30
0.0
 11
64.3947690946
 21
26.1453282994
 31
0.0
  0
LINE
  5
15F
330
1F
100
AcDbEntity
  8
0
  6
Continuous
 62
     7
370
    25
100
AcDbLine
 10
64.1191760929
 20
26.1453282994
 30
0.0
 11
63.6927939607
 21
26.1453282994
 31
0.0
  0
LINE
  5
160
330
1F
100
AcDbEntity
  8
0
  6
Continuous
 62
     7
370
    25
100
AcDbLine
 10
49.3967442286
 20
26.1453282994
 30
0.0
 11
48.9703620964
 21
26.1453282994
 31
0.0
  0
LINE
  5
161
330
1F
100
AcDbEntity
  8
0
  6
Continuous
 62
     7
370
    25
100
AcDbLine
 10
56.9711512268
 20
26.1453282994
 30
0.0
 11
56.1183869624
 21
26.1453282994
 31
0.0
  0
LINE
  5
162
330
1F
100
AcDbEntity
  8
0
  6
Continuous
 62
     7
370
    18
100
AcDbLine
 10
42.0447690946
 20
44.6203282994
 30
0.0
 11
36.7294478464
 21
44.6203282994
 31
0.0
  0
LINE
  5
163
330
1F
100
AcDbEntity
  8
0
  6
Continuous
 62
     7
370
    18
100
AcDbLine
 10
36.7294478464
 20
29.6703282994
 30
0.0
 11
42.0447690946
 21
29.6703282994
 31
0.0
  0
LINE
  5
164
330
1F
100
AcDbEntity
  8
0
  6
Continuous
 62
     7
370
    25
100
AcDbLine
 10
42.0447690946
 20
45.4763282994
 30
0.0
 11
42.0447690946
 21
45.4544440095
 31
0.0
  0
SPLINE
  5
165
330
1F
100
AcDbEntity
  8
0
  6
Continuous
 62
     7
370
     0
100
AcDbSpline
210
0.0
220
0.0
230
1.0
 70
     8
 71
     3
 72
    39
 73
    35
 74
     0
 42
0.00000001
 43
0.00000001
 40
0.0
 40
0.0
 40
0.0
 40
0.0
 40
0.0314959362406045
 40
0.062991872478632
 40
0.0944878087166593
 40
0.1259837449546868
 40
0.1574796811927142
 40
0.1889756174307416
 40
0.220471553668769
 40
0.2519674899067965
 40
0.2834634261448237
 40
0.3149593623828511
 40
0.3464552986208786
 40
0.377951234858906
 40
0.4094471710969333
 40
0.4409431073349609
 40
0.4724390435729883
 40
0.5039349798110158
 40
0.5354309160490432
 40
0.5669268522870706
 40
0.598422788525098
 40
0.6299187247631254
 40
0.6614146610011528
 40
0.6929105972391801
 40
0.7244065334772075
 40
0.755902469715235
 40
0.7873984059532623
 40
0.8188943421912898
 40
0.8503902784293172
 40
0.8818862146673447
 40
0.9133821509053721
 40
0.9448780871433996
 40
0.976374023381427
 40
1.0
 40
1.0
 40
1.0
 40
1.0
 10
42.04475879669189
 20
45.45444400950556
 30
0.0
 10
42.04476909464365
 20
45.35741227966733
 30
0.0
 10
42.04476909464365
 20
45.18370653433087
 30
0.0
 10
42.04476909464365
 20
44.93494861723793
 30
0.0
 10
42.04476909464365
 20
44.61346111403625
 30
0.0
 10
42.04476909464365
 20
44.22224566692312
 30
0.0
 10
42.04476909464365
 20
43.76495494912101
 30
0.0
 10
42.04476909464365
 20
43.24585856085177
 30
0.0
 10
42.04476909464365
 20
42.66980316522978
 30
0.0
 10
42.04476909464365
 20
42.04216723627431
 30
0.0
 10
42.04476909464365
 20
41.36881084154673
 30
0.0
 10
42.04476909464365
 20
40.65602092827864
 30
0.0
 10
42.04476909464365
 20
39.91045262383948
 30
0.0
 10
42.04476909464365
 20
39.13906709860535
 30
0.0
 10
42.04476909464365
 20
38.34906657138688
 30
0.0
 10
42.04476909464365
 20
37.54782706425269
 30
0.0
 10
42.04476909464365
 20
36.74282953459869
 30
0.0
 10
42.04476909464365
 20
35.94159002746451
 30
0.0
 10
42.04476909464365
 20
35.15158950024604
 30
0.0
 10
42.04476909464365
 20
34.38020397501192
 30
0.0
 10
42.04476909464365
 20
33.63463567057275
 30
0.0
 10
42.04476909464365
 20
32.92184575730467
 30
0.0
 10
42.04476909464365
 20
32.2484893625771
 30
0.0
 10
42.04476909464365
 20
31.62085343362163
 30
0.0
 10
42.04476909464365
 20
31.04479803799964
 30
0.0
 10
42.04476909464365
 20
30.52570164973041
 30
0.0
 10
42.04476909464365
 20
30.06841093192831
 30
0.0
 10
42.04476909464365
 20
29.6771954848152
 30
0.0
 10
42.04476909464365
 20
29.35570798161352
 30
0.0
 10
42.04476909464365
 20
29.10695006452059
 30
0.0
 10
42.04476909464365
 20
28.93324431918414
 30
0.0
 10
42.04476909464365
 20
28.83621258934592
 30
0.0
 10
42.04476909464365
 20
28.81432829942575
 30
0.0
 10
42.04476909464365
 20
28.81862947703779
 30
0.0
 10
42.04476909464366
 20
28.81432829942575
 30
0.0
  0
LINE
  5
166
330
1F
100
AcDbEntity
  8
0
  6
CENTERX2
 62
     7
370
    18
100
AcDbLine
 10
56.5447690946
 20
10.8428521745
 30
0.0
 11
56.5447690946
 21
68.5583324864
 31
0.0
  0
LINE
  5
167
330
1F
100
AcDbEntity
  8
0
  6
CENTERX2
 62
     7
370
    18
100
AcDbLine
 10
71.5583880376
 20
37.1453282994
 30
0.0
 11
16.8131922279
 21
37.1453282994
 31
0.0
  0
ARC
  5
168
330
1F
100
AcDbEntity
  8
0
  6
Continuous
 62
     7
370
    25
100
AcDbCircle
 10
100.4797514519
 20
64.2453282994
 30
0.0
 40
0.25
100
AcDbArc
 50
0.0
 51
90.0
  0
ARC
  5
169
330
1F
100
AcDbEntity
  8
0
  6
Continuous
 62
     7
370
    25
100
AcDbCircle
 10
89.9797514519
 20
64.2453282994
 30
0.0
 40
0.25
100
AcDbArc
 50
90.0
 51
180.0
  0
LINE
  5
16A
330
1F
100
AcDbEntity
  8
0
  6
Continuous
 62
     7
370
    25
100
AcDbLine
 10
100.7297514519
 20
63.6453282994
 30
0.0
 11
100.7297514519
 21
64.2453282994
 31
0.0
  0
LINE
  5
16B
330
1F
100
AcDbEntity
  8
0
  6
Continuous
 62
     7
370
    25
100
AcDbLine
 10
89.7297514519
 20
64.2453282994
 30
0.0
 11
89.7297514519
 21
63.6453282994
 31
0.0
  0
LINE
  5
16C
330
1F
100
AcDbEntity
  8
0
  6
Continuous
 62
     7
370
    25
100
AcDbLine
 10
87.7797514519
 20
55.6453282994
 30
0.0
 11
88.2297514519
 21
47.6453282994
 31
0.0
  0
LINE
  5
16D
330
1F
100
AcDbEntity
  8
0
  6
Continuous
 62
     7
370
    25
100
AcDbLine
 10
102.2297514519
 20
47.6453282994
 30
0.0
 11
102.6797514519
 21
55.6453282994
 31
0.0
  0
LINE
  5
16E
330
1F
100
AcDbEntity
  8
0
  6
Continuous
 62
     7
370
    25
100
AcDbLine
 10
102.6797514519
 20
55.6453282994
 30
0.0
 11
100.7297514519
 21
63.6453282994
 31
0.0
  0
LINE
  5
16F
330
1F
100
AcDbEntity
  8
0
  6
Continuous
 62
     7
370
    25
100
AcDbLine
 10
89.7297514519
 20
63.6453282994
 30
0.0
 11
87.7797514519
 21
55.6453282994
 31
0.0
  0
LINE
  5
170
330
1F
100
AcDbEntity
  8
0
  6
Continuous
 62
     7
370
    25
100
AcDbLine
 10
86.7297514519
 20
25.8033282994
 30
0.0
 11
87.0290754573
 21
16.2249601254
 31
0.0
  0
LINE
  5
171
330
1F
100
AcDbEntity
  8
0
  6
Continuous
 62
     7
370
    25
100
AcDbLine
 10
103.4304274465
 20
16.2249601254
 30
0.0
 11
103.7297514519
 21
25.8033282994
 31
0.0
  0
LINE
  5
172
330
1F
100
AcDbEntity
  8
0
  6
Continuous
 62
     7
370
    25
100
AcDbLine
 10
87.0290754573
 20
16.2249601254
 30
0.0
 11
88.2297514519
 21
14.1453282994
 31
0.0
  0
LINE
  5
173
330
1F
100
AcDbEntity
  8
0
  6
Continuous
 62
     7
370
    25
100
AcDbLine
 10
102.2297514519
 20
14.1453282994
 30
0.0
 11
103.4304274465
 21
16.2249601254
 31
0.0
  0
LINE
  5
174
330
1F
100
AcDbEntity
  8
0
  6
Continuous
 62
     7
370
    25
100
AcDbLine
 10
89.3305464099
 20
43.6852956912
 30
0.0
 11
89.3193058716
 21
43.5478855288
 31
0.0
  0
LINE
  5
175
330
1F
100
AcDbEntity
  8
0
  6
Continuous
 62
     7
370
    25
100
AcDbLine
 10
101.1297514519
 20
43.6785545526
 30
0.0
 11
101.1297514519
 21
47.6453282994
 31
0.0
  0
LINE
  5
176
330
1F
100
AcDbEntity
  8
0
  6
Continuous
 62
     7
370
    25
100
AcDbLine
 10
89.3297514519
 20
47.6453282994
 30
0.0
 11
89.3297514519
 21
43.6838569633
 31
0.0
  0
LWPOLYLINE
  5
177
330
1F
100
AcDbEntity
  8
0
  6
Continuous
 62
     7
370
    25
100
AcDbPolyline
 90
        3
 70
   128
 43
0.0
 10
86.6047514519
 20
37.1453282994
 10
86.6490035376
 20
38.0179050766
 10
86.6955673143
 20
38.393657625
  0
LWPOLYLINE
  5
178
330
1F
100
AcDbEntity
  8
0
  6
Continuous
 62
     7
370
    25
100
AcDbPolyline
 90
        3
 70
   128
 43
0.0
 10
86.7302393185
 20
35.6794093061
 10
86.6490035376
 20
36.2727515223
 10
86.6047514519
 20
37.1453282994
  0
SPLINE
  5
179
330
1F
100
AcDbEntity
  8
0
  6
Continuous
 62
     7
370
    25
100
AcDbSpline
210
0.0
220
0.0
230
1.0
 70
    24
 71
     3
 72
    11
 73
     7
 74
     0
 42
0.00000001
 43
0.00000001
 40
0.0
 40
0.0
 40
0.0
 40
0.0
 40
0.3014029122433533
 40
0.6027206054930594
 40
0.9107790007112975
 40
1.0
 40
1.0
 40
1.0
 40
1.0
 10
105.7297514518949
 20
43.2075061259168
 30
0.0
 10
105.2761218296111
 20
43.46940931045469
 30
0.0
 10
104.3689908447861
 20
43.99314162873366
 30
0.0
 10
102.9718162815438
 20
44.79980073892654
 30
0.0
 10
101.888637578848
 20
45.42517425450843
 30
0.0
 10
101.2689262181573
 20
45.78296477542307
 30
0.0
 10
101.1297514518948
 20
45.86331736418909
 30
0.0
  0
SPLINE
  5
17A
330
1F
100
AcDbEntity
  8
0
  6
Continuous
 62
     7
370
    25
100
AcDbSpline
210
0.0
220
0.0
230
1.0
 70
    24
 71
     3
 72
    14
 73
    10
 74
     0
 42
0.00000001
 43
0.00000001
 40
0.0
 40
0.0
 40
0.0
 40
0.0
 40
0.1208249287427931
 40
0.2461094493521965
 40
0.3713620614128114
 40
0.4997100906933619
 40
0.6280580493172243
 40
0.813058263204438
 40
1.0
 40
1.0
 40
1.0
 40
1.0
 10
105.7297514518948
 20
31.08315047293462
 30
0.0
 10
105.7297514518948
 20
31.56127394713174
 30
0.0
 10
105.7297514518948
 20
32.5351682103554
 30
0.0
 10
105.7297514518948
 20
34.03095085235681
 30
0.0
 10
105.7297514518948
 20
35.57385160582601
 30
0.0
 10
105.7297514518948
 20
37.14137474305058
 30
0.0
 10
105.7297514518948
 20
38.95328286254832
 30
0.0
 10
105.7297514518948
 20
40.9907109662675
 30
0.0
 10
105.7297514518949
 20
42.46600740883196
 30
0.0
 10
105.7297514518949
 20
43.2075061259168
 30
0.0
  0
SPLINE
  5
17B
330
1F
100
AcDbEntity
  8
0
  6
Continuous
 62
     7
370
    25
100
AcDbSpline
210
0.0
220
0.0
230
1.0
 70
    24
 71
     3
 72
     9
 73
     5
 74
     0
 42
0.00000001
 43
0.00000001
 40
0.0
 40
0.0
 40
0.0
 40
0.0
 40
0.3921766557221082
 40
1.0
 40
1.0
 40
1.0
 40
1.0
 10
103.7297514518948
 20
29.9284499345554
 30
0.0
 10
103.9939403662029
 20
30.08097947534807
 30
0.0
 10
104.6675880972787
 20
30.46991017422364
 30
0.0
 10
105.3282100234351
 20
30.85132042112262
 30
0.0
 10
105.7297514518948
 20
31.08315047293462
 30
0.0
  0
SPLINE
  5
17C
330
1F
100
AcDbEntity
  8
0
  6
Continuous
 62
     7
370
    25
100
AcDbSpline
210
0.0
220
0.0
230
1.0
 70
    24
 71
     3
 72
     9
 73
     5
 74
     0
 42
0.00000001
 43
0.00000001
 40
0.0
 40
0.0
 40
0.0
 40
0.0
 40
0.6857591752833285
 40
1.0
 40
1.0
 40
1.0
 40
1.0
 10
84.72975145189477
 20
31.08315047293476
 30
0.0
 10
85.18255996751401
 20
30.82172135455063
 30
0.0
 10
85.842862493444
 20
30.44049551345836
 30
0.0
 10
86.51769235854276
 20
30.05088230918638
 30
0.0
 10
86.72975145189483
 20
29.92844993455546
 30
0.0
  0
SPLINE
  5
17D
330
1F
100
AcDbEntity
  8
0
  6
Continuous
 62
     7
370
    25
100
AcDbSpline
210
0.0
220
0.0
230
1.0
 70
    24
 71
     3
 72
    14
 73
    10
 74
     0
 42
0.00000001
 43
0.00000001
 40
0.0
 40
0.0
 40
0.0
 40
0.0
 40
0.1851527717470165
 40
0.3719409992820295
 40
0.4970731810911709
 40
0.6222048041171802
 40
0.7506723895444802
 40
0.8791751389606529
 40
0.9999999999999999
 40
0.9999999999999999
 40
0.9999999999999999
 40
0.9999999999999999
 10
84.72975145189488
 20
43.20750612591694
 30
0.0
 10
84.72975145189488
 20
42.47315423893235
 30
0.0
 10
84.72975145189487
 20
40.99796392937062
 30
0.0
 10
84.72975145189484
 20
38.97369559364822
 30
0.0
 10
84.72975145189483
 20
37.18103105449453
 30
0.0
 10
84.7297514518948
 20
35.62660423335588
 30
0.0
 10
84.72975145189478
 20
34.06992519930267
 30
0.0
 10
84.72975145189477
 20
32.54790877975137
 30
0.0
 10
84.72975145189477
 20
31.56127565784197
 30
0.0
 10
84.72975145189477
 20
31.08315047293476
 30
0.0
  0
SPLINE
  5
17E
330
1F
100
AcDbEntity
  8
0
  6
Continuous
 62
     7
370
    25
100
AcDbSpline
210
0.0
220
0.0
230
1.0
 70
    24
 71
     3
 72
    11
 73
     7
 74
     0
 42
0.00000001
 43
0.00000001
 40
0.0
 40
0.0
 40
0.0
 40
0.0
 40
0.2031600912948351
 40
0.4655991126831246
 40
0.7327737252159507
 40
1.0
 40
1.0
 40
1.0
 40
1.0
 10
89.32975145189482
 20
45.86331736418914
 30
0.0
 10
89.01312599040749
 20
45.68051356876715
 30
0.0
 10
88.28748872089356
 20
45.26156669587925
 30
0.0
 10
87.15487154741176
 20
44.60764986588076
 30
0.0
 10
85.9356778422963
 20
43.90374805203806
 30
0.0
 10
85.13175282136716
 20
43.43960172479635
 30
0.0
 10
84.72975145189488
 20
43.20750612591694
 30
0.0
  0
ARC
  5
17F
330
1F
100
AcDbEntity
  8
0
  6
Continuous
 62
     7
370
    25
100
AcDbCircle
 10
95.2297514519
 20
37.1453282994
 30
0.0
 40
10.25000000000001
100
AcDbArc
 50
0.0
 51
54.8576550221
  0
ARC
  5
180
330
1F
100
AcDbEntity
  8
0
  6
Continuous
 62
     7
370
    25
100
AcDbCircle
 10
95.2297514519
 20
37.1453282994
 30
0.0
 40
10.25
100
AcDbArc
 50
125.1423449779
 51
213.9763528195
  0
ARC
  5
181
330
1F
100
AcDbEntity
  8
0
  6
Continuous
 62
     7
370
    25
100
AcDbCircle
 10
95.2297514519
 20
37.1453282994
 30
0.0
 40
10.25000000000001
100
AcDbArc
 50
326.0236471805
 51
0.0
  0
LINE
  5
182
330
1F
100
AcDbEntity
  8
0
  6
Continuous
 62
     7
370
    25
100
AcDbLine
 10
96.4797514519
 20
64.2453282994
 30
0.0
 11
96.4797514519
 21
64.4953282994
 31
0.0
  0
ARC
  5
183
330
1F
100
AcDbEntity
  8
0
  6
Continuous
 62
     7
370
    25
100
AcDbCircle
 10
96.4797514519
 20
64.2453282994
 30
0.0
 40
0.25
100
AcDbArc
 50
0.0
 51
90.0
  0
LINE
  5
184
330
1F
100
AcDbEntity
  8
0
  6
Continuous
 62
     7
370
    25
100
AcDbLine
 10
96.4797514519
 20
64.2453282994
 30
0.0
 11
96.7297514519
 21
64.2453282994
 31
0.0
  0
ARC
  5
185
330
1F
100
AcDbEntity
  8
0
  6
Continuous
 62
     7
370
    25
100
AcDbCircle
 10
93.9797514519
 20
64.2453282994
 30
0.0
 40
0.25
100
AcDbArc
 50
90.0
 51
180.0
  0
LINE
  5
186
330
1F
100
AcDbEntity
  8
0
  6
Continuous
 62
     7
370
    25
100
AcDbLine
 10
93.9797514519
 20
64.4953282994
 30
0.0
 11
93.9797514519
 21
64.2453282994
 31
0.0
  0
LINE
  5
187
330
1F
100
AcDbEntity
  8
0
  6
Continuous
 62
     7
370
    25
100
AcDbLine
 10
93.7297514519
 20
64.2453282994
 30
0.0
 11
93.9797514519
 21
64.2453282994
 31
0.0
  0
LINE
  5
188
330
1F
100
AcDbEntity
  8
0
  6
Continuous
 62
     7
370
    25
100
AcDbLine
 10
96.4797514519
 20
64.2453282994
 30
0.0
 11
93.9797514519
 21
64.2453282994
 31
0.0
  0
LINE
  5
189
330
1F
100
AcDbEntity
  8
0
  6
Continuous
 62
     7
370
    25
100
AcDbLine
 10
93.9797514519
 20
64.4953282994
 30
0.0
 11
96.4797514519
 21
64.4953282994
 31
0.0
  0
LINE
  5
18A
330
1F
100
AcDbEntity
  8
0
  6
Continuous
 62
     7
370
    25
100
AcDbLine
 10
93.7297514519
 20
63.6453282994
 30
0.0
 11
93.7297514519
 21
64.2453282994
 31
0.0
  0
LINE
  5
18B
330
1F
100
AcDbEntity
  8
0
  6
Continuous
 62
     7
370
    25
100
AcDbLine
 10
93.9797514519
 20
64.2453282994
 30
0.0
 11
93.9797514519
 21
63.6453282994
 31
0.0
  0
LINE
  5
18C
330
1F
100
AcDbEntity
  8
0
  6
Continuous
 62
     7
370
    25
100
AcDbLine
 10
93.9797514519
 20
63.6453282994
 30
0.0
 11
93.7297514519
 21
63.6453282994
 31
0.0
  0
LINE
  5
18D
330
1F
100
AcDbEntity
  8
0
  6
Continuous
 62
     7
370
    25
100
AcDbLine
 10
96.4797514519
 20
63.6453282994
 30
0.0
 11
96.4797514519
 21
64.2453282994
 31
0.0
  0
LINE
  5
18E
330
1F
100
AcDbEntity
  8
0
  6
Continuous
 62
     7
370
    25
100
AcDbLine
 10
96.7297514519
 20
64.2453282994
 30
0.0
 11
96.7297514519
 21
63.6453282994
 31
0.0
  0
LINE
  5
18F
330
1F
100
AcDbEntity
  8
0
  6
Continuous
 62
     7
370
    25
100
AcDbLine
 10
96.7297514519
 20
63.6453282994
 30
0.0
 11
96.4797514519
 21
63.6453282994
 31
0.0
  0
LINE
  5
190
330
1F
100
AcDbEntity
  8
0
  6
Continuous
 62
     7
370
    25
100
AcDbLine
 10
96.4797514519
 20
63.6453282994
 30
0.0
 11
93.9797514519
 21
63.6453282994
 31
0.0
  0
SPLINE
  5
191
330
1F
100
AcDbEntity
  8
0
  6
Continuous
 62
     7
370
    25
100
AcDbSpline
210
0.0
220
0.0
230
1.0
 70
     8
 71
     3
 72
    15
 73
    11
 74
     0
 42
0.00000001
 43
0.00000001
 40
0.0
 40
0.0
 40
0.0
 40
0.0
 40
0.0081667445812973
 40
0.3321939991490804
 40
0.475627960058556
 40
0.6866830973284891
 40
0.8457435502264751
 40
0.8967566214763124
 40
0.9909540928118028
 40
1.0
 40
1.0
 40
1.0
 40
1.0
 10
96.47975145189483
 20
64.49532829942574
 30
0.0
 10
96.48118891483385
 20
64.49532562307996
 30
0.0
 10
96.53965977278585
 20
64.49521675889314
 30
0.0
 10
96.62408495050501
 20
64.48567074662373
 30
0.0
 10
96.73866402252752
 20
64.44830836336918
 30
0.0
 10
96.82003490972407
 20
64.4034428486345
 30
0.0
 10
96.87305390172574
 20
64.3455665490576
 30
0.0
 10
96.89725583356989
 20
64.29489050908568
 30
0.0
 10
96.90344545423606
 20
64.26619622956567
 30
0.0
 10
96.90364684964862
 20
64.24700939801016
 30
0.0
 10
96.90366449537309
 20
64.24532829942575
 30
0.0
  0
LINE
  5
192
330
1F
100
AcDbEntity
  8
0
  6
Continuous
 62
     7
370
    25
100
AcDbLine
 10
96.7297514519
 20
64.2453282994
 30
0.0
 11
96.9036644954
 21
64.2453282994
 31
0.0
  0
LINE
  5
193
330
1F
100
AcDbEntity
  8
0
  6
Continuous
 62
     7
370
    25
100
AcDbLine
 10
93.5558384084
 20
64.2453282994
 30
0.0
 11
93.7297514519
 21
64.2453282994
 31
0.0
  0
SPLINE
  5
194
330
1F
100
AcDbEntity
  8
0
  6
Continuous
 62
     7
370
    25
100
AcDbSpline
210
0.0
220
0.0
230
1.0
 70
     8
 71
     3
 72
    15
 73
    11
 74
     0
 42
0.00000001
 43
0.00000001
 40
0.0
 40
0.0
 40
0.0
 40
0.0
 40
0.0090459071881971
 40
0.1032433785236874
 40
0.1542564497735246
 40
0.313316902671511
 40
0.5243720399414428
 40
0.6678060008509903
 40
0.9918332554187292
 40
1.0
 40
1.0
 40
1.0
 40
1.0
 10
93.55583840841656
 20
64.24532829942574
 30
0.0
 10
93.55585605414103
 20
64.24700939801016
 30
0.0
 10
93.55605744955359
 20
64.2661962295657
 30
0.0
 10
93.56224707021977
 20
64.29489050908566
 30
0.0
 10
93.58644900206392
 20
64.34556654905762
 30
0.0
 10
93.63946799406558
 20
64.4034428486345
 30
0.0
 10
93.72083888126218
 20
64.44830836336918
 30
0.0
 10
93.83541795328462
 20
64.48567074662373
 30
0.0
 10
93.9198431310041
 20
64.49521675889318
 30
0.0
 10
93.97831398895582
 20
64.49532562307996
 30
0.0
 10
93.97975145189483
 20
64.49532829942574
 30
0.0
  0
LINE
  5
195
330
1F
100
AcDbEntity
  8
0
  6
Continuous
 62
     7
370
    25
100
AcDbLine
 10
96.9036644954
 20
64.2453282994
 30
0.0
 11
96.9036644954
 21
63.6453282994
 31
0.0
  0
LINE
  5
196
330
1F
100
AcDbEntity
  8
0
  6
Continuous
 62
     7
370
    25
100
AcDbLine
 10
96.9036644954
 20
63.6453282994
 30
0.0
 11
96.7297514519
 21
63.6453282994
 31
0.0
  0
LINE
  5
197
330
1F
100
AcDbEntity
  8
0
  6
Continuous
 62
     7
370
    25
100
AcDbLine
 10
93.5558384084
 20
63.6453282994
 30
0.0
 11
93.5558384084
 21
64.2453282994
 31
0.0
  0
LINE
  5
198
330
1F
100
AcDbEntity
  8
0
  6
Continuous
 62
     7
370
    25
100
AcDbLine
 10
93.7297514519
 20
63.6453282994
 30
0.0
 11
93.5558384084
 21
63.6453282994
 31
0.0
  0
LINE
  5
199
330
1F
100
AcDbEntity
  8
0
  6
Continuous
 62
     7
370
    25
100
AcDbLine
 10
96.4797514519
 20
64.4953282994
 30
0.0
 11
100.4797514519
 21
64.4953282994
 31
0.0
  0
LINE
  5
19A
330
1F
100
AcDbEntity
  8
0
  6
Continuous
 62
     7
370
    25
100
AcDbLine
 10
89.9797514519
 20
64.4953282994
 30
0.0
 11
93.9797514519
 21
64.4953282994
 31
0.0
  0
LINE
  5
19B
330
1F
100
AcDbEntity
  8
0
  6
Continuous
 62
     7
370
    25
100
AcDbLine
 10
96.9036644954
 20
63.6453282994
 30
0.0
 11
100.7297514519
 21
63.6453282994
 31
0.0
  0
LINE
  5
19C
330
1F
100
AcDbEntity
  8
0
  6
Continuous
 62
     7
370
    25
100
AcDbLine
 10
89.7297514519
 20
63.6453282994
 30
0.0
 11
93.5558384084
 21
63.6453282994
 31
0.0
  0
LINE
  5
19D
330
1F
100
AcDbEntity
  8
0
  6
Continuous
 62
     7
370
    25
100
AcDbLine
 10
94.6297514519
 20
64.4953282994
 30
0.0
 11
94.6297514519
 21
64.5053282994
 31
0.0
  0
LINE
  5
19E
330
1F
100
AcDbEntity
  8
0
  6
Continuous
 62
     7
370
    25
100
AcDbLine
 10
95.8297514519
 20
64.4953282994
 30
0.0
 11
95.8297514519
 21
64.5053282994
 31
0.0
  0
LINE
  5
19F
330
1F
100
AcDbEntity
  8
0
  6
Continuous
 62
     7
370
    25
100
AcDbLine
 10
94.6297514519
 20
64.5053282994
 30
0.0
 11
95.8297514519
 21
64.5053282994
 31
0.0
  0
LINE
  5
1A0
330
1F
100
AcDbEntity
  8
0
  6
Continuous
 62
     7
370
    25
100
AcDbLine
 10
88.2297514519
 20
47.6453282994
 30
0.0
 11
102.2297514519
 21
47.6453282994
 31
0.0
  0
LINE
  5
1A1
330
1F
100
AcDbEntity
  8
0
  6
Continuous
 62
     7
370
    25
100
AcDbLine
 10
87.7797514519
 20
55.6453282994
 30
0.0
 11
102.6797514519
 21
55.6453282994
 31
0.0
  0
LINE
  5
1A2
330
1F
100
AcDbEntity
  8
0
  6
Continuous
 62
     7
370
    25
100
AcDbLine
 10
91.7297514519
 20
65.6453282994
 30
0.0
 11
91.7297514519
 21
64.4953282994
 31
0.0
  0
LINE
  5
1A3
330
1F
100
AcDbEntity
  8
0
  6
Continuous
 62
     7
370
    25
100
AcDbLine
 10
91.7297514519
 20
65.6453282994
 30
0.0
 11
91.9580521878
 21
65.6453282994
 31
0.0
  0
LINE
  5
1A4
330
1F
100
AcDbEntity
  8
0
  6
Continuous
 62
     7
370
    25
100
AcDbLine
 10
91.9580521878
 20
65.6453282994
 30
0.0
 11
91.9580521878
 21
64.4953282994
 31
0.0
  0
LINE
  5
1A5
330
1F
100
AcDbEntity
  8
0
  6
Continuous
 62
     7
370
    25
100
AcDbLine
 10
98.501450716
 20
65.6453282994
 30
0.0
 11
98.501450716
 21
64.4953282994
 31
0.0
  0
LINE
  5
1A6
330
1F
100
AcDbEntity
  8
0
  6
Continuous
 62
     7
370
    25
100
AcDbLine
 10
98.501450716
 20
65.6453282994
 30
0.0
 11
98.7297514519
 21
65.6453282994
 31
0.0
  0
LINE
  5
1A7
330
1F
100
AcDbEntity
  8
0
  6
Continuous
 62
     7
370
    25
100
AcDbLine
 10
98.7297514519
 20
64.4953282994
 30
0.0
 11
98.7297514519
 21
65.6453282994
 31
0.0
  0
LINE
  5
1A8
330
1F
100
AcDbEntity
  8
0
  6
Continuous
 62
     7
370
    25
100
AcDbLine
 10
91.9580521878
 20
65.6453282994
 30
0.0
 11
98.501450716
 21
65.6453282994
 31
0.0
  0
CIRCLE
  5
1A9
330
1F
100
AcDbEntity
  8
0
  6
Continuous
 62
     7
370
    25
100
AcDbCircle
 10
95.2297514519
 20
37.1453282994
 30
0.0
 40
8.250000000000014
  0
SPLINE
  5
1AA
330
1F
100
AcDbEntity
  8
0
  6
Continuous
 62
     7
370
    25
100
AcDbSpline
210
0.0
220
0.0
230
1.0
 70
     8
 71
     3
 72
    10
 73
     6
 74
     0
 42
0.00000001
 43
0.00000001
 40
0.0
 40
0.0
 40
0.0
 40
0.0
 40
0.5
 40
0.5
 40
1.0
 40
1.0
 40
1.0
 40
1.0
 10
86.72975145189483
 20
32.52652614590875
 30
0.0
 10
86.72975145189483
 20
32.44063908410628
 30
0.0
 10
86.75254390122464
 20
32.35323187512614
 30
0.0
 10
86.84048660531771
 20
32.20059543253241
 30
0.0
 10
86.90534437899157
 20
32.13647238758683
 30
0.0
 10
86.97975145189483
 20
32.09351344401652
 30
0.0
  0
SPLINE
  5
1AB
330
1F
100
AcDbEntity
  8
0
  6
Continuous
 62
     7
370
    25
100
AcDbSpline
210
0.0
220
0.0
230
1.0
 70
    24
 71
     3
 72
    14
 73
    10
 74
     0
 42
0.00000001
 43
0.00000001
 40
0.0
 40
0.0
 40
0.0
 40
0.0
 40
0.25
 40
0.25
 40
0.5
 40
0.5
 40
0.75
 40
0.75
 40
1.0
 40
1.0
 40
1.0
 40
1.0
 10
86.72975145189483
 20
32.5265261459087
 30
0.0
 10
86.72975145189483
 20
33.28090620655867
 30
0.0
 10
86.72975145189483
 20
34.05034737402418
 30
0.0
 10
86.72975145189483
 20
35.59085873496534
 30
0.0
 10
86.72975145189483
 20
36.36571311497236
 30
0.0
 10
86.72975145189483
 20
37.92607406985792
 30
0.0
 10
86.72975145189483
 20
38.71653026264294
 30
0.0
 10
86.72975145189483
 20
40.25880992545141
 30
0.0
 10
86.72975145189483
 20
41.0162006786526
 30
0.0
 10
86.72975145189483
 20
41.76413045294276
 30
0.0
  0
SPLINE
  5
1AC
330
1F
100
AcDbEntity
  8
0
  6
Continuous
 62
     7
370
    25
100
AcDbSpline
210
0.0
220
0.0
230
1.0
 70
     8
 71
     3
 72
    10
 73
     6
 74
     0
 42
0.00000001
 43
0.00000001
 40
0.0
 40
0.0
 40
0.0
 40
0.0
 40
0.5
 40
0.5
 40
1.0
 40
1.0
 40
1.0
 40
1.0
 10
86.97975145189483
 20
42.19714315483498
 30
0.0
 10
86.9053710745175
 20
42.15419962393375
 30
0.0
 10
86.84107043573172
 20
42.09075717930962
 30
0.0
 10
86.7528547509488
 20
41.93827834219066
 30
0.0
 10
86.72975145189483
 20
41.85004834008338
 30
0.0
 10
86.72975145189483
 20
41.76413045294276
 30
0.0
  0
SPLINE
  5
1AD
330
1F
100
AcDbEntity
  8
0
  6
Continuous
 62
     7
370
    25
100
AcDbSpline
210
0.0
220
0.0
230
1.0
 70
    24
 71
     3
 72
    16
 73
    12
 74
     0
 42
0.00000001
 43
0.00000001
 40
0.0
 40
0.0
 40
0.0
 40
0.0
 40
0.2500000000000001
 40
0.2500000000000001
 40
0.5000000000000001
 40
0.5000000000000001
 40
0.6250000000000001
 40
0.6250000000000001
 40
0.7500000000000002
 40
0.7500000000000002
 40
1.0
 40
1.0
 40
1.0
 40
1.0
 10
94.97975145189483
 20
46.81594530835198
 30
0.0
 10
94.32623467185402
 20
46.43863721947548
 30
0.0
 10
93.66801426276406
 20
46.05861348910128
 30
0.0
 10
92.33845167939826
 20
45.29099017369059
 30
0.0
 10
91.66702769732771
 20
44.90334335690179
 30
0.0
 10
90.648026610321
 20
44.31502280501394
 30
0.0
 10
90.30668582800482
 20
44.1179496124583
 30
0.0
 10
89.63108732503436
 20
43.72789263490419
 30
0.0
 10
89.29542817506973
 20
43.53409973431616
 30
0.0
 10
88.29416253857003
 20
42.95601874955274
 30
0.0
 10
87.63425487996689
 20
42.57502088521791
 30
0.0
 10
86.97975145189484
 20
42.19714315483498
 30
0.0
  0
SPLINE
  5
1AE
330
1F
100
AcDbEntity
  8
0
  6
Continuous
 62
     7
370
    25
100
AcDbSpline
210
0.0
220
0.0
230
1.0
 70
     8
 71
     3
 72
    10
 73
     6
 74
     0
 42
0.00000001
 43
0.00000001
 40
0.0
 40
0.0
 40
0.0
 40
0.0
 40
0.5
 40
0.5
 40
1.0
 40
1.0
 40
1.0
 40
1.0
 10
95.47975145189483
 20
46.81594530835198
 30
0.0
 10
95.40537107451749
 20
46.85888883925321
 30
0.0
 10
95.31827798640192
 20
46.88285360360919
 30
0.0
 10
95.14211959752593
 20
46.88301120908397
 30
0.0
 10
95.0541585247981
 20
46.8589042519223
 30
0.0
 10
94.97975145189483
 20
46.81594530835198
 30
0.0
  0
SPLINE
  5
1AF
330
1F
100
AcDbEntity
  8
0
  6
Continuous
 62
     7
370
    25
100
AcDbSpline
210
0.0
220
0.0
230
1.0
 70
    24
 71
     3
 72
    16
 73
    12
 74
     0
 42
0.00000001
 43
0.00000001
 40
0.0
 40
0.0
 40
0.0
 40
0.0
 40
0.2499999999999997
 40
0.2499999999999997
 40
0.4999999999999993
 40
0.4999999999999993
 40
0.6249999999999993
 40
0.6249999999999993
 40
0.7499999999999996
 40
0.7499999999999996
 40
1.0
 40
1.0
 40
1.0
 40
1.0
 10
103.4797514518948
 20
42.19714315483498
 30
0.0
 10
102.826234671854
 20
42.57445124371147
 30
0.0
 10
102.168014262764
 20
42.95447497408567
 30
0.0
 10
100.8384516793983
 20
43.72209828949637
 30
0.0
 10
100.1670276973277
 20
44.10974510628517
 30
0.0
 10
99.148026610321
 20
44.69806565817302
 30
0.0
 10
98.80668582800482
 20
44.89513885072866
 30
0.0
 10
98.13108732503436
 20
45.28519582828276
 30
0.0
 10
97.79542817506974
 20
45.47898872887081
 30
0.0
 10
96.79416253857002
 20
46.05706971363423
 30
0.0
 10
96.13425487996687
 20
46.43806757796905
 30
0.0
 10
95.47975145189483
 20
46.81594530835198
 30
0.0
  0
SPLINE
  5
1B0
330
1F
100
AcDbEntity
  8
0
  6
Continuous
 62
     7
370
    25
100
AcDbSpline
210
0.0
220
0.0
230
1.0
 70
     8
 71
     3
 72
    10
 73
     6
 74
     0
 42
0.00000001
 43
0.00000001
 40
0.0
 40
0.0
 40
0.0
 40
0.0
 40
0.5
 40
0.5
 40
1.0
 40
1.0
 40
1.0
 40
1.0
 10
103.7297514518948
 20
41.76413045294276
 30
0.0
 10
103.7297514518948
 20
41.85001751474522
 30
0.0
 10
103.706959002565
 20
41.93742472372532
 30
0.0
 10
103.619016298472
 20
42.09006116631907
 30
0.0
 10
103.5541585247981
 20
42.15418421126466
 30
0.0
 10
103.4797514518948
 20
42.19714315483498
 30
0.0
  0
SPLINE
  5
1B1
330
1F
100
AcDbEntity
  8
0
  6
Continuous
 62
     7
370
    25
100
AcDbSpline
210
0.0
220
0.0
230
1.0
 70
    24
 71
     3
 72
    14
 73
    10
 74
     0
 42
0.00000001
 43
0.00000001
 40
0.0
 40
0.0
 40
0.0
 40
0.0
 40
0.25
 40
0.25
 40
0.5
 40
0.5
 40
0.75
 40
0.75
 40
1.0
 40
1.0
 40
1.0
 40
1.0
 10
103.7297514518948
 20
32.52652614590869
 30
0.0
 10
103.7297514518948
 20
33.28090620655866
 30
0.0
 10
103.7297514518948
 20
34.05034737402417
 30
0.0
 10
103.7297514518948
 20
35.59085873496533
 30
0.0
 10
103.7297514518948
 20
36.36571311497235
 30
0.0
 10
103.7297514518948
 20
37.92607406985791
 30
0.0
 10
103.7297514518948
 20
38.71653026264294
 30
0.0
 10
103.7297514518948
 20
40.25880992545141
 30
0.0
 10
103.7297514518948
 20
41.0162006786526
 30
0.0
 10
103.7297514518948
 20
41.76413045294276
 30
0.0
  0
SPLINE
  5
1B2
330
1F
100
AcDbEntity
  8
0
  6
Continuous
 62
     7
370
    25
100
AcDbSpline
210
0.0
220
0.0
230
1.0
 70
     8
 71
     3
 72
    10
 73
     6
 74
     0
 42
0.00000001
 43
0.00000001
 40
0.0
 40
0.0
 40
0.0
 40
0.0
 40
0.5
 40
0.5
 40
1.0
 40
1.0
 40
1.0
 40
1.0
 10
103.4797514518948
 20
32.09351344401652
 30
0.0
 10
103.554131829272
 20
32.13645697491765
 30
0.0
 10
103.6184324680575
 20
32.19989941954132
 30
0.0
 10
103.7066481528408
 20
32.35237825666044
 30
0.0
 10
103.7297514518948
 20
32.44060825876792
 30
0.0
 10
103.7297514518948
 20
32.52652614590872
 30
0.0
  0
SPLINE
  5
1B3
330
1F
100
AcDbEntity
  8
0
  6
Continuous
 62
     7
370
    25
100
AcDbSpline
210
0.0
220
0.0
230
1.0
 70
    24
 71
     3
 72
    16
 73
    12
 74
     0
 42
0.00000001
 43
0.00000001
 40
0.0
 40
0.0
 40
0.0
 40
0.0
 40
0.2500000000000002
 40
0.2500000000000002
 40
0.5000000000000004
 40
0.5000000000000004
 40
0.6250000000000003
 40
0.6250000000000003
 40
0.7500000000000002
 40
0.7500000000000002
 40
1.0
 40
1.0
 40
1.0
 40
1.0
 10
95.47975145189483
 20
27.47471129049951
 30
0.0
 10
96.13326823193559
 20
27.85201937937598
 30
0.0
 10
96.79148864102551
 20
28.23204310975015
 30
0.0
 10
98.1210512243912
 20
28.99966642516079
 30
0.0
 10
98.79247520646169
 20
29.38731324194956
 30
0.0
 10
99.81147629346832
 20
29.97563379383735
 30
0.0
 10
100.1528170757845
 20
30.17270698639299
 30
0.0
 10
100.8284155787549
 20
30.56276396394706
 30
0.0
 10
101.1640747287195
 20
30.75655686453509
 30
0.0
 10
102.1653403652191
 20
31.33463784929847
 30
0.0
 10
102.8252480238222
 20
31.71563571363327
 30
0.0
 10
103.4797514518942
 20
32.09351344401617
 30
0.0
  0
SPLINE
  5
1B4
330
1F
100
AcDbEntity
  8
0
  6
Continuous
 62
     7
370
    25
100
AcDbSpline
210
0.0
220
0.0
230
1.0
 70
     8
 71
     3
 72
    10
 73
     6
 74
     0
 42
0.00000001
 43
0.00000001
 40
0.0
 40
0.0
 40
0.0
 40
0.0
 40
0.5
 40
0.5
 40
1.0
 40
1.0
 40
1.0
 40
1.0
 10
94.97975145189483
 20
27.47471129049951
 30
0.0
 10
95.05413182927217
 20
27.43176775959828
 30
0.0
 10
95.14122491738773
 20
27.4078029952423
 30
0.0
 10
95.31738330626372
 20
27.40764538976752
 30
0.0
 10
95.40534437899156
 20
27.4317523469292
 30
0.0
 10
95.47975145189483
 20
27.47471129049951
 30
0.0
  0
SPLINE
  5
1B5
330
1F
100
AcDbEntity
  8
0
  6
Continuous
 62
     7
370
    25
100
AcDbSpline
210
0.0
220
0.0
230
1.0
 70
    24
 71
     3
 72
    16
 73
    12
 74
     0
 42
0.00000001
 43
0.00000001
 40
0.0
 40
0.0
 40
0.0
 40
0.0
 40
0.2500000000000001
 40
0.2500000000000001
 40
0.5000000000000002
 40
0.5000000000000002
 40
0.6250000000000001
 40
0.6250000000000001
 40
0.7500000000000001
 40
0.7500000000000001
 40
1.0
 40
1.0
 40
1.0
 40
1.0
 10
86.97975145189483
 20
32.09351344401652
 30
0.0
 10
87.63326823193563
 20
31.71620535514003
 30
0.0
 10
88.29148864102561
 20
31.33618162476583
 30
0.0
 10
89.62105122439141
 20
30.56855830935513
 30
0.0
 10
90.29247520646194
 20
30.18091149256633
 30
0.0
 10
91.31147629346866
 20
29.59259094067848
 30
0.0
 10
91.65281707578484
 20
29.39551774812283
 30
0.0
 10
92.3284155787553
 20
29.00546077056873
 30
0.0
 10
92.66407472871991
 20
28.8116678699807
 30
0.0
 10
93.66534036521962
 20
28.23358688521727
 30
0.0
 10
94.32524802382278
 20
27.85258902088244
 30
0.0
 10
94.97975145189483
 20
27.47471129049951
 30
0.0
  0
LINE
  5
1B6
330
1F
100
AcDbEntity
  8
0
  6
Continuous
 62
     7
370
    25
100
AcDbLine
 10
95.4797514519
 20
27.4747112905
 30
0.0
 11
95.4797514519
 21
26.6453282994
 31
0.0
  0
LINE
  5
1B7
330
1F
100
AcDbEntity
  8
0
  6
Continuous
 62
     7
370
    25
100
AcDbLine
 10
94.9797514519
 20
26.6453282994
 30
0.0
 11
94.9797514519
 21
27.4747112905
 31
0.0
  0
LINE
  5
1B8
330
1F
100
AcDbEntity
  8
0
  6
Continuous
 62
     7
370
    25
100
AcDbLine
 10
94.9797514519
 20
26.6453282994
 30
0.0
 11
95.4797514519
 21
26.6453282994
 31
0.0
  0
SPLINE
  5
1B9
330
1F
100
AcDbEntity
  8
0
  6
Continuous
 62
     7
370
    25
100
AcDbSpline
210
0.0
220
0.0
230
1.0
 70
     8
 71
     3
 72
    22
 73
    18
 74
     0
 42
0.00000001
 43
0.00000001
 40
0.0
 40
0.0
 40
0.0
 40
0.0
 40
0.2499999999999984
 40
0.2499999999999984
 40
0.3749999999999976
 40
0.3749999999999976
 40
0.4374999999999972
 40
0.4374999999999972
 40
0.4999999999999968
 40
0.4999999999999968
 40
0.5624999999999963
 40
0.5624999999999963
 40
0.624999999999996
 40
0.624999999999996
 40
0.7499999999999974
 40
0.7499999999999974
 40
1.0
 40
1.0
 40
1.0
 40
1.0
 10
100.0594096578595
 20
26.64532829942574
 30
0.0
 10
99.99924830134674
 20
26.47081960179017
 30
0.0
 10
99.93240421452757
 20
26.29848114489031
 30
0.0
 10
99.80296988491243
 20
26.06074571158326
 30
0.0
 10
99.75457132551992
 20
25.98396314220123
 30
0.0
 10
99.66540781523233
 20
25.88760874569167
 30
0.0
 10
99.63274873960142
 20
25.85883514522957
 30
0.0
 10
99.56090917215302
 20
25.8166215802006
 30
0.0
 10
99.52041622900786
 20
25.80324848223806
 30
0.0
 10
99.43830834245784
 20
25.80340887683462
 30
0.0
 10
99.39774579903681
 20
25.8169135689541
 30
0.0
 10
99.3252958294075
 20
25.85990501169154
 30
0.0
 10
99.29253025159416
 20
25.88908964786227
 30
0.0
 10
99.20370727199892
 20
25.98572229832894
 30
0.0
 10
99.15552795390063
 20
26.0623835438251
 30
0.0
 10
99.02617896039693
 20
26.30059398385893
 30
0.0
 10
98.96012360342097
 20
26.47119958771449
 30
0.0
 10
98.90009324592995
 20
26.64532829942561
 30
0.0
  0
SPLINE
  5
1BA
330
1F
100
AcDbEntity
  8
0
  6
Continuous
 62
     7
370
    25
100
AcDbSpline
210
0.0
220
0.0
230
1.0
 70
     8
 71
     3
 72
    12
 73
     8
 74
     0
 42
0.00000001
 43
0.00000001
 40
0.0
 40
0.0
 40
0.0
 40
0.0
 40
0.2499999999999999
 40
0.2499999999999999
 40
0.4999999999999998
 40
0.4999999999999998
 40
1.0
 40
1.0
 40
1.0
 40
1.0
 10
99.60418154464719
 20
29.85595211479088
 30
0.0
 10
99.93331653504036
 20
29.85224362893446
 30
0.0
 10
100.2627786879771
 20
29.83366112609677
 30
0.0
 10
100.9156523060347
 20
29.76879408913063
 30
0.0
 10
101.2401048979118
 20
29.72252853588036
 30
0.0
 10
102.2081653391039
 20
29.5468040055734
 30
0.0
 10
102.8464878233519
 20
29.38050059679664
 30
0.0
 10
103.4797514518948
 20
29.17893175957074
 30
0.0
  0
LINE
  5
1BB
330
1F
100
AcDbEntity
  8
0
  6
Continuous
 62
     7
370
    25
100
AcDbLine
 10
103.4797514519
 20
26.6453282994
 30
0.0
 11
103.4797514519
 21
29.1789317596
 31
0.0
  0
LINE
  5
1BC
330
1F
100
AcDbEntity
  8
0
  6
Continuous
 62
     7
370
    25
100
AcDbLine
 10
103.4797514519
 20
26.6453282994
 30
0.0
 11
100.0594096579
 21
26.6453282994
 31
0.0
  0
LINE
  5
1BD
330
1F
100
AcDbEntity
  8
0
  6
Continuous
 62
     7
370
    25
100
AcDbLine
 10
98.9000932459
 20
26.6453282994
 30
0.0
 11
95.4797514519
 21
26.6453282994
 31
0.0
  0
SPLINE
  5
1BE
330
1F
100
AcDbEntity
  8
0
  6
Continuous
 62
     7
370
    25
100
AcDbSpline
210
0.0
220
0.0
230
1.0
 70
     8
 71
     3
 72
    22
 73
    18
 74
     0
 42
0.00000001
 43
0.00000001
 40
0.0
 40
0.0
 40
0.0
 40
0.0
 40
0.2499999999999977
 40
0.2499999999999977
 40
0.3749999999999955
 40
0.3749999999999955
 40
0.4374999999999958
 40
0.4374999999999958
 40
0.4999999999999961
 40
0.4999999999999961
 40
0.5624999999999964
 40
0.5624999999999964
 40
0.6249999999999967
 40
0.6249999999999967
 40
0.7499999999999978
 40
0.7499999999999978
 40
1.0
 40
1.0
 40
1.0
 40
1.0
 10
91.5594096578595
 20
26.64532829942575
 30
0.0
 10
91.49924830134673
 20
26.47081960179013
 30
0.0
 10
91.43240421452754
 20
26.29848114489019
 30
0.0
 10
91.30296988491237
 20
26.0607457115831
 30
0.0
 10
91.25457132551982
 20
25.98396314220105
 30
0.0
 10
91.16540781523216
 20
25.88760874569148
 30
0.0
 10
91.13274873960125
 20
25.85883514522935
 30
0.0
 10
91.06090917215275
 20
25.8166215802004
 30
0.0
 10
91.02041622900758
 20
25.80324848223801
 30
0.0
 10
90.93830834245747
 20
25.80340887683469
 30
0.0
 10
90.89774579903651
 20
25.81691356895414
 30
0.0
 10
90.82529582940725
 20
25.85990501169164
 30
0.0
 10
90.79253025159392
 20
25.88908964786244
 30
0.0
 10
90.70370727199878
 20
25.98572229832912
 30
0.0
 10
90.65552795390046
 20
26.06238354382536
 30
0.0
 10
90.52617896039688
 20
26.30059398385907
 30
0.0
 10
90.46012360342093
 20
26.47119958771456
 30
0.0
 10
90.40009324592992
 20
26.64532829942561
 30
0.0
  0
LINE
  5
1BF
330
1F
100
AcDbEntity
  8
0
  6
Continuous
 62
     7
370
    25
100
AcDbLine
 10
90.4000932459
 20
26.6453282994
 30
0.0
 11
86.9797514519
 21
26.6453282994
 31
0.0
  0
LINE
  5
1C0
330
1F
100
AcDbEntity
  8
0
  6
Continuous
 62
     7
370
    25
100
AcDbLine
 10
86.9797514519
 20
29.1789317596
 30
0.0
 11
86.9797514519
 21
26.6453282994
 31
0.0
  0
SPLINE
  5
1C1
330
1F
100
AcDbEntity
  8
0
  6
Continuous
 62
     7
370
    25
100
AcDbSpline
210
0.0
220
0.0
230
1.0
 70
     8
 71
     3
 72
    10
 73
     6
 74
     0
 42
0.00000001
 43
0.00000001
 40
0.0
 40
0.0
 40
0.0
 40
0.0
 40
0.5
 40
0.5
 40
1.0
 40
1.0
 40
1.0
 40
1.0
 10
86.97975145189531
 20
29.1789317595709
 30
0.0
 10
87.61457915770896
 20
29.38099844512182
 30
0.0
 10
88.25384486028473
 20
29.54739121739247
 30
0.0
 10
89.54465979187462
 20
29.78143819126252
 30
0.0
 10
90.19627942734445
 20
29.84852644522135
 30
0.0
 10
90.85532135916455
 20
29.85595211479113
 30
0.0
  0
LINE
  5
1C2
330
1F
100
AcDbEntity
  8
0
  6
Continuous
 62
     7
370
    25
100
AcDbLine
 10
94.9797514519
 20
26.6453282994
 30
0.0
 11
91.5594096579
 21
26.6453282994
 31
0.0
  0
LINE
  5
1C3
330
1F
100
AcDbEntity
  8
0
  6
Continuous
 62
     7
370
    25
100
AcDbLine
 10
95.2297514519
 20
16.2249601254
 30
0.0
 11
103.4304274465
 21
16.2249601254
 31
0.0
  0
LINE
  5
1C4
330
1F
100
AcDbEntity
  8
0
  6
Continuous
 62
     7
370
    25
100
AcDbLine
 10
87.0290754573
 20
16.2249601254
 30
0.0
 11
95.2297514519
 21
16.2249601254
 31
0.0
  0
SPLINE
  5
1C5
330
1F
100
AcDbEntity
  8
0
  6
Continuous
 62
     7
370
    25
100
AcDbSpline
210
0.0
220
0.0
230
1.0
 70
    24
 71
     3
 72
    12
 73
     8
 74
     0
 42
0.00000001
 43
0.00000001
 40
0.0
 40
0.0
 40
0.0
 40
0.0
 40
0.4338388216333491
 40
0.75944574610903
 40
0.8895140889367473
 40
0.9834635962081519
 40
1.0
 40
1.0
 40
1.0
 40
1.0
 10
86.72975145189483
 20
26.64532829942575
 30
0.0
 10
86.72975145189483
 20
26.49686695670367
 30
0.0
 10
86.72975145189483
 20
26.23698165006506
 30
0.0
 10
86.72975145189483
 20
25.95259646563885
 30
0.0
 10
86.72975145189483
 20
25.83397359286471
 30
0.0
 10
86.72975145189483
 20
25.7995513778528
 30
0.0
 10
86.72975145189483
 20
25.80544517752316
 30
0.0
 10
86.72975145189483
 20
25.80632730131867
 30
0.0
  0
SPLINE
  5
1C6
330
1F
100
AcDbEntity
  8
0
  6
Continuous
 62
     7
370
    25
100
AcDbSpline
210
0.0
220
0.0
230
1.0
 70
    24
 71
     3
 72
    12
 73
     8
 74
     0
 42
0.00000001
 43
0.00000001
 40
0.0
 40
0.0
 40
0.0
 40
0.0
 40
0.0165364037918481
 40
0.1104859110632526
 40
0.24055425389097
 40
0.5661611783666509
 40
1.0
 40
1.0
 40
1.0
 40
1.0
 10
103.7297514518948
 20
25.80632730131867
 30
0.0
 10
103.7297514518948
 20
25.80544517752316
 30
0.0
 10
103.7297514518948
 20
25.79955137785281
 30
0.0
 10
103.7297514518948
 20
25.83397359286471
 30
0.0
 10
103.7297514518948
 20
25.95259646563886
 30
0.0
 10
103.7297514518948
 20
26.23698165006506
 30
0.0
 10
103.7297514518948
 20
26.49686695670367
 30
0.0
 10
103.7297514518948
 20
26.64532829942575
 30
0.0
  0
LINE
  5
1C7
330
1F
100
AcDbEntity
  8
0
  6
Continuous
 62
     7
370
    25
100
AcDbLine
 10
102.2297514519
 20
14.1453282994
 30
0.0
 11
88.2297514519
 21
14.1453282994
 31
0.0
  0
SPLINE
  5
1C8
330
1F
100
AcDbEntity
  8
0
  6
Continuous
 62
     7
370
    25
100
AcDbSpline
210
0.0
220
0.0
230
1.0
 70
     8
 71
     3
 72
     8
 73
     4
 74
     0
 42
0.00000001
 43
0.00000001
 40
0.0
 40
0.0
 40
0.0
 40
0.0
 40
1.0
 40
1.0
 40
1.0
 40
1.0
 10
86.72975145189483
 20
29.34041708785176
 30
0.0
 10
87.25155760319666
 20
29.61300722352112
 30
0.0
 10
87.77521107205284
 20
29.88215972464251
 30
0.0
 10
88.30154822161931
 20
30.14532829942575
 30
0.0
  0
SPLINE
  5
1C9
330
1F
100
AcDbEntity
  8
0
  6
Continuous
 62
     7
370
    25
100
AcDbSpline
210
0.0
220
0.0
230
1.0
 70
     8
 71
     3
 72
    10
 73
     6
 74
     0
 42
0.00000001
 43
0.00000001
 40
0.0
 40
0.0
 40
0.0
 40
0.0
 40
0.5
 40
0.5
 40
1.0
 40
1.0
 40
1.0
 40
1.0
 10
86.72975145189483
 20
29.17893175957072
 30
0.0
 10
86.72975145189483
 20
29.15525636514631
 30
0.0
 10
86.75254390122467
 20
29.14216525526168
 30
0.0
 10
86.84048660531793
 20
29.14207893397346
 30
0.0
 10
86.9053443789921
 20
29.15524786791741
 30
0.0
 10
86.9797514518955
 20
29.17893175957096
 30
0.0
  0
SPLINE
  5
1CA
330
1F
100
AcDbEntity
  8
0
  6
Continuous
 62
     7
370
    25
100
AcDbSpline
210
0.0
220
0.0
230
1.0
 70
    24
 71
     3
 72
     8
 73
     4
 74
     0
 42
0.00000001
 43
0.00000001
 40
0.0
 40
0.0
 40
0.0
 40
0.0
 40
1.0
 40
1.0
 40
1.0
 40
1.0
 10
86.72975145189483
 20
29.34041708785176
 30
0.0
 10
86.72975145189483
 20
29.28952229815094
 30
0.0
 10
86.72975145189483
 20
29.2355884487895
 30
0.0
 10
86.72975145189483
 20
29.17893175957074
 30
0.0
  0
SPLINE
  5
1CB
330
1F
100
AcDbEntity
  8
0
  6
Continuous
 62
     7
370
    25
100
AcDbSpline
210
0.0
220
0.0
230
1.0
 70
     8
 71
     3
 72
     8
 73
     4
 74
     0
 42
0.00000001
 43
0.00000001
 40
0.0
 40
0.0
 40
0.0
 40
0.0
 40
1.0
 40
1.0
 40
1.0
 40
1.0
 10
102.1579546821703
 20
30.14532829942574
 30
0.0
 10
102.6843755433796
 20
29.88211786882114
 30
0.0
 10
103.2079200000932
 20
29.61302044043444
 30
0.0
 10
103.7297514518948
 20
29.34041708785178
 30
0.0
  0
SPLINE
  5
1CC
330
1F
100
AcDbEntity
  8
0
  6
Continuous
 62
     7
370
    25
100
AcDbSpline
210
0.0
220
0.0
230
1.0
 70
     8
 71
     3
 72
    10
 73
     6
 74
     0
 42
0.00000001
 43
0.00000001
 40
0.0
 40
0.0
 40
0.0
 40
0.0
 40
0.5
 40
0.5
 40
1.0
 40
1.0
 40
1.0
 40
1.0
 10
103.4797514518948
 20
29.17893175957074
 30
0.0
 10
103.5541318292722
 20
29.15525636514636
 30
0.0
 10
103.6184324680579
 20
29.14216525526172
 30
0.0
 10
103.7066481528409
 20
29.14207893397343
 30
0.0
 10
103.7297514518948
 20
29.15524786791728
 30
0.0
 10
103.7297514518948
 20
29.17893175957074
 30
0.0
  0
SPLINE
  5
1CD
330
1F
100
AcDbEntity
  8
0
  6
Continuous
 62
     7
370
    25
100
AcDbSpline
210
0.0
220
0.0
230
1.0
 70
    24
 71
     3
 72
     8
 73
     4
 74
     0
 42
0.00000001
 43
0.00000001
 40
0.0
 40
0.0
 40
0.0
 40
0.0
 40
1.0
 40
1.0
 40
1.0
 40
1.0
 10
103.7297514518948
 20
29.34041708785176
 30
0.0
 10
103.7297514518948
 20
29.28952229815094
 30
0.0
 10
103.7297514518948
 20
29.2355884487895
 30
0.0
 10
103.7297514518948
 20
29.17893175957074
 30
0.0
  0
LINE
  5
1CE
330
1F
100
AcDbEntity
  8
0
  6
Continuous
 62
     7
370
    25
100
AcDbLine
 10
100.1053957989
 20
30.1453282994
 30
0.0
 11
102.7297514519
 21
30.1453282994
 31
0.0
  0
LINE
  5
1CF
330
1F
100
AcDbEntity
  8
0
  6
Continuous
 62
     7
370
    25
100
AcDbLine
 10
102.7297514519
 20
31.6605007421
 30
0.0
 11
102.7297514519
 21
30.1453282994
 31
0.0
  0
LINE
  5
1D0
330
1F
100
AcDbEntity
  8
0
  6
Continuous
 62
     7
370
    25
100
AcDbLine
 10
87.7297514519
 20
30.1453282994
 30
0.0
 11
90.3541071049
 21
30.1453282994
 31
0.0
  0
LINE
  5
1D1
330
1F
100
AcDbEntity
  8
0
  6
Continuous
 62
     7
370
    25
100
AcDbLine
 10
87.7297514519
 20
30.1453282994
 30
0.0
 11
87.7297514519
 21
31.6605007421
 31
0.0
  0
LINE
  5
1D2
330
1F
100
AcDbEntity
  8
0
  6
Continuous
 62
     7
370
    25
100
AcDbLine
 10
86.7297514519
 20
26.6453282994
 30
0.0
 11
86.9797514519
 21
26.6453282994
 31
0.0
  0
LINE
  5
1D3
330
1F
100
AcDbEntity
  8
0
  6
Continuous
 62
     7
370
    25
100
AcDbLine
 10
86.7297514519
 20
26.6453282994
 30
0.0
 11
86.7297514519
 21
29.1789317596
 31
0.0
  0
LINE
  5
1D4
330
1F
100
AcDbEntity
  8
0
  6
Continuous
 62
     7
370
    25
100
AcDbLine
 10
103.4797514519
 20
26.6453282994
 30
0.0
 11
103.7297514519
 21
26.6453282994
 31
0.0
  0
LINE
  5
1D5
330
1F
100
AcDbEntity
  8
0
  6
Continuous
 62
     7
370
    25
100
AcDbLine
 10
103.7297514519
 20
29.1789317596
 30
0.0
 11
103.7297514519
 21
26.6453282994
 31
0.0
  0
LINE
  5
1D6
330
1F
100
AcDbEntity
  8
0
  6
Continuous
 62
     7
370
    25
100
AcDbLine
 10
86.7297514519
 20
29.3404170879
 30
0.0
 11
86.7297514519
 21
32.4833269696
 31
0.0
  0
LINE
  5
1D7
330
1F
100
AcDbEntity
  8
0
  6
Continuous
 62
     7
370
    25
100
AcDbLine
 10
103.7297514519
 20
29.3404170879
 30
0.0
 11
103.7297514519
 21
32.4833269696
 31
0.0
  0
LINE
  5
1D8
330
1F
100
AcDbEntity
  8
0
  6
Continuous
 62
     7
370
    25
100
AcDbLine
 10
100.7297514519
 20
64.2453282994
 30
0.0
 11
96.9036644954
 21
64.2453282994
 31
0.0
  0
LINE
  5
1D9
330
1F
100
AcDbEntity
  8
0
  6
Continuous
 62
     7
370
    25
100
AcDbLine
 10
93.5558384084
 20
64.2453282994
 30
0.0
 11
89.7297514519
 21
64.2453282994
 31
0.0
  0
SPLINE
  5
1DA
330
1F
100
AcDbEntity
  8
0
  6
Continuous
 62
     7
370
    25
100
AcDbSpline
210
0.0
220
0.0
230
1.0
 70
     8
 71
     3
 72
    19
 73
    15
 74
     0
 42
0.00000001
 43
0.00000001
 40
0.0
 40
0.0
 40
0.0
 40
0.0
 40
0.0167859063299031
 40
0.095501746103283
 40
0.1743222277290431
 40
0.2799401577723763
 40
0.3857537192774199
 40
0.4988354141085999
 40
0.6118985943338152
 40
0.7070769673360484
 40
0.8021811401179278
 40
0.8927570581696251
 40
0.9832583317302495
 40
1.0
 40
1.0
 40
1.0
 40
1.0
 10
89.33740194645087
 20
43.68474062562466
 30
0.0
 10
89.33487405504273
 20
43.68160303015087
 30
0.0
 10
89.32049186806442
 20
43.66375199247538
 30
0.0
 10
89.38393717636487
 20
43.74281496011616
 30
0.0
 10
89.53904456583331
 20
43.92730168171602
 30
0.0
 10
89.82734158494776
 20
44.24727998463562
 30
0.0
 10
90.25977565733987
 20
44.67172844318569
 30
0.0
 10
90.81420836869064
 20
45.13439296751834
 30
0.0
 10
91.45710393484057
 20
45.57487297695651
 30
0.0
 10
92.15654085723726
 20
45.95293390731732
 30
0.0
 10
92.87854117792095
 20
46.25615743808609
 30
0.0
 10
93.656260567011
 20
46.47455655603845
 30
0.0
 10
94.24430903981082
 20
46.59595631586846
 30
0.0
 10
94.57389921832353
 20
46.60925614321575
 30
0.0
 10
94.62535145694595
 20
46.61133237586745
 30
0.0
  0
SPLINE
  5
1DB
330
1F
100
AcDbEntity
  8
0
  6
Continuous
 62
     7
370
    25
100
AcDbSpline
210
0.0
220
0.0
230
1.0
 70
     8
 71
     3
 72
    19
 73
    15
 74
     0
 42
0.00000001
 43
0.00000001
 40
0.0
 40
0.0
 40
0.0
 40
0.0
 40
0.0313541675907862
 40
0.0973968030253716
 40
0.1974103560838987
 40
0.2975361745171253
 40
0.4181237887005158
 40
0.5388078456268595
 40
0.6564389203038811
 40
0.7739036006050536
 40
0.8504381842348709
 40
0.9268720583664396
 40
0.9967389679972599
 40
1.0
 40
1.0
 40
1.0
 40
1.0
 10
95.8419486618359
 20
46.60683065169277
 30
0.0
 10
95.93782058345833
 20
46.60161061216052
 30
0.0
 10
96.23563166834481
 20
46.58539537823233
 30
0.0
 10
96.81851707030306
 20
46.47102291334927
 30
0.0
 10
97.56776140875712
 20
46.26175040785759
 30
0.0
 10
98.38822613446204
 20
45.91742851543581
 30
0.0
 10
99.15537282081833
 20
45.4818294740485
 30
0.0
 10
99.83666341490468
 20
44.98643058012925
 30
0.0
 10
100.3873735124789
 20
44.49603454381197
 30
0.0
 10
100.7561110610443
 20
44.11307852839612
 30
0.0
 10
100.9841364105199
 20
43.85232660463704
 30
0.0
 10
101.095242311123
 20
43.71786978372917
 30
0.0
 10
101.1392185117624
 20
43.66397194011688
 30
0.0
 10
101.1282933558681
 20
43.6773055672412
 30
0.0
 10
101.1278061647588
 20
43.67790016054977
 30
0.0
  0
INSERT
  5
1E7
330
1F
100
AcDbEntity
  8
0
  6
Continuous
 62
     7
370
    18
100
AcDbBlockReference
  2
SW_CENTERMARKSYMBOL_0
 10
95.2297514519
 20
37.1453282994
 30
0.0
  0
LINE
  5
1E8
330
1F
100
AcDbEntity
  8
0
  6
Continuous
 62
     7
370
    18
100
AcDbLine
 10
87.3797514519
 20
26.1453282994
 30
0.0
 11
87.7275700883
 21
15.0151319359
 31
0.0
  0
LINE
  5
1E9
330
1F
100
AcDbEntity
  8
0
  6
Continuous
 62
     7
370
    18
100
AcDbLine
 10
102.7319328155
 20
15.0151319359
 30
0.0
 11
103.0797514519
 21
26.1453282994
 31
0.0
  0
LINE
  5
1EA
330
1F
100
AcDbEntity
  8
0
  6
Continuous
 62
     7
370
    25
100
AcDbLine
 10
99.8490092101
 20
26.1453282994
 30
0.0
 11
99.1104936937
 21
26.1453282994
 31
0.0
  0
LINE
  5
1EB
330
1F
100
AcDbEntity
  8
0
  6
Continuous
 62
     7
370
    25
100
AcDbLine
 10
91.3490092101
 20
26.1453282994
 30
0.0
 11
90.6104936937
 21
26.1453282994
 31
0.0
  0
LINE
  5
1EC
330
1F
100
AcDbEntity
  8
0
  6
Continuous
 62
     7
370
    25
100
AcDbLine
 10
21.8737854137
 20
111.9338825498
 30
0.0
 11
21.7294478464
 21
111.6838825498
 31
0.0
  0
LINE
  5
1ED
330
1F
100
AcDbEntity
  8
0
  6
Continuous
 62
     7
370
    25
100
AcDbLine
 10
21.7294478464
 20
91.1838825498
 30
0.0
 11
21.8737854137
 21
90.9338825498
 31
0.0
  0
LINE
  5
1EE
330
1F
100
AcDbEntity
  8
0
  6
Continuous
 62
     7
370
    25
100
AcDbLine
 10
36.5851102791
 20
90.9338825498
 30
0.0
 11
36.7294478464
 21
91.1838825498
 31
0.0
  0
LINE
  5
1EF
330
1F
100
AcDbEntity
  8
0
  6
Continuous
 62
     7
370
    25
100
AcDbLine
 10
36.7294478464
 20
111.6838825498
 30
0.0
 11
36.5851102791
 21
111.9338825498
 31
0.0
  0
LINE
  5
1F0
330
1F
100
AcDbEntity
  8
0
  6
Continuous
 62
     7
370
    25
100
AcDbLine
 10
45.0447690946
 20
109.9338825498
 30
0.0
 11
42.0447690946
 21
109.9338825498
 31
0.0
  0
LINE
  5
1F1
330
1F
100
AcDbEntity
  8
0
  6
Continuous
 62
     7
370
    25
100
AcDbLine
 10
42.0447690946
 20
92.9338825498
 30
0.0
 11
45.0447690946
 21
92.9338825498
 31
0.0
  0
LINE
  5
1F2
330
1F
100
AcDbEntity
  8
0
  6
Continuous
 62
     7
370
    25
100
AcDbLine
 10
42.0447690946
 20
109.7648825498
 30
0.0
 11
36.7294478464
 21
109.7648825498
 31
0.0
  0
LINE
  5
1F3
330
1F
100
AcDbEntity
  8
0
  6
Continuous
 62
     7
370
    25
100
AcDbLine
 10
36.7294478464
 20
93.1028825498
 30
0.0
 11
42.0447690946
 21
93.1028825498
 31
0.0
  0
LINE
  5
1F4
330
1F
100
AcDbEntity
  8
0
  6
Continuous
 62
     7
370
    25
100
AcDbLine
 10
68.4004315273
 20
92.9338825498
 30
0.0
 11
68.5447690946
 21
93.1838825498
 31
0.0
  0
LINE
  5
1F5
330
1F
100
AcDbEntity
  8
0
  6
Continuous
 62
     7
370
    25
100
AcDbLine
 10
68.5447690946
 20
109.6838825498
 30
0.0
 11
68.4004315273
 21
109.9338825498
 31
0.0
  0
SPLINE
  5
1F6
330
1F
100
AcDbEntity
  8
0
  6
Continuous
 62
     7
370
    25
100
AcDbSpline
210
0.0
220
0.0
230
1.0
 70
     8
 71
     3
 72
    13
 73
     9
 74
     0
 42
0.00000001
 43
0.00000001
 40
0.0
 40
0.0
 40
0.0
 40
0.0
 40
0.2011962736655495
 40
0.4023356608735669
 40
0.6079746864821042
 40
0.8135766038977144
 40
0.9887447305872252
 40
1.0
 40
1.0
 40
1.0
 40
1.0
 10
35.64728810556906
 20
111.9338825497744
 30
0.0
 10
35.79010096973009
 20
111.4802326536495
 30
0.0
 10
36.07568631898456
 20
110.5730611268744
 30
0.0
 10
36.382116751269
 20
109.1761928290253
 30
0.0
 10
36.56968954734821
 20
107.7526028625414
 30
0.0
 10
36.59598732857233
 20
106.3819870846263
 30
0.0
 10
36.552302384439
 20
105.4645189941291
 30
0.0
 10
36.48371639778776
 20
105.0330245815945
 30
0.0
 10
36.47957553471026
 20
105.006973206259
 30
0.0
  0
SPLINE
  5
1F7
330
1F
100
AcDbEntity
  8
0
  6
Continuous
 62
     7
370
    25
100
AcDbSpline
210
0.0
220
0.0
230
1.0
 70
     8
 71
     3
 72
    13
 73
     9
 74
     0
 42
0.00000001
 43
0.00000001
 40
0.0
 40
0.0
 40
0.0
 40
0.0
 40
0.1991009934765327
 40
0.3981456929173777
 40
0.6016431710280595
 40
0.8051039273946291
 40
0.9784478338890393
 40
1.0
 40
1.0
 40
1.0
 40
1.0
 10
22.81160758718174
 20
111.9338825497744
 30
0.0
 10
22.66879971288524
 20
111.4802331543478
 30
0.0
 10
22.38322434194901
 20
110.5730626288277
 30
0.0
 10
22.07671853061755
 20
109.1761867672143
 30
0.0
 10
21.88943833741963
 20
107.7526261613989
 30
0.0
 10
21.86209651061755
 20
106.3819056207557
 30
0.0
 10
21.90937770271308
 20
105.4400517870354
 30
0.0
 10
21.98266773586733
 20
104.9842827911733
 30
0.0
 10
21.99077235771887
 20
104.9338825497743
 30
0.0
  0
LINE
  5
1F8
330
1F
100
AcDbEntity
  8
0
  6
Continuous
 62
     7
370
    25
100
AcDbLine
 10
22.8116075872
 20
111.9338825498
 30
0.0
 11
35.6472881056
 21
111.9338825498
 31
0.0
  0
SPLINE
  5
1F9
330
1F
100
AcDbEntity
  8
0
  6
Continuous
 62
     7
370
    25
100
AcDbSpline
210
0.0
220
0.0
230
1.0
 70
     8
 71
     3
 72
    13
 73
     9
 74
     0
 42
0.00000001
 43
0.00000001
 40
0.0
 40
0.0
 40
0.0
 40
0.0
 40
0.0969524086029521
 40
0.3003769341856125
 40
0.4736899728815773
 40
0.6470300465335731
 40
0.8234979618969019
 40
1.0
 40
1.0
 40
1.0
 40
1.0
 10
22.00310657372747
 20
97.93388254977424
 30
0.0
 10
21.97090308250997
 20
97.70656881337169
 30
0.0
 10
21.87113056420568
 20
97.00230778238998
 30
0.0
 10
21.8588627960762
 20
95.88076215941807
 30
0.0
 10
21.9488329960136
 20
94.58361523656313
 30
0.0
 10
22.14453230565966
 20
93.35888463508078
 30
0.0
 10
22.42942828043856
 20
92.13983866893544
 30
0.0
 10
22.68420627486484
 20
91.33589382947186
 30
0.0
 10
22.81160758718174
 20
90.93388254977438
 30
0.0
  0
SPLINE
  5
1FA
330
1F
100
AcDbEntity
  8
0
  6
Continuous
 62
     7
370
    25
100
AcDbSpline
210
0.0
220
0.0
230
1.0
 70
    24
 71
     3
 72
    11
 73
     7
 74
     0
 42
0.00000001
 43
0.00000001
 40
0.0
 40
0.0
 40
0.0
 40
0.0
 40
0.3703627506856886
 40
0.7439969182589126
 40
0.994299944332202
 40
0.9999999999999999
 40
0.9999999999999999
 40
0.9999999999999999
 40
0.9999999999999999
 10
22.81160758718174
 20
90.93388254977438
 30
0.0
 10
22.61461713030677
 20
90.93388254977437
 30
0.0
 10
22.21889619840947
 20
90.93388254977435
 30
0.0
 10
21.94720059236456
 20
90.93388254977437
 30
0.0
 10
21.8540005813921
 20
90.9338825497743
 30
0.0
 10
21.87530589895681
 20
90.93388254977432
 30
0.0
 10
21.87578027409054
 20
90.93388254977432
 30
0.0
  0
SPLINE
  5
1FB
330
1F
100
AcDbEntity
  8
0
  6
Continuous
 62
     7
370
    25
100
AcDbSpline
210
0.0
220
0.0
230
1.0
 70
    24
 71
     3
 72
    10
 73
     6
 74
     0
 42
0.00000001
 43
0.00000001
 40
0.0
 40
0.0
 40
0.0
 40
0.0
 40
0.2561137113070723
 40
0.6261153265143087
 40
1.0
 40
1.0
 40
1.0
 40
1.0
 10
21.87456422600468
 20
111.9338825497743
 30
0.0
 10
21.88816147548108
 20
111.9338825497743
 30
0.0
 10
21.92140235997792
 20
111.9338825497743
 30
0.0
 10
22.22423409349556
 20
111.9338825497743
 30
0.0
 10
22.61513625778437
 20
111.9338825497744
 30
0.0
 10
22.81160758718173
 20
111.9338825497744
 30
0.0
  0
LINE
  5
1FC
330
1F
100
AcDbEntity
  8
0
  6
Continuous
 62
     7
370
    25
100
AcDbLine
 10
21.7294478464
 20
111.6838825498
 30
0.0
 11
21.7294478464
 21
104.9338825498
 31
0.0
  0
LINE
  5
1FD
330
1F
100
AcDbEntity
  8
0
  6
Continuous
 62
     7
370
    25
100
AcDbLine
 10
21.7294478464
 20
97.9338825498
 30
0.0
 11
21.7294478464
 21
91.1838825498
 31
0.0
  0
SPLINE
  5
1FE
330
1F
100
AcDbEntity
  8
0
  6
Continuous
 62
     7
370
    25
100
AcDbSpline
210
0.0
220
0.0
230
1.0
 70
    24
 71
     3
 72
    10
 73
     6
 74
     0
 42
0.00000001
 43
0.00000001
 40
0.0
 40
0.0
 40
0.0
 40
0.0
 40
0.2561137113070724
 40
0.6261153265143088
 40
1.0
 40
1.0
 40
1.0
 40
1.0
 10
36.58433146674611
 20
111.9338825497743
 30
0.0
 10
36.57073421726971
 20
111.9338825497743
 30
0.0
 10
36.53749333277288
 20
111.9338825497743
 30
0.0
 10
36.23466159925524
 20
111.9338825497743
 30
0.0
 10
35.84375943496643
 20
111.9338825497744
 30
0.0
 10
35.64728810556906
 20
111.9338825497744
 30
0.0
  0
SPLINE
  5
1FF
330
1F
100
AcDbEntity
  8
0
  6
Continuous
 62
     7
370
    25
100
AcDbSpline
210
0.0
220
0.0
230
1.0
 70
    24
 71
     3
 72
    11
 73
     7
 74
     0
 42
0.00000001
 43
0.00000001
 40
0.0
 40
0.0
 40
0.0
 40
0.0
 40
0.3703627506856885
 40
0.7439969182589127
 40
0.9942999443322021
 40
1.0
 40
1.0
 40
1.0
 40
1.0
 10
35.64728810556906
 20
90.93388254977438
 30
0.0
 10
35.84427856244402
 20
90.93388254977437
 30
0.0
 10
36.2399994943413
 20
90.93388254977435
 30
0.0
 10
36.51169510038635
 20
90.93388254977437
 30
0.0
 10
36.60489511135852
 20
90.9338825497743
 30
0.0
 10
36.58358979379399
 20
90.93388254977432
 30
0.0
 10
36.58311541866024
 20
90.93388254977432
 30
0.0
  0
SPLINE
  5
200
330
1F
100
AcDbEntity
  8
0
  6
Continuous
 62
     7
370
    25
100
AcDbSpline
210
0.0
220
0.0
230
1.0
 70
     8
 71
     3
 72
    13
 73
     9
 74
     0
 42
0.00000001
 43
0.00000001
 40
0.0
 40
0.0
 40
0.0
 40
0.0
 40
0.0870395380661691
 40
0.2926970810504792
 40
0.4679125994510538
 40
0.6431554495738782
 40
0.8215604761321845
 40
1.0
 40
1.0
 40
1.0
 40
1.0
 10
36.46553544626283
 20
97.85742934919176
 30
0.0
 10
36.49391978214965
 20
97.65555701428067
 30
0.0
 10
36.58937079724251
 20
96.9766995147338
 30
0.0
 10
36.59963831995861
 20
95.88073241381116
 30
0.0
 10
36.51016111666834
 20
94.58362265605969
 30
0.0
 10
36.31433661082293
 20
93.35888261652187
 30
0.0
 10
36.02947415770516
 20
92.13983917744443
 30
0.0
 10
35.77469166649517
 20
91.33589399898577
 30
0.0
 10
35.64728810556906
 20
90.93388254977438
 30
0.0
  0
LINE
  5
201
330
1F
100
AcDbEntity
  8
0
  6
Continuous
 62
     7
370
    25
100
AcDbLine
 10
36.7294478464
 20
111.6838825498
 30
0.0
 11
36.7294478464
 21
104.976743956
 31
0.0
  0
LINE
  5
202
330
1F
100
AcDbEntity
  8
0
  6
Continuous
 62
     7
370
    25
100
AcDbLine
 10
36.7294478464
 20
97.8910211436
 30
0.0
 11
36.7294478464
 21
91.1838825498
 31
0.0
  0
LINE
  5
203
330
1F
100
AcDbEntity
  8
0
  6
Continuous
 62
     7
370
    25
100
AcDbLine
 10
22.8116075872
 20
90.9338825498
 30
0.0
 11
35.6472881056
 21
90.9338825498
 31
0.0
  0
SPLINE
  5
204
330
1F
100
AcDbEntity
  8
0
  6
Continuous
 62
     7
370
    25
100
AcDbSpline
210
0.0
220
0.0
230
1.0
 70
     8
 71
     3
 72
    15
 73
    11
 74
     0
 42
0.00000001
 43
0.00000001
 40
0.0
 40
0.0
 40
0.0
 40
0.0
 40
0.0090459071881971
 40
0.1032433785236817
 40
0.1542564497735191
 40
0.3133169026715104
 40
0.5243720399414403
 40
0.667806000850918
 40
0.9918332554187028
 40
1.0
 40
1.0
 40
1.0
 40
1.0
 10
51.30568376198553
 20
103.1077955932526
 30
0.0
 10
51.3056894539522
 20
103.1077779475281
 30
0.0
 10
51.30575441790299
 20
103.1075765521156
 30
0.0
 10
51.30775010433887
 20
103.1013869314494
 30
0.0
 10
51.31556710055533
 20
103.0771849996052
 30
0.0
 10
51.33273692431029
 20
103.0241660076036
 30
0.0
 10
51.35932082087784
 20
102.942795120407
 30
0.0
 10
51.39715011936647
 20
102.8282160483845
 30
0.0
 10
51.42543089937669
 20
102.7437908706654
 30
0.0
 10
51.44526204690798
 20
102.6853200127133
 30
0.0
 10
51.44574958105085
 20
102.6838825497743
 30
0.0
  0
ARC
  5
205
330
1F
100
AcDbEntity
  8
0
  6
Continuous
 62
     7
370
    25
100
AcDbCircle
 10
56.5447690946
 20
101.4338825498
 30
0.0
 40
5.500000000000004
100
AcDbArc
 50
17.7189318734
 51
162.2810681266
  0
SPLINE
  5
206
330
1F
100
AcDbEntity
  8
0
  6
Continuous
 62
     7
370
    25
100
AcDbSpline
210
0.0
220
0.0
230
1.0
 70
     8
 71
     3
 72
    15
 73
    11
 74
     0
 42
0.00000001
 43
0.00000001
 40
0.0
 40
0.0
 40
0.0
 40
0.0
 40
0.0081667445812973
 40
0.3321939991490804
 40
0.475627960058556
 40
0.6866830973284891
 40
0.8457435502264751
 40
0.8967566214763124
 40
0.9909540928118028
 40
1.0
 40
1.0
 40
1.0
 40
1.0
 10
61.64378860823643
 20
102.6838825497743
 30
0.0
 10
61.64427614237929
 20
102.6853200127133
 30
0.0
 10
61.66410728991055
 20
102.7437908706654
 30
0.0
 10
61.69238806992081
 20
102.8282160483845
 30
0.0
 10
61.73021736840944
 20
102.942795120407
 30
0.0
 10
61.75680126497698
 20
103.0241660076036
 30
0.0
 10
61.77397108873194
 20
103.0771849996052
 30
0.0
 10
61.7817880849484
 20
103.1013869314494
 30
0.0
 10
61.78378377138429
 20
103.1075765521156
 30
0.0
 10
61.78384873533508
 20
103.1077779475281
 30
0.0
 10
61.78385442730175
 20
103.1077955932526
 30
0.0
  0
ARC
  5
207
330
1F
100
AcDbEntity
  8
0
  6
Continuous
 62
     7
370
    25
100
AcDbCircle
 10
56.5447690946
 20
101.4338825498
 30
0.0
 40
5.250000000000009
100
AcDbArc
 50
13.774146998
 51
166.225853002
  0
SPLINE
  5
208
330
1F
100
AcDbEntity
  8
0
  6
Continuous
 62
     7
370
    25
100
AcDbSpline
210
0.0
220
0.0
230
1.0
 70
     8
 71
     3
 72
    15
 73
    11
 74
     0
 42
0.00000001
 43
0.00000001
 40
0.0
 40
0.0
 40
0.0
 40
0.0
 40
0.0080847466189582
 40
0.3310106400648243
 40
0.4750333064304948
 40
0.6874363079215142
 40
0.8468367539418303
 40
0.9000996640391847
 40
0.9910442771984082
 40
1.0
 40
1.0
 40
1.0
 40
1.0
 10
51.44574958105085
 20
102.6838825497743
 30
0.0
 10
51.44446974950673
 20
102.6846984857626
 30
0.0
 10
51.3920701037835
 20
102.7181050359571
 30
0.0
 10
51.31671501232839
 20
102.7669186006909
 30
0.0
 10
51.21479590031073
 20
102.8342890729593
 30
0.0
 10
51.1424049553188
 20
102.8828731133027
 30
0.0
 10
51.09469952705398
 20
102.9153219747613
 30
0.0
 10
51.07316404334667
 20
102.9300330158275
 30
0.0
 10
51.06773502732715
 20
102.9337514667457
 30
0.0
 10
51.06755927517058
 20
102.9338717654112
 30
0.0
 10
51.06754351959197
 20
102.9338825497743
 30
0.0
  0
ARC
  5
209
330
1F
100
AcDbEntity
  8
0
  6
Continuous
 62
     7
370
    25
100
AcDbCircle
 10
51.0675435196
 20
103.1838825498
 30
0.0
 40
0.2500000000000034
100
AcDbArc
 50
270.0
 51
342.2810681266
  0
SPLINE
  5
20A
330
1F
100
AcDbEntity
  8
0
  6
Continuous
 62
     7
370
    25
100
AcDbSpline
210
0.0
220
0.0
230
1.0
 70
     8
 71
     3
 72
    15
 73
    11
 74
     0
 42
0.00000001
 43
0.00000001
 40
0.0
 40
0.0
 40
0.0
 40
0.0
 40
0.0089557228015919
 40
0.0999003359608209
 40
0.1531632460581751
 40
0.3125636920784904
 40
0.5249666935695061
 40
0.6689893599351777
 40
0.991915253381045
 40
1.0
 40
1.0
 40
1.0
 40
1.0
 10
62.0219946696953
 20
102.9338825497743
 30
0.0
 10
62.02197891411669
 20
102.9338717654112
 30
0.0
 10
62.02180316196013
 20
102.9337514667457
 30
0.0
 10
62.01637414594061
 20
102.9300330158275
 30
0.0
 10
61.99483866223329
 20
102.9153219747613
 30
0.0
 10
61.94713323396847
 20
102.8828731133027
 30
0.0
 10
61.87474228897655
 20
102.8342890729593
 30
0.0
 10
61.77282317695888
 20
102.766918600691
 30
0.0
 10
61.69746808550384
 20
102.7181050359571
 30
0.0
 10
61.64506843978055
 20
102.6846984857626
 30
0.0
 10
61.64378860823643
 20
102.6838825497743
 30
0.0
  0
ARC
  5
20B
330
1F
100
AcDbEntity
  8
0
  6
Continuous
 62
     7
370
    25
100
AcDbCircle
 10
62.0219946697
 20
103.1838825498
 30
0.0
 40
0.25
100
AcDbArc
 50
197.7189318734
 51
270.0
  0
SPLINE
  5
20C
330
1F
100
AcDbEntity
  8
0
  6
Continuous
 62
     7
370
    25
100
AcDbSpline
210
0.0
220
0.0
230
1.0
 70
     8
 71
     3
 72
    15
 73
    11
 74
     0
 42
0.00000001
 43
0.00000001
 40
0.0
 40
0.0
 40
0.0
 40
0.0
 40
0.0081667445812695
 40
0.3321939991490083
 40
0.4756279600585602
 40
0.6866830973284899
 40
0.8457435502264811
 40
0.8967566214763185
 40
0.9909540928118029
 40
1.0
 40
1.0
 40
1.0
 40
1.0
 10
51.44574958105085
 20
100.1838825497743
 30
0.0
 10
51.44526204690797
 20
100.1824450868353
 30
0.0
 10
51.42543089937589
 20
100.1239742288836
 30
0.0
 10
51.39715011936663
 20
100.0395490511641
 30
0.0
 10
51.3593208208778
 20
99.92496997914168
 30
0.0
 10
51.3327369243103
 20
99.84359909194507
 30
0.0
 10
51.31556710055533
 20
99.7905800999434
 30
0.0
 10
51.30775010433887
 20
99.76637816809927
 30
0.0
 10
51.30575441790299
 20
99.76018854743307
 30
0.0
 10
51.3056894539522
 20
99.75998715202053
 30
0.0
 10
51.30568376198553
 20
99.75996950629606
 30
0.0
  0
ARC
  5
20D
330
1F
100
AcDbEntity
  8
0
  6
Continuous
 62
     7
370
    25
100
AcDbCircle
 10
56.5447690946
 20
101.4338825498
 30
0.0
 40
5.250000000000009
100
AcDbArc
 50
193.774146998
 51
346.225853002
  0
SPLINE
  5
20E
330
1F
100
AcDbEntity
  8
0
  6
Continuous
 62
     7
370
    25
100
AcDbSpline
210
0.0
220
0.0
230
1.0
 70
     8
 71
     3
 72
    15
 73
    11
 74
     0
 42
0.00000001
 43
0.00000001
 40
0.0
 40
0.0
 40
0.0
 40
0.0
 40
0.0090459071881971
 40
0.1032433785236874
 40
0.1542564497735246
 40
0.313316902671511
 40
0.5243720399414428
 40
0.6678060008509903
 40
0.9918332554187292
 40
1.0
 40
1.0
 40
1.0
 40
1.0
 10
61.78385442730175
 20
99.75996950629606
 30
0.0
 10
61.78384873533508
 20
99.75998715202053
 30
0.0
 10
61.78378377138429
 20
99.76018854743307
 30
0.0
 10
61.7817880849484
 20
99.76637816809927
 30
0.0
 10
61.77397108873195
 20
99.7905800999434
 30
0.0
 10
61.75680126497697
 20
99.84359909194508
 30
0.0
 10
61.73021736840948
 20
99.92496997914168
 30
0.0
 10
61.69238806992065
 20
100.0395490511641
 30
0.0
 10
61.6641072899114
 20
100.1239742288836
 30
0.0
 10
61.64427614237931
 20
100.1824450868353
 30
0.0
 10
61.64378860823643
 20
100.1838825497743
 30
0.0
  0
ARC
  5
20F
330
1F
100
AcDbEntity
  8
0
  6
Continuous
 62
     7
370
    25
100
AcDbCircle
 10
56.5447690946
 20
101.4338825498
 30
0.0
 40
5.500000000000004
100
AcDbArc
 50
197.7189318734
 51
342.2810681266
  0
ARC
  5
210
330
1F
100
AcDbEntity
  8
0
  6
Continuous
 62
     7
370
    25
100
AcDbCircle
 10
62.0219946697
 20
99.6838825498
 30
0.0
 40
0.25
100
AcDbArc
 50
90.0
 51
162.2810681266
  0
SPLINE
  5
211
330
1F
100
AcDbEntity
  8
0
  6
Continuous
 62
     7
370
    25
100
AcDbSpline
210
0.0
220
0.0
230
1.0
 70
     8
 71
     3
 72
    15
 73
    11
 74
     0
 42
0.00000001
 43
0.00000001
 40
0.0
 40
0.0
 40
0.0
 40
0.0
 40
0.0080847466189818
 40
0.3310106400647567
 40
0.4750333064304972
 40
0.6874363079215137
 40
0.8468367539418253
 40
0.9000996640391794
 40
0.9910442771984082
 40
1.0
 40
1.0
 40
1.0
 40
1.0
 10
61.64378860823643
 20
100.1838825497743
 30
0.0
 10
61.64506843978057
 20
100.1830666137861
 30
0.0
 10
61.69746808550435
 20
100.1496600635924
 30
0.0
 10
61.77282317695877
 20
100.1008464988575
 30
0.0
 10
61.87474228897658
 20
100.0334760265894
 30
0.0
 10
61.94713323396847
 20
99.98489198624591
 30
0.0
 10
61.99483866223329
 20
99.95244312478738
 30
0.0
 10
62.0163741459406
 20
99.9377320837211
 30
0.0
 10
62.02180316196014
 20
99.93401363280297
 30
0.0
 10
62.02197891411669
 20
99.93389333413748
 30
0.0
 10
62.0219946696953
 20
99.93388254977432
 30
0.0
  0
ARC
  5
212
330
1F
100
AcDbEntity
  8
0
  6
Continuous
 62
     7
370
    25
100
AcDbCircle
 10
51.0675435196
 20
99.6838825498
 30
0.0
 40
0.2500000000000034
100
AcDbArc
 50
17.7189318734
 51
90.0
  0
SPLINE
  5
213
330
1F
100
AcDbEntity
  8
0
  6
Continuous
 62
     7
370
    25
100
AcDbSpline
210
0.0
220
0.0
230
1.0
 70
     8
 71
     3
 72
    15
 73
    11
 74
     0
 42
0.00000001
 43
0.00000001
 40
0.0
 40
0.0
 40
0.0
 40
0.0
 40
0.0089557228015919
 40
0.0999003359608148
 40
0.153163246058169
 40
0.3125636920784848
 40
0.5249666935694999
 40
0.6689893599352451
 40
0.9919152533810159
 40
1.0
 40
1.0
 40
1.0
 40
1.0
 10
51.06754351959197
 20
99.93388254977432
 30
0.0
 10
51.06755927517058
 20
99.93389333413748
 30
0.0
 10
51.06773502732715
 20
99.93401363280297
 30
0.0
 10
51.07316404334667
 20
99.9377320837211
 30
0.0
 10
51.09469952705398
 20
99.95244312478738
 30
0.0
 10
51.1424049553188
 20
99.98489198624591
 30
0.0
 10
51.21479590031071
 20
100.0334760265894
 30
0.0
 10
51.31671501232849
 20
100.1008464988575
 30
0.0
 10
51.39207010378296
 20
100.1496600635923
 30
0.0
 10
51.44446974950672
 20
100.1830666137861
 30
0.0
 10
51.44574958105085
 20
100.1838825497743
 30
0.0
  0
LINE
  5
214
330
1F
100
AcDbEntity
  8
0
  6
Continuous
 62
     7
370
    25
100
AcDbLine
 10
51.5447690946
 20
100.8338825498
 30
0.0
 11
61.5447690946
 21
100.8338825498
 31
0.0
  0
LINE
  5
215
330
1F
100
AcDbEntity
  8
0
  6
Continuous
 62
     7
370
    25
100
AcDbLine
 10
61.5447690946
 20
102.0338825498
 30
0.0
 11
51.5447690946
 21
102.0338825498
 31
0.0
  0
LINE
  5
216
330
1F
100
AcDbEntity
  8
0
  6
Continuous
 62
     7
370
    25
100
AcDbLine
 10
61.5447690946
 20
100.8338825498
 30
0.0
 11
61.5447690946
 21
102.0338825498
 31
0.0
  0
LINE
  5
217
330
1F
100
AcDbEntity
  8
0
  6
Continuous
 62
     7
370
    25
100
AcDbLine
 10
51.5447690946
 20
102.0338825498
 30
0.0
 11
51.5447690946
 21
100.8338825498
 31
0.0
  0
LINE
  5
218
330
1F
100
AcDbEntity
  8
0
  6
Continuous
 62
     7
370
    25
100
AcDbLine
 10
50.7947690946
 20
100.1838825498
 30
0.0
 11
51.4457495811
 21
100.1838825498
 31
0.0
  0
LINE
  5
219
330
1F
100
AcDbEntity
  8
0
  6
Continuous
 62
     7
370
    25
100
AcDbLine
 10
50.7947690946
 20
102.6838825498
 30
0.0
 11
50.7947690946
 21
100.1838825498
 31
0.0
  0
LINE
  5
21A
330
1F
100
AcDbEntity
  8
0
  6
Continuous
 62
     7
370
    25
100
AcDbLine
 10
51.4457495811
 20
102.6838825498
 30
0.0
 11
50.7947690946
 21
102.6838825498
 31
0.0
  0
LINE
  5
21B
330
1F
100
AcDbEntity
  8
0
  6
Continuous
 62
     7
370
    25
100
AcDbLine
 10
62.2947690946
 20
102.6838825498
 30
0.0
 11
61.6437886082
 21
102.6838825498
 31
0.0
  0
LINE
  5
21C
330
1F
100
AcDbEntity
  8
0
  6
Continuous
 62
     7
370
    25
100
AcDbLine
 10
62.2947690946
 20
100.1838825498
 30
0.0
 11
62.2947690946
 21
102.6838825498
 31
0.0
  0
LINE
  5
21D
330
1F
100
AcDbEntity
  8
0
  6
Continuous
 62
     7
370
    25
100
AcDbLine
 10
61.6437886082
 20
100.1838825498
 30
0.0
 11
62.2947690946
 21
100.1838825498
 31
0.0
  0
ARC
  5
21E
330
1F
100
AcDbEntity
  8
0
  6
Continuous
 62
     7
370
    25
100
AcDbCircle
 10
50.7947690946
 20
102.6838825498
 30
0.0
 40
0.25
100
AcDbArc
 50
90.0
 51
180.0
  0
LINE
  5
21F
330
1F
100
AcDbEntity
  8
0
  6
Continuous
 62
     7
370
    25
100
AcDbLine
 10
50.7947690946
 20
102.9338825498
 30
0.0
 11
50.7947690946
 21
102.6838825498
 31
0.0
  0
LINE
  5
220
330
1F
100
AcDbEntity
  8
0
  6
Continuous
 62
     7
370
    25
100
AcDbLine
 10
50.7947690946
 20
102.6838825498
 30
0.0
 11
50.5447690946
 21
102.6838825498
 31
0.0
  0
LINE
  5
221
330
1F
100
AcDbEntity
  8
0
  6
Continuous
 62
     7
370
    25
100
AcDbLine
 10
50.7947690946
 20
102.9338825498
 30
0.0
 11
51.0675435196
 21
102.9338825498
 31
0.0
  0
LINE
  5
222
330
1F
100
AcDbEntity
  8
0
  6
Continuous
 62
     7
370
    25
100
AcDbLine
 10
62.0219946697
 20
102.9338825498
 30
0.0
 11
62.2947690946
 21
102.9338825498
 31
0.0
  0
LINE
  5
223
330
1F
100
AcDbEntity
  8
0
  6
Continuous
 62
     7
370
    25
100
AcDbLine
 10
62.2947690946
 20
102.6838825498
 30
0.0
 11
62.2947690946
 21
102.9338825498
 31
0.0
  0
LINE
  5
224
330
1F
100
AcDbEntity
  8
0
  6
Continuous
 62
     7
370
    25
100
AcDbLine
 10
62.5447690946
 20
102.6838825498
 30
0.0
 11
62.2947690946
 21
102.6838825498
 31
0.0
  0
ARC
  5
225
330
1F
100
AcDbEntity
  8
0
  6
Continuous
 62
     7
370
    25
100
AcDbCircle
 10
62.2947690946
 20
102.6838825498
 30
0.0
 40
0.25
100
AcDbArc
 50
0.0
 51
90.0
  0
LINE
  5
226
330
1F
100
AcDbEntity
  8
0
  6
Continuous
 62
     7
370
    25
100
AcDbLine
 10
62.5447690946
 20
102.6838825498
 30
0.0
 11
62.5447690946
 21
100.1838825498
 31
0.0
  0
LINE
  5
227
330
1F
100
AcDbEntity
  8
0
  6
Continuous
 62
     7
370
    25
100
AcDbLine
 10
62.2947690946
 20
100.1838825498
 30
0.0
 11
62.5447690946
 21
100.1838825498
 31
0.0
  0
LINE
  5
228
330
1F
100
AcDbEntity
  8
0
  6
Continuous
 62
     7
370
    25
100
AcDbLine
 10
50.5447690946
 20
100.1838825498
 30
0.0
 11
50.7947690946
 21
100.1838825498
 31
0.0
  0
LINE
  5
229
330
1F
100
AcDbEntity
  8
0
  6
Continuous
 62
     7
370
    25
100
AcDbLine
 10
50.5447690946
 20
100.1838825498
 30
0.0
 11
50.5447690946
 21
102.6838825498
 31
0.0
  0
LINE
  5
22A
330
1F
100
AcDbEntity
  8
0
  6
Continuous
 62
     7
370
    25
100
AcDbLine
 10
62.2947690946
 20
99.9338825498
 30
0.0
 11
62.2947690946
 21
100.1838825498
 31
0.0
  0
LINE
  5
22B
330
1F
100
AcDbEntity
  8
0
  6
Continuous
 62
     7
370
    25
100
AcDbLine
 10
62.2947690946
 20
99.9338825498
 30
0.0
 11
62.0219946697
 21
99.9338825498
 31
0.0
  0
ARC
  5
22C
330
1F
100
AcDbEntity
  8
0
  6
Continuous
 62
     7
370
    25
100
AcDbCircle
 10
50.7947690946
 20
100.1838825498
 30
0.0
 40
0.25
100
AcDbArc
 50
180.0
 51
270.0
  0
LINE
  5
22D
330
1F
100
AcDbEntity
  8
0
  6
Continuous
 62
     7
370
    25
100
AcDbLine
 10
50.7947690946
 20
100.1838825498
 30
0.0
 11
50.7947690946
 21
99.9338825498
 31
0.0
  0
LINE
  5
22E
330
1F
100
AcDbEntity
  8
0
  6
Continuous
 62
     7
370
    25
100
AcDbLine
 10
51.0675435196
 20
99.9338825498
 30
0.0
 11
50.7947690946
 21
99.9338825498
 31
0.0
  0
ARC
  5
22F
330
1F
100
AcDbEntity
  8
0
  6
Continuous
 62
     7
370
    25
100
AcDbCircle
 10
62.2947690946
 20
100.1838825498
 30
0.0
 40
0.25
100
AcDbArc
 50
270.0
 51
0.0
  0
LINE
  5
230
330
1F
100
AcDbEntity
  8
0
  6
Continuous
 62
     7
370
    25
100
AcDbLine
 10
36.5447690946
 20
104.7055818138
 30
0.0
 11
34.3693322331
 21
104.9338825498
 31
0.0
  0
LINE
  5
231
330
1F
100
AcDbEntity
  8
0
  6
Continuous
 62
     7
370
    25
100
AcDbLine
 10
36.5447690946
 20
98.1621832857
 30
0.0
 11
36.5447690946
 21
104.7055818138
 31
0.0
  0
LINE
  5
232
330
1F
100
AcDbEntity
  8
0
  6
Continuous
 62
     7
370
    25
100
AcDbLine
 10
34.3693322331
 20
97.9338825498
 30
0.0
 11
36.5447690946
 21
98.1621832857
 31
0.0
  0
LINE
  5
233
330
1F
100
AcDbEntity
  8
0
  6
Continuous
 62
     7
370
    25
100
AcDbLine
 10
16.5447690946
 20
97.9338825498
 30
0.0
 11
34.3693322331
 21
97.9338825498
 31
0.0
  0
LINE
  5
234
330
1F
100
AcDbEntity
  8
0
  6
Continuous
 62
     7
370
    25
100
AcDbLine
 10
16.5447690946
 20
104.9338825498
 30
0.0
 11
16.5447690946
 21
97.9338825498
 31
0.0
  0
LINE
  5
235
330
1F
100
AcDbEntity
  8
0
  6
Continuous
 62
     7
370
    25
100
AcDbLine
 10
34.3693322331
 20
104.9338825498
 30
0.0
 11
16.5447690946
 21
104.9338825498
 31
0.0
  0
LINE
  5
236
330
1F
100
AcDbEntity
  8
0
  6
Continuous
 62
     7
370
    25
100
AcDbLine
 10
51.3209669203
 20
103.1548970306
 30
0.0
 11
51.224402603
 21
102.9954977103
 31
0.0
  0
LINE
  5
237
330
1F
100
AcDbEntity
  8
0
  6
Continuous
 62
     7
370
    25
100
AcDbLine
 10
51.2021252224
 20
99.8886648824
 30
0.0
 11
51.3209669203
 21
99.712868069
 31
0.0
  0
LINE
  5
238
330
1F
100
AcDbEntity
  8
0
  6
Continuous
 62
     7
370
    25
100
AcDbLine
 10
43.128199441
 20
104.0146851853
 30
0.0
 11
43.128199441
 21
98.8530799142
 31
0.0
  0
LINE
  5
239
330
1F
100
AcDbEntity
  8
0
  6
Continuous
 62
     7
370
    25
100
AcDbLine
 10
51.3209669203
 20
99.7128680689
 30
0.0
 11
43.128199441
 21
98.8530799142
 31
0.0
  0
LINE
  5
23A
330
1F
100
AcDbEntity
  8
0
  6
Continuous
 62
     7
370
    25
100
AcDbLine
 10
43.128199441
 20
104.0146851853
 30
0.0
 11
51.3209669203
 21
103.1548970306
 31
0.0
  0
LINE
  5
23B
330
1F
100
AcDbEntity
  8
0
  6
Continuous
 62
     7
370
    25
100
AcDbLine
 10
43.128199441
 20
98.8530799142
 30
0.0
 11
36.5447690946
 21
98.1621832857
 31
0.0
  0
LINE
  5
23C
330
1F
100
AcDbEntity
  8
0
  6
Continuous
 62
     7
370
    25
100
AcDbLine
 10
36.5447690946
 20
104.7055818138
 30
0.0
 11
43.128199441
 21
104.0146851853
 31
0.0
  0
ARC
  5
23D
330
1F
100
AcDbEntity
  8
0
  6
Continuous
 62
     7
370
    25
100
AcDbCircle
 10
56.5447690946
 20
101.4338825498
 30
0.0
 40
7.450000000000649
100
AcDbArc
 50
233.0863788866
 51
126.9136211134
  0
ARC
  5
23E
330
1F
100
AcDbEntity
  8
0
  6
Continuous
 62
     7
370
    25
100
AcDbCircle
 10
56.5447690946
 20
101.4338825498
 30
0.0
 40
7.207531252870791
100
AcDbArc
 50
195.3041237151
 51
238.9797515565
  0
ARC
  5
23F
330
1F
100
AcDbEntity
  8
0
  6
Continuous
 62
     7
370
    25
100
AcDbCircle
 10
56.5447690946
 20
101.4338825498
 30
0.0
 40
7.20753125287243
100
AcDbArc
 50
121.0202484435
 51
164.6958762849
  0
ARC
  5
240
330
1F
100
AcDbEntity
  8
0
  6
Continuous
 62
     7
370
    25
100
AcDbCircle
 10
34.3693322331
 20
169.9338825498
 30
0.0
 40
65.00000000000001
100
AcDbArc
 50
270.0
 51
286.5000949923
  0
ARC
  5
241
330
1F
100
AcDbEntity
  8
0
  6
Continuous
 62
     7
370
    25
100
AcDbCircle
 10
34.3693322331
 20
32.9338825498
 30
0.0
 40
64.99999999999999
100
AcDbArc
 50
73.4999050077
 51
90.0
  0
LINE
  5
242
330
1F
100
AcDbEntity
  8
0
  6
Continuous
 62
     7
370
    25
100
AcDbLine
 10
42.0447690946
 20
92.9338825498
 30
0.0
 11
42.0447690946
 21
97.479119934
 31
0.0
  0
LINE
  5
243
330
1F
100
AcDbEntity
  8
0
  6
Continuous
 62
     7
370
    25
100
AcDbLine
 10
42.0447690946
 20
105.3886451656
 30
0.0
 11
42.0447690946
 21
109.9338825498
 31
0.0
  0
LINE
  5
244
330
1F
100
AcDbEntity
  8
0
  6
Continuous
 62
     7
370
    25
100
AcDbLine
 10
45.0447690946
 20
92.9338825498
 30
0.0
 11
45.0447690946
 21
97.0512362679
 31
0.0
  0
LINE
  5
245
330
1F
100
AcDbEntity
  8
0
  6
Continuous
 62
     7
370
    25
100
AcDbLine
 10
45.0447690946
 20
105.8165288316
 30
0.0
 11
45.0447690946
 21
109.9338825498
 31
0.0
  0
SPLINE
  5
246
330
1F
100
AcDbEntity
  8
0
  6
Continuous
 62
     7
370
    25
100
AcDbSpline
210
0.0
220
0.0
230
1.0
 70
    24
 71
     3
 72
    10
 73
     6
 74
     0
 42
0.00000001
 43
0.00000001
 40
0.0
 40
0.0
 40
0.0
 40
0.0
 40
0.3696207583331816
 40
0.7422870911061924
 40
1.0
 40
1.0
 40
1.0
 40
1.0
 10
67.72271012208604
 20
92.93388254977432
 30
0.0
 10
67.86391287830021
 20
92.93388254977432
 30
0.0
 10
68.14748186300508
 20
92.93388254977432
 30
0.0
 10
68.36662030870481
 20
92.93388254977432
 30
0.0
 10
68.38901127578627
 20
92.93388254977432
 30
0.0
 10
68.39816519596336
 20
92.93388254977432
 30
0.0
  0
SPLINE
  5
247
330
1F
100
AcDbEntity
  8
0
  6
Continuous
 62
     7
370
    25
100
AcDbSpline
210
0.0
220
0.0
230
1.0
 70
     8
 71
     3
 72
    10
 73
     6
 74
     0
 42
0.00000001
 43
0.00000001
 40
0.0
 40
0.0
 40
0.0
 40
0.0
 40
0.5
 40
0.5
 40
1.0
 40
1.0
 40
1.0
 40
1.0
 10
67.72271012208604
 20
93.18388254977432
 30
0.0
 10
67.69903472766164
 20
93.109502172397
 30
0.0
 10
67.68594361777701
 20
93.04520153361122
 30
0.0
 10
67.68585729648873
 20
92.95698584882828
 30
0.0
 10
67.69902623043257
 20
92.93388254977432
 30
0.0
 10
67.72271012208604
 20
92.93388254977432
 30
0.0
  0
SPLINE
  5
248
330
1F
100
AcDbEntity
  8
0
  6
Continuous
 62
     7
370
    25
100
AcDbSpline
210
0.0
220
0.0
230
1.0
 70
     8
 71
     3
 72
    16
 73
    12
 74
     0
 42
0.00000001
 43
0.00000001
 40
0.0
 40
0.0
 40
0.0
 40
0.0
 40
0.2500000000000001
 40
0.2500000000000001
 40
0.5000000000000001
 40
0.5000000000000001
 40
0.6250000000000001
 40
0.6250000000000001
 40
0.7500000000000002
 40
0.7500000000000002
 40
1.0
 40
1.0
 40
1.0
 40
1.0
 10
67.72271012208604
 20
101.1838825497743
 30
0.0
 10
67.9307255701918
 20
100.5303657697335
 30
0.0
 10
68.10093187516478
 20
99.87214536064354
 30
0.0
 10
68.33586790673237
 20
98.54258277727774
 30
0.0
 10
68.39994003839601
 20
97.87115879520721
 30
0.0
 10
68.40067298731702
 20
96.8521577082005
 30
0.0
 10
68.38501350723399
 20
96.51081692588431
 30
0.0
 10
68.32373838059708
 20
95.83521842291384
 30
0.0
 10
68.27818210809794
 20
95.49955927294923
 30
0.0
 10
68.10169607534168
 20
94.49829363644953
 30
0.0
 10
67.93103962185599
 20
93.83838597784637
 30
0.0
 10
67.72271012208604
 20
93.18388254977432
 30
0.0
  0
SPLINE
  5
249
330
1F
100
AcDbEntity
  8
0
  6
Continuous
 62
     7
370
    25
100
AcDbSpline
210
0.0
220
0.0
230
1.0
 70
     8
 71
     3
 72
    10
 73
     6
 74
     0
 42
0.00000001
 43
0.00000001
 40
0.0
 40
0.0
 40
0.0
 40
0.0
 40
0.5
 40
0.5
 40
1.0
 40
1.0
 40
1.0
 40
1.0
 10
67.72271012208604
 20
101.6838825497743
 30
0.0
 10
67.69903472766164
 20
101.609502172397
 30
0.0
 10
67.68594361777701
 20
101.5224090842814
 30
0.0
 10
67.68585729648873
 20
101.3462506954054
 30
0.0
 10
67.69902623043257
 20
101.2582896226776
 30
0.0
 10
67.72271012208604
 20
101.1838825497743
 30
0.0
  0
SPLINE
  5
24A
330
1F
100
AcDbEntity
  8
0
  6
Continuous
 62
     7
370
    25
100
AcDbSpline
210
0.0
220
0.0
230
1.0
 70
     8
 71
     3
 72
    16
 73
    12
 74
     0
 42
0.00000001
 43
0.00000001
 40
0.0
 40
0.0
 40
0.0
 40
0.0
 40
0.2499999999999997
 40
0.2499999999999997
 40
0.4999999999999993
 40
0.4999999999999993
 40
0.6249999999999993
 40
0.6249999999999993
 40
0.7499999999999996
 40
0.7499999999999996
 40
1.0
 40
1.0
 40
1.0
 40
1.0
 10
67.72271012208604
 20
109.6838825497743
 30
0.0
 10
67.9307255701918
 20
109.0303657697335
 30
0.0
 10
68.10093187516478
 20
108.3721453606435
 30
0.0
 10
68.33586790673237
 20
107.0425827772778
 30
0.0
 10
68.39994003839601
 20
106.3711587952072
 30
0.0
 10
68.40067298731702
 20
105.3521577082005
 30
0.0
 10
68.38501350723399
 20
105.0108169258843
 30
0.0
 10
68.32373838059708
 20
104.3352184229139
 30
0.0
 10
68.27818210809794
 20
103.9995592729492
 30
0.0
 10
68.10169607534166
 20
102.9982936364495
 30
0.0
 10
67.93103962185599
 20
102.3383859778464
 30
0.0
 10
67.72271012208604
 20
101.6838825497743
 30
0.0
  0
SPLINE
  5
24B
330
1F
100
AcDbEntity
  8
0
  6
Continuous
 62
     7
370
    25
100
AcDbSpline
210
0.0
220
0.0
230
1.0
 70
     8
 71
     3
 72
    10
 73
     6
 74
     0
 42
0.00000001
 43
0.00000001
 40
0.0
 40
0.0
 40
0.0
 40
0.0
 40
0.5
 40
0.5
 40
1.0
 40
1.0
 40
1.0
 40
1.0
 10
67.72271012208604
 20
109.9338825497743
 30
0.0
 10
67.69903472766164
 20
109.9338825497743
 30
0.0
 10
67.68594361777701
 20
109.9110901004445
 30
0.0
 10
67.68585729648873
 20
109.8231473963515
 30
0.0
 10
67.69902623043257
 20
109.7582896226776
 30
0.0
 10
67.72271012208604
 20
109.6838825497743
 30
0.0
  0
SPLINE
  5
24C
330
1F
100
AcDbEntity
  8
0
  6
Continuous
 62
     7
370
    25
100
AcDbSpline
210
0.0
220
0.0
230
1.0
 70
    24
 71
     3
 72
    10
 73
     6
 74
     0
 42
0.00000001
 43
0.00000001
 40
0.0
 40
0.0
 40
0.0
 40
0.0
 40
0.2577091362635829
 40
0.6270768220645372
 40
1.0
 40
1.0
 40
1.0
 40
1.0
 10
68.39682345482495
 20
109.9338825497743
 30
0.0
 10
68.38821995891833
 20
109.9338825497743
 30
0.0
 10
68.36728529998464
 20
109.9338825497743
 30
0.0
 10
68.14831618094126
 20
109.9338825497743
 30
0.0
 10
67.86503110988399
 20
109.9338825497743
 30
0.0
 10
67.72271012208604
 20
109.9338825497743
 30
0.0
  0
LINE
  5
24D
330
1F
100
AcDbEntity
  8
0
  6
Continuous
 62
     7
370
    25
100
AcDbLine
 10
68.5447690946
 20
109.6838825498
 30
0.0
 11
68.5447690946
 21
93.1838825498
 31
0.0
  0
SPLINE
  5
24E
330
1F
100
AcDbEntity
  8
0
  6
Continuous
 62
     7
370
    25
100
AcDbSpline
210
0.0
220
0.0
230
1.0
 70
     8
 71
     3
 72
    10
 73
     6
 74
     0
 42
0.00000001
 43
0.00000001
 40
0.0
 40
0.0
 40
0.0
 40
0.0
 40
0.0470484943815209
 40
0.5195930427919918
 40
1.0
 40
1.0
 40
1.0
 40
1.0
 10
62.54637031228304
 20
105.8009360015351
 30
0.0
 10
62.54702651619466
 20
105.8626560818958
 30
0.0
 10
62.55427348534035
 20
106.5442788368334
 30
0.0
 10
62.70068430690369
 20
107.8570504373653
 30
0.0
 10
63.04760101347545
 20
109.0715982683381
 30
0.0
 10
63.22249049990383
 20
109.6838825497743
 30
0.0
  0
LINE
  5
24F
330
1F
100
AcDbEntity
  8
0
  6
Continuous
 62
     7
370
    25
100
AcDbLine
 10
67.7227101221
 20
109.6838825498
 30
0.0
 11
63.2224904999
 21
109.6838825498
 31
0.0
  0
SPLINE
  5
250
330
1F
100
AcDbEntity
  8
0
  6
Continuous
 62
     7
370
    25
100
AcDbSpline
210
0.0
220
0.0
230
1.0
 70
     8
 71
     3
 72
    10
 73
     6
 74
     0
 42
0.00000001
 43
0.00000001
 40
0.0
 40
0.0
 40
0.0
 40
0.0
 40
0.084179291651143
 40
0.5387774111283008
 40
1.0
 40
1.0
 40
1.0
 40
1.0
 10
45.04862172405083
 20
105.854978446223
 30
0.0
 10
45.05044979166737
 20
105.963897161618
 30
0.0
 10
45.06215007470002
 20
106.6610156851037
 30
0.0
 10
45.22628049786984
 20
107.9535017528205
 30
0.0
 10
45.55629146881738
 20
109.1043142003144
 30
0.0
 10
45.72249049990383
 20
109.6838825497743
 30
0.0
  0
LINE
  5
251
330
1F
100
AcDbEntity
  8
0
  6
Continuous
 62
     7
370
    25
100
AcDbLine
 10
49.8670476894
 20
109.6838825498
 30
0.0
 11
45.7224904999
 21
109.6838825498
 31
0.0
  0
SPLINE
  5
252
330
1F
100
AcDbEntity
  8
0
  6
Continuous
 62
     7
370
    25
100
AcDbSpline
210
0.0
220
0.0
230
1.0
 70
     8
 71
     3
 72
     9
 73
     5
 74
     0
 42
0.00000001
 43
0.00000001
 40
0.0
 40
0.0
 40
0.0
 40
0.0
 40
0.7348868664882142
 40
1.0
 40
1.0
 40
1.0
 40
1.0
 10
49.86704768938344
 20
109.6838825497744
 30
0.0
 10
50.05891507192352
 20
109.0334701726782
 30
0.0
 10
50.31999931670935
 20
108.1484191440698
 30
0.0
 10
50.42871886500137
 20
107.2413514778874
 30
0.0
 10
50.45754184512305
 20
107.0008759265986
 30
0.0
  0
SPLINE
  5
253
330
1F
100
AcDbEntity
  8
0
  6
Continuous
 62
     7
370
    25
100
AcDbSpline
210
0.0
220
0.0
230
1.0
 70
     8
 71
     3
 72
     9
 73
     5
 74
     0
 42
0.00000001
 43
0.00000001
 40
0.0
 40
0.0
 40
0.0
 40
0.0
 40
0.310645393086773
 40
1.0
 40
1.0
 40
1.0
 40
1.0
 10
50.43137962248975
 20
95.87830405045267
 30
0.0
 10
50.4068181799357
 20
95.5946883264708
 30
0.0
 10
50.32775232832272
 20
94.68169965741743
 30
0.0
 10
50.05504188786578
 20
93.79507875407737
 30
0.0
 10
49.86704768938345
 20
93.18388254977432
 30
0.0
  0
LINE
  5
254
330
1F
100
AcDbEntity
  8
0
  6
Continuous
 62
     7
370
    25
100
AcDbLine
 10
45.7224904999
 20
93.1838825498
 30
0.0
 11
49.8670476894
 21
93.1838825498
 31
0.0
  0
SPLINE
  5
255
330
1F
100
AcDbEntity
  8
0
  6
Continuous
 62
     7
370
    25
100
AcDbSpline
210
0.0
220
0.0
230
1.0
 70
     8
 71
     3
 72
    10
 73
     6
 74
     0
 42
0.00000001
 43
0.00000001
 40
0.0
 40
0.0
 40
0.0
 40
0.0
 40
0.5170785742034758
 40
0.7802091321457263
 40
1.0
 40
1.0
 40
1.0
 40
1.0
 10
45.72249049990383
 20
93.18388254977432
 30
0.0
 10
45.53768737282984
 20
93.8348895951857
 30
0.0
 10
45.25884176872736
 20
94.81718061875708
 30
0.0
 10
45.07971813301295
 20
96.10568148222319
 30
0.0
 10
45.06105332539836
 20
96.73111633717971
 30
0.0
 10
45.05255845636832
 20
97.01576899952633
 30
0.0
  0
LINE
  5
256
330
1F
100
AcDbEntity
  8
0
  6
Continuous
 62
     7
370
    25
100
AcDbLine
 10
63.2224904999
 20
93.1838825498
 30
0.0
 11
67.7227101221
 21
93.1838825498
 31
0.0
  0
SPLINE
  5
257
330
1F
100
AcDbEntity
  8
0
  6
Continuous
 62
     7
370
    25
100
AcDbSpline
210
0.0
220
0.0
230
1.0
 70
     8
 71
     3
 72
    10
 73
     6
 74
     0
 42
0.00000001
 43
0.00000001
 40
0.0
 40
0.0
 40
0.0
 40
0.0
 40
0.5070881028569295
 40
0.7651347172156112
 40
1.0
 40
1.0
 40
1.0
 40
1.0
 10
63.22249049990385
 20
93.18388254977428
 30
0.0
 10
63.03750810316117
 20
93.83488116474754
 30
0.0
 10
62.75839200277514
 20
94.81715946780578
 30
0.0
 10
62.57698610020884
 20
96.13110455286794
 30
0.0
 10
62.55804135858737
 20
96.78207779227165
 30
0.0
 10
62.54901446732346
 20
97.09225698422011
 30
0.0
  0
LINE
  5
258
330
1F
100
AcDbEntity
  8
0
  6
Continuous
 62
     7
370
    25
100
AcDbLine
 10
62.5447690946
 20
97.0177190564
 30
0.0
 11
62.5447690946
 21
93.9338825498
 31
0.0
  0
LINE
  5
259
330
1F
100
AcDbEntity
  8
0
  6
Continuous
 62
     7
370
    25
100
AcDbLine
 10
62.5447690946
 20
93.9338825498
 30
0.0
 11
50.5447690946
 21
93.9338825498
 31
0.0
  0
LINE
  5
25A
330
1F
100
AcDbEntity
  8
0
  6
Continuous
 62
     7
370
    25
100
AcDbLine
 10
50.5447690946
 20
95.8890669458
 30
0.0
 11
50.5447690946
 21
93.9338825498
 31
0.0
  0
LINE
  5
25B
330
1F
100
AcDbEntity
  8
0
  6
Continuous
 62
     7
370
    25
100
AcDbLine
 10
50.5447690946
 20
108.9338825498
 30
0.0
 11
50.5447690946
 21
106.9786981537
 31
0.0
  0
LINE
  5
25C
330
1F
100
AcDbEntity
  8
0
  6
Continuous
 62
     7
370
    25
100
AcDbLine
 10
50.5447690946
 20
108.9338825498
 30
0.0
 11
62.5447690946
 21
108.9338825498
 31
0.0
  0
LINE
  5
25D
330
1F
100
AcDbEntity
  8
0
  6
Continuous
 62
     7
370
    25
100
AcDbLine
 10
62.5447690946
 20
108.9338825498
 30
0.0
 11
62.5447690946
 21
105.8500460431
 31
0.0
  0
SPLINE
  5
25E
330
1F
100
AcDbEntity
  8
0
  6
Continuous
 62
     7
370
    25
100
AcDbSpline
210
0.0
220
0.0
230
1.0
 70
     8
 71
     3
 72
     8
 73
     4
 74
     0
 42
0.00000001
 43
0.00000001
 40
0.0
 40
0.0
 40
0.0
 40
0.0
 40
1.0
 40
1.0
 40
1.0
 40
1.0
 10
50.02853301766446
 20
109.9338825497743
 30
0.0
 10
50.20223609388423
 20
109.6013711276388
 30
0.0
 10
50.37453831294695
 20
109.26804402774
 30
0.0
 10
50.54476909464364
 20
108.9338825497743
 30
0.0
  0
SPLINE
  5
25F
330
1F
100
AcDbEntity
  8
0
  6
Continuous
 62
     7
370
    25
100
AcDbSpline
210
0.0
220
0.0
230
1.0
 70
     8
 71
     3
 72
    10
 73
     6
 74
     0
 42
0.00000001
 43
0.00000001
 40
0.0
 40
0.0
 40
0.0
 40
0.0
 40
0.5
 40
0.5
 40
1.0
 40
1.0
 40
1.0
 40
1.0
 10
49.8670476893891
 20
109.9338825497743
 30
0.0
 10
49.84337229496479
 20
109.9338825497743
 30
0.0
 10
49.83028118507448
 20
109.9110901004448
 30
0.0
 10
49.83019486378608
 20
109.8231473963518
 30
0.0
 10
49.84336379772991
 20
109.7582896226778
 30
0.0
 10
49.86704768938343
 20
109.6838825497744
 30
0.0
  0
SPLINE
  5
260
330
1F
100
AcDbEntity
  8
0
  6
Continuous
 62
     7
370
    25
100
AcDbSpline
210
0.0
220
0.0
230
1.0
 70
    24
 71
     3
 72
     8
 73
     4
 74
     0
 42
0.00000001
 43
0.00000001
 40
0.0
 40
0.0
 40
0.0
 40
0.0
 40
1.0
 40
1.0
 40
1.0
 40
1.0
 10
50.02853301766445
 20
109.9338825497743
 30
0.0
 10
49.97763430074205
 20
109.9338825497743
 30
0.0
 10
49.92370016449142
 20
109.9338825497743
 30
0.0
 10
49.86704768938383
 20
109.9338825497743
 30
0.0
  0
SPLINE
  5
261
330
1F
100
AcDbEntity
  8
0
  6
Continuous
 62
     7
370
    25
100
AcDbSpline
210
0.0
220
0.0
230
1.0
 70
     8
 71
     3
 72
     8
 73
     4
 74
     0
 42
0.00000001
 43
0.00000001
 40
0.0
 40
0.0
 40
0.0
 40
0.0
 40
1.0
 40
1.0
 40
1.0
 40
1.0
 10
62.54476909464364
 20
108.9338825497743
 30
0.0
 10
62.71504670198735
 20
109.2681359460596
 30
0.0
 10
62.88731845061303
 20
109.6014024356286
 30
0.0
 10
63.06100517162269
 20
109.9338825497741
 30
0.0
  0
SPLINE
  5
262
330
1F
100
AcDbEntity
  8
0
  6
Continuous
 62
     7
370
    25
100
AcDbSpline
210
0.0
220
0.0
230
1.0
 70
    24
 71
     3
 72
     8
 73
     4
 74
     0
 42
0.00000001
 43
0.00000001
 40
0.0
 40
0.0
 40
0.0
 40
0.0
 40
1.0
 40
1.0
 40
1.0
 40
1.0
 10
63.06100517162229
 20
109.9338825497743
 30
0.0
 10
63.11190140487752
 20
109.9338825497743
 30
0.0
 10
63.16583535984135
 20
109.9338825497743
 30
0.0
 10
63.22249049990383
 20
109.9338825497743
 30
0.0
  0
SPLINE
  5
263
330
1F
100
AcDbEntity
  8
0
  6
Continuous
 62
     7
370
    25
100
AcDbSpline
210
0.0
220
0.0
230
1.0
 70
     8
 71
     3
 72
    10
 73
     6
 74
     0
 42
0.00000001
 43
0.00000001
 40
0.0
 40
0.0
 40
0.0
 40
0.0
 40
0.5
 40
0.5
 40
1.0
 40
1.0
 40
1.0
 40
1.0
 10
63.22249049990383
 20
109.6838825497743
 30
0.0
 10
63.24616589432821
 20
109.7582629271517
 30
0.0
 10
63.25925700421286
 20
109.8225635659374
 30
0.0
 10
63.25934332550113
 20
109.9107792507204
 30
0.0
 10
63.2461743915573
 20
109.9338825497743
 30
0.0
 10
63.22249049990383
 20
109.9338825497743
 30
0.0
  0
SPLINE
  5
264
330
1F
100
AcDbEntity
  8
0
  6
Continuous
 62
     7
370
    25
100
AcDbSpline
210
0.0
220
0.0
230
1.0
 70
     8
 71
     3
 72
    10
 73
     6
 74
     0
 42
0.00000001
 43
0.00000001
 40
0.0
 40
0.0
 40
0.0
 40
0.0
 40
0.5
 40
0.5
 40
1.0
 40
1.0
 40
1.0
 40
1.0
 10
45.72249049990383
 20
109.9338825497743
 30
0.0
 10
45.74616440045978
 20
109.9338825497743
 30
0.0
 10
45.75925695763893
 20
109.9110919781269
 30
0.0
 10
45.7593433716212
 20
109.8231459808281
 30
0.0
 10
45.74617298002258
 20
109.7582851880953
 30
0.0
 10
45.72249049990383
 20
109.6838825497743
 30
0.0
  0
SPLINE
  5
265
330
1F
100
AcDbEntity
  8
0
  6
Continuous
 62
     7
370
    25
100
AcDbSpline
210
0.0
220
0.0
230
1.0
 70
    24
 71
     3
 72
    12
 73
     8
 74
     0
 42
0.00000001
 43
0.00000001
 40
0.0
 40
0.0
 40
0.0
 40
0.0
 40
0.2499999999999999
 40
0.2499999999999999
 40
0.4999999999999998
 40
0.4999999999999998
 40
1.0
 40
1.0
 40
1.0
 40
1.0
 10
45.04476909464364
 20
109.9338825497743
 30
0.0
 10
45.04476909464364
 20
109.9338825497743
 30
0.0
 10
45.06076789962471
 20
109.9338825497743
 30
0.0
 10
45.1225380379391
 20
109.9338825497743
 30
0.0
 10
45.1682801622407
 20
109.9338825497743
 30
0.0
 10
45.34495030958755
 20
109.9338825497743
 30
0.0
 10
45.51520537506784
 20
109.9338825497743
 30
0.0
 10
45.72249049990383
 20
109.9338825497743
 30
0.0
  0
SPLINE
  5
266
330
1F
100
AcDbEntity
  8
0
  6
Continuous
 62
     7
370
    25
100
AcDbSpline
210
0.0
220
0.0
230
1.0
 70
     8
 71
     3
 72
     8
 73
     4
 74
     0
 42
0.00000001
 43
0.00000001
 40
0.0
 40
0.0
 40
0.0
 40
0.0
 40
1.0
 40
1.0
 40
1.0
 40
1.0
 10
50.54476909464363
 20
93.93388254977432
 30
0.0
 10
50.37449148729988
 20
93.59962915348892
 30
0.0
 10
50.20221973867417
 20
93.26636266391989
 30
0.0
 10
50.02853301766446
 20
92.93388254977432
 30
0.0
  0
SPLINE
  5
267
330
1F
100
AcDbEntity
  8
0
  6
Continuous
 62
     7
370
    25
100
AcDbSpline
210
0.0
220
0.0
230
1.0
 70
    24
 71
     3
 72
     8
 73
     4
 74
     0
 42
0.00000001
 43
0.00000001
 40
0.0
 40
0.0
 40
0.0
 40
0.0
 40
1.0
 40
1.0
 40
1.0
 40
1.0
 10
50.02853301766446
 20
92.93388254977432
 30
0.0
 10
49.97763430074195
 20
92.93388254977432
 30
0.0
 10
49.92370016449119
 20
92.93388254977432
 30
0.0
 10
49.86704768938344
 20
92.93388254977432
 30
0.0
  0
SPLINE
  5
268
330
1F
100
AcDbEntity
  8
0
  6
Continuous
 62
     7
370
    25
100
AcDbSpline
210
0.0
220
0.0
230
1.0
 70
     8
 71
     3
 72
    10
 73
     6
 74
     0
 42
0.00000001
 43
0.00000001
 40
0.0
 40
0.0
 40
0.0
 40
0.0
 40
0.5
 40
0.5
 40
1.0
 40
1.0
 40
1.0
 40
1.0
 10
49.86704768938345
 20
93.18388254977432
 30
0.0
 10
49.84337229495906
 20
93.109502172397
 30
0.0
 10
49.83028118507442
 20
93.04520153361122
 30
0.0
 10
49.83019486378613
 20
92.95698584882828
 30
0.0
 10
49.84336379772998
 20
92.93388254977432
 30
0.0
 10
49.86704768938344
 20
92.93388254977432
 30
0.0
  0
SPLINE
  5
269
330
1F
100
AcDbEntity
  8
0
  6
Continuous
 62
     7
370
    25
100
AcDbSpline
210
0.0
220
0.0
230
1.0
 70
     8
 71
     3
 72
     8
 73
     4
 74
     0
 42
0.00000001
 43
0.00000001
 40
0.0
 40
0.0
 40
0.0
 40
0.0
 40
1.0
 40
1.0
 40
1.0
 40
1.0
 10
63.06100517162282
 20
92.93388254977432
 30
0.0
 10
62.88730209540305
 20
93.26639397190982
 30
0.0
 10
62.71499987634034
 20
93.59972107180869
 30
0.0
 10
62.54476909464364
 20
93.93388254977432
 30
0.0
  0
SPLINE
  5
26A
330
1F
100
AcDbEntity
  8
0
  6
Continuous
 62
     7
370
    25
100
AcDbSpline
210
0.0
220
0.0
230
1.0
 70
     8
 71
     3
 72
    10
 73
     6
 74
     0
 42
0.00000001
 43
0.00000001
 40
0.0
 40
0.0
 40
0.0
 40
0.0
 40
0.5
 40
0.5
 40
1.0
 40
1.0
 40
1.0
 40
1.0
 10
63.22249049990385
 20
92.93388254977432
 30
0.0
 10
63.24616589432823
 20
92.93388254977432
 30
0.0
 10
63.25925700421286
 20
92.95667499910411
 30
0.0
 10
63.25934332550115
 20
93.04461770319716
 30
0.0
 10
63.2461743915573
 20
93.10947547687101
 30
0.0
 10
63.22249049990385
 20
93.18388254977427
 30
0.0
  0
SPLINE
  5
26B
330
1F
100
AcDbEntity
  8
0
  6
Continuous
 62
     7
370
    25
100
AcDbSpline
210
0.0
220
0.0
230
1.0
 70
    24
 71
     3
 72
     8
 73
     4
 74
     0
 42
0.00000001
 43
0.00000001
 40
0.0
 40
0.0
 40
0.0
 40
0.0
 40
1.0
 40
1.0
 40
1.0
 40
1.0
 10
63.06100517162283
 20
92.93388254977432
 30
0.0
 10
63.11190140487791
 20
92.93388254977432
 30
0.0
 10
63.16583535984155
 20
92.93388254977432
 30
0.0
 10
63.22249049990383
 20
92.93388254977432
 30
0.0
  0
SPLINE
  5
26C
330
1F
100
AcDbEntity
  8
0
  6
Continuous
 62
     7
370
    25
100
AcDbSpline
210
0.0
220
0.0
230
1.0
 70
     8
 71
     3
 72
    10
 73
     6
 74
     0
 42
0.00000001
 43
0.00000001
 40
0.0
 40
0.0
 40
0.0
 40
0.0
 40
0.5
 40
0.5
 40
1.0
 40
1.0
 40
1.0
 40
1.0
 10
45.72249049990383
 20
93.18388254977432
 30
0.0
 10
45.74616273981539
 20
93.10951208284877
 30
0.0
 10
45.75925672975065
 20
93.0452064865609
 30
0.0
 10
45.75934359721209
 20
92.95698369875507
 30
0.0
 10
45.74617380745273
 20
92.93388254977432
 30
0.0
 10
45.72249049990383
 20
92.93388254977432
 30
0.0
  0
SPLINE
  5
26D
330
1F
100
AcDbEntity
  8
0
  6
Continuous
 62
     7
370
    25
100
AcDbSpline
210
0.0
220
0.0
230
1.0
 70
    24
 71
     3
 72
    12
 73
     8
 74
     0
 42
0.00000001
 43
0.00000001
 40
0.0
 40
0.0
 40
0.0
 40
0.0
 40
0.2500000000000001
 40
0.2500000000000001
 40
0.5000000000000001
 40
0.5000000000000001
 40
1.0
 40
1.0
 40
1.0
 40
1.0
 10
45.04476909464364
 20
92.93388254977432
 30
0.0
 10
45.04476909464364
 20
92.93388254977432
 30
0.0
 10
45.06076789962471
 20
92.93388254977432
 30
0.0
 10
45.1225380379391
 20
92.93388254977432
 30
0.0
 10
45.1682801622407
 20
92.93388254977432
 30
0.0
 10
45.34495030958755
 20
92.93388254977432
 30
0.0
 10
45.51520537506784
 20
92.93388254977432
 30
0.0
 10
45.72249049990383
 20
92.93388254977432
 30
0.0
  0
LINE
  5
26E
330
1F
100
AcDbEntity
  8
0
  6
Continuous
 62
     7
370
    25
100
AcDbLine
 10
63.2224904999
 20
109.9338825498
 30
0.0
 11
67.7227101221
 21
109.9338825498
 31
0.0
  0
LINE
  5
26F
330
1F
100
AcDbEntity
  8
0
  6
Continuous
 62
     7
370
    25
100
AcDbLine
 10
45.7224904999
 20
109.9338825498
 30
0.0
 11
49.8670476894
 21
109.9338825498
 31
0.0
  0
LINE
  5
270
330
1F
100
AcDbEntity
  8
0
  6
Continuous
 62
     7
370
    25
100
AcDbLine
 10
67.7227101221
 20
92.9338825498
 30
0.0
 11
63.2224904999
 21
92.9338825498
 31
0.0
  0
LINE
  5
271
330
1F
100
AcDbEntity
  8
0
  6
Continuous
 62
     7
370
    25
100
AcDbLine
 10
49.8670476894
 20
92.9338825498
 30
0.0
 11
45.7224904999
 21
92.9338825498
 31
0.0
  0
LINE
  5
272
330
1F
100
AcDbEntity
  8
0
  6
Continuous
 62
     7
370
    25
100
AcDbLine
 10
63.0610051716
 20
109.9338825498
 30
0.0
 11
50.0285330177
 21
109.9338825498
 31
0.0
  0
LINE
  5
273
330
1F
100
AcDbEntity
  8
0
  6
Continuous
 62
     7
370
    25
100
AcDbLine
 10
63.0610051716
 20
92.9338825498
 30
0.0
 11
50.0285330177
 21
92.9338825498
 31
0.0
  0
LINE
  5
274
330
1F
100
AcDbEntity
  8
0
  6
Continuous
 62
     7
370
    25
100
AcDbLine
 10
67.7227101221
 20
101.1838825498
 30
0.0
 11
63.9905732822
 21
101.1838825498
 31
0.0
  0
LINE
  5
275
330
1F
100
AcDbEntity
  8
0
  6
Continuous
 62
     7
370
    25
100
AcDbLine
 10
63.9905732822
 20
101.6838825498
 30
0.0
 11
67.7227101221
 21
101.6838825498
 31
0.0
  0
MTEXT
  5
277
330
1F
100
AcDbEntity
  8
0
  6
Continuous
 62
     7
370
     0
100
AcDbMText
 10
50.7998207304
 20
82.2083253386
 30
0.0
 40
3.5
 41
0.0
 71
     1
 72
     1
  1
エースボール　アングル型
  7
SLDTEXTSTYLE0
 73
     1
 44
1.0
  0
MTEXT
  5
278
330
1F
100
AcDbEntity
  8
0
  6
Continuous
 62
     7
370
     0
100
AcDbMText
 10
50.7998207304
 20
77.6826308082
 30
0.0
 40
3.5
 41
0.0
 71
     1
 72
     1
  1
BR-3310
  7
SLDTEXTSTYLE0
 73
     1
 44
1.0
  0
INSERT
  5
284
330
1F
100
AcDbEntity
  8
0
  6
Continuous
 62
     7
370
    18
100
AcDbBlockReference
  2
SW_CENTERMARKSYMBOL_1
 10
56.5447690946
 20
101.4338825498
 30
0.0
  0
ENDSEC
  0
SECTION
  2
OBJECTS
  0
DICTIONARY
  5
C
330
0
100
AcDbDictionary
281
     1
  3
ACAD_GROUP
350
D
  3
ACAD_LAYOUT
350
1A
  3
ACAD_MLINESTYLE
350
17
  3
ACAD_PLOTSETTINGS
350
19
  3
ACAD_PLOTSTYLENAME
350
E
  3
ACAD_SCALELIST
350
47
  3
DWGPROPS
350
285
  0
DICTIONARY
  5
D
102
{ACAD_REACTORS
330
C
102
}
330
C
100
AcDbDictionary
281
     1
  0
DICTIONARY
  5
1A
102
{ACAD_REACTORS
330
C
102
}
330
C
100
AcDbDictionary
281
     1
  3
Layout1
350
1E
  3
Layout2
350
26
  3
Model
350
22
  0
DICTIONARY
  5
17
102
{ACAD_REACTORS
330
C
102
}
330
C
100
AcDbDictionary
281
     1
  3
Standard
350
18
  0
DICTIONARY
  5
19
102
{ACAD_REACTORS
330
C
102
}
330
C
100
AcDbDictionary
281
     1
  0
ACDBDICTIONARYWDFLT
  5
E
102
{ACAD_REACTORS
330
C
102
}
330
C
100
AcDbDictionary
281
     1
  3
Normal
350
F
100
AcDbDictionaryWithDefault
340
F
  0
DICTIONARY
  5
47
102
{ACAD_REACTORS
330
C
102
}
330
C
100
AcDbDictionary
281
     1
  3
A0
350
48
  3
A1
350
49
  3
A2
350
4A
  3
A3
350
4B
  3
A4
350
4C
  3
A5
350
4D
  3
A6
350
4E
  3
A7
350
4F
  3
A8
350
50
  3
A9
350
51
  3
B0
350
52
  3
B1
350
53
  3
B2
350
54
  3
B3
350
55
  3
B4
350
56
  3
B5
350
57
  3
B6
350
58
  0
XRECORD
  5
285
102
{ACAD_REACTORS
330
C
102
}
330
C
100
AcDbXrecord
280
     1
  1
DWGPROPS COOKIE
  2

  3

  4

  6

  7

  8
user52
  9

300
=
301
=
302
=
303
=
304
=
305
=
306
=
307
=
308
=
309
=
 40
0.0
 41
2460339.193539931
 42
2460339.193540452
  1

 90
        0
  0
LAYOUT
  5
1E
102
{ACAD_REACTORS
330
1A
102
}
330
1A
100
AcDbPlotSettings
  1

  2
none_device
  4

  6

 40
0.0
 41
0.0
 42
0.0
 43
0.0
 44
0.0
 45
0.0
 46
0.0
 47
0.0
 48
0.0
 49
0.0
140
0.0
141
0.0
142
1.0
143
1.0
 70
   688
 72
     1
 73
     0
 74
     5
  7

 75
    16
147
1.0
148
0.0
149
0.0
100
AcDbLayout
  1
Layout1
 70
     1
 71
     1
 10
0.0
 20
0.0
 11
420.0
 21
297.0
 12
0.0
 22
0.0
 32
0.0
 14
1.0000000000E+20
 24
1.0000000000E+20
 34
1.0000000000E+20
 15
-1.0000000000E+20
 25
-1.0000000000E+20
 35
-1.0000000000E+20
146
0.0
 13
0.0
 23
0.0
 33
0.0
 16
1.0
 26
0.0
 36
0.0
 17
0.0
 27
1.0
 37
0.0
 76
     0
330
1B
  0
LAYOUT
  5
26
102
{ACAD_REACTORS
330
1A
102
}
330
1A
100
AcDbPlotSettings
  1

  2
none_device
  4

  6

 40
0.0
 41
0.0
 42
0.0
 43
0.0
 44
0.0
 45
0.0
 46
0.0
 47
0.0
 48
0.0
 49
0.0
140
0.0
141
0.0
142
1.0
143
1.0
 70
   688
 72
     1
 73
     0
 74
     5
  7

 75
    16
147
1.0
148
0.0
149
0.0
100
AcDbLayout
  1
Layout2
 70
     1
 71
     2
 10
0.0
 20
0.0
 11
0.0
 21
0.0
 12
0.0
 22
0.0
 32
0.0
 14
0.0
 24
0.0
 34
0.0
 15
0.0
 25
0.0
 35
0.0
146
0.0
 13
0.0
 23
0.0
 33
0.0
 16
1.0
 26
0.0
 36
0.0
 17
0.0
 27
1.0
 37
0.0
 76
     0
330
23
  0
LAYOUT
  5
22
102
{ACAD_REACTORS
330
1A
102
}
330
1A
100
AcDbPlotSettings
  1

  2
none_device
  4
Letter_(8.50_x_11.00_Inches)
  6

 40
6.35
 41
6.35
 42
6.35000508
 43
6.35000508
 44
215.9
 45
279.4
 46
0.0
 47
0.0
 48
0.0
 49
0.0
140
0.0
141
0.0
142
1.0
143
1.0
 70
  1712
 72
     1
 73
     0
 74
     0
  7

 75
     0
147
1.0
148
0.0
149
0.0
100
AcDbLayout
  1
Model
 70
     1
 71
     0
 10
0.0
 20
0.0
 11
431.8
 21
279.4
 12
0.0
 22
0.0
 32
0.0
 14
0.0
 24
0.0
 34
0.0
 15
431.8
 25
279.4
 35
0.0
146
0.0
 13
0.0
 23
0.0
 33
0.0
 16
1.0
 26
0.0
 36
0.0
 17
0.0
 27
1.0
 37
0.0
 76
     0
330
1F
331
29
  0
MLINESTYLE
  5
18
102
{ACAD_REACTORS
330
17
102
}
330
17
100
AcDbMlineStyle
  2
Standard
 70
     0
  3

 62
   256
 51
90.0
 52
90.0
 71
     2
 49
0.5
 62
   256
  6
BYLAYER
 49
-0.5
 62
   256
  6
BYLAYER
  0
ACDBPLACEHOLDER
  5
F
102
{ACAD_REACTORS
330
E
102
}
330
E
  0
SCALE
  5
48
102
{ACAD_REACTORS
330
47
102
}
330
47
100
AcDbScale
 70
     0
300
1:1
140
1.0
141
1.0
290
     1
  0
SCALE
  5
49
102
{ACAD_REACTORS
330
47
102
}
330
47
100
AcDbScale
 70
     0
300
1:2
140
1.0
141
2.0
290
     0
  0
SCALE
  5
4A
102
{ACAD_REACTORS
330
47
102
}
330
47
100
AcDbScale
 70
     0
300
1:4
140
1.0
141
4.0
290
     0
  0
SCALE
  5
4B
102
{ACAD_REACTORS
330
47
102
}
330
47
100
AcDbScale
 70
     0
300
1:5
140
1.0
141
5.0
290
     0
  0
SCALE
  5
4C
102
{ACAD_REACTORS
330
47
102
}
330
47
100
AcDbScale
 70
     0
300
1:8
140
1.0
141
8.0
290
     0
  0
SCALE
  5
4D
102
{ACAD_REACTORS
330
47
102
}
330
47
100
AcDbScale
 70
     0
300
1:10
140
1.0
141
10.0
290
     0
  0
SCALE
  5
4E
102
{ACAD_REACTORS
330
47
102
}
330
47
100
AcDbScale
 70
     0
300
1:16
140
1.0
141
16.0
290
     0
  0
SCALE
  5
4F
102
{ACAD_REACTORS
330
47
102
}
330
47
100
AcDbScale
 70
     0
300
1:20
140
1.0
141
20.0
290
     0
  0
SCALE
  5
50
102
{ACAD_REACTORS
330
47
102
}
330
47
100
AcDbScale
 70
     0
300
1:30
140
1.0
141
30.0
290
     0
  0
SCALE
  5
51
102
{ACAD_REACTORS
330
47
102
}
330
47
100
AcDbScale
 70
     0
300
1:40
140
1.0
141
40.0
290
     0
  0
SCALE
  5
52
102
{ACAD_REACTORS
330
47
102
}
330
47
100
AcDbScale
 70
     0
300
1:50
140
1.0
141
50.0
290
     0
  0
SCALE
  5
53
102
{ACAD_REACTORS
330
47
102
}
330
47
100
AcDbScale
 70
     0
300
1:100
140
1.0
141
100.0
290
     0
  0
SCALE
  5
54
102
{ACAD_REACTORS
330
47
102
}
330
47
100
AcDbScale
 70
     0
300
2:1
140
2.0
141
1.0
290
     0
  0
SCALE
  5
55
102
{ACAD_REACTORS
330
47
102
}
330
47
100
AcDbScale
 70
     0
300
4:1
140
4.0
141
1.0
290
     0
  0
SCALE
  5
56
102
{ACAD_REACTORS
330
47
102
}
330
47
100
AcDbScale
 70
     0
300
8:1
140
8.0
141
1.0
290
     0
  0
SCALE
  5
57
102
{ACAD_REACTORS
330
47
102
}
330
47
100
AcDbScale
 70
     0
300
10:1
140
10.0
141
1.0
290
     0
  0
SCALE
  5
58
102
{ACAD_REACTORS
330
47
102
}
330
47
100
AcDbScale
 70
     0
300
100:1
140
100.0
141
1.0
290
     0
  0
ENDSEC
  0
EOF
