  0
SECTION
  2
HEADER
  9
$ACADVER
  1
AC1015
  9
$ACADMAINTVER
 70
     6
  9
$DWGCODEPAGE
  3
DOS932
  9
$INSBASE
 10
0.0
 20
0.0
 30
0.0
  9
$EXTMIN
 10
0.0
 20
0.0
 30
0.0
  9
$EXTMAX
 10
431.8
 20
279.4
 30
0.0
  9
$LIMMIN
 10
0.0
 20
0.0
  9
$LIMMAX
 10
431.8
 20
279.4
  9
$ORTHOMODE
 70
     0
  9
$REGENMODE
 70
     1
  9
$FILLMODE
 70
     1
  9
$QTEXTMODE
 70
     0
  9
$MIRRTEXT
 70
     1
  9
$LTSCALE
 40
1.0
  9
$ATTMODE
 70
     1
  9
$TEXTSIZE
 40
3.5
  9
$TRACEWID
 40
1.0
  9
$TEXTSTYLE
  7
Standard
  9
$CLAYER
  8
0
  9
$CELTYPE
  6
ByLayer
  9
$CECOLOR
 62
   256
  9
$CELTSCALE
 40
1.0
  9
$DISPSILH
 70
     0
  9
$DIMSCALE
 40
1.0
  9
$DIMASZ
 40
3.556
  9
$DIMEXO
 40
1.0
  9
$DIMDLI
 40
3.75
  9
$DIMRND
 40
0.0
  9
$DIMDLE
 40
0.0
  9
$DIMEXE
 40
1.0
  9
$DIMTP
 40
0.0
  9
$DIMTM
 40
0.0
  9
$DIMTXT
 40
3.5
  9
$DIMCEN
 40
2.5
  9
$DIMTSZ
 40
0.0
  9
$DIMTOL
 70
     0
  9
$DIMLIM
 70
     0
  9
$DIMTIH
 70
     1
  9
$DIMTOH
 70
     1
  9
$DIMSE1
 70
     0
  9
$DIMSE2
 70
     0
  9
$DIMTAD
 70
     1
  9
$DIMZIN
 70
     0
  9
$DIMBLK
  1

  9
$DIMASO
 70
     1
  9
$DIMSHO
 70
     1
  9
$DIMPOST
  1

  9
$DIMAPOST
  1

  9
$DIMALT
 70
     0
  9
$DIMALTD
 70
     3
  9
$DIMALTF
 40
0.0393700787
  9
$DIMLFAC
 40
1.0
  9
$DIMTOFL
 70
     1
  9
$DIMTVP
 40
0.0
  9
$DIMTIX
 70
     0
  9
$DIMSOXD
 70
     0
  9
$DIMSAH
 70
     0
  9
$DIMBLK1
  1

  9
$DIMBLK2
  1

  9
$DIMSTYLE
  2
ISO-25
  9
$DIMCLRD
 70
     0
  9
$DIMCLRE
 70
     0
  9
$DIMCLRT
 70
     0
  9
$DIMTFAC
 40
1.0
  9
$DIMGAP
 40
1.524
  9
$DIMJUST
 70
     0
  9
$DIMSD1
 70
     0
  9
$DIMSD2
 70
     0
  9
$DIMTOLJ
 70
     0
  9
$DIMTZIN
 70
     0
  9
$DIMALTZ
 70
     0
  9
$DIMALTTZ
 70
     0
  9
$DIMUPT
 70
     0
  9
$DIMDEC
 70
     3
  9
$DIMTDEC
 70
     3
  9
$DIMALTU
 70
     2
  9
$DIMALTTD
 70
     3
  9
$DIMTXSTY
  7
Standard
  9
$DIMAUNIT
 70
     0
  9
$DIMADEC
 70
     2
  9
$DIMALTRND
 40
0.0
  9
$DIMAZIN
 70
     0
  9
$DIMDSEP
 70
    44
  9
$DIMATFIT
 70
     3
  9
$DIMFRAC
 70
     0
  9
$DIMLDRBLK
  1

  9
$DIMLUNIT
 70
     2
  9
$DIMLWD
 70
    -2
  9
$DIMLWE
 70
    -2
  9
$DIMTMOVE
 70
     0
  9
$LUNITS
 70
     2
  9
$LUPREC
 70
     3
  9
$SKETCHINC
 40
1.0
  9
$FILLETRAD
 40
0.0
  9
$AUNITS
 70
     0
  9
$AUPREC
 70
     2
  9
$MENU
  1
.
  9
$ELEVATION
 40
0.0
  9
$PELEVATION
 40
0.0
  9
$THICKNESS
 40
0.0
  9
$LIMCHECK
 70
     0
  9
$CHAMFERA
 40
0.0
  9
$CHAMFERB
 40
0.0
  9
$CHAMFERC
 40
0.0
  9
$CHAMFERD
 40
0.0
  9
$SKPOLY
 70
     0
  9
$TDCREATE
 40
2460339.565096783
  9
$TDUCREATE
 40
2460339.190096783
  9
$TDUPDATE
 40
2460339.565097291
  9
$TDUUPDATE
 40
2460339.190097291
  9
$TDINDWG
 40
0.0000000116
  9
$TDUSRTIMER
 40
0.0000000116
  9
$USRTIMER
 70
     1
  9
$ANGBASE
 50
0.0
  9
$ANGDIR
 70
     0
  9
$PDMODE
 70
     0
  9
$PDSIZE
 40
-1.0
  9
$PLINEWID
 40
0.0
  9
$SPLFRAME
 70
     0
  9
$SPLINETYPE
 70
     6
  9
$SPLINESEGS
 70
     8
  9
$HANDSEED
  5
298
  9
$SURFTAB1
 70
     6
  9
$SURFTAB2
 70
     6
  9
$SURFTYPE
 70
     6
  9
$SURFU
 70
     6
  9
$SURFV
 70
     6
  9
$UCSBASE
  2

  9
$UCSNAME
  2

  9
$UCSORG
 10
0.0
 20
0.0
 30
0.0
  9
$UCSXDIR
 10
1.0
 20
0.0
 30
0.0
  9
$UCSYDIR
 10
0.0
 20
1.0
 30
0.0
  9
$UCSORTHOREF
  2

  9
$UCSORTHOVIEW
 70
     0
  9
$UCSORGTOP
 10
0.0
 20
0.0
 30
0.0
  9
$UCSORGBOTTOM
 10
0.0
 20
0.0
 30
0.0
  9
$UCSORGLEFT
 10
0.0
 20
0.0
 30
0.0
  9
$UCSORGRIGHT
 10
0.0
 20
0.0
 30
0.0
  9
$UCSORGFRONT
 10
0.0
 20
0.0
 30
0.0
  9
$UCSORGBACK
 10
0.0
 20
0.0
 30
0.0
  9
$PUCSBASE
  2

  9
$PUCSNAME
  2

  9
$PUCSORG
 10
0.0
 20
0.0
 30
0.0
  9
$PUCSXDIR
 10
1.0
 20
0.0
 30
0.0
  9
$PUCSYDIR
 10
0.0
 20
1.0
 30
0.0
  9
$PUCSORTHOREF
  2

  9
$PUCSORTHOVIEW
 70
     0
  9
$PUCSORGTOP
 10
0.0
 20
0.0
 30
0.0
  9
$PUCSORGBOTTOM
 10
0.0
 20
0.0
 30
0.0
  9
$PUCSORGLEFT
 10
0.0
 20
0.0
 30
0.0
  9
$PUCSORGRIGHT
 10
0.0
 20
0.0
 30
0.0
  9
$PUCSORGFRONT
 10
0.0
 20
0.0
 30
0.0
  9
$PUCSORGBACK
 10
0.0
 20
0.0
 30
0.0
  9
$USERI1
 70
     0
  9
$USERI2
 70
     0
  9
$USERI3
 70
     0
  9
$USERI4
 70
     0
  9
$USERI5
 70
     0
  9
$USERR1
 40
0.0
  9
$USERR2
 40
0.0
  9
$USERR3
 40
0.0
  9
$USERR4
 40
0.0
  9
$USERR5
 40
0.0
  9
$WORLDVIEW
 70
     1
  9
$SHADEDGE
 70
     3
  9
$SHADEDIF
 70
    70
  9
$TILEMODE
 70
     1
  9
$MAXACTVP
 70
    64
  9
$PINSBASE
 10
0.0
 20
0.0
 30
0.0
  9
$PLIMCHECK
 70
     0
  9
$PEXTMIN
 10
1.0000000000E+20
 20
1.0000000000E+20
 30
1.0000000000E+20
  9
$PEXTMAX
 10
-1.0000000000E+20
 20
-1.0000000000E+20
 30
-1.0000000000E+20
  9
$PLIMMIN
 10
0.0
 20
0.0
  9
$PLIMMAX
 10
420.0
 20
297.0
  9
$UNITMODE
 70
     0
  9
$VISRETAIN
 70
     1
  9
$PLINEGEN
 70
     0
  9
$PSLTSCALE
 70
     1
  9
$TREEDEPTH
 70
  3020
  9
$CMLSTYLE
  2
Standard
  9
$CMLJUST
 70
     0
  9
$CMLSCALE
 40
20.0
  9
$PROXYGRAPHICS
 70
     1
  9
$MEASUREMENT
 70
     1
  9
$CELWEIGHT
370
    -1
  9
$ENDCAPS
280
     0
  9
$JOINSTYLE
280
     0
  9
$LWDISPLAY
290
     1
  9
$INSUNITS
 70
     4
  9
$HYPERLINKBASE
  1

  9
$STYLESHEET
  1

  9
$XEDIT
290
     1
  9
$CEPSNTYPE
380
     0
  9
$PSTYLEMODE
290
     1
  9
$FINGERPRINTGUID
  2
{81a7f422-b3da-46ad-9702-dae93d2dfa50}
  9
$VERSIONGUID
  2
{FAEB1C32-E019-11D5-929B-00C0DF256EC4}
  9
$EXTNAMES
290
     1
  9
$PSVPSCALE
 40
0.0
  9
$OLESTARTUP
290
     0
  0
ENDSEC
  0
SECTION
  2
CLASSES
  0
CLASS
  1
ACDBDICTIONARYWDFLT
  2
AcDbDictionaryWithDefault
  3
ObjectDBX Classes
 90
        0
280
     0
281
     0
  0
CLASS
  1
VISUALSTYLE
  2
AcDbVisualStyle
  3
ObjectDBX Classes
 90
     4095
280
     0
281
     0
  0
CLASS
  1
MATERIAL
  2
AcDbMaterial
  3
ObjectDBX Classes
 90
     1153
280
     0
281
     0
  0
CLASS
  1
SCALE
  2
AcDbScale
  3
ObjectDBX Classes
 90
     1153
280
     0
281
     0
  0
CLASS
  1
TABLESTYLE
  2
AcDbTableStyle
  3
ObjectDBX Classes
 90
     4095
280
     0
281
     0
  0
CLASS
  1
MLEADERSTYLE
  2
AcDbMLeaderStyle
  3
ACDB_MLEADERSTYLE_CLASS
 90
     4095
280
     0
281
     0
  0
CLASS
  1
SUN
  2
AcDbSun
  3
SCENEOE
 90
     1153
280
     0
281
     0
  0
CLASS
  1
ACDBPLACEHOLDER
  2
AcDbPlaceHolder
  3
ObjectDBX Classes
 90
        0
280
     0
281
     0
  0
CLASS
  1
LAYOUT
  2
AcDbLayout
  3
ObjectDBX Classes
 90
        0
280
     0
281
     0
  0
ENDSEC
  0
SECTION
  2
TABLES
  0
TABLE
  2
VPORT
  5
8
330
0
100
AcDbSymbolTable
 70
     1
  0
VPORT
  5
29
330
8
100
AcDbSymbolTableRecord
100
AcDbViewportTableRecord
  2
*Active
 70
     0
 10
0.0
 20
0.0
 11
1.0
 21
1.0
 12
215.9
 22
139.7
 13
0.0
 23
0.0
 14
10.0
 24
10.0
 15
10.0
 25
10.0
 16
0.0
 26
0.0
 36
1.0
 17
0.0
 27
0.0
 37
0.0
 40
279.4
 41
1.5454545455
 42
50.0
 43
0.0
 44
0.0
 50
0.0
 51
0.0
 71
     0
 72
  2000
 73
     1
 74
     3
 75
     0
 76
     0
 77
     0
 78
     0
281
     0
 65
     1
110
0.0
120
0.0
130
0.0
111
1.0
121
0.0
131
0.0
112
0.0
122
1.0
132
0.0
 79
     0
146
0.0
  0
ENDTAB
  0
TABLE
  2
LTYPE
  5
5
330
0
100
AcDbSymbolTable
 70
     6
  0
LTYPE
  5
14
330
5
100
AcDbSymbolTableRecord
100
AcDbLinetypeTableRecord
  2
ByBlock
 70
     0
  3

 72
    65
 73
     0
 40
0.0
  0
LTYPE
  5
15
330
5
100
AcDbSymbolTableRecord
100
AcDbLinetypeTableRecord
  2
ByLayer
 70
     0
  3

 72
    65
 73
     0
 40
0.0
  0
LTYPE
  5
16
330
5
100
AcDbSymbolTableRecord
100
AcDbLinetypeTableRecord
  2
Continuous
 70
     0
  3
Solid line
 72
    65
 73
     0
 40
0.0
  0
LTYPE
  5
5E
330
5
100
AcDbSymbolTableRecord
100
AcDbLinetypeTableRecord
  2
HIDDEN
 70
     0
  3
Hidden __ __ __ __ __ __ __ __ __ __ __ __ __ __
 72
    65
 73
     2
 40
1.905
 49
1.27
 74
     0
 49
-0.635
 74
     0
  0
LTYPE
  5
5F
330
5
100
AcDbSymbolTableRecord
100
AcDbLinetypeTableRecord
  2
PHANTOM
 70
     0
  3
Phantom ______  __  __  ______  __  __  ______
 72
    65
 73
     6
 40
12.7
 49
6.35
 74
     0
 49
-1.27
 74
     0
 49
1.27
 74
     0
 49
-1.27
 74
     0
 49
1.27
 74
     0
 49
-1.27
 74
     0
  0
LTYPE
  5
60
330
5
100
AcDbSymbolTableRecord
100
AcDbLinetypeTableRecord
  2
CENTER
 70
     0
  3
Center ____ _ ____ _ ____ _ ____ _ ____ _ ____
 72
    65
 73
     4
 40
10.16
 49
6.35
 74
     0
 49
-1.27
 74
     0
 49
1.27
 74
     0
 49
-1.27
 74
     0
  0
LTYPE
  5
61
330
5
100
AcDbSymbolTableRecord
100
AcDbLinetypeTableRecord
  2
CENTERX2
 70
     0
  3
Center (2x) ________  __  ________  __  _____
 72
    65
 73
     4
 40
20.32
 49
12.7
 74
     0
 49
-2.54
 74
     0
 49
2.54
 74
     0
 49
-2.54
 74
     0
  0
LTYPE
  5
62
330
5
100
AcDbSymbolTableRecord
100
AcDbLinetypeTableRecord
  2
DOT2
 70
     0
  3
Dot (.5x) ........................................
 72
    65
 73
     2
 40
0.635
 49
0.0
 74
     0
 49
-0.635
 74
     0
  0
ENDTAB
  0
TABLE
  2
LAYER
  5
2
330
0
100
AcDbSymbolTable
 70
     1
  0
LAYER
  5
10
330
2
100
AcDbSymbolTableRecord
100
AcDbLayerTableRecord
  2
0
 70
     0
 62
     7
  6
Continuous
370
    -3
390
F
  0
ENDTAB
  0
TABLE
  2
STYLE
  5
3
330
0
100
AcDbSymbolTable
 70
     2
  0
STYLE
  5
11
330
3
100
AcDbSymbolTableRecord
100
AcDbTextStyleTableRecord
  2
Standard
 70
     0
 40
0.0
 41
1.0
 50
0.0
 71
     0
 42
3.5
  3
txt
  4
bigfont
  0
STYLE
  5
63
330
3
100
AcDbSymbolTableRecord
100
AcDbTextStyleTableRecord
  2
SLDTEXTSTYLE0
 70
     0
 40
0.0
 41
0.75
 50
0.0
 71
     0
 42
3.5
  3
TXT
  4
bigfont
  0
ENDTAB
  0
TABLE
  2
VIEW
  5
6
330
0
100
AcDbSymbolTable
 70
     0
  0
ENDTAB
  0
TABLE
  2
UCS
  5
7
330
0
100
AcDbSymbolTable
 70
     0
  0
ENDTAB
  0
TABLE
  2
APPID
  5
9
330
0
100
AcDbSymbolTable
 70
     1
  0
APPID
  5
12
330
9
100
AcDbSymbolTableRecord
100
AcDbRegAppTableRecord
  2
ACAD
 70
     0
  0
ENDTAB
  0
TABLE
  2
DIMSTYLE
  5
A
330
0
100
AcDbSymbolTable
 70
     1
100
AcDbDimStyleTable
  0
DIMSTYLE
105
27
330
A
100
AcDbSymbolTableRecord
100
AcDbDimStyleTableRecord
  2
ISO-25
 70
     0
 41
2.5
 42
0.625
 43
3.75
 44
1.25
 73
     0
 74
     0
 77
     1
 78
     8
140
2.5
141
2.5
143
0.0393700787
147
0.625
171
     3
172
     1
178
     0
271
     2
272
     2
274
     3
278
    44
283
     0
284
     8
340
11
  0
ENDTAB
  0
TABLE
  2
BLOCK_RECORD
  5
1
330
0
100
AcDbSymbolTable
 70
     4
  0
BLOCK_RECORD
  5
1F
330
1
100
AcDbSymbolTableRecord
100
AcDbBlockTableRecord
  2
*Model_Space
340
22
  0
BLOCK_RECORD
  5
1B
330
1
100
AcDbSymbolTableRecord
100
AcDbBlockTableRecord
  2
*Paper_Space
340
1E
  0
BLOCK_RECORD
  5
23
330
1
100
AcDbSymbolTableRecord
100
AcDbBlockTableRecord
  2
*Paper_Space0
340
26
  0
BLOCK_RECORD
  5
1DD
330
1
100
AcDbSymbolTableRecord
100
AcDbBlockTableRecord
  2
SW_CENTERMARKSYMBOL_0
340
0
102
{BLKREFS
331
1E8
102
}
  0
BLOCK_RECORD
  5
27F
330
1
100
AcDbSymbolTableRecord
100
AcDbBlockTableRecord
  2
SW_CENTERMARKSYMBOL_1
340
0
102
{BLKREFS
331
28A
102
}
  0
BLOCK_RECORD
  5
28B
330
1
100
AcDbSymbolTableRecord
100
AcDbBlockTableRecord
  2
SW_CENTERMARKSYMBOL_2
340
0
102
{BLKREFS
331
296
102
}
  0
ENDTAB
  0
ENDSEC
  0
SECTION
  2
BLOCKS
  0
BLOCK
  5
20
330
1F
100
AcDbEntity
  8
0
100
AcDbBlockBegin
  2
*Model_Space
 70
     0
 10
0.0
 20
0.0
 30
0.0
  3
*Model_Space
  1

  0
ENDBLK
  5
21
330
1F
100
AcDbEntity
  8
0
100
AcDbBlockEnd
  0
BLOCK
  5
1C
330
1B
100
AcDbEntity
 67
     1
  8
0
100
AcDbBlockBegin
  2
*Paper_Space
 70
     0
 10
0.0
 20
0.0
 30
0.0
  3
*Paper_Space
  1

  0
ENDBLK
  5
1D
330
1B
100
AcDbEntity
 67
     1
  8
0
100
AcDbBlockEnd
  0
BLOCK
  5
24
330
23
100
AcDbEntity
  8
0
100
AcDbBlockBegin
  2
*Paper_Space0
 70
     0
 10
0.0
 20
0.0
 30
0.0
  3
*Paper_Space0
  1

  0
ENDBLK
  5
25
330
23
100
AcDbEntity
  8
0
100
AcDbBlockEnd
  0
BLOCK
  5
1DE
330
1DD
100
AcDbEntity
  8
0
100
AcDbBlockBegin
  2
SW_CENTERMARKSYMBOL_0
 70
     0
 10
0.0
 20
0.0
 30
0.0
  3
SW_CENTERMARKSYMBOL_0
  1

  0
LINE
  5
1E0
330
1DD
100
AcDbEntity
  8
0
  6
Continuous
 62
     0
370
    18
100
AcDbLine
 10
0.0
 20
0.0
 30
0.0
 11
0.0
 21
2.5
 31
0.0
  0
LINE
  5
1E1
330
1DD
100
AcDbEntity
  8
0
  6
Continuous
 62
     0
370
    18
100
AcDbLine
 10
0.0
 20
0.0
 30
0.0
 11
-2.5
 21
0.0
 31
0.0
  0
LINE
  5
1E2
330
1DD
100
AcDbEntity
  8
0
  6
Continuous
 62
     0
370
    18
100
AcDbLine
 10
0.0
 20
0.0
 30
0.0
 11
0.0
 21
-2.5
 31
0.0
  0
LINE
  5
1E3
330
1DD
100
AcDbEntity
  8
0
  6
Continuous
 62
     0
370
    18
100
AcDbLine
 10
0.0
 20
0.0
 30
0.0
 11
2.5
 21
0.0
 31
0.0
  0
LINE
  5
1E4
330
1DD
100
AcDbEntity
  8
0
  6
Continuous
 62
     0
370
    18
100
AcDbLine
 10
0.0
 20
5.0
 30
0.0
 11
0.0
 21
30.8871205441
 31
0.0
  0
LINE
  5
1E5
330
1DD
100
AcDbEntity
  8
0
  6
Continuous
 62
     0
370
    18
100
AcDbLine
 10
-5.0
 20
0.0
 30
0.0
 11
-10.75
 21
0.0
 31
0.0
  0
LINE
  5
1E6
330
1DD
100
AcDbEntity
  8
0
  6
Continuous
 62
     0
370
    18
100
AcDbLine
 10
0.0
 20
-5.0
 30
0.0
 11
0.0
 21
-25.4410750878
 31
0.0
  0
LINE
  5
1E7
330
1DD
100
AcDbEntity
  8
0
  6
Continuous
 62
     0
370
    18
100
AcDbLine
 10
5.0
 20
0.0
 30
0.0
 11
10.75
 21
0.0
 31
0.0
  0
ENDBLK
  5
1DF
330
1DD
100
AcDbEntity
  8
0
100
AcDbBlockEnd
  0
BLOCK
  5
280
330
27F
100
AcDbEntity
  8
0
100
AcDbBlockBegin
  2
SW_CENTERMARKSYMBOL_1
 70
     0
 10
0.0
 20
0.0
 30
0.0
  3
SW_CENTERMARKSYMBOL_1
  1

  0
LINE
  5
282
330
27F
100
AcDbEntity
  8
0
  6
Continuous
 62
     0
370
    18
100
AcDbLine
 10
0.0
 20
0.0
 30
0.0
 11
0.0
 21
2.5
 31
0.0
  0
LINE
  5
283
330
27F
100
AcDbEntity
  8
0
  6
Continuous
 62
     0
370
    18
100
AcDbLine
 10
0.0
 20
0.0
 30
0.0
 11
-2.5
 21
0.0
 31
0.0
  0
LINE
  5
284
330
27F
100
AcDbEntity
  8
0
  6
Continuous
 62
     0
370
    18
100
AcDbLine
 10
0.0
 20
0.0
 30
0.0
 11
0.0
 21
-2.5
 31
0.0
  0
LINE
  5
285
330
27F
100
AcDbEntity
  8
0
  6
Continuous
 62
     0
370
    18
100
AcDbLine
 10
0.0
 20
0.0
 30
0.0
 11
2.5
 21
0.0
 31
0.0
  0
LINE
  5
286
330
27F
100
AcDbEntity
  8
0
  6
Continuous
 62
     0
370
    18
100
AcDbLine
 10
0.0
 20
5.0
 30
0.0
 11
0.0
 21
11.6463098458
 31
0.0
  0
LINE
  5
287
330
27F
100
AcDbEntity
  8
0
  6
Continuous
 62
     0
370
    18
100
AcDbLine
 10
-5.0
 20
0.0
 30
0.0
 11
-42.7837620423
 21
0.0
 31
0.0
  0
LINE
  5
288
330
27F
100
AcDbEntity
  8
0
  6
Continuous
 62
     0
370
    18
100
AcDbLine
 10
0.0
 20
-5.0
 30
0.0
 11
0.0
 21
-13.0529147941
 31
0.0
  0
LINE
  5
289
330
27F
100
AcDbEntity
  8
0
  6
Continuous
 62
     0
370
    18
100
AcDbLine
 10
5.0
 20
0.0
 30
0.0
 11
15.5729552416
 21
0.0
 31
0.0
  0
ENDBLK
  5
281
330
27F
100
AcDbEntity
  8
0
100
AcDbBlockEnd
  0
BLOCK
  5
28C
330
28B
100
AcDbEntity
  8
0
100
AcDbBlockBegin
  2
SW_CENTERMARKSYMBOL_2
 70
     0
 10
0.0
 20
0.0
 30
0.0
  3
SW_CENTERMARKSYMBOL_2
  1

  0
LINE
  5
28E
330
28B
100
AcDbEntity
  8
0
  6
Continuous
 62
     0
370
    18
100
AcDbLine
 10
0.0
 20
0.0
 30
0.0
 11
0.0
 21
2.5
 31
0.0
  0
LINE
  5
28F
330
28B
100
AcDbEntity
  8
0
  6
Continuous
 62
     0
370
    18
100
AcDbLine
 10
0.0
 20
0.0
 30
0.0
 11
-2.5
 21
0.0
 31
0.0
  0
LINE
  5
290
330
28B
100
AcDbEntity
  8
0
  6
Continuous
 62
     0
370
    18
100
AcDbLine
 10
0.0
 20
0.0
 30
0.0
 11
0.0
 21
-2.5
 31
0.0
  0
LINE
  5
291
330
28B
100
AcDbEntity
  8
0
  6
Continuous
 62
     0
370
    18
100
AcDbLine
 10
0.0
 20
0.0
 30
0.0
 11
2.5
 21
0.0
 31
0.0
  0
LINE
  5
292
330
28B
100
AcDbEntity
  8
0
  6
Continuous
 62
     0
370
    18
100
AcDbLine
 10
0.0
 20
5.0
 30
0.0
 11
0.0
 21
9.95
 31
0.0
  0
LINE
  5
293
330
28B
100
AcDbEntity
  8
0
  6
Continuous
 62
     0
370
    18
100
AcDbLine
 10
-5.0
 20
0.0
 30
0.0
 11
-9.95
 21
0.0
 31
0.0
  0
LINE
  5
294
330
28B
100
AcDbEntity
  8
0
  6
Continuous
 62
     0
370
    18
100
AcDbLine
 10
0.0
 20
-5.0
 30
0.0
 11
0.0
 21
-9.95
 31
0.0
  0
LINE
  5
295
330
28B
100
AcDbEntity
  8
0
  6
Continuous
 62
     0
370
    18
100
AcDbLine
 10
5.0
 20
0.0
 30
0.0
 11
9.95
 21
0.0
 31
0.0
  0
ENDBLK
  5
28D
330
28B
100
AcDbEntity
  8
0
100
AcDbBlockEnd
  0
ENDSEC
  0
SECTION
  2
ENTITIES
  0
MTEXT
  5
64
330
1F
100
AcDbEntity
  8
0
  6
Continuous
 62
     7
370
     0
100
AcDbMText
 10
57.457190871
 20
87.5176304502
 30
0.0
 40
3.5
 41
0.0
 71
     1
 72
     1
  1
エースボール　アングル型
  7
SLDTEXTSTYLE0
 73
     1
 44
1.0
  0
MTEXT
  5
65
330
1F
100
AcDbEntity
  8
0
  6
Continuous
 62
     7
370
     0
100
AcDbMText
 10
57.457190871
 20
82.9919359197
 30
0.0
 40
3.5
 41
0.0
 71
     1
 72
     1
  1
BR-3308
  7
SLDTEXTSTYLE0
 73
     1
 44
1.0
  0
LINE
  5
66
330
1F
100
AcDbEntity
  8
0
  6
Continuous
 62
     7
370
    25
100
AcDbLine
 10
34.9376532106
 20
33.2490015366
 30
0.0
 11
35.8411801564
 21
34.8139561129
 31
0.0
  0
LINE
  5
67
330
1F
100
AcDbEntity
  8
0
  6
Continuous
 62
     7
370
    25
100
AcDbLine
 10
35.8411801564
 20
51.3139561129
 30
0.0
 11
34.9376532106
 21
52.8789106891
 31
0.0
  0
LINE
  5
68
330
1F
100
AcDbEntity
  8
0
  6
Continuous
 62
     7
370
    25
100
AcDbLine
 10
23.7447071023
 20
52.8789106891
 30
0.0
 11
22.8411801564
 21
51.3139561129
 31
0.0
  0
LINE
  5
69
330
1F
100
AcDbEntity
  8
0
  6
Continuous
 62
     7
370
    25
100
AcDbLine
 10
22.8411801564
 20
34.8139561129
 30
0.0
 11
23.7447071023
 21
33.2490015366
 31
0.0
  0
LINE
  5
6A
330
1F
100
AcDbEntity
  8
0
  6
Continuous
 62
     7
370
    25
100
AcDbLine
 10
63.0395141066
 20
61.5639561129
 30
0.0
 11
61.0895141066
 21
69.5639561128
 31
0.0
  0
LINE
  5
6B
330
1F
100
AcDbEntity
  8
0
  6
Continuous
 62
     7
370
    25
100
AcDbLine
 10
62.5895141066
 20
53.5639561129
 30
0.0
 11
63.0395141066
 21
61.5639561129
 31
0.0
  0
LINE
  5
6C
330
1F
100
AcDbEntity
  8
0
  6
Continuous
 62
     7
370
    25
100
AcDbLine
 10
48.520768689
 20
54.7860968701
 30
0.0
 11
48.5895141066
 21
53.5639561129
 31
0.0
  0
LINE
  5
6D
330
1F
100
AcDbEntity
  8
0
  6
Continuous
 62
     7
370
    25
100
AcDbLine
 10
50.0895141066
 20
69.5639561128
 30
0.0
 11
49.8362825721
 21
68.5250575097
 31
0.0
  0
LINE
  5
6E
330
1F
100
AcDbEntity
  8
0
  6
Continuous
 62
     7
370
    25
100
AcDbLine
 10
41.2895141066
 20
34.5639561129
 30
0.0
 11
44.0895141066
 21
34.5639561129
 31
0.0
  0
LINE
  5
6F
330
1F
100
AcDbEntity
  8
0
  6
Continuous
 62
     7
370
    25
100
AcDbLine
 10
44.0895141066
 20
51.5639561129
 30
0.0
 11
41.2895141066
 21
51.5639561129
 31
0.0
  0
LINE
  5
70
330
1F
100
AcDbEntity
  8
0
  6
Continuous
 62
     7
370
    25
100
AcDbLine
 10
41.2895141066
 20
51.5639561129
 30
0.0
 11
41.0895141066
 21
51.3639561129
 31
0.0
  0
LINE
  5
71
330
1F
100
AcDbEntity
  8
0
  6
Continuous
 62
     7
370
    25
100
AcDbLine
 10
41.0895141066
 20
34.7639561129
 30
0.0
 11
41.2895141066
 21
34.5639561129
 31
0.0
  0
LINE
  5
72
330
1F
100
AcDbEntity
  8
0
  6
Continuous
 62
     7
370
    25
100
AcDbLine
 10
41.0895141066
 20
49.6424561129
 30
0.0
 11
35.8411801564
 21
49.6424561129
 31
0.0
  0
LINE
  5
73
330
1F
100
AcDbEntity
  8
0
  6
Continuous
 62
     7
370
    25
100
AcDbLine
 10
35.8411801564
 20
36.4854561129
 30
0.0
 11
41.0895141066
 21
36.4854561129
 31
0.0
  0
LINE
  5
74
330
1F
100
AcDbEntity
  8
0
  6
Continuous
 62
     7
370
    25
100
AcDbLine
 10
66.7306453595
 20
33.3263518058
 30
0.0
 11
67.5895141066
 21
34.8139561129
 31
0.0
  0
LINE
  5
75
330
1F
100
AcDbEntity
  8
0
  6
Continuous
 62
     7
370
    25
100
AcDbLine
 10
67.5895141066
 20
51.3139561129
 30
0.0
 11
66.7306453595
 21
52.8015604199
 31
0.0
  0
LINE
  5
76
330
1F
100
AcDbEntity
  8
0
  6
Continuous
 62
     7
370
    25
100
AcDbLine
 10
47.0632016066
 20
32.5639561129
 30
0.0
 11
47.388838112
 21
22.1435879389
 31
0.0
  0
LINE
  5
77
330
1F
100
AcDbEntity
  8
0
  6
Continuous
 62
     7
370
    25
100
AcDbLine
 10
63.7901901011
 20
22.1435879389
 30
0.0
 11
64.1158266066
 21
32.5639561129
 31
0.0
  0
LINE
  5
78
330
1F
100
AcDbEntity
  8
0
  6
Continuous
 62
     7
370
    25
100
AcDbLine
 10
47.388838112
 20
22.1435879389
 30
0.0
 11
48.5895141066
 21
20.0639561129
 31
0.0
  0
LINE
  5
79
330
1F
100
AcDbEntity
  8
0
  6
Continuous
 62
     7
370
    25
100
AcDbLine
 10
62.5895141066
 20
20.0639561129
 30
0.0
 11
63.7901901011
 21
22.1435879389
 31
0.0
  0
SPLINE
  5
7A
330
1F
100
AcDbEntity
  8
0
  6
Continuous
 62
     7
370
    25
100
AcDbSpline
210
0.0
220
0.0
230
1.0
 70
     8
 71
     3
 72
    12
 73
     8
 74
     0
 42
0.00000001
 43
0.00000001
 40
0.0
 40
0.0
 40
0.0
 40
0.0
 40
0.0181991090777496
 40
0.3547846591729351
 40
0.68678195347771
 40
0.9778975203184936
 40
1.0
 40
1.0
 40
1.0
 40
1.0
 10
61.75567907078491
 20
51.84717934215147
 30
0.0
 10
61.75194074095379
 20
51.85017910719932
 30
0.0
 10
61.67906343309526
 20
51.90865837756117
 30
0.0
 10
61.58140618328512
 20
52.06902727935476
 30
0.0
 10
61.49223097029151
 20
52.30341126463386
 30
0.0
 10
61.46288351353677
 20
52.47542000364988
 30
0.0
 10
61.47209765543818
 20
52.5573754120274
 30
0.0
 10
61.47274785866376
 20
52.56315866037011
 30
0.0
  0
SPLINE
  5
7B
330
1F
100
AcDbEntity
  8
0
  6
Continuous
 62
     7
370
    25
100
AcDbSpline
210
0.0
220
0.0
230
1.0
 70
     8
 71
     3
 72
    11
 73
     7
 74
     0
 42
0.00000001
 43
0.00000001
 40
0.0
 40
0.0
 40
0.0
 40
0.0
 40
0.1663128497046995
 40
0.493766857935619
 40
0.8315024725681934
 40
1.0
 40
1.0
 40
1.0
 40
1.0
 10
49.69666253571105
 20
52.56341949655415
 30
0.0
 10
49.69835740251453
 20
52.51980192409644
 30
0.0
 10
49.70338929907374
 20
52.39030554578619
 30
0.0
 10
49.64131168948364
 20
52.17872645787303
 30
0.0
 10
49.54378266005475
 20
51.97900557246282
 30
0.0
 10
49.44698253903375
 20
51.88783794417555
 30
0.0
 10
49.41476303443825
 20
51.85749319059899
 30
0.0
  0
LINE
  5
7C
330
1F
100
AcDbEntity
  8
0
  6
Continuous
 62
     7
370
    25
100
AcDbLine
 10
61.4895141066
 20
52.5594252928
 30
0.0
 11
61.4895141066
 21
53.5639561129
 31
0.0
  0
LINE
  5
7D
330
1F
100
AcDbEntity
  8
0
  6
Continuous
 62
     7
370
    25
100
AcDbLine
 10
49.6895141066
 20
53.5639561129
 30
0.0
 11
49.6895141066
 21
52.5639561129
 31
0.0
  0
LINE
  5
7E
330
1F
100
AcDbEntity
  8
0
  6
Continuous
 62
     7
370
    25
100
AcDbLine
 10
49.4193471992
 20
51.8586938421
 30
0.0
 11
48.8749829268
 21
52.8015604199
 31
0.0
  0
LINE
  5
7F
330
1F
100
AcDbEntity
  8
0
  6
Continuous
 62
     7
370
    25
100
AcDbLine
 10
62.3040452864
 20
52.8015604199
 30
0.0
 11
61.7596810139
 21
51.8586938421
 31
0.0
  0
LINE
  5
80
330
1F
100
AcDbEntity
  8
0
  6
Continuous
 62
     7
370
    25
100
AcDbLine
 10
44.8040452864
 20
52.8015604199
 30
0.0
 11
44.0895141066
 21
51.5639561129
 31
0.0
  0
LINE
  5
81
330
1F
100
AcDbEntity
  8
0
  6
Continuous
 62
     7
370
    25
100
AcDbLine
 10
44.0895141066
 20
34.5639561129
 30
0.0
 11
44.8040452864
 21
33.3263518058
 31
0.0
  0
LINE
  5
82
330
1F
100
AcDbEntity
  8
0
  6
Continuous
 62
     7
370
    25
100
AcDbLine
 10
65.3271184136
 20
32.5639561129
 30
0.0
 11
65.3271184136
 21
33.3263518058
 31
0.0
  0
LINE
  5
83
330
1F
100
AcDbEntity
  8
0
  6
Continuous
 62
     7
370
    25
100
AcDbLine
 10
65.3271184136
 20
33.3263518058
 30
0.0
 11
66.7332134149
 21
33.3263518058
 31
0.0
  0
LINE
  5
84
330
1F
100
AcDbEntity
  8
0
  6
Continuous
 62
     7
370
    25
100
AcDbLine
 10
48.8775509822
 20
52.8015604199
 30
0.0
 11
44.8014849051
 21
52.8015604199
 31
0.0
  0
LINE
  5
85
330
1F
100
AcDbEntity
  8
0
  6
Continuous
 62
     7
370
    25
100
AcDbLine
 10
66.7332134149
 20
52.8015604199
 30
0.0
 11
62.3014772309
 21
52.8015604199
 31
0.0
  0
LINE
  5
86
330
1F
100
AcDbEntity
  8
0
  6
Continuous
 62
     7
370
    25
100
AcDbLine
 10
44.8014849051
 20
33.3263518058
 30
0.0
 11
45.8519097995
 21
33.3263518058
 31
0.0
  0
LINE
  5
87
330
1F
100
AcDbEntity
  8
0
  6
Continuous
 62
     7
370
    25
100
AcDbLine
 10
45.8519097995
 20
33.3263518058
 30
0.0
 11
45.8519097995
 21
32.5639561129
 31
0.0
  0
SPLINE
  5
88
330
1F
100
AcDbEntity
  8
0
  6
Continuous
 62
     7
370
    25
100
AcDbSpline
210
0.0
220
0.0
230
1.0
 70
     8
 71
     3
 72
    14
 73
    10
 74
     0
 42
0.00000001
 43
0.00000001
 40
0.0
 40
0.0
 40
0.0
 40
0.0
 40
0.132317364830439
 40
0.2645973188387831
 40
0.3998364273285067
 40
0.5350511314348789
 40
0.6502525552916444
 40
0.7654719494863401
 40
1.0
 40
1.0
 40
1.0
 40
1.0
 10
34.93765321057037
 20
33.24900153662904
 30
0.0
 10
35.05322138676762
 20
33.46102381261836
 30
0.0
 10
35.28432506393104
 20
33.88500841836355
 30
0.0
 10
35.53301482125834
 20
34.53791204751393
 30
0.0
 10
35.68242347296782
 20
35.20310320389017
 30
0.0
 10
35.71240946953779
 20
35.8442698552605
 30
0.0
 10
35.63438353230882
 20
36.45056506639128
 30
0.0
 10
35.42973834947829
 20
37.21676305902528
 30
0.0
 10
35.13517607308741
 20
37.77927713072415
 30
0.0
 10
34.93765321057037
 20
38.15647882474094
 30
0.0
  0
SPLINE
  5
89
330
1F
100
AcDbEntity
  8
0
  6
Continuous
 62
     7
370
    25
100
AcDbSpline
210
0.0
220
0.0
230
1.0
 70
     8
 71
     3
 72
    14
 73
    10
 74
     0
 42
0.00000001
 43
0.00000001
 40
0.0
 40
0.0
 40
0.0
 40
0.0
 40
0.1120237311809919
 40
0.2377726069116395
 40
0.363488949183057
 40
0.4922970128128267
 40
0.6211033992438478
 40
0.8095153688397871
 40
1.0
 40
1.0
 40
1.0
 40
1.0
 10
34.93765321057037
 20
38.15647882474094
 30
0.0
 10
35.03632875948711
 20
38.51522940407781
 30
0.0
 10
35.24576958293607
 20
39.2766846741417
 30
0.0
 10
35.48594705271791
 20
40.46074589000499
 30
0.0
 10
35.65323850055643
 20
41.71350828632308
 30
0.0
 10
35.71471382149439
 20
42.98673863207632
 30
0.0
 10
35.65751818305093
 20
44.46819639855752
 30
0.0
 10
35.42357694382734
 20
46.14295366693224
 30
0.0
 10
35.10021740818171
 20
47.35972147897375
 30
0.0
 10
34.93765321057037
 20
47.97143340096461
 30
0.0
  0
SPLINE
  5
8A
330
1F
100
AcDbEntity
  8
0
  6
Continuous
 62
     7
370
    25
100
AcDbSpline
210
0.0
220
0.0
230
1.0
 70
     8
 71
     3
 72
    14
 73
    10
 74
     0
 42
0.00000001
 43
0.00000001
 40
0.0
 40
0.0
 40
0.0
 40
0.0
 40
0.1323173648304405
 40
0.2645973188387865
 40
0.3998364273285117
 40
0.5350511314348856
 40
0.6502525552916494
 40
0.7654719494863436
 40
0.9999999999999999
 40
0.9999999999999999
 40
0.9999999999999999
 40
0.9999999999999999
 10
34.93765321057037
 20
47.97143340096461
 30
0.0
 10
35.05322138676763
 20
48.18345567695394
 30
0.0
 10
35.28432506393103
 20
48.6074402826991
 30
0.0
 10
35.53301482125833
 20
49.26034391184947
 30
0.0
 10
35.68242347296782
 20
49.92553506822571
 30
0.0
 10
35.71240946953775
 20
50.566701719596
 30
0.0
 10
35.6343835323088
 20
51.17299693072676
 30
0.0
 10
35.42973834947826
 20
51.93919492336072
 30
0.0
 10
35.1351760730874
 20
52.50170899505957
 30
0.0
 10
34.93765321057037
 20
52.87891068907634
 30
0.0
  0
LINE
  5
8B
330
1F
100
AcDbEntity
  8
0
  6
Continuous
 62
     7
370
    25
100
AcDbLine
 10
35.8411801564
 20
43.0639561129
 30
0.0
 11
35.8411801564
 21
51.3139561129
 31
0.0
  0
LINE
  5
8C
330
1F
100
AcDbEntity
  8
0
  6
Continuous
 62
     7
370
    25
100
AcDbLine
 10
35.8411801564
 20
34.8139561129
 30
0.0
 11
35.8411801564
 21
43.0639561129
 31
0.0
  0
LINE
  5
8D
330
1F
100
AcDbEntity
  8
0
  6
Continuous
 62
     7
370
    25
100
AcDbLine
 10
23.7447071023
 20
38.1564788247
 30
0.0
 11
34.9376532106
 21
38.1564788247
 31
0.0
  0
LINE
  5
8E
330
1F
100
AcDbEntity
  8
0
  6
Continuous
 62
     7
370
    25
100
AcDbLine
 10
23.7447071023
 20
33.2490015366
 30
0.0
 11
34.9376532106
 21
33.2490015366
 31
0.0
  0
SPLINE
  5
8F
330
1F
100
AcDbEntity
  8
0
  6
Continuous
 62
     7
370
    25
100
AcDbSpline
210
0.0
220
0.0
230
1.0
 70
     8
 71
     3
 72
    14
 73
    10
 74
     0
 42
0.00000001
 43
0.00000001
 40
0.0
 40
0.0
 40
0.0
 40
0.0
 40
0.132317364830439
 40
0.2645973188387831
 40
0.3998364273285067
 40
0.5350511314348789
 40
0.6502525552916444
 40
0.7654719494863401
 40
1.0
 40
1.0
 40
1.0
 40
1.0
 10
23.74470710227487
 20
33.24900153662904
 30
0.0
 10
23.62913892607759
 20
33.46102381261836
 30
0.0
 10
23.3980352489142
 20
33.88500841836355
 30
0.0
 10
23.14934549158689
 20
34.53791204751393
 30
0.0
 10
22.9999368398774
 20
35.20310320389017
 30
0.0
 10
22.96995084330745
 20
35.8442698552605
 30
0.0
 10
23.04797678053641
 20
36.45056506639128
 30
0.0
 10
23.25262196336694
 20
37.21676305902528
 30
0.0
 10
23.54718423975782
 20
37.77927713072415
 30
0.0
 10
23.74470710227487
 20
38.15647882474094
 30
0.0
  0
LINE
  5
90
330
1F
100
AcDbEntity
  8
0
  6
Continuous
 62
     7
370
    25
100
AcDbLine
 10
23.7447071023
 20
47.971433401
 30
0.0
 11
34.9376532106
 21
47.971433401
 31
0.0
  0
SPLINE
  5
91
330
1F
100
AcDbEntity
  8
0
  6
Continuous
 62
     7
370
    25
100
AcDbSpline
210
0.0
220
0.0
230
1.0
 70
     8
 71
     3
 72
    14
 73
    10
 74
     0
 42
0.00000001
 43
0.00000001
 40
0.0
 40
0.0
 40
0.0
 40
0.0
 40
0.112023731180992
 40
0.2377726069116394
 40
0.363488949183057
 40
0.4922970128128267
 40
0.6211033992438478
 40
0.8095153688397871
 40
1.0
 40
1.0
 40
1.0
 40
1.0
 10
23.74470710227486
 20
38.15647882474094
 30
0.0
 10
23.64603155335812
 20
38.51522940407781
 30
0.0
 10
23.43659072990915
 20
39.2766846741417
 30
0.0
 10
23.19641326012733
 20
40.460745890005
 30
0.0
 10
23.0291218122888
 20
41.71350828632308
 30
0.0
 10
22.96764649135086
 20
42.98673863207632
 30
0.0
 10
23.0248421297943
 20
44.46819639855752
 30
0.0
 10
23.2587833690179
 20
46.14295366693224
 30
0.0
 10
23.58214290466351
 20
47.35972147897375
 30
0.0
 10
23.74470710227487
 20
47.97143340096461
 30
0.0
  0
SPLINE
  5
92
330
1F
100
AcDbEntity
  8
0
  6
Continuous
 62
     7
370
    25
100
AcDbSpline
210
0.0
220
0.0
230
1.0
 70
     8
 71
     3
 72
    14
 73
    10
 74
     0
 42
0.00000001
 43
0.00000001
 40
0.0
 40
0.0
 40
0.0
 40
0.0
 40
0.1323173648304405
 40
0.2645973188387865
 40
0.3998364273285117
 40
0.5350511314348856
 40
0.6502525552916494
 40
0.7654719494863436
 40
0.9999999999999999
 40
0.9999999999999999
 40
0.9999999999999999
 40
0.9999999999999999
 10
23.74470710227487
 20
47.97143340096461
 30
0.0
 10
23.62913892607761
 20
48.18345567695394
 30
0.0
 10
23.39803524891421
 20
48.6074402826991
 30
0.0
 10
23.1493454915869
 20
49.26034391184947
 30
0.0
 10
22.99993683987741
 20
49.92553506822571
 30
0.0
 10
22.96995084330747
 20
50.566701719596
 30
0.0
 10
23.04797678053643
 20
51.17299693072676
 30
0.0
 10
23.25262196336695
 20
51.93919492336072
 30
0.0
 10
23.54718423975783
 20
52.50170899505957
 30
0.0
 10
23.74470710227487
 20
52.87891068907634
 30
0.0
  0
LINE
  5
93
330
1F
100
AcDbEntity
  8
0
  6
Continuous
 62
     7
370
    25
100
AcDbLine
 10
22.8411801564
 20
43.0639561129
 30
0.0
 11
22.8411801564
 21
51.3139561129
 31
0.0
  0
LINE
  5
94
330
1F
100
AcDbEntity
  8
0
  6
Continuous
 62
     7
370
    25
100
AcDbLine
 10
22.8411801564
 20
34.8139561129
 30
0.0
 11
22.8411801564
 21
43.0639561129
 31
0.0
  0
LINE
  5
95
330
1F
100
AcDbEntity
  8
0
  6
Continuous
 62
     7
370
    25
100
AcDbLine
 10
23.7447071023
 20
52.8789106891
 30
0.0
 11
34.9376532106
 21
52.8789106891
 31
0.0
  0
SPLINE
  5
96
330
1F
100
AcDbEntity
  8
0
  6
Continuous
 62
     7
370
    25
100
AcDbSpline
210
0.0
220
0.0
230
1.0
 70
     8
 71
     3
 72
    15
 73
    11
 74
     0
 42
0.00000001
 43
0.00000001
 40
0.0
 40
0.0
 40
0.0
 40
0.0
 40
0.0081667445812695
 40
0.3321939991490083
 40
0.4756279600585602
 40
0.6866830973284899
 40
0.8457435502264811
 40
0.8967566214763185
 40
0.9909540928118029
 40
1.0
 40
1.0
 40
1.0
 40
1.0
 10
50.4904945929903
 20
70.41395611285269
 30
0.0
 10
50.49000705884742
 20
70.41395343650692
 30
0.0
 10
50.47017591131534
 20
70.41384457232007
 30
0.0
 10
50.44189513130608
 20
70.40429856005068
 30
0.0
 10
50.40406583281725
 20
70.36693617679613
 30
0.0
 10
50.37748193624975
 20
70.32207066206145
 30
0.0
 10
50.36031211249478
 20
70.26419436248453
 30
0.0
 10
50.35249511627832
 20
70.21351832251261
 30
0.0
 10
50.35049942984244
 20
70.18482404299259
 30
0.0
 10
50.35043446589165
 20
70.1656372114371
 30
0.0
 10
50.35042877392497
 20
70.16395611285269
 30
0.0
  0
LINE
  5
97
330
1F
100
AcDbEntity
  8
0
  6
Continuous
 62
     7
370
    25
100
AcDbLine
 10
50.490494593
 20
70.4139561129
 30
0.0
 11
60.6885336202
 21
70.4139561129
 31
0.0
  0
SPLINE
  5
98
330
1F
100
AcDbEntity
  8
0
  6
Continuous
 62
     7
370
    25
100
AcDbSpline
210
0.0
220
0.0
230
1.0
 70
     8
 71
     3
 72
    15
 73
    11
 74
     0
 42
0.00000001
 43
0.00000001
 40
0.0
 40
0.0
 40
0.0
 40
0.0
 40
0.0090459071881971
 40
0.1032433785236874
 40
0.1542564497735246
 40
0.313316902671511
 40
0.5243720399414428
 40
0.6678060008509903
 40
0.9918332554187292
 40
1.0
 40
1.0
 40
1.0
 40
1.0
 10
60.8285994392412
 20
70.16395611285269
 30
0.0
 10
60.82859374727452
 20
70.16563721143709
 30
0.0
 10
60.82852878332374
 20
70.18482404299264
 30
0.0
 10
60.82653309688785
 20
70.2135183225126
 30
0.0
 10
60.81871610067139
 20
70.26419436248457
 30
0.0
 10
60.80154627691642
 20
70.32207066206144
 30
0.0
 10
60.77496238034893
 20
70.36693617679613
 30
0.0
 10
60.73713308186009
 20
70.40429856005066
 30
0.0
 10
60.70885230185085
 20
70.41384457232013
 30
0.0
 10
60.68902115431876
 20
70.41395343650692
 30
0.0
 10
60.68853362017587
 20
70.41395611285269
 30
0.0
  0
LINE
  5
99
330
1F
100
AcDbEntity
  8
0
  6
Continuous
 62
     7
370
    25
100
AcDbLine
 10
60.8285994392
 20
70.1639561129
 30
0.0
 11
50.3504287739
 21
70.1639561129
 31
0.0
  0
LINE
  5
9A
330
1F
100
AcDbEntity
  8
0
  6
Continuous
 62
     7
370
    25
100
AcDbLine
 10
50.3504287739
 20
70.1639561129
 30
0.0
 11
50.3504287739
 21
69.5639561129
 31
0.0
  0
LINE
  5
9B
330
1F
100
AcDbEntity
  8
0
  6
Continuous
 62
     7
370
    25
100
AcDbLine
 10
60.8285994392
 20
69.5639561129
 30
0.0
 11
60.8285994392
 21
70.1639561129
 31
0.0
  0
LINE
  5
9C
330
1F
100
AcDbEntity
  8
0
  6
Continuous
 62
     7
370
    25
100
AcDbLine
 10
50.3504287739
 20
69.5639561129
 30
0.0
 11
60.8285994392
 21
69.5639561129
 31
0.0
  0
LINE
  5
9D
330
1F
100
AcDbEntity
  8
0
  6
Continuous
 62
     7
370
    25
100
AcDbLine
 10
50.1122885315
 20
70.1639561129
 30
0.0
 11
50.3504287739
 21
70.1639561129
 31
0.0
  0
SPLINE
  5
9E
330
1F
100
AcDbEntity
  8
0
  6
Continuous
 62
     7
370
    25
100
AcDbSpline
210
0.0
220
0.0
230
1.0
 70
     8
 71
     3
 72
    15
 73
    11
 74
     0
 42
0.00000001
 43
0.00000001
 40
0.0
 40
0.0
 40
0.0
 40
0.0
 40
0.0089557228015919
 40
0.0999003359608148
 40
0.153163246058169
 40
0.3125636920784848
 40
0.5249666935694999
 40
0.6689893599352451
 40
0.9919152533810159
 40
1.0
 40
1.0
 40
1.0
 40
1.0
 10
50.11228853153142
 20
70.16395611285269
 30
0.0
 10
50.11230428711003
 20
70.16563723842559
 30
0.0
 10
50.11248003926659
 20
70.18439005305004
 30
0.0
 10
50.11790905528612
 20
70.21315228215751
 30
0.0
 10
50.13944453899342
 20
70.26403935562587
 30
0.0
 10
50.18714996725825
 20
70.3221750057585
 30
0.0
 10
50.25954091225016
 20
70.3668828789419
 30
0.0
 10
50.36146002426794
 20
70.40416470240365
 30
0.0
 10
50.4368151157224
 20
70.41384385724123
 30
0.0
 10
50.48921476144616
 20
70.413953436443
 30
0.0
 10
50.4904945929903
 20
70.41395611285269
 30
0.0
  0
LINE
  5
9F
330
1F
100
AcDbEntity
  8
0
  6
Continuous
 62
     7
370
    25
100
AcDbLine
 10
60.8285994392
 20
70.1639561129
 30
0.0
 11
61.0667396816
 21
70.1639561129
 31
0.0
  0
SPLINE
  5
A0
330
1F
100
AcDbEntity
  8
0
  6
Continuous
 62
     7
370
    25
100
AcDbSpline
210
0.0
220
0.0
230
1.0
 70
     8
 71
     3
 72
    15
 73
    11
 74
     0
 42
0.00000001
 43
0.00000001
 40
0.0
 40
0.0
 40
0.0
 40
0.0
 40
0.0080847466189818
 40
0.3310106400647567
 40
0.4750333064304972
 40
0.6874363079215137
 40
0.8468367539418253
 40
0.9000996640391794
 40
0.9910442771984082
 40
1.0
 40
1.0
 40
1.0
 40
1.0
 10
60.68853362017587
 20
70.41395611285269
 30
0.0
 10
60.68981345172001
 20
70.41395343644301
 30
0.0
 10
60.74221309744379
 20
70.41384385724122
 30
0.0
 10
60.81756818889822
 20
70.40416470240365
 30
0.0
 10
60.91948730091602
 20
70.36688287894191
 30
0.0
 10
60.99187824590791
 20
70.3221750057585
 30
0.0
 10
61.03958367417274
 20
70.26403935562584
 30
0.0
 10
61.06111915788005
 20
70.21315228215754
 30
0.0
 10
61.06654817389959
 20
70.18439005305005
 30
0.0
 10
61.06672392605613
 20
70.1656372384256
 30
0.0
 10
61.06673968163474
 20
70.16395611285269
 30
0.0
  0
LINE
  5
A1
330
1F
100
AcDbEntity
  8
0
  6
Continuous
 62
     7
370
    25
100
AcDbLine
 10
50.1122885315
 20
69.5639561129
 30
0.0
 11
50.1122885315
 21
70.1639561129
 31
0.0
  0
LINE
  5
A2
330
1F
100
AcDbEntity
  8
0
  6
Continuous
 62
     7
370
    25
100
AcDbLine
 10
50.3504287739
 20
69.5639561129
 30
0.0
 11
50.1122885315
 21
69.5639561129
 31
0.0
  0
LINE
  5
A3
330
1F
100
AcDbEntity
  8
0
  6
Continuous
 62
     7
370
    25
100
AcDbLine
 10
61.0667396816
 20
70.1639561129
 30
0.0
 11
61.0667396816
 21
69.5639561129
 31
0.0
  0
LINE
  5
A4
330
1F
100
AcDbEntity
  8
0
  6
Continuous
 62
     7
370
    25
100
AcDbLine
 10
61.0667396816
 20
69.5639561129
 30
0.0
 11
60.8285994392
 21
69.5639561129
 31
0.0
  0
LINE
  5
A5
330
1F
100
AcDbEntity
  8
0
  6
Continuous
 62
     7
370
    25
100
AcDbLine
 10
49.5895141066
 20
70.1639561129
 30
0.0
 11
49.8395141066
 21
70.1639561129
 31
0.0
  0
ARC
  5
A6
330
1F
100
AcDbEntity
  8
0
  6
Continuous
 62
     7
370
    25
100
AcDbCircle
 10
49.8395141066
 20
70.1639561129
 30
0.0
 40
0.25
100
AcDbArc
 50
90.0
 51
180.0
  0
LINE
  5
A7
330
1F
100
AcDbEntity
  8
0
  6
Continuous
 62
     7
370
    25
100
AcDbLine
 10
49.8395141066
 20
70.4139561129
 30
0.0
 11
49.8395141066
 21
70.1639561129
 31
0.0
  0
LINE
  5
A8
330
1F
100
AcDbEntity
  8
0
  6
Continuous
 62
     7
370
    25
100
AcDbLine
 10
49.5895141066
 20
69.5639561129
 30
0.0
 11
49.5895141066
 21
70.1639561129
 31
0.0
  0
LINE
  5
A9
330
1F
100
AcDbEntity
  8
0
  6
Continuous
 62
     7
370
    25
100
AcDbLine
 10
49.8395141066
 20
70.1639561129
 30
0.0
 11
49.8395141066
 21
69.5639561129
 31
0.0
  0
LINE
  5
AA
330
1F
100
AcDbEntity
  8
0
  6
Continuous
 62
     7
370
    25
100
AcDbLine
 10
49.8395141066
 20
69.5639561129
 30
0.0
 11
49.5895141066
 21
69.5639561129
 31
0.0
  0
LINE
  5
AB
330
1F
100
AcDbEntity
  8
0
  6
Continuous
 62
     7
370
    25
100
AcDbLine
 10
50.1122885315
 20
70.1639561129
 30
0.0
 11
49.8395141066
 21
70.1639561129
 31
0.0
  0
LINE
  5
AC
330
1F
100
AcDbEntity
  8
0
  6
Continuous
 62
     7
370
    25
100
AcDbLine
 10
49.8395141066
 20
70.4139561129
 30
0.0
 11
50.490494593
 21
70.4139561129
 31
0.0
  0
LINE
  5
AD
330
1F
100
AcDbEntity
  8
0
  6
Continuous
 62
     7
370
    25
100
AcDbLine
 10
50.1122885315
 20
69.5639561129
 30
0.0
 11
49.8395141066
 21
69.5639561129
 31
0.0
  0
LINE
  5
AE
330
1F
100
AcDbEntity
  8
0
  6
Continuous
 62
     7
370
    25
100
AcDbLine
 10
61.3395141066
 20
70.1639561129
 30
0.0
 11
61.3395141066
 21
70.4139561129
 31
0.0
  0
LINE
  5
AF
330
1F
100
AcDbEntity
  8
0
  6
Continuous
 62
     7
370
    25
100
AcDbLine
 10
61.3395141066
 20
70.1639561129
 30
0.0
 11
61.0667396816
 21
70.1639561129
 31
0.0
  0
LINE
  5
B0
330
1F
100
AcDbEntity
  8
0
  6
Continuous
 62
     7
370
    25
100
AcDbLine
 10
60.6885336202
 20
70.4139561129
 30
0.0
 11
61.3395141066
 21
70.4139561129
 31
0.0
  0
ARC
  5
B1
330
1F
100
AcDbEntity
  8
0
  6
Continuous
 62
     7
370
    25
100
AcDbCircle
 10
61.3395141066
 20
70.1639561129
 30
0.0
 40
0.25
100
AcDbArc
 50
0.0
 51
90.0
  0
LINE
  5
B2
330
1F
100
AcDbEntity
  8
0
  6
Continuous
 62
     7
370
    25
100
AcDbLine
 10
61.3395141066
 20
70.1639561129
 30
0.0
 11
61.5895141066
 21
70.1639561129
 31
0.0
  0
LINE
  5
B3
330
1F
100
AcDbEntity
  8
0
  6
Continuous
 62
     7
370
    25
100
AcDbLine
 10
61.3395141066
 20
69.5639561129
 30
0.0
 11
61.3395141066
 21
70.1639561129
 31
0.0
  0
LINE
  5
B4
330
1F
100
AcDbEntity
  8
0
  6
Continuous
 62
     7
370
    25
100
AcDbLine
 10
61.5895141066
 20
70.1639561129
 30
0.0
 11
61.5895141066
 21
69.5639561129
 31
0.0
  0
LINE
  5
B5
330
1F
100
AcDbEntity
  8
0
  6
Continuous
 62
     7
370
    25
100
AcDbLine
 10
61.5895141066
 20
69.5639561129
 30
0.0
 11
61.3395141066
 21
69.5639561129
 31
0.0
  0
LINE
  5
B6
330
1F
100
AcDbEntity
  8
0
  6
Continuous
 62
     7
370
    25
100
AcDbLine
 10
61.3395141066
 20
69.5639561129
 30
0.0
 11
61.0667396816
 21
69.5639561129
 31
0.0
  0
LINE
  5
B7
330
1F
100
AcDbEntity
  8
0
  6
Continuous
 62
     7
370
    25
100
AcDbLine
 10
50.5895141066
 20
70.4139561129
 30
0.0
 11
50.5895141066
 21
70.4239561129
 31
0.0
  0
LINE
  5
B8
330
1F
100
AcDbEntity
  8
0
  6
Continuous
 62
     7
370
    25
100
AcDbLine
 10
50.5895141066
 20
70.4239561129
 30
0.0
 11
60.5895141066
 21
70.4239561129
 31
0.0
  0
LINE
  5
B9
330
1F
100
AcDbEntity
  8
0
  6
Continuous
 62
     7
370
    25
100
AcDbLine
 10
60.5895141066
 20
70.4139561129
 30
0.0
 11
60.5895141066
 21
70.4239561129
 31
0.0
  0
LINE
  5
BA
330
1F
100
AcDbEntity
  8
0
  6
Continuous
 62
     7
370
    25
100
AcDbLine
 10
51.1149672225
 20
61.5639561129
 30
0.0
 11
63.0395141066
 21
61.5639561128
 31
0.0
  0
LINE
  5
BB
330
1F
100
AcDbEntity
  8
0
  6
Continuous
 62
     7
370
    25
100
AcDbLine
 10
51.8751779783
 20
62.5586996908
 30
0.0
 11
51.1149672225
 21
61.5639561129
 31
0.0
  0
LINE
  5
BC
330
1F
100
AcDbEntity
  8
0
  6
Continuous
 62
     7
370
    25
100
AcDbLine
 10
50.3657119322
 20
69.5639561128
 30
0.0
 11
48.6375732683
 21
62.5586996908
 31
0.0
  0
LINE
  5
BD
330
1F
100
AcDbEntity
  8
0
  6
Continuous
 62
     7
370
    25
100
AcDbLine
 10
60.8285994392
 20
69.5639561128
 30
0.0
 11
50.3657119322
 21
69.5639561128
 31
0.0
  0
LINE
  5
BE
330
1F
100
AcDbEntity
  8
0
  6
Continuous
 62
     7
370
    25
100
AcDbLine
 10
53.5895141066
 20
53.5639561129
 30
0.0
 11
62.5895141066
 21
53.5639561129
 31
0.0
  0
LINE
  5
BF
330
1F
100
AcDbEntity
  8
0
  6
Continuous
 62
     7
370
    25
100
AcDbLine
 10
53.5895141066
 20
53.6017730367
 30
0.0
 11
53.5895141066
 21
53.5639561129
 31
0.0
  0
SPLINE
  5
C0
330
1F
100
AcDbEntity
  8
0
  6
Continuous
 62
     7
370
    25
100
AcDbSpline
210
0.0
220
0.0
230
1.0
 70
     8
 71
     3
 72
     9
 73
     5
 74
     0
 42
0.00000001
 43
0.00000001
 40
0.0
 40
0.0
 40
0.0
 40
0.0
 40
0.4875141023677128
 40
0.9999999999999999
 40
0.9999999999999999
 40
0.9999999999999999
 40
0.9999999999999999
 10
53.43356885615588
 20
53.56395611285275
 30
0.0
 10
53.45987543007848
 20
53.56568345882445
 30
0.0
 10
53.51383607202672
 20
53.56922663011593
 30
0.0
 10
53.56387160272148
 20
53.59074511606524
 30
0.0
 10
53.58951410658309
 20
53.60177303665267
 30
0.0
  0
SPLINE
  5
C1
330
1F
100
AcDbEntity
  8
0
  6
Continuous
 62
     7
370
    25
100
AcDbSpline
210
0.0
220
0.0
230
1.0
 70
     8
 71
     3
 72
    17
 73
    13
 74
     0
 42
0.00000001
 43
0.00000001
 40
0.0
 40
0.0
 40
0.0
 40
0.0
 40
0.3241697628029873
 40
0.542275846362072
 40
0.689509052693928
 40
0.7894036290694506
 40
0.8577090008137827
 40
0.9049823971474139
 40
0.9551712229700868
 40
0.9753097783197817
 40
0.9919572060138849
 40
1.0
 40
1.0
 40
1.0
 40
1.0
 10
51.11496722250093
 20
61.56395611285032
 30
0.0
 10
51.2576825825181
 20
60.65134261024464
 30
0.0
 10
51.49641889146007
 20
59.12470960398331
 30
0.0
 10
51.87600608591173
 20
57.19793670170233
 30
0.0
 10
52.1851402942588
 20
55.91030123076956
 30
0.0
 10
52.44125382245891
 20
55.05114926404782
 30
0.0
 10
52.65556482535391
 20
54.47768137567042
 30
0.0
 10
52.85879904638182
 20
54.05614922164045
 30
0.0
 10
53.04334431092443
 20
53.77565667884501
 30
0.0
 10
53.22941539729256
 20
53.62010801026436
 30
0.0
 10
53.34462599654847
 20
53.56949741106686
 30
0.0
 10
53.41171480202136
 20
53.56531765926222
 30
0.0
 10
53.43356885615588
 20
53.56395611285275
 30
0.0
  0
SPLINE
  5
C2
330
1F
100
AcDbEntity
  8
0
  6
Continuous
 62
     7
370
    25
100
AcDbSpline
210
0.0
220
0.0
230
1.0
 70
     8
 71
     3
 72
    14
 73
    10
 74
     0
 42
0.00000001
 43
0.00000001
 40
0.0
 40
0.0
 40
0.0
 40
0.0
 40
0.1576095309202822
 40
0.3152382602707094
 40
0.4726926441579498
 40
0.6301650083177254
 40
0.7907313191165901
 40
0.9513050385928076
 40
1.0
 40
1.0
 40
1.0
 40
1.0
 10
49.08951410658309
 20
53.56395611285269
 30
0.0
 10
49.02294309180106
 20
53.77745790133008
 30
0.0
 10
48.88979295321612
 20
54.20448748495559
 30
0.0
 10
48.56122599146542
 20
54.78973456381191
 30
0.0
 10
48.14783635073341
 20
55.31188910463433
 30
0.0
 10
47.65216143178876
 20
55.7608672320542
 30
0.0
 10
47.08587172650426
 20
56.12014896386059
 30
0.0
 10
46.60962107011122
 20
56.32471514296176
 30
0.0
 10
46.32942650191846
 20
56.40550969131307
 30
0.0
 10
46.26422771714543
 20
56.42430986435984
 30
0.0
  0
LINE
  5
C3
330
1F
100
AcDbEntity
  8
0
  6
Continuous
 62
     7
370
    25
100
AcDbLine
 10
46.2642277171
 20
56.4243098644
 30
0.0
 11
40.4844708673
 21
57.9929313048
 31
0.0
  0
SPLINE
  5
C4
330
1F
100
AcDbEntity
  8
0
  6
Continuous
 62
     7
370
    25
100
AcDbSpline
210
0.0
220
0.0
230
1.0
 70
     8
 71
     3
 72
    11
 73
     7
 74
     0
 42
0.00000001
 43
0.00000001
 40
0.0
 40
0.0
 40
0.0
 40
0.0
 40
0.2488466353289359
 40
0.4976946020535202
 40
0.7488461225871275
 40
0.9999999999999999
 40
0.9999999999999999
 40
0.9999999999999999
 40
0.9999999999999999
 10
33.41407724504643
 20
59.31613180582823
 30
0.0
 10
34.0085132941827
 20
59.2466074293346
 30
0.0
 10
35.19738857284609
 20
59.10755830437343
 30
0.0
 10
36.97211324355514
 20
58.80722956624813
 30
0.0
 10
38.73869388529749
 20
58.445319947993
 30
0.0
 10
39.90254338631718
 20
58.14372799092844
 30
0.0
 10
40.48447086729017
 20
57.99293130484272
 30
0.0
  0
LINE
  5
C5
330
1F
100
AcDbEntity
  8
0
  6
Continuous
 62
     7
370
    25
100
AcDbLine
 10
33.414077245
 20
59.3161318058
 30
0.0
 11
33.414077245
 21
62.5586996908
 31
0.0
  0
LINE
  5
C6
330
1F
100
AcDbEntity
  8
0
  6
Continuous
 62
     7
370
    25
100
AcDbLine
 10
33.414077245
 20
62.5586996908
 30
0.0
 11
51.8751779783
 21
62.5586996908
 31
0.0
  0
LINE
  5
C7
330
1F
100
AcDbEntity
  8
0
  6
Continuous
 62
     7
370
    25
100
AcDbLine
 10
53.4335688562
 20
53.5639561129
 30
0.0
 11
49.0895141066
 21
53.5639561129
 31
0.0
  0
LINE
  5
C8
330
1F
100
AcDbEntity
  8
0
  6
Continuous
 62
     7
370
    25
100
AcDbLine
 10
53.5895141066
 20
53.6017730367
 30
0.0
 11
53.5827147487
 21
53.5639561129
 31
0.0
  0
LINE
  5
C9
330
1F
100
AcDbEntity
  8
0
  6
Continuous
 62
     7
370
    25
100
AcDbLine
 10
53.5895141066
 20
53.5639561129
 30
0.0
 11
53.5827147487
 21
53.5639561129
 31
0.0
  0
LINE
  5
CA
330
1F
100
AcDbEntity
  8
0
  6
Continuous
 62
     7
370
    25
100
AcDbLine
 10
53.5827147487
 20
53.5639561129
 30
0.0
 11
53.4335688562
 21
53.5639561129
 31
0.0
  0
LINE
  5
CB
330
1F
100
AcDbEntity
  8
0
  6
Continuous
 62
     7
370
    25
100
AcDbLine
 10
15.5895141066
 20
71.5639561129
 30
0.0
 11
33.414077245
 21
71.5639561129
 31
0.0
  0
LINE
  5
CC
330
1F
100
AcDbEntity
  8
0
  6
Continuous
 62
     7
370
    25
100
AcDbLine
 10
33.414077245
 20
71.5639561129
 30
0.0
 11
33.414077245
 21
62.5586996908
 31
0.0
  0
LINE
  5
CD
330
1F
100
AcDbEntity
  8
0
  6
Continuous
 62
     7
370
    25
100
AcDbLine
 10
28.6978462488
 20
59.5639561129
 30
0.0
 11
20.5895141066
 21
59.5639561129
 31
0.0
  0
ARC
  5
CE
330
1F
100
AcDbEntity
  8
0
  6
Continuous
 62
     7
370
    25
100
AcDbCircle
 10
20.5895141066
 20
64.5639561129
 30
0.0
 40
4.999999999999996
100
AcDbArc
 50
180.0
 51
270.0
  0
LINE
  5
CF
330
1F
100
AcDbEntity
  8
0
  6
Continuous
 62
     7
370
    25
100
AcDbLine
 10
15.5895141066
 20
64.5639561129
 30
0.0
 11
15.5895141066
 21
71.5639561129
 31
0.0
  0
ARC
  5
D0
330
1F
100
AcDbEntity
  8
0
  6
Continuous
 62
     7
370
    25
100
AcDbCircle
 10
28.6978462488
 20
14.5638268587
 30
0.0
 40
45.00012925418375
100
AcDbArc
 50
83.9840777705
 51
90.0
  0
LINE
  5
D1
330
1F
100
AcDbEntity
  8
0
  6
Continuous
 62
     7
370
    25
100
AcDbLine
 10
35.5895141066
 20
71.5639561129
 30
0.0
 11
35.5895141066
 21
69.5829116362
 31
0.0
  0
ARC
  5
D2
330
1F
100
AcDbEntity
  8
0
  6
Continuous
 62
     7
370
    25
100
AcDbCircle
 10
41.5895141066
 20
69.5829116362
 30
0.0
 40
6.00000000000001
100
AcDbArc
 50
180.0
 51
275.5801667845
  0
ARC
  5
D3
330
1F
100
AcDbEntity
  8
0
  6
Continuous
 62
     7
370
    25
100
AcDbCircle
 10
41.2005605423
 20
73.5639561129
 30
0.0
 40
10.00000000000847
100
AcDbArc
 50
275.5801667845
 51
336.4218215217
  0
LINE
  5
D4
330
1F
100
AcDbEntity
  8
0
  6
Continuous
 62
     7
370
    25
100
AcDbLine
 10
33.414077245
 20
71.5639561129
 30
0.0
 11
35.5895141066
 21
71.5639561129
 31
0.0
  0
LINE
  5
D5
330
1F
100
AcDbEntity
  8
0
  6
Continuous
 62
     7
370
    25
100
AcDbLine
 10
49.0895141066
 20
53.5639561129
 30
0.0
 11
48.5895141066
 21
53.5639561129
 31
0.0
  0
LINE
  5
D6
330
1F
100
AcDbEntity
  8
0
  6
Continuous
 62
     7
370
    25
100
AcDbLine
 10
50.3504287739
 20
69.5639561128
 30
0.0
 11
50.3657119322
 21
69.5639561128
 31
0.0
  0
LINE
  5
D7
330
1F
100
AcDbEntity
  8
0
  6
Continuous
 62
     7
370
    25
100
AcDbLine
 10
41.2895141066
 20
48.8884914301
 30
0.0
 11
41.2895141066
 21
34.5639561129
 31
0.0
  0
LINE
  5
D8
330
1F
100
AcDbEntity
  8
0
  6
Continuous
 62
     7
370
    25
100
AcDbLine
 10
41.2895141066
 20
51.5639561129
 30
0.0
 11
41.2895141066
 21
48.8884914301
 31
0.0
  0
LINE
  5
D9
330
1F
100
AcDbEntity
  8
0
  6
Continuous
 62
     7
370
    25
100
AcDbLine
 10
44.0895141066
 20
48.8884914301
 30
0.0
 11
44.0895141066
 21
34.5639561129
 31
0.0
  0
LINE
  5
DA
330
1F
100
AcDbEntity
  8
0
  6
Continuous
 62
     7
370
    25
100
AcDbLine
 10
44.0895141066
 20
51.5639561129
 30
0.0
 11
44.0895141066
 21
48.8884914301
 31
0.0
  0
LINE
  5
DB
330
1F
100
AcDbEntity
  8
0
  6
Continuous
 62
     7
370
    25
100
AcDbLine
 10
41.0895141066
 20
48.7514435403
 30
0.0
 11
41.0895141066
 21
51.3639561129
 31
0.0
  0
LINE
  5
DC
330
1F
100
AcDbEntity
  8
0
  6
Continuous
 62
     7
370
    25
100
AcDbLine
 10
41.0895141066
 20
34.7639561129
 30
0.0
 11
41.0895141066
 21
48.7514435403
 31
0.0
  0
LINE
  5
DD
330
1F
100
AcDbEntity
  8
0
  6
Continuous
 62
     7
370
    25
100
AcDbLine
 10
49.5895141066
 20
50.425172045
 30
0.0
 11
49.5895141066
 21
47.0639561129
 31
0.0
  0
SPLINE
  5
DE
330
1F
100
AcDbEntity
  8
0
  6
Continuous
 62
     7
370
    25
100
AcDbSpline
210
0.0
220
0.0
230
1.0
 70
     8
 71
     3
 72
     8
 73
     4
 74
     0
 42
0.00000001
 43
0.00000001
 40
0.0
 40
0.0
 40
0.0
 40
0.0
 40
1.0
 40
1.0
 40
1.0
 40
1.0
 10
49.07327802960391
 20
47.06395611285269
 30
0.0
 10
49.02237931268139
 20
47.27100115128168
 30
0.0
 10
48.96844517643063
 20
47.47724048095832
 30
0.0
 10
48.91179270132289
 20
47.6827582663697
 30
0.0
  0
SPLINE
  5
DF
330
1F
100
AcDbEntity
  8
0
  6
Continuous
 62
     7
370
    25
100
AcDbSpline
210
0.0
220
0.0
230
1.0
 70
     8
 71
     3
 72
    10
 73
     6
 74
     0
 42
0.00000001
 43
0.00000001
 40
0.0
 40
0.0
 40
0.0
 40
0.0
 40
0.5
 40
0.5
 40
1.0
 40
1.0
 40
1.0
 40
1.0
 10
48.9117927013229
 20
48.11577096826192
 30
0.0
 10
48.88811730689851
 20
48.07282743736069
 30
0.0
 10
48.87502619701387
 20
48.00938499273656
 30
0.0
 10
48.87493987572558
 20
47.8569061556176
 30
0.0
 10
48.88810880966943
 20
47.76867615351033
 30
0.0
 10
48.91179270132289
 20
47.6827582663697
 30
0.0
  0
SPLINE
  5
E0
330
1F
100
AcDbEntity
  8
0
  6
Continuous
 62
     7
370
    25
100
AcDbSpline
210
0.0
220
0.0
230
1.0
 70
     8
 71
     3
 72
    12
 73
     8
 74
     0
 42
0.00000001
 43
0.00000001
 40
0.0
 40
0.0
 40
0.0
 40
0.0
 40
0.2500000000000001
 40
0.2500000000000001
 40
0.5000000000000002
 40
0.5000000000000002
 40
1.0
 40
1.0
 40
1.0
 40
1.0
 10
49.58951410658309
 20
50.42517204502042
 30
0.0
 10
49.58951410658309
 20
50.2294297821409
 30
0.0
 10
49.57367117049413
 20
50.03276317295034
 30
0.0
 10
49.51216831025646
 20
49.64349494562207
 30
0.0
 10
49.46656466921277
 20
49.45009091266915
 30
0.0
 10
49.29011365172356
 20
48.87316186141238
 30
0.0
 10
49.11971628447171
 20
48.49291242820938
 30
0.0
 10
48.9117927013229
 20
48.11577096826192
 30
0.0
  0
SPLINE
  5
E1
330
1F
100
AcDbEntity
  8
0
  6
Continuous
 62
     7
370
    25
100
AcDbSpline
210
0.0
220
0.0
230
1.0
 70
     8
 71
     3
 72
    22
 73
    18
 74
     0
 42
0.00000001
 43
0.00000001
 40
0.0
 40
0.0
 40
0.0
 40
0.0
 40
0.2499999999999979
 40
0.2499999999999979
 40
0.3749999999999969
 40
0.3749999999999969
 40
0.4374999999999972
 40
0.4374999999999972
 40
0.4999999999999974
 40
0.4999999999999974
 40
0.5624999999999978
 40
0.5624999999999978
 40
0.6249999999999982
 40
0.6249999999999982
 40
0.7499999999999988
 40
0.7499999999999988
 40
1.0
 40
1.0
 40
1.0
 40
1.0
 10
54.92018246407974
 20
32.56395611285269
 30
0.0
 10
54.98962755566679
 20
32.3895058436532
 30
0.0
 10
55.06669965535612
 20
32.2173691334251
 30
0.0
 10
55.21618618839305
 20
31.97952255708542
 30
0.0
 10
55.27232975193831
 20
31.90237116387758
 30
0.0
 10
55.37552136051524
 20
31.80591630712384
 30
0.0
 10
55.41362148561399
 20
31.77689050293184
 30
0.0
 10
55.49733069257525
 20
31.73465494017213
 30
0.0
 10
55.54419928728602
 20
31.72161222968425
 30
0.0
 10
55.63877456494674
 20
31.72231464831997
 30
0.0
 10
55.68548731115502
 20
31.73596807101031
 30
0.0
 10
55.76956530537957
 20
31.77964716686714
 30
0.0
 10
55.80693180658233
 20
31.80870349529301
 30
0.0
 10
55.90996748499228
 20
31.90631927923473
 30
0.0
 10
55.96458955465692
 20
31.98200487272037
 30
0.0
 10
56.11371107201411
 20
32.22018003493501
 30
0.0
 10
56.19017768256484
 20
32.39145777760182
 30
0.0
 10
56.25884574908648
 20
32.56395611285268
 30
0.0
  0
LINE
  5
E2
330
1F
100
AcDbEntity
  8
0
  6
Continuous
 62
     7
370
    25
100
AcDbLine
 10
54.9201824641
 20
32.5639561129
 30
0.0
 11
50.9707119531
 21
32.5639561129
 31
0.0
  0
LINE
  5
E3
330
1F
100
AcDbEntity
  8
0
  6
Continuous
 62
     7
370
    25
100
AcDbLine
 10
50.9707119531
 20
35.097559573
 30
0.0
 11
50.9707119531
 21
32.5639561129
 31
0.0
  0
SPLINE
  5
E4
330
1F
100
AcDbEntity
  8
0
  6
Continuous
 62
     7
370
    25
100
AcDbSpline
210
0.0
220
0.0
230
1.0
 70
     8
 71
     3
 72
     8
 73
     4
 74
     0
 42
0.00000001
 43
0.00000001
 40
0.0
 40
0.0
 40
0.0
 40
0.0
 40
1.0
 40
1.0
 40
1.0
 40
1.0
 10
50.97071195306606
 20
35.09755957299769
 30
0.0
 10
51.17589777560935
 20
35.15412054012191
 30
0.0
 10
51.38212097631666
 20
35.20806061153574
 30
0.0
 10
51.5895141065831
 20
35.25904490127871
 30
0.0
  0
SPLINE
  5
E5
330
1F
100
AcDbEntity
  8
0
  6
Continuous
 62
     7
370
    25
100
AcDbSpline
210
0.0
220
0.0
230
1.0
 70
     8
 71
     3
 72
     8
 73
     4
 74
     0
 42
0.00000001
 43
0.00000001
 40
0.0
 40
0.0
 40
0.0
 40
0.0
 40
1.0
 40
1.0
 40
1.0
 40
1.0
 10
48.9117927013229
 20
38.44515395933565
 30
0.0
 10
48.96835607079113
 20
38.65034849684541
 30
0.0
 10
49.02229599361239
 20
38.85657215036257
 30
0.0
 10
49.07327802960391
 20
39.06395611285268
 30
0.0
  0
LINE
  5
E6
330
1F
100
AcDbEntity
  8
0
  6
Continuous
 62
     7
370
    25
100
AcDbLine
 10
44.7672355118
 20
38.4451539593
 30
0.0
 11
48.9117927013
 21
38.4451539593
 31
0.0
  0
SPLINE
  5
E7
330
1F
100
AcDbEntity
  8
0
  6
Continuous
 62
     7
370
    25
100
AcDbSpline
210
0.0
220
0.0
230
1.0
 70
     8
 71
     3
 72
    10
 73
     6
 74
     0
 42
0.00000001
 43
0.00000001
 40
0.0
 40
0.0
 40
0.0
 40
0.0
 40
0.5
 40
0.5
 40
1.0
 40
1.0
 40
1.0
 40
1.0
 10
44.76723551184327
 20
38.44515395933568
 30
0.0
 10
44.55916683561205
 20
39.19996323238496
 30
0.0
 10
44.38876782958753
 20
39.96070961961687
 30
0.0
 10
44.15360784988868
 20
41.49885199724012
 30
0.0
 10
44.08951410658309
 20
42.27635314976494
 30
0.0
 10
44.08951410658309
 20
43.06395611285269
 30
0.0
  0
SPLINE
  5
E8
330
1F
100
AcDbEntity
  8
0
  6
Continuous
 62
     7
370
    25
100
AcDbSpline
210
0.0
220
0.0
230
1.0
 70
     8
 71
     3
 72
    12
 73
     8
 74
     0
 42
0.00000001
 43
0.00000001
 40
0.0
 40
0.0
 40
0.0
 40
0.0
 40
0.2500000000000001
 40
0.2500000000000001
 40
0.5000000000000001
 40
0.5000000000000001
 40
1.0
 40
1.0
 40
1.0
 40
1.0
 10
44.08951410658309
 20
43.06395611285269
 30
0.0
 10
44.08951410658309
 20
43.45827419352453
 30
0.0
 10
44.10551291156415
 20
43.85193323747497
 30
0.0
 10
44.16728304987855
 20
44.6314692370203
 30
0.0
 10
44.21302517418015
 20
45.01842242514574
 30
0.0
 10
44.38969532152699
 20
46.17180898799973
 30
0.0
 10
44.55995038700729
 20
46.93079147720477
 30
0.0
 10
44.76723551184328
 20
47.6827582663697
 30
0.0
  0
LINE
  5
E9
330
1F
100
AcDbEntity
  8
0
  6
Continuous
 62
     7
370
    25
100
AcDbLine
 10
48.9117927013
 20
47.6827582664
 30
0.0
 11
44.7672355118
 21
47.6827582664
 31
0.0
  0
SPLINE
  5
EA
330
1F
100
AcDbEntity
  8
0
  6
Continuous
 62
     7
370
    25
100
AcDbSpline
210
0.0
220
0.0
230
1.0
 70
     8
 71
     3
 72
     8
 73
     4
 74
     0
 42
0.00000001
 43
0.00000001
 40
0.0
 40
0.0
 40
0.0
 40
0.0
 40
1.0
 40
1.0
 40
1.0
 40
1.0
 10
62.10575018356228
 20
47.06395611285276
 30
0.0
 10
62.15664641681735
 20
47.27099104825651
 30
0.0
 10
62.21058037178101
 20
47.47723081332151
 30
0.0
 10
62.26723551184328
 20
47.68275826636971
 30
0.0
  0
LINE
  5
EB
330
1F
100
AcDbEntity
  8
0
  6
Continuous
 62
     7
370
    25
100
AcDbLine
 10
66.767455134
 20
47.6827582664
 30
0.0
 11
62.2672355118
 21
47.6827582664
 31
0.0
  0
SPLINE
  5
EC
330
1F
100
AcDbEntity
  8
0
  6
Continuous
 62
     7
370
    25
100
AcDbSpline
210
0.0
220
0.0
230
1.0
 70
     8
 71
     3
 72
    14
 73
    10
 74
     0
 42
0.00000001
 43
0.00000001
 40
0.0
 40
0.0
 40
0.0
 40
0.0
 40
0.25
 40
0.25
 40
0.5
 40
0.5
 40
0.75
 40
0.75
 40
1.0
 40
1.0
 40
1.0
 40
1.0
 10
66.76745513402548
 20
38.44515395933563
 30
0.0
 10
66.97540549473128
 20
39.19953401998562
 30
0.0
 10
67.14762730342014
 20
39.96897518745111
 30
0.0
 10
67.38226242617104
 20
41.50948654839228
 30
0.0
 10
67.4452064847987
 20
42.2843409283993
 30
0.0
 10
67.44514657206726
 20
43.84470188328486
 30
0.0
 10
67.38053190577514
 20
44.63515807606989
 30
0.0
 10
67.14397256637392
 20
46.17743773887835
 30
0.0
 10
66.97362742629448
 20
46.93482849207954
 30
0.0
 10
66.76745513402548
 20
47.6827582663697
 30
0.0
  0
LINE
  5
ED
330
1F
100
AcDbEntity
  8
0
  6
Continuous
 62
     7
370
    25
100
AcDbLine
 10
62.2672355118
 20
38.4451539593
 30
0.0
 11
66.767455134
 21
38.4451539593
 31
0.0
  0
SPLINE
  5
EE
330
1F
100
AcDbEntity
  8
0
  6
Continuous
 62
     7
370
    25
100
AcDbSpline
210
0.0
220
0.0
230
1.0
 70
     8
 71
     3
 72
     8
 73
     4
 74
     0
 42
0.00000001
 43
0.00000001
 40
0.0
 40
0.0
 40
0.0
 40
0.0
 40
1.0
 40
1.0
 40
1.0
 40
1.0
 10
62.26723551184327
 20
38.44515395933566
 30
0.0
 10
62.21067366840632
 20
38.65034296087247
 30
0.0
 10
62.15673365114994
 20
38.85656632693717
 30
0.0
 10
62.10575018356227
 20
39.06395611285263
 30
0.0
  0
LINE
  5
EF
330
1F
100
AcDbEntity
  8
0
  6
Continuous
 62
     7
370
    25
100
AcDbLine
 10
59.5895141066
 20
35.2590449013
 30
0.0
 11
59.5895141066
 21
39.0639561129
 31
0.0
  0
SPLINE
  5
F0
330
1F
100
AcDbEntity
  8
0
  6
Continuous
 62
     7
370
    25
100
AcDbSpline
210
0.0
220
0.0
230
1.0
 70
     8
 71
     3
 72
     8
 73
     4
 74
     0
 42
0.00000001
 43
0.00000001
 40
0.0
 40
0.0
 40
0.0
 40
0.0
 40
1.0
 40
1.0
 40
1.0
 40
1.0
 10
59.58951410658309
 20
35.25904490127871
 30
0.0
 10
59.79654316991848
 20
35.20815011157788
 30
0.0
 10
60.00278318718782
 20
35.15421626221644
 30
0.0
 10
60.20831626010009
 20
35.09755957299768
 30
0.0
  0
LINE
  5
F1
330
1F
100
AcDbEntity
  8
0
  6
Continuous
 62
     7
370
    25
100
AcDbLine
 10
60.2083162601
 20
32.5639561129
 30
0.0
 11
60.2083162601
 21
35.097559573
 31
0.0
  0
LINE
  5
F2
330
1F
100
AcDbEntity
  8
0
  6
Continuous
 62
     7
370
    25
100
AcDbLine
 10
60.2083162601
 20
32.5639561129
 30
0.0
 11
56.2588457491
 21
32.5639561129
 31
0.0
  0
LINE
  5
F3
330
1F
100
AcDbEntity
  8
0
  6
Continuous
 62
     7
370
    25
100
AcDbLine
 10
54.6877551926
 20
41.6415830953
 30
0.0
 11
54.6461048733
 21
41.6177781654
 31
0.0
  0
ELLIPSE
  5
F4
330
1F
100
AcDbEntity
  8
0
  6
Continuous
 62
     7
370
    25
100
AcDbEllipse
 10
54.2972616938
 20
42.1724606366
 30
0.0
 11
0.678412947925267
 21
6.110667527536863E-13
 31
0.0
210
0.0
220
0.0
230
1.0
 40
0.9533039403
 41
3.470145824140268
 42
5.252469180536304
  0
LINE
  5
F5
330
1F
100
AcDbEntity
  8
0
  6
Continuous
 62
     7
370
    25
100
AcDbLine
 10
53.6551369268
 20
41.9637765217
 30
0.0
 11
52.3954827218
 21
45.4862209183
 31
0.0
  0
ELLIPSE
  5
F6
330
1F
100
AcDbEntity
  8
0
  6
Continuous
 62
     7
370
    25
100
AcDbEllipse
 10
51.8045001639
 20
45.2238816822
 30
0.0
 11
0.6519124952381574
 21
6.039613253960852E-13
 31
0.0
210
0.0
220
0.0
230
1.0
 40
0.9533023292
 41
0.4357905044355019
 42
2.705800116361522
  0
LINE
  5
F7
330
1F
100
AcDbEntity
  8
0
  6
Continuous
 62
     7
370
    25
100
AcDbLine
 10
51.2135181654
 20
45.4862220636
 30
0.0
 11
49.9541533637
 21
41.9645986618
 31
0.0
  0
ELLIPSE
  5
F8
330
1F
100
AcDbEntity
  8
0
  6
Continuous
 62
     7
370
    25
100
AcDbEllipse
 10
49.3120321797
 20
42.1732814955
 30
0.0
 11
-0.6784085062757796
 21
3.268496584496460E-13
 31
0.0
210
0.0
220
0.0
230
1.0
 40
0.9533122623
 41
1.047193771187963
 42
2.813042320199938
  0
LINE
  5
F9
330
1F
100
AcDbEntity
  8
0
  6
Continuous
 62
     7
370
    25
100
AcDbLine
 10
48.9728257058
 20
41.6131936503
 30
0.0
 11
48.9212451352
 21
41.6415830953
 31
0.0
  0
LINE
  5
FA
330
1F
100
AcDbEntity
  8
0
  6
Continuous
 62
     7
370
    25
100
AcDbLine
 10
48.9212451352
 20
41.6415830953
 30
0.0
 11
49.7175137948
 21
40.1234109938
 31
0.0
  0
ELLIPSE
  5
FB
330
1F
100
AcDbEntity
  8
0
  6
Continuous
 62
     7
370
    25
100
AcDbEllipse
 10
49.7933626682
 20
40.1595645088
 30
0.0
 11
0.08480161849065837
 21
-2.131628207280301E-14
 31
0.0
210
0.0
220
0.0
230
1.0
 40
0.9533039403
 41
3.6052402625909
 42
5.462183310215252
  0
ELLIPSE
  5
FC
330
1F
100
AcDbEntity
  8
0
  6
Continuous
 62
     7
370
    25
100
AcDbEllipse
 10
51.8045001639
 20
38.1007158883
 30
0.0
 11
2.866293551216202
 21
-1.485034317738609E-12
 31
0.0
210
0.0
220
0.0
230
1.0
 40
0.9533046568
 41
0.8210016221243791
 42
2.32059103146644
  0
ELLIPSE
  5
FD
330
1F
100
AcDbEntity
  8
0
  6
Continuous
 62
     7
370
    25
100
AcDbEllipse
 10
53.8156376597
 20
40.1595645088
 30
0.0
 11
0.08480161849060863
 21
0.0
 31
0.0
210
0.0
220
0.0
230
1.0
 40
0.9533039403
 41
3.962594650556406
 42
5.819537698177288
  0
LINE
  5
FE
330
1F
100
AcDbEntity
  8
0
  6
Continuous
 62
     7
370
    25
100
AcDbLine
 10
53.8914865331
 20
40.1234109938
 30
0.0
 11
54.6877551926
 21
41.6415830953
 31
0.0
  0
ARC
  5
FF
330
1F
100
AcDbEntity
  8
0
  6
Continuous
 62
     7
370
    25
100
AcDbCircle
 10
60.4823900587
 20
42.4870371195
 30
0.0
 40
0.8889999999999868
100
AcDbArc
 50
45.0
 51
159.0751675724
  0
LINE
  5
100
330
1F
100
AcDbEntity
  8
0
  6
Continuous
 62
     7
370
    25
100
AcDbLine
 10
61.1110079871
 20
43.115655048
 30
0.0
 11
61.5776183728
 21
43.5822654336
 31
0.0
  0
ARC
  5
101
330
1F
100
AcDbEntity
  8
0
  6
Continuous
 62
     7
370
    25
100
AcDbCircle
 10
60.4823900587
 20
42.4870371195
 30
0.0
 40
1.548886735692379
100
AcDbArc
 50
45.0
 51
315.0
  0
LINE
  5
102
330
1F
100
AcDbEntity
  8
0
  6
Continuous
 62
     7
370
    25
100
AcDbLine
 10
61.5776183728
 20
41.3918088054
 30
0.0
 11
61.1110079871
 21
41.8584191911
 31
0.0
  0
ARC
  5
103
330
1F
100
AcDbEntity
  8
0
  6
Continuous
 62
     7
370
    25
100
AcDbCircle
 10
60.4823900587
 20
42.4870371195
 30
0.0
 40
0.8890000000000073
100
AcDbArc
 50
200.9248324276
 51
315.0
  0
LINE
  5
104
330
1F
100
AcDbEntity
  8
0
  6
Continuous
 62
     7
370
    25
100
AcDbLine
 10
59.6520198099
 20
42.1695371195
 30
0.0
 11
61.5776183728
 21
42.1695371195
 31
0.0
  0
LINE
  5
105
330
1F
100
AcDbEntity
  8
0
  6
Continuous
 62
     7
370
    25
100
AcDbLine
 10
61.5776183728
 20
42.1695371195
 30
0.0
 11
61.5776183728
 21
42.8045371195
 31
0.0
  0
LINE
  5
106
330
1F
100
AcDbEntity
  8
0
  6
Continuous
 62
     7
370
    25
100
AcDbLine
 10
61.5776183728
 20
42.8045371195
 30
0.0
 11
59.6520198099
 21
42.8045371195
 31
0.0
  0
ARC
  5
107
330
1F
100
AcDbEntity
  8
0
  6
Continuous
 62
     7
370
    25
100
AcDbCircle
 10
57.1402454623
 20
42.4870371195
 30
0.0
 40
0.889000000000007
100
AcDbArc
 50
45.0
 51
315.0
  0
LINE
  5
108
330
1F
100
AcDbEntity
  8
0
  6
Continuous
 62
     7
370
    25
100
AcDbLine
 10
57.7688633908
 20
43.115655048
 30
0.0
 11
58.2354737764
 21
43.5822654336
 31
0.0
  0
ARC
  5
109
330
1F
100
AcDbEntity
  8
0
  6
Continuous
 62
     7
370
    25
100
AcDbCircle
 10
57.1402454623
 20
42.4870371195
 30
0.0
 40
1.548886735692404
100
AcDbArc
 50
45.0
 51
315.0
  0
LINE
  5
10A
330
1F
100
AcDbEntity
  8
0
  6
Continuous
 62
     7
370
    25
100
AcDbLine
 10
58.2354737764
 20
41.3918088054
 30
0.0
 11
57.7688633908
 21
41.8584191911
 31
0.0
  0
LINE
  5
10B
330
1F
100
AcDbEntity
  8
0
  6
Continuous
 62
     7
370
    25
100
AcDbLine
 10
51.5895141066
 20
35.2590449013
 30
0.0
 11
51.5895141066
 21
39.0639561129
 31
0.0
  0
LINE
  5
10C
330
1F
100
AcDbEntity
  8
0
  6
Continuous
 62
     7
370
    25
100
AcDbLine
 10
62.1057501836
 20
47.0639561129
 30
0.0
 11
49.0732780296
 21
47.0639561129
 31
0.0
  0
LINE
  5
10D
330
1F
100
AcDbEntity
  8
0
  6
Continuous
 62
     7
370
    25
100
AcDbLine
 10
51.5895141066
 20
39.0639561129
 30
0.0
 11
49.0732780296
 21
39.0639561129
 31
0.0
  0
LINE
  5
10E
330
1F
100
AcDbEntity
  8
0
  6
Continuous
 62
     7
370
    25
100
AcDbLine
 10
62.1057501836
 20
39.0639561129
 30
0.0
 11
59.5895141066
 21
39.0639561129
 31
0.0
  0
SPLINE
  5
10F
330
1F
100
AcDbEntity
  8
0
  6
Continuous
 62
     7
370
    25
100
AcDbSpline
210
0.0
220
0.0
230
1.0
 70
     8
 71
     3
 72
    10
 73
     6
 74
     0
 42
0.00000001
 43
0.00000001
 40
0.0
 40
0.0
 40
0.0
 40
0.0
 40
0.5
 40
0.5
 40
1.0
 40
1.0
 40
1.0
 40
1.0
 10
44.76723551184328
 20
48.11577096826192
 30
0.0
 10
44.79090775175484
 20
48.07283315916268
 30
0.0
 10
44.80400174169009
 20
48.00939256927048
 30
0.0
 10
44.80408860915154
 20
47.85690342376164
 30
0.0
 10
44.79091881939218
 20
47.76867403455832
 30
0.0
 10
44.76723551184328
 20
47.6827582663697
 30
0.0
  0
LINE
  5
110
330
1F
100
AcDbEntity
  8
0
  6
Continuous
 62
     7
370
    25
100
AcDbLine
 10
44.7672355118
 20
48.1157709683
 30
0.0
 11
48.9117927013
 21
48.1157709683
 31
0.0
  0
SPLINE
  5
111
330
1F
100
AcDbEntity
  8
0
  6
Continuous
 62
     7
370
    25
100
AcDbSpline
210
0.0
220
0.0
230
1.0
 70
     8
 71
     3
 72
    10
 73
     6
 74
     0
 42
0.00000001
 43
0.00000001
 40
0.0
 40
0.0
 40
0.0
 40
0.0
 40
0.5
 40
0.5
 40
1.0
 40
1.0
 40
1.0
 40
1.0
 10
48.91179270132284
 20
38.44515395933568
 30
0.0
 10
48.88811730689845
 20
38.35926689753322
 30
0.0
 10
48.87502619701387
 20
38.27185968855309
 30
0.0
 10
48.87493987572559
 20
38.11922324595936
 30
0.0
 10
48.88810880966943
 20
38.05510020101378
 30
0.0
 10
48.91179270132289
 20
38.01214125744347
 30
0.0
  0
LINE
  5
112
330
1F
100
AcDbEntity
  8
0
  6
Continuous
 62
     7
370
    25
100
AcDbLine
 10
48.9117927013
 20
38.0121412574
 30
0.0
 11
44.7672355118
 21
38.0121412574
 31
0.0
  0
SPLINE
  5
113
330
1F
100
AcDbEntity
  8
0
  6
Continuous
 62
     7
370
    25
100
AcDbSpline
210
0.0
220
0.0
230
1.0
 70
     8
 71
     3
 72
    10
 73
     6
 74
     0
 42
0.00000001
 43
0.00000001
 40
0.0
 40
0.0
 40
0.0
 40
0.0
 40
0.5
 40
0.5
 40
1.0
 40
1.0
 40
1.0
 40
1.0
 10
44.76723551184328
 20
38.44515395933568
 30
0.0
 10
44.79090941239923
 20
38.35927231682922
 30
0.0
 10
44.80400196957837
 20
38.27186311086378
 30
0.0
 10
44.80408838356065
 20
38.11922062578886
 30
0.0
 10
44.79091799196203
 20
38.05509764070649
 30
0.0
 10
44.76723551184328
 20
38.01214125744346
 30
0.0
  0
SPLINE
  5
114
330
1F
100
AcDbEntity
  8
0
  6
Continuous
 62
     7
370
    25
100
AcDbSpline
210
0.0
220
0.0
230
1.0
 70
     8
 71
     3
 72
     8
 73
     4
 74
     0
 42
0.00000001
 43
0.00000001
 40
0.0
 40
0.0
 40
0.0
 40
0.0
 40
1.0
 40
1.0
 40
1.0
 40
1.0
 10
48.30013792196646
 20
35.77457992822396
 30
0.0
 10
48.60915506460822
 20
35.87558503605408
 30
0.0
 10
48.9244728209262
 20
35.97224182512002
 30
0.0
 10
49.24695214776922
 20
36.06395611285269
 30
0.0
  0
SPLINE
  5
115
330
1F
100
AcDbEntity
  8
0
  6
Continuous
 62
     7
370
    25
100
AcDbSpline
210
0.0
220
0.0
230
1.0
 70
     8
 71
     3
 72
    10
 73
     6
 74
     0
 42
0.00000001
 43
0.00000001
 40
0.0
 40
0.0
 40
0.0
 40
0.0
 40
0.5
 40
0.5
 40
1.0
 40
1.0
 40
1.0
 40
1.0
 10
50.53769925117386
 20
35.09755957299769
 30
0.0
 10
50.58064278207509
 20
35.0738841785733
 30
0.0
 10
50.64408522669921
 20
35.06079306868866
 30
0.0
 10
50.79656406381817
 20
35.06070674740037
 30
0.0
 10
50.88479406592544
 20
35.07387568134421
 30
0.0
 10
50.97071195306607
 20
35.09755957299768
 30
0.0
  0
SPLINE
  5
116
330
1F
100
AcDbEntity
  8
0
  6
Continuous
 62
     7
370
    25
100
AcDbSpline
210
0.0
220
0.0
230
1.0
 70
     8
 71
     3
 72
    12
 73
     8
 74
     0
 42
0.00000001
 43
0.00000001
 40
0.0
 40
0.0
 40
0.0
 40
0.0
 40
0.2500000000000002
 40
0.2500000000000002
 40
0.5000000000000004
 40
0.5000000000000004
 40
1.0
 40
1.0
 40
1.0
 40
1.0
 10
48.30013792196122
 20
35.77457992821783
 30
0.0
 10
48.49016409726443
 20
35.7708714423614
 30
0.0
 10
48.68037915995026
 20
35.75228893952372
 30
0.0
 10
49.05731591908265
 20
35.68742190255757
 30
0.0
 10
49.24463871034215
 20
35.64115634930731
 30
0.0
 10
49.80354866665625
 20
35.46543181900034
 30
0.0
 10
50.17208432476657
 20
35.29912841022359
 30
0.0
 10
50.53769925117386
 20
35.09755957299769
 30
0.0
  0
SPLINE
  5
117
330
1F
100
AcDbEntity
  8
0
  6
Continuous
 62
     7
370
    25
100
AcDbSpline
210
0.0
220
0.0
230
1.0
 70
     8
 71
     3
 72
    10
 73
     6
 74
     0
 42
0.00000001
 43
0.00000001
 40
0.0
 40
0.0
 40
0.0
 40
0.0
 40
0.5
 40
0.5
 40
1.0
 40
1.0
 40
1.0
 40
1.0
 10
44.76723551184281
 20
48.11577096826189
 30
0.0
 10
44.55842558717656
 20
48.49452011565317
 30
0.0
 10
44.3878914474293
 20
48.87572539206448
 30
0.0
 10
44.15310564241038
 20
49.64495601325225
 30
0.0
 10
44.08951410658309
 20
50.03302371805058
 30
0.0
 10
44.08951410658309
 20
50.42517204502042
 30
0.0
  0
LINE
  5
118
330
1F
100
AcDbEntity
  8
0
  6
Continuous
 62
     7
370
    25
100
AcDbLine
 10
44.0895141066
 20
43.0639561129
 30
0.0
 11
44.0895141066
 21
50.425172045
 31
0.0
  0
SPLINE
  5
119
330
1F
100
AcDbEntity
  8
0
  6
Continuous
 62
     7
370
    25
100
AcDbSpline
210
0.0
220
0.0
230
1.0
 70
     8
 71
     3
 72
     8
 73
     4
 74
     0
 42
0.00000001
 43
0.00000001
 40
0.0
 40
0.0
 40
0.0
 40
0.0
 40
1.0
 40
1.0
 40
1.0
 40
1.0
 10
61.93207606539696
 20
36.06395611285269
 30
0.0
 10
62.25455539224623
 20
35.97224182511823
 30
0.0
 10
62.5698731485702
 20
35.87558503605033
 30
0.0
 10
62.87889029121769
 20
35.77457992821807
 30
0.0
  0
SPLINE
  5
11A
330
1F
100
AcDbEntity
  8
0
  6
Continuous
 62
     7
370
    25
100
AcDbSpline
210
0.0
220
0.0
230
1.0
 70
     8
 71
     3
 72
    10
 73
     6
 74
     0
 42
0.00000001
 43
0.00000001
 40
0.0
 40
0.0
 40
0.0
 40
0.0
 40
0.5
 40
0.5
 40
1.0
 40
1.0
 40
1.0
 40
1.0
 10
60.64132896199258
 20
35.09755957299784
 30
0.0
 10
61.00784690883312
 20
35.29962625854877
 30
0.0
 10
61.37692713429895
 20
35.46601903081941
 30
0.0
 10
62.12217948252635
 20
35.70006600468946
 30
0.0
 10
62.49839225447411
 20
35.76715425864829
 30
0.0
 10
62.87889029121769
 20
35.77457992821807
 30
0.0
  0
SPLINE
  5
11B
330
1F
100
AcDbEntity
  8
0
  6
Continuous
 62
     7
370
    25
100
AcDbSpline
210
0.0
220
0.0
230
1.0
 70
     8
 71
     3
 72
    10
 73
     6
 74
     0
 42
0.00000001
 43
0.00000001
 40
0.0
 40
0.0
 40
0.0
 40
0.0
 40
0.5
 40
0.5
 40
1.0
 40
1.0
 40
1.0
 40
1.0
 10
60.20831626010009
 20
35.09755957299767
 30
0.0
 10
60.29420332190264
 20
35.07388417857325
 30
0.0
 10
60.38161053088285
 20
35.06079306868863
 30
0.0
 10
60.53424697347672
 20
35.06070674740041
 30
0.0
 10
60.59837001842246
 20
35.07387568134435
 30
0.0
 10
60.6413289619927
 20
35.0975595729979
 30
0.0
  0
LINE
  5
11C
330
1F
100
AcDbEntity
  8
0
  6
Continuous
 62
     7
370
    25
100
AcDbLine
 10
49.5895141066
 20
39.0639561129
 30
0.0
 11
49.5895141066
 21
37.0639561129
 31
0.0
  0
SPLINE
  5
11D
330
1F
100
AcDbEntity
  8
0
  6
Continuous
 62
     7
370
    25
100
AcDbSpline
210
0.0
220
0.0
230
1.0
 70
     8
 71
     3
 72
     8
 73
     4
 74
     0
 42
0.00000001
 43
0.00000001
 40
0.0
 40
0.0
 40
0.0
 40
0.0
 40
1.0
 40
1.0
 40
1.0
 40
1.0
 10
49.58951410658308
 20
37.06395611285269
 30
0.0
 10
49.54973544839291
 20
36.92657102385259
 30
0.0
 10
49.50924648556468
 20
36.78986694204081
 30
0.0
 10
49.46813061508693
 20
36.65383457952744
 30
0.0
  0
SPLINE
  5
11E
330
1F
100
AcDbEntity
  8
0
  6
Continuous
 62
     7
370
    25
100
AcDbSpline
210
0.0
220
0.0
230
1.0
 70
     8
 71
     3
 72
     8
 73
     4
 74
     0
 42
0.00000001
 43
0.00000001
 40
0.0
 40
0.0
 40
0.0
 40
0.0
 40
1.0
 40
1.0
 40
1.0
 40
1.0
 10
48.91179270132289
 20
38.01214125744347
 30
0.0
 10
49.15896648220683
 20
37.56380596439214
 30
0.0
 10
49.35268815051081
 20
37.11163147364854
 30
0.0
 10
49.46813061508693
 20
36.65383457952744
 30
0.0
  0
LINE
  5
11F
330
1F
100
AcDbEntity
  8
0
  6
Continuous
 62
     7
370
    25
100
AcDbLine
 10
61.5895141066
 20
50.425172045
 30
0.0
 11
61.5895141066
 21
47.0639561129
 31
0.0
  0
SPLINE
  5
120
330
1F
100
AcDbEntity
  8
0
  6
Continuous
 62
     7
370
    25
100
AcDbSpline
210
0.0
220
0.0
230
1.0
 70
     8
 71
     3
 72
    10
 73
     6
 74
     0
 42
0.00000001
 43
0.00000001
 40
0.0
 40
0.0
 40
0.0
 40
0.0
 40
0.5
 40
0.5
 40
1.0
 40
1.0
 40
1.0
 40
1.0
 10
62.2672355118433
 20
48.1157709682619
 30
0.0
 10
62.05881475902586
 20
48.49381421766406
 30
0.0
 10
61.88835092374843
 20
48.8745837224599
 30
0.0
 10
61.65336848881005
 20
49.64373224801745
 30
0.0
 10
61.58951410658309
 20
50.03215897619269
 30
0.0
 10
61.58951410658308
 20
50.42517204502042
 30
0.0
  0
SPLINE
  5
121
330
1F
100
AcDbEntity
  8
0
  6
Continuous
 62
     7
370
    25
100
AcDbSpline
210
0.0
220
0.0
230
1.0
 70
     8
 71
     3
 72
    10
 73
     6
 74
     0
 42
0.00000001
 43
0.00000001
 40
0.0
 40
0.0
 40
0.0
 40
0.0
 40
0.5
 40
0.5
 40
1.0
 40
1.0
 40
1.0
 40
1.0
 10
62.2672355118433
 20
47.6827582663697
 30
0.0
 10
62.29091090626768
 20
47.76864532817215
 30
0.0
 10
62.3040020161523
 20
47.85605253715226
 30
0.0
 10
62.30408833744059
 20
48.00868897974599
 30
0.0
 10
62.29091940349676
 20
48.07281202469157
 30
0.0
 10
62.2672355118433
 20
48.11577096826189
 30
0.0
  0
SPLINE
  5
122
330
1F
100
AcDbEntity
  8
0
  6
Continuous
 62
     7
370
    25
100
AcDbSpline
210
0.0
220
0.0
230
1.0
 70
     8
 71
     3
 72
    10
 73
     6
 74
     0
 42
0.00000001
 43
0.00000001
 40
0.0
 40
0.0
 40
0.0
 40
0.0
 40
0.5
 40
0.5
 40
1.0
 40
1.0
 40
1.0
 40
1.0
 10
66.76745513402537
 20
38.44515395933568
 30
0.0
 10
66.74377973960098
 20
38.35926689753322
 30
0.0
 10
66.73068862971645
 20
38.27185968855308
 30
0.0
 10
66.73060230842817
 20
38.11922324595936
 30
0.0
 10
66.74377124237202
 20
38.05510020101377
 30
0.0
 10
66.76745513402548
 20
38.01214125744346
 30
0.0
  0
SPLINE
  5
123
330
1F
100
AcDbEntity
  8
0
  6
Continuous
 62
     7
370
    25
100
AcDbSpline
210
0.0
220
0.0
230
1.0
 70
     8
 71
     3
 72
    10
 73
     6
 74
     0
 42
0.00000001
 43
0.00000001
 40
0.0
 40
0.0
 40
0.0
 40
0.0
 40
0.5
 40
0.5
 40
1.0
 40
1.0
 40
1.0
 40
1.0
 10
66.76745513402548
 20
48.11577096826192
 30
0.0
 10
66.74377973960111
 20
48.07282743736069
 30
0.0
 10
66.73068862971645
 20
48.00938499273656
 30
0.0
 10
66.73060230842817
 20
47.8569061556176
 30
0.0
 10
66.74377124237202
 20
47.76867615351033
 30
0.0
 10
66.76745513402548
 20
47.6827582663697
 30
0.0
  0
SPLINE
  5
124
330
1F
100
AcDbEntity
  8
0
  6
Continuous
 62
     7
370
    25
100
AcDbSpline
210
0.0
220
0.0
230
1.0
 70
     8
 71
     3
 72
    16
 73
    12
 74
     0
 42
0.00000001
 43
0.00000001
 40
0.0
 40
0.0
 40
0.0
 40
0.0
 40
0.2500000000000001
 40
0.2500000000000001
 40
0.5000000000000001
 40
0.5000000000000001
 40
0.6250000000000001
 40
0.6250000000000001
 40
0.7500000000000002
 40
0.7500000000000002
 40
1.0
 40
1.0
 40
1.0
 40
1.0
 10
66.76745513402548
 20
52.73457312177893
 30
0.0
 10
66.97547058213124
 20
52.35726503290243
 30
0.0
 10
67.14567688710423
 20
51.97724130252823
 30
0.0
 10
67.38061291867183
 20
51.20961798711753
 30
0.0
 10
67.44468505033547
 20
50.82197117032873
 30
0.0
 10
67.44541799925649
 20
50.23365061844088
 30
0.0
 10
67.42975851917346
 20
50.03657742588524
 30
0.0
 10
67.36848339253652
 20
49.64652044833114
 30
0.0
 10
67.32292712003739
 20
49.4527275477431
 30
0.0
 10
67.14644108728113
 20
48.87464656297968
 30
0.0
 10
66.97578463379541
 20
48.49364869864485
 30
0.0
 10
66.76745513402548
 20
48.11577096826192
 30
0.0
  0
SPLINE
  5
125
330
1F
100
AcDbEntity
  8
0
  6
Continuous
 62
     7
370
    25
100
AcDbSpline
210
0.0
220
0.0
230
1.0
 70
     8
 71
     3
 72
    10
 73
     6
 74
     0
 42
0.00000001
 43
0.00000001
 40
0.0
 40
0.0
 40
0.0
 40
0.0
 40
0.1601790552921226
 40
0.7197651707803578
 40
1.0
 40
1.0
 40
1.0
 40
1.0
 10
66.73322570090858
 20
52.79685140052867
 30
0.0
 10
66.73246291081533
 20
52.79824362855504
 30
0.0
 10
66.7290353107416
 20
52.80449961028337
 30
0.0
 10
66.74354277553988
 20
52.77799234555545
 30
0.0
 10
66.76147232865773
 20
52.7454364904103
 30
0.0
 10
66.76745513402548
 20
52.73457312177893
 30
0.0
  0
SPLINE
  5
126
330
1F
100
AcDbEntity
  8
0
  6
Continuous
 62
     7
370
    25
100
AcDbSpline
210
0.0
220
0.0
230
1.0
 70
     8
 71
     3
 72
     9
 73
     5
 74
     0
 42
0.00000001
 43
0.00000001
 40
0.0
 40
0.0
 40
0.0
 40
0.0
 40
0.5797912171256352
 40
1.0
 40
1.0
 40
1.0
 40
1.0
 10
66.76745513402548
 20
33.39333910392646
 30
0.0
 10
66.75509653067901
 20
33.37086545568532
 30
0.0
 10
66.73378092088463
 20
33.3321038332645
 30
0.0
 10
66.73338997838185
 20
33.3313694285063
 30
0.0
 10
66.73322570090858
 20
33.33106082517671
 30
0.0
  0
SPLINE
  5
127
330
1F
100
AcDbEntity
  8
0
  6
Continuous
 62
     7
370
    25
100
AcDbSpline
210
0.0
220
0.0
230
1.0
 70
     8
 71
     3
 72
    16
 73
    12
 74
     0
 42
0.00000001
 43
0.00000001
 40
0.0
 40
0.0
 40
0.0
 40
0.0
 40
0.2500000000000001
 40
0.2500000000000001
 40
0.5000000000000002
 40
0.5000000000000002
 40
0.6250000000000001
 40
0.6250000000000001
 40
0.7500000000000001
 40
0.7500000000000001
 40
1.0
 40
1.0
 40
1.0
 40
1.0
 10
66.76745513402548
 20
38.01214125744347
 30
0.0
 10
66.97547058213124
 20
37.63483316856696
 30
0.0
 10
67.14567688710424
 20
37.25480943819277
 30
0.0
 10
67.38061291867183
 20
36.48718612278207
 30
0.0
 10
67.44468505033547
 20
36.09953930599328
 30
0.0
 10
67.44541799925649
 20
35.51121875410543
 30
0.0
 10
67.42975851917346
 20
35.31414556154978
 30
0.0
 10
67.36848339253652
 20
34.92408858399568
 30
0.0
 10
67.32292712003739
 20
34.73029568340764
 30
0.0
 10
67.14644108728113
 20
34.15221469864422
 30
0.0
 10
66.97578463379541
 20
33.77121683430939
 30
0.0
 10
66.76745513402548
 20
33.39333910392646
 30
0.0
  0
LINE
  5
128
330
1F
100
AcDbEntity
  8
0
  6
Continuous
 62
     7
370
    25
100
AcDbLine
 10
67.5895141066
 20
51.3139561129
 30
0.0
 11
67.5895141066
 21
34.8139561129
 31
0.0
  0
SPLINE
  5
129
330
1F
100
AcDbEntity
  8
0
  6
Continuous
 62
     7
370
    25
100
AcDbSpline
210
0.0
220
0.0
230
1.0
 70
     8
 71
     3
 72
     8
 73
     4
 74
     0
 42
0.00000001
 43
0.00000001
 40
0.0
 40
0.0
 40
0.0
 40
0.0
 40
1.0
 40
1.0
 40
1.0
 40
1.0
 10
61.71089759807925
 20
36.65383457952745
 30
0.0
 10
61.66978232243799
 20
36.789864974017
 30
0.0
 10
61.62929333957013
 20
36.92656903865443
 30
0.0
 10
61.58951410658309
 20
37.06395611285269
 30
0.0
  0
LINE
  5
12A
330
1F
100
AcDbEntity
  8
0
  6
Continuous
 62
     7
370
    25
100
AcDbLine
 10
61.5895141066
 20
39.0639561129
 30
0.0
 11
61.5895141066
 21
37.0639561129
 31
0.0
  0
SPLINE
  5
12B
330
1F
100
AcDbEntity
  8
0
  6
Continuous
 62
     7
370
    25
100
AcDbSpline
210
0.0
220
0.0
230
1.0
 70
     8
 71
     3
 72
    10
 73
     6
 74
     0
 42
0.00000001
 43
0.00000001
 40
0.0
 40
0.0
 40
0.0
 40
0.0
 40
0.5
 40
0.5
 40
1.0
 40
1.0
 40
1.0
 40
1.0
 10
62.26723551184001
 20
38.01214125744346
 30
0.0
 10
62.29091090626436
 20
38.05508478834462
 30
0.0
 10
62.30400201615227
 20
38.11852723296842
 30
0.0
 10
62.30408833744062
 20
38.2710060700875
 30
0.0
 10
62.29091940349679
 20
38.35923607219492
 30
0.0
 10
62.26723551184328
 20
38.44515395933567
 30
0.0
  0
SPLINE
  5
12C
330
1F
100
AcDbEntity
  8
0
  6
Continuous
 62
     7
370
    25
100
AcDbSpline
210
0.0
220
0.0
230
1.0
 70
     8
 71
     3
 72
     8
 73
     4
 74
     0
 42
0.00000001
 43
0.00000001
 40
0.0
 40
0.0
 40
0.0
 40
0.0
 40
1.0
 40
1.0
 40
1.0
 40
1.0
 10
61.71089759807925
 20
36.65383457952745
 30
0.0
 10
61.82653020810831
 20
37.1123855115852
 30
0.0
 10
62.02041961292873
 20
37.56445510734346
 30
0.0
 10
62.26723551184313
 20
38.0121412574432
 30
0.0
  0
LINE
  5
12D
330
1F
100
AcDbEntity
  8
0
  6
Continuous
 62
     7
370
    25
100
AcDbLine
 10
47.388838112
 20
22.1435879389
 30
0.0
 11
63.7901901011
 21
22.1435879389
 31
0.0
  0
SPLINE
  5
12E
330
1F
100
AcDbEntity
  8
0
  6
Continuous
 62
     7
370
    25
100
AcDbSpline
210
0.0
220
0.0
230
1.0
 70
     8
 71
     3
 72
    22
 73
    18
 74
     0
 42
0.00000001
 43
0.00000001
 40
0.0
 40
0.0
 40
0.0
 40
0.0
 40
0.249999999999999
 40
0.249999999999999
 40
0.3749999999999976
 40
0.3749999999999976
 40
0.4374999999999975
 40
0.4374999999999975
 40
0.4999999999999973
 40
0.4999999999999973
 40
0.5624999999999972
 40
0.5624999999999972
 40
0.6249999999999971
 40
0.6249999999999971
 40
0.7499999999999972
 40
0.7499999999999972
 40
1.0
 40
1.0
 40
1.0
 40
1.0
 10
48.56296399566703
 20
32.56395611285269
 30
0.0
 10
48.5282298202896
 20
32.38944741521712
 30
0.0
 10
48.48963736877081
 20
32.21710895831725
 30
0.0
 10
48.41490842372514
 20
31.97937352501019
 30
0.0
 10
48.38696550243148
 20
31.90259095562816
 30
0.0
 10
48.33548692576505
 20
31.80623655911859
 30
0.0
 10
48.31663119965807
 20
31.77746295865649
 30
0.0
 10
48.27515460605327
 20
31.73524939362751
 30
0.0
 10
48.25177599442813
 20
31.72187629566502
 30
0.0
 10
48.20437098402589
 20
31.72203669026155
 30
0.0
 10
48.18095218866274
 20
31.73554138238095
 30
0.0
 10
48.13912317919446
 20
31.77853282511839
 30
0.0
 10
48.12020596402377
 20
31.80771746128913
 30
0.0
 10
48.06892399284424
 20
31.9043501117558
 30
0.0
 10
48.04110765057081
 20
31.98101135725195
 30
0.0
 10
47.96642797435204
 20
32.21922179728582
 30
0.0
 10
47.92829089622054
 20
32.38982740114142
 30
0.0
 10
47.89363235316355
 20
32.56395611285255
 30
0.0
  0
SPLINE
  5
12F
330
1F
100
AcDbEntity
  8
0
  6
Continuous
 62
     7
370
    25
100
AcDbSpline
210
0.0
220
0.0
230
1.0
 70
     8
 71
     3
 72
    22
 73
    18
 74
     0
 42
0.00000001
 43
0.00000001
 40
0.0
 40
0.0
 40
0.0
 40
0.0
 40
0.2499999999999977
 40
0.2499999999999977
 40
0.3749999999999955
 40
0.3749999999999955
 40
0.4374999999999958
 40
0.4374999999999958
 40
0.4999999999999961
 40
0.4999999999999961
 40
0.5624999999999964
 40
0.5624999999999964
 40
0.6249999999999967
 40
0.6249999999999967
 40
0.7499999999999978
 40
0.7499999999999978
 40
1.0
 40
1.0
 40
1.0
 40
1.0
 10
63.2853958600025
 20
32.56395611285269
 30
0.0
 10
63.25066168462504
 20
32.38944741521707
 30
0.0
 10
63.21206923310624
 20
32.21710895831713
 30
0.0
 10
63.13734028806054
 20
31.97937352501004
 30
0.0
 10
63.10939736676686
 20
31.90259095562799
 30
0.0
 10
63.05791879010039
 20
31.80623655911842
 30
0.0
 10
63.0390630639934
 20
31.77746295865629
 30
0.0
 10
62.99758647038854
 20
31.73524939362734
 30
0.0
 10
62.9742078587634
 20
31.72187629566496
 30
0.0
 10
62.92680284836111
 20
31.72203669026164
 30
0.0
 10
62.903384052998
 20
31.73554138238108
 30
0.0
 10
62.86155504352976
 20
31.77853282511858
 30
0.0
 10
62.84263782835908
 20
31.80771746128939
 30
0.0
 10
62.7913558571796
 20
31.90435011175605
 30
0.0
 10
62.76353951490615
 20
31.9810113572523
 30
0.0
 10
62.68885983868746
 20
32.21922179728602
 30
0.0
 10
62.65072276055599
 20
32.3898274011415
 30
0.0
 10
62.616064217499
 20
32.56395611285256
 30
0.0
  0
SPLINE
  5
130
330
1F
100
AcDbEntity
  8
0
  6
Continuous
 62
     7
370
    25
100
AcDbSpline
210
0.0
220
0.0
230
1.0
 70
     8
 71
     3
 72
    12
 73
     8
 74
     0
 42
0.00000001
 43
0.00000001
 40
0.0
 40
0.0
 40
0.0
 40
0.0
 40
0.2499999999999999
 40
0.2499999999999999
 40
0.4999999999999998
 40
0.4999999999999998
 40
1.0
 40
1.0
 40
1.0
 40
1.0
 10
44.08951410658309
 20
35.70274018068496
 30
0.0
 10
44.08951410658309
 20
35.89774366069076
 30
0.0
 10
44.10526043660504
 20
36.09427831971517
 30
0.0
 10
44.16670546119047
 20
36.48369800732072
 30
0.0
 10
44.21229422044421
 20
36.67718270038097
 30
0.0
 10
44.38874522270081
 20
37.25436629913657
 30
0.0
 10
44.55920292466429
 20
37.63480208091953
 30
0.0
 10
44.76723551184313
 20
38.01214125744347
 30
0.0
  0
LINE
  5
131
330
1F
100
AcDbEntity
  8
0
  6
Continuous
 62
     7
370
    25
100
AcDbLine
 10
44.0895141066
 20
43.0639561129
 30
0.0
 11
44.0895141066
 21
35.7027401807
 31
0.0
  0
LINE
  5
132
330
1F
100
AcDbEntity
  8
0
  6
Continuous
 62
     7
370
    25
100
AcDbLine
 10
66.767455134
 20
38.0121412574
 30
0.0
 11
62.2672355118
 21
38.0121412574
 31
0.0
  0
LINE
  5
133
330
1F
100
AcDbEntity
  8
0
  6
Continuous
 62
     7
370
    25
100
AcDbLine
 10
51.5357531001
 20
42.4895242564
 30
0.0
 11
52.1431014589
 21
42.4895242564
 31
0.0
  0
LINE
  5
134
330
1F
100
AcDbEntity
  8
0
  6
Continuous
 62
     7
370
    25
100
AcDbLine
 10
52.2229626972
 20
42.5975559851
 30
0.0
 11
51.9192885196
 21
43.4081386023
 31
0.0
  0
ELLIPSE
  5
135
330
1F
100
AcDbEntity
  8
0
  6
Continuous
 62
     7
370
    25
100
AcDbEllipse
 10
51.8394272812
 20
43.3809485905
 30
0.0
 11
0.08480161849065126
 21
7.105427357601002E-15
 31
0.0
210
0.0
220
0.0
230
1.0
 40
0.9533039403
 41
0.3430239404206346
 42
2.798568713169069
  0
ELLIPSE
  5
136
330
1F
100
AcDbEntity
  8
0
  6
Continuous
 62
     7
370
    25
100
AcDbEllipse
 10
51.5357531001
 20
42.5703659734
 30
0.0
 11
0.08480161849065837
 21
-1.421085471520200E-14
 31
0.0
210
0.0
220
0.0
230
1.0
 40
0.9533039403
 41
2.798568711308441
 42
4.712388980384779
  0
LINE
  5
137
330
1F
100
AcDbEntity
  8
0
  6
Continuous
 62
     7
370
    25
100
AcDbLine
 10
51.7595660429
 20
43.4081386023
 30
0.0
 11
51.4558918618
 21
42.5975559854
 31
0.0
  0
ELLIPSE
  5
138
330
1F
100
AcDbEntity
  8
0
  6
Continuous
 62
     7
370
    25
100
AcDbEllipse
 10
52.1431014589
 20
42.5703659734
 30
0.0
 11
-0.08480161849065837
 21
-3.552713678800501E-14
 31
0.0
210
0.0
220
0.0
230
1.0
 40
0.9533039403
 41
1.570796326794497
 42
3.48461659214937
  0
LINE
  5
139
330
1F
100
AcDbEntity
  8
0
  6
Continuous
 62
     7
370
    25
100
AcDbLine
 10
60.641328962
 20
35.097559573
 30
0.0
 11
60.641328962
 21
32.5639561129
 31
0.0
  0
LINE
  5
13A
330
1F
100
AcDbEntity
  8
0
  6
Continuous
 62
     7
370
    25
100
AcDbLine
 10
60.2083162601
 20
32.5639561129
 30
0.0
 11
60.641328962
 21
32.5639561129
 31
0.0
  0
LINE
  5
13B
330
1F
100
AcDbEntity
  8
0
  6
Continuous
 62
     7
370
    25
100
AcDbLine
 10
50.5376992512
 20
32.5639561129
 30
0.0
 11
50.5376992512
 21
35.097559573
 31
0.0
  0
LINE
  5
13C
330
1F
100
AcDbEntity
  8
0
  6
Continuous
 62
     7
370
    25
100
AcDbLine
 10
50.5376992512
 20
32.5639561129
 30
0.0
 11
50.9707119531
 21
32.5639561129
 31
0.0
  0
LINE
  5
13D
330
1F
100
AcDbEntity
  8
0
  6
Continuous
 62
     7
370
    25
100
AcDbLine
 10
62.2672355118
 20
48.1157709683
 30
0.0
 11
66.767455134
 21
48.1157709683
 31
0.0
  0
SPLINE
  5
13E
330
1F
100
AcDbEntity
  8
0
  6
Continuous
 62
     7
370
    25
100
AcDbSpline
210
0.0
220
0.0
230
1.0
 70
     8
 71
     3
 72
    12
 73
     8
 74
     0
 42
0.00000001
 43
0.00000001
 40
0.0
 40
0.0
 40
0.0
 40
0.0
 40
0.2499999999999999
 40
0.2499999999999999
 40
0.4999999999999998
 40
0.4999999999999998
 40
1.0
 40
1.0
 40
1.0
 40
1.0
 10
61.58951410658308
 20
50.42517204502042
 30
0.0
 10
61.58951410658308
 20
50.62091430789994
 30
0.0
 10
61.60535704267204
 20
50.8175809170905
 30
0.0
 10
61.66685990290971
 20
51.20684914441878
 30
0.0
 10
61.7124635439534
 20
51.4002531773717
 30
0.0
 10
61.88891456144262
 20
51.97718222862846
 30
0.0
 10
62.05931192869448
 20
52.35743166183146
 30
0.0
 10
62.26723551184328
 20
52.73457312177893
 30
0.0
  0
LINE
  5
13F
330
1F
100
AcDbEntity
  8
0
  6
Continuous
 62
     7
370
    25
100
AcDbLine
 10
66.767455134
 20
52.7345731218
 30
0.0
 11
62.2672355118
 21
52.7345731218
 31
0.0
  0
ELLIPSE
  5
140
330
1F
100
AcDbEntity
  8
0
  6
Continuous
 62
     7
370
    25
100
AcDbEllipse
 10
55.5895141066
 20
33.2490015366
 30
0.0
 11
8.500000000000014
 21
0.0
 31
0.0
210
0.0
220
0.0
230
1.0
 40
0.5773502692
 41
2.374833212873082
 42
2.530692279913056
  0
LINE
  5
141
330
1F
100
AcDbEntity
  8
0
  6
Continuous
 62
     7
370
    25
100
AcDbLine
 10
48.300137922
 20
35.7745799282
 30
0.0
 11
45.9188970977
 21
33.3933391039
 31
0.0
  0
LINE
  5
142
330
1F
100
AcDbEntity
  8
0
  6
Continuous
 62
     7
370
    25
100
AcDbLine
 10
44.7672355118
 20
33.3933391039
 30
0.0
 11
45.9188970977
 21
33.3933391039
 31
0.0
  0
SPLINE
  5
143
330
1F
100
AcDbEntity
  8
0
  6
Continuous
 62
     7
370
    25
100
AcDbSpline
210
0.0
220
0.0
230
1.0
 70
     8
 71
     3
 72
    10
 73
     6
 74
     0
 42
0.00000001
 43
0.00000001
 40
0.0
 40
0.0
 40
0.0
 40
0.0
 40
0.5
 40
0.5
 40
1.0
 40
1.0
 40
1.0
 40
1.0
 10
44.76723551184281
 20
33.39333910392642
 30
0.0
 10
44.55842558717655
 20
33.77208825131772
 30
0.0
 10
44.3878914474293
 20
34.15329352772901
 30
0.0
 10
44.15310564241038
 20
34.9225241489168
 30
0.0
 10
44.08951410658309
 20
35.31059185371512
 30
0.0
 10
44.08951410658309
 20
35.70274018068496
 30
0.0
  0
ELLIPSE
  5
144
330
1F
100
AcDbEntity
  8
0
  6
Continuous
 62
     7
370
    25
100
AcDbEllipse
 10
55.5895141066
 20
33.2490015366
 30
0.0
 11
8.500000000000014
 21
0.0
 31
0.0
210
0.0
220
0.0
230
1.0
 40
0.5773502692
 41
0.6109003736767352
 42
0.7667594407167098
  0
LINE
  5
145
330
1F
100
AcDbEntity
  8
0
  6
Continuous
 62
     7
370
    25
100
AcDbLine
 10
65.2601311155
 20
33.3933391039
 30
0.0
 11
66.767455134
 21
33.3933391039
 31
0.0
  0
LINE
  5
146
330
1F
100
AcDbEntity
  8
0
  6
Continuous
 62
     7
370
    25
100
AcDbLine
 10
65.2601311155
 20
33.3933391039
 30
0.0
 11
62.8788902912
 21
35.7745799282
 31
0.0
  0
LINE
  5
147
330
1F
100
AcDbEntity
  8
0
  6
Continuous
 62
     7
370
    25
100
AcDbLine
 10
47.8936323532
 20
32.5639561129
 30
0.0
 11
45.9188970977
 21
32.5639561129
 31
0.0
  0
LINE
  5
148
330
1F
100
AcDbEntity
  8
0
  6
Continuous
 62
     7
370
    25
100
AcDbLine
 10
45.9188970977
 20
33.3933391039
 30
0.0
 11
45.9188970977
 21
32.5639561129
 31
0.0
  0
LINE
  5
149
330
1F
100
AcDbEntity
  8
0
  6
Continuous
 62
     7
370
    25
100
AcDbLine
 10
50.5376992512
 20
32.5639561129
 30
0.0
 11
48.5629639957
 21
32.5639561129
 31
0.0
  0
SPLINE
  5
14A
330
1F
100
AcDbEntity
  8
0
  6
Continuous
 62
     7
370
    25
100
AcDbSpline
210
0.0
220
0.0
230
1.0
 70
     8
 71
     3
 72
    12
 73
     8
 74
     0
 42
0.00000001
 43
0.00000001
 40
0.0
 40
0.0
 40
0.0
 40
0.0
 40
0.2499999999999999
 40
0.2499999999999999
 40
0.5
 40
0.5
 40
1.0
 40
1.0
 40
1.0
 40
1.0
 10
44.08951410658309
 20
50.42517204502042
 30
0.0
 10
44.08951410658309
 20
50.62017552502621
 30
0.0
 10
44.10526043660504
 20
50.81671018405062
 30
0.0
 10
44.16670546119047
 20
51.20612987165617
 30
0.0
 10
44.21229422044421
 20
51.39961456471644
 30
0.0
 10
44.3887452227008
 20
51.97679816347203
 30
0.0
 10
44.55920292466429
 20
52.357233945255
 30
0.0
 10
44.76723551184313
 20
52.73457312177894
 30
0.0
  0
LINE
  5
14B
330
1F
100
AcDbEntity
  8
0
  6
Continuous
 62
     7
370
    25
100
AcDbLine
 10
48.9117927013
 20
52.7345731218
 30
0.0
 11
44.7672355118
 21
52.7345731218
 31
0.0
  0
SPLINE
  5
14C
330
1F
100
AcDbEntity
  8
0
  6
Continuous
 62
     7
370
    25
100
AcDbSpline
210
0.0
220
0.0
230
1.0
 70
     8
 71
     3
 72
    10
 73
     6
 74
     0
 42
0.00000001
 43
0.00000001
 40
0.0
 40
0.0
 40
0.0
 40
0.0
 40
0.5
 40
0.5
 40
1.0
 40
1.0
 40
1.0
 40
1.0
 10
48.91179270132288
 20
52.73457312177895
 30
0.0
 10
49.12021345414031
 20
52.35652987237679
 30
0.0
 10
49.29067728941774
 20
51.97576036758093
 30
0.0
 10
49.52565972435613
 20
51.20661184202339
 30
0.0
 10
49.58951410658309
 20
50.81818511384815
 30
0.0
 10
49.58951410658309
 20
50.42517204502042
 30
0.0
  0
LINE
  5
14D
330
1F
100
AcDbEntity
  8
0
  6
Continuous
 62
     7
370
    25
100
AcDbLine
 10
65.2601311155
 20
32.5639561129
 30
0.0
 11
65.2601311155
 21
33.3933391039
 31
0.0
  0
LINE
  5
14E
330
1F
100
AcDbEntity
  8
0
  6
Continuous
 62
     7
370
    25
100
AcDbLine
 10
65.2601311155
 20
32.5639561129
 30
0.0
 11
63.28539586
 21
32.5639561129
 31
0.0
  0
LINE
  5
14F
330
1F
100
AcDbEntity
  8
0
  6
Continuous
 62
     7
370
    25
100
AcDbLine
 10
62.6160642175
 20
32.5639561129
 30
0.0
 11
60.641328962
 21
32.5639561129
 31
0.0
  0
LINE
  5
150
330
1F
100
AcDbEntity
  8
0
  6
Continuous
 62
     7
370
    25
100
AcDbLine
 10
62.5895141066
 20
20.0639561129
 30
0.0
 11
48.5895141066
 21
20.0639561129
 31
0.0
  0
LINE
  5
151
330
1F
100
AcDbEntity
  8
0
  6
Continuous
 62
     7
370
    25
100
AcDbLine
 10
51.5895141066
 20
39.0639561129
 30
0.0
 11
49.5895141066
 21
37.0639561129
 31
0.0
  0
LINE
  5
152
330
1F
100
AcDbEntity
  8
0
  6
Continuous
 62
     7
370
    25
100
AcDbLine
 10
48.6268930339
 20
36.0639561129
 30
0.0
 11
51.5895141066
 21
36.0639561129
 31
0.0
  0
LINE
  5
153
330
1F
100
AcDbEntity
  8
0
  6
Continuous
 62
     7
370
    25
100
AcDbLine
 10
61.5895141066
 20
37.0639561129
 30
0.0
 11
59.5895141066
 21
39.0639561129
 31
0.0
  0
LINE
  5
154
330
1F
100
AcDbEntity
  8
0
  6
Continuous
 62
     7
370
    25
100
AcDbLine
 10
59.5895141066
 20
36.0639561129
 30
0.0
 11
62.5521351792
 21
36.0639561129
 31
0.0
  0
LINE
  5
155
330
1F
100
AcDbEntity
  8
0
  6
Continuous
 62
     7
370
    25
100
AcDbLine
 10
49.5895141066
 20
50.9984105911
 30
0.0
 11
49.5895141066
 21
50.425172045
 31
0.0
  0
SPLINE
  5
156
330
1F
100
AcDbEntity
  8
0
  6
Continuous
 62
     7
370
    25
100
AcDbSpline
210
0.0
220
0.0
230
1.0
 70
     8
 71
     3
 72
    32
 73
    28
 74
     0
 42
0.00000001
 43
0.00000001
 40
0.0
 40
0.0
 40
0.0
 40
0.0
 40
0.0625000000000001
 40
0.0625000000000001
 40
0.1250000000000001
 40
0.1250000000000001
 40
0.1875000000000002
 40
0.1875000000000002
 40
0.2500000000000003
 40
0.2500000000000003
 40
0.3750000000000003
 40
0.3750000000000003
 40
0.4375000000000003
 40
0.4375000000000003
 40
0.5000000000000002
 40
0.5000000000000002
 40
0.5625000000000002
 40
0.5625000000000002
 40
0.6250000000000001
 40
0.6250000000000001
 40
0.7500000000000001
 40
0.7500000000000001
 40
0.8750000000000002
 40
0.8750000000000002
 40
0.9375000000000001
 40
0.9375000000000001
 40
1.0
 40
1.0
 40
1.0
 40
1.0
 10
61.58951410657461
 20
50.99841059107334
 30
0.0
 10
61.43265777065772
 20
50.90345361317765
 30
0.0
 10
61.25965933650208
 20
50.80070043855246
 30
0.0
 10
60.88295474987628
 20
50.58398923690419
 30
0.0
 10
60.6801019694196
 20
50.47057052641419
 30
0.0
 10
60.25412070661699
 20
50.24248038971601
 30
0.0
 10
60.02994274632897
 20
50.12717350726416
 30
0.0
 10
59.55859165275259
 20
49.89885040488939
 30
0.0
 10
59.30990613738749
 20
49.78520038875563
 30
0.0
 10
58.53933365269585
 20
49.46213635752159
 30
0.0
 10
57.99369624261368
 20
49.26923783335809
 30
0.0
 10
57.11091649411734
 20
49.05764390808439
 30
0.0
 10
56.81227739424449
 20
49.00200152196665
 30
0.0
 10
56.20577579352873
 20
48.9263334526028
 30
0.0
 10
55.8956285548628
 20
48.90636020682649
 30
0.0
 10
55.27554306617904
 20
48.90669397307973
 30
0.0
 10
54.96897202871099
 20
48.92669293840252
 30
0.0
 10
54.36231728140281
 20
49.00273172459899
 30
0.0
 10
54.0599442167775
 20
49.05938482473054
 30
0.0
 10
53.18330791402455
 20
49.27016337477638
 30
0.0
 10
52.63525378204763
 20
49.46370920534814
 30
0.0
 10
51.60475651480435
 20
49.89632849862393
 30
0.0
 10
51.13719647952489
 20
50.12880514331436
 30
0.0
 10
50.49898287589695
 20
50.4705431442334
 30
0.0
 10
50.29577313770712
 20
50.58416065966179
 30
0.0
 10
49.91943621131269
 20
50.80066305201802
 30
0.0
 10
49.74645760282119
 20
50.90340084846242
 30
0.0
 10
49.58951410658309
 20
50.9984105910785
 30
0.0
  0
LINE
  5
157
330
1F
100
AcDbEntity
  8
0
  6
Continuous
 62
     7
370
    25
100
AcDbLine
 10
61.5895141066
 20
50.9984105911
 30
0.0
 11
61.5895141066
 21
50.425172045
 31
0.0
  0
SPLINE
  5
158
330
1F
100
AcDbEntity
  8
0
  6
Continuous
 62
     7
370
    25
100
AcDbSpline
210
0.0
220
0.0
230
1.0
 70
     8
 71
     3
 72
    12
 73
     8
 74
     0
 42
0.00000001
 43
0.00000001
 40
0.0
 40
0.0
 40
0.0
 40
0.0
 40
0.0860276384484858
 40
0.3125921905364371
 40
0.5444262578673806
 40
0.772029644149985
 40
1.0
 40
1.0
 40
1.0
 40
1.0
 10
61.7628612940501
 20
51.85685770655381
 30
0.0
 10
61.76407154314197
 20
51.86088763019562
 30
0.0
 10
61.76846913467813
 20
51.87553086208722
 30
0.0
 10
61.73594674138688
 20
51.76795343581399
 30
0.0
 10
61.67991856520243
 20
51.56180461997328
 30
0.0
 10
61.61172573740678
 20
51.27856414256262
 30
0.0
 10
61.59692195839225
 20
51.09184524293158
 30
0.0
 10
61.58951410658309
 20
50.99841059107137
 30
0.0
  0
SPLINE
  5
159
330
1F
100
AcDbEntity
  8
0
  6
Continuous
 62
     7
370
    25
100
AcDbSpline
210
0.0
220
0.0
230
1.0
 70
     8
 71
     3
 72
    11
 73
     7
 74
     0
 42
0.00000001
 43
0.00000001
 40
0.0
 40
0.0
 40
0.0
 40
0.0
 40
0.3176290690540042
 40
0.6359452559218911
 40
0.8656695123188253
 40
1.0
 40
1.0
 40
1.0
 40
1.0
 10
49.58951410658308
 20
50.9984105910784
 30
0.0
 10
49.57587537352138
 20
51.12967513936621
 30
0.0
 10
49.5485684031197
 20
51.3924881967573
 30
0.0
 10
49.46056342514101
 20
51.7041338459454
 30
0.0
 10
49.4160023823709
 20
51.85788264063753
 30
0.0
 10
49.41635143849459
 20
51.8563680827021
 30
0.0
 10
49.41648023472671
 20
51.85580923459094
 30
0.0
  0
LINE
  5
15A
330
1F
100
AcDbEntity
  8
0
  6
Continuous
 62
     7
370
    25
100
AcDbLine
 10
61.4842952899
 20
52.5594252928
 30
0.0
 11
61.4869216336
 21
52.5616453701
 31
0.0
  0
SPLINE
  5
15B
330
1F
100
AcDbEntity
  8
0
  6
Continuous
 62
     7
370
    25
100
AcDbSpline
210
0.0
220
0.0
230
1.0
 70
     8
 71
     3
 72
    10
 73
     6
 74
     0
 42
0.00000001
 43
0.00000001
 40
0.0
 40
0.0
 40
0.0
 40
0.0
 40
0.1601790552921523
 40
0.7197651707804853
 40
1.0
 40
1.0
 40
1.0
 40
1.0
 10
48.87756326820598
 20
52.79685140052867
 30
0.0
 10
48.87680047811274
 20
52.79824362855504
 30
0.0
 10
48.873372878039
 20
52.80449961028337
 30
0.0
 10
48.88788034283728
 20
52.77799234555545
 30
0.0
 10
48.90580989595512
 20
52.7454364904103
 30
0.0
 10
48.91179270132288
 20
52.73457312177895
 30
0.0
  0
SPLINE
  5
15C
330
1F
100
AcDbEntity
  8
0
  6
Continuous
 62
     7
370
    25
100
AcDbSpline
210
0.0
220
0.0
230
1.0
 70
     8
 71
     3
 72
     9
 73
     5
 74
     0
 42
0.00000001
 43
0.00000001
 40
0.0
 40
0.0
 40
0.0
 40
0.0
 40
0.5797912171256431
 40
1.0
 40
1.0
 40
1.0
 40
1.0
 10
62.26723551184328
 20
52.73457312177893
 30
0.0
 10
62.27959411518975
 20
52.75704677002005
 30
0.0
 10
62.30090972498414
 20
52.79580839244088
 30
0.0
 10
62.30130066748693
 20
52.79654279719909
 30
0.0
 10
62.30146494496019
 20
52.79685140052867
 30
0.0
  0
SPLINE
  5
15D
330
1F
100
AcDbEntity
  8
0
  6
Continuous
 62
     7
370
    25
100
AcDbSpline
210
0.0
220
0.0
230
1.0
 70
     8
 71
     3
 72
    10
 73
     6
 74
     0
 42
0.00000001
 43
0.00000001
 40
0.0
 40
0.0
 40
0.0
 40
0.0
 40
0.1593935212994522
 40
0.7189934545690309
 40
1.0
 40
1.0
 40
1.0
 40
1.0
 10
44.80147250142073
 20
52.79686520124539
 30
0.0
 10
44.80223402841818
 20
52.798255120072
 30
0.0
 10
44.8056691299341
 20
52.80452477601894
 30
0.0
 10
44.79117450746761
 20
52.77804083419514
 30
0.0
 10
44.77323313697489
 20
52.74546343014827
 30
0.0
 10
44.76723551184328
 20
52.73457312177893
 30
0.0
  0
LINE
  5
15E
330
1F
100
AcDbEntity
  8
0
  6
Continuous
 62
     7
370
    25
100
AcDbLine
 10
44.0895141066
 20
51.5639561129
 30
0.0
 11
44.0895141066
 21
50.425172045
 31
0.0
  0
SPLINE
  5
15F
330
1F
100
AcDbEntity
  8
0
  6
Continuous
 62
     7
370
    25
100
AcDbSpline
210
0.0
220
0.0
230
1.0
 70
     8
 71
     3
 72
     9
 73
     5
 74
     0
 42
0.00000001
 43
0.00000001
 40
0.0
 40
0.0
 40
0.0
 40
0.0
 40
0.5789479223839474
 40
0.9999999999999999
 40
0.9999999999999999
 40
0.9999999999999999
 40
0.9999999999999999
 10
44.76723551184328
 20
33.39333910392645
 30
0.0
 10
44.77957640215754
 20
33.37089773673409
 30
0.0
 10
44.80089246503145
 20
33.33213541230953
 30
0.0
 10
44.80130063894598
 20
33.33136950945017
 30
0.0
 10
44.80147250142073
 20
33.33104702445998
 30
0.0
  0
LINE
  5
160
330
1F
100
AcDbEntity
  8
0
  6
Continuous
 62
     7
370
    25
100
AcDbLine
 10
44.0895141066
 20
35.7027401807
 30
0.0
 11
44.0895141066
 21
34.5639561129
 31
0.0
  0
LINE
  5
161
330
1F
100
AcDbEntity
  8
0
  6
Continuous
 62
     7
370
    25
100
AcDbLine
 10
65.3271184136
 20
33.3263518058
 30
0.0
 11
65.2601311155
 21
33.3933391039
 31
0.0
  0
LINE
  5
162
330
1F
100
AcDbEntity
  8
0
  6
Continuous
 62
     7
370
    25
100
AcDbLine
 10
65.2601311155
 20
32.5639561129
 30
0.0
 11
65.3271184136
 21
32.5639561129
 31
0.0
  0
LINE
  5
163
330
1F
100
AcDbEntity
  8
0
  6
Continuous
 62
     7
370
    25
100
AcDbLine
 10
45.9188970977
 20
33.3933391039
 30
0.0
 11
45.8519097995
 21
33.3263518058
 31
0.0
  0
LINE
  5
164
330
1F
100
AcDbEntity
  8
0
  6
Continuous
 62
     7
370
    25
100
AcDbLine
 10
45.8519097995
 20
32.5639561129
 30
0.0
 11
45.9188970977
 21
32.5639561129
 31
0.0
  0
SPLINE
  5
165
330
1F
100
AcDbEntity
  8
0
  6
Continuous
 62
     7
370
    25
100
AcDbSpline
210
0.0
220
0.0
230
1.0
 70
     8
 71
     3
 72
    30
 73
    26
 74
     0
 42
0.00000001
 43
0.00000001
 40
0.0
 40
0.0
 40
0.0
 40
0.0
 40
0.0110569947995957
 40
0.0534018586163523
 40
0.0957739243294413
 40
0.152560285963683
 40
0.2094465507836707
 40
0.2166929089147469
 40
0.2775705853057713
 40
0.3384474861342897
 40
0.3856607907517328
 40
0.4327791182719195
 40
0.4698641362073264
 40
0.5069103241819656
 40
0.5439143354842868
 40
0.5809675385159896
 40
0.6306181182252716
 40
0.6803606635267528
 40
0.7335199301453341
 40
0.786670493119384
 40
0.8314134775104652
 40
0.876121580665438
 40
0.9187009688159357
 40
0.961245266880381
 40
1.0
 40
1.0
 40
1.0
 40
1.0
 10
49.68951410658308
 20
52.56395611285269
 30
0.0
 10
49.69033815392932
 20
52.56325828095498
 30
0.0
 10
49.69431804726154
 20
52.55988796912839
 30
0.0
 10
49.76509975619074
 20
52.49953832552305
 30
0.0
 10
49.98638848629001
 20
52.31400822986513
 30
0.0
 10
50.37695150168653
 20
51.99346228492351
 30
0.0
 10
50.78019358777268
 20
51.67978538138311
 30
0.0
 10
51.2470078268617
 20
51.33339609349331
 30
0.0
 10
51.78263566093605
 20
50.95297114648675
 30
0.0
 10
52.59838603895376
 20
50.45494759623895
 30
0.0
 10
53.43994584467413
 20
50.04282972312782
 30
0.0
 10
54.22335276344442
 20
49.76583060703426
 30
0.0
 10
54.99633764012034
 20
49.61441345420954
 30
0.0
 10
55.7269279459069
 20
49.57626398495245
 30
0.0
 10
56.45165040271724
 20
49.65559587661463
 30
0.0
 10
57.22502001592061
 20
49.84809907974431
 30
0.0
 10
58.01541486712554
 20
50.16525857321405
 30
0.0
 10
58.81221929776499
 20
50.59053701283898
 30
0.0
 10
59.53958686572258
 20
51.05299811350247
 30
0.0
 10
60.15379104839727
 20
51.49341009015122
 30
0.0
 10
60.64725451574228
 20
51.87187370558959
 30
0.0
 10
61.02230433125166
 20
52.17362895680011
 30
0.0
 10
61.29255926049464
 20
52.39727431631817
 30
0.0
 10
61.46153406087135
 20
52.54020164586353
 30
0.0
 10
61.47694770391953
 20
52.55321967889689
 30
0.0
 10
61.48429528991205
 20
52.55942529277202
 30
0.0
  0
LINE
  5
166
330
1F
100
AcDbEntity
  8
0
  6
Continuous
 62
     7
370
    18
100
AcDbLine
 10
47.7395141066
 20
32.0639561129
 30
0.0
 11
48.0873327429
 21
20.9337597493
 31
0.0
  0
LINE
  5
167
330
1F
100
AcDbEntity
  8
0
  6
Continuous
 62
     7
370
    18
100
AcDbLine
 10
63.0916954702
 20
20.9337597493
 30
0.0
 11
63.4395141066
 21
32.0639561129
 31
0.0
  0
LINE
  5
168
330
1F
100
AcDbEntity
  8
0
  6
Continuous
 62
     7
370
    25
100
AcDbLine
 10
63.1639211048
 20
32.0639561129
 30
0.0
 11
62.7375389727
 21
32.0639561129
 31
0.0
  0
LINE
  5
169
330
1F
100
AcDbEntity
  8
0
  6
Continuous
 62
     7
370
    25
100
AcDbLine
 10
48.4414892405
 20
32.0639561129
 30
0.0
 11
48.0151071083
 21
32.0639561129
 31
0.0
  0
LINE
  5
16A
330
1F
100
AcDbEntity
  8
0
  6
Continuous
 62
     7
370
    25
100
AcDbLine
 10
56.0158962388
 20
32.0639561129
 30
0.0
 11
55.1631319744
 21
32.0639561129
 31
0.0
  0
LINE
  5
16B
330
1F
100
AcDbEntity
  8
0
  6
Continuous
 62
     7
370
    18
100
AcDbLine
 10
40.0895141066
 20
48.7864561129
 30
0.0
 11
35.8411801564
 21
48.7864561129
 31
0.0
  0
LINE
  5
16C
330
1F
100
AcDbEntity
  8
0
  6
Continuous
 62
     7
370
    18
100
AcDbLine
 10
35.8411801564
 20
37.3414561129
 30
0.0
 11
40.0895141066
 21
37.3414561129
 31
0.0
  0
LINE
  5
16D
330
1F
100
AcDbEntity
  8
0
  6
Continuous
 62
     7
370
    25
100
AcDbLine
 10
40.0895141066
 20
49.6424561129
 30
0.0
 11
40.0895141066
 21
49.6328081759
 31
0.0
  0
SPLINE
  5
16E
330
1F
100
AcDbEntity
  8
0
  6
Continuous
 62
     7
370
     0
100
AcDbSpline
210
0.0
220
0.0
230
1.0
 70
     8
 71
     3
 72
    36
 73
    32
 74
     0
 42
0.00000001
 43
0.00000001
 40
0.0
 40
0.0
 40
0.0
 40
0.0
 40
0.0350874935001002
 40
0.0701749869766873
 40
0.1052624804532746
 40
0.1403499739298617
 40
0.1754374674064489
 40
0.2105249608830361
 40
0.2456124543596232
 40
0.2806999478362106
 40
0.3157874413127978
 40
0.3508749347893849
 40
0.385962428265972
 40
0.4210499217425591
 40
0.4561374152191466
 40
0.4912249086957337
 40
0.526312402172321
 40
0.5613998956489081
 40
0.5964873891254954
 40
0.6315748826020823
 40
0.6666623760786696
 40
0.7017498695552571
 40
0.7368373630318439
 40
0.7719248565084313
 40
0.8070123499850186
 40
0.8420998434616056
 40
0.877187336938193
 40
0.9122748304147802
 40
0.9473623238913674
 40
0.9824498173679547
 40
1.0
 40
1.0
 40
1.0
 40
1.0
 10
40.08948802947998
 20
49.63280817587231
 30
0.0
 10
40.08951410658308
 20
49.55579439139211
 30
0.0
 10
40.08951410658308
 20
49.4026697386404
 30
0.0
 10
40.08951410658308
 20
49.17522946416744
 30
0.0
 10
40.08951410658308
 20
48.87614009724084
 30
0.0
 10
40.08951410658308
 20
48.50890818722778
 30
0.0
 10
40.08951410658308
 20
48.07783919250983
 30
0.0
 10
40.08951410658308
 20
47.58798700291991
 30
0.0
 10
40.08951410658308
 20
47.04509468750484
 30
0.0
 10
40.08951410658308
 20
46.45552716229169
 30
0.0
 10
40.08951410658308
 20
45.82619656746685
 30
0.0
 10
40.08951410658308
 20
45.1644812288522
 30
0.0
 10
40.08951410658308
 20
44.47813915378087
 30
0.0
 10
40.08951410658308
 20
43.77521707555454
 30
0.0
 10
40.08951410658308
 20
43.06395611285264
 30
0.0
 10
40.08951410658308
 20
42.35269515015074
 30
0.0
 10
40.08951410658308
 20
41.64977307192441
 30
0.0
 10
40.08951410658308
 20
40.96343099685309
 30
0.0
 10
40.08951410658308
 20
40.30171565823844
 30
0.0
 10
40.08951410658308
 20
39.6723850634136
 30
0.0
 10
40.08951410658308
 20
39.08281753820045
 30
0.0
 10
40.08951410658308
 20
38.5399252227854
 30
0.0
 10
40.08951410658308
 20
38.05007303319548
 30
0.0
 10
40.08951410658308
 20
37.61900403847754
 30
0.0
 10
40.08951410658308
 20
37.25177212846449
 30
0.0
 10
40.08951410658308
 20
36.95268276153789
 30
0.0
 10
40.08951410658308
 20
36.72524248706495
 30
0.0
 10
40.08951410658308
 20
36.57211783431324
 30
0.0
 10
40.08951410658308
 20
36.49510404983305
 30
0.0
 10
40.08951410658308
 20
36.48545611285269
 30
0.0
 10
40.08951410658309
 20
36.48740338998111
 30
0.0
 10
40.08951410658308
 20
36.48545611285269
 30
0.0
  0
LINE
  5
16F
330
1F
100
AcDbEntity
  8
0
  6
CENTERX2
 62
     7
370
    18
100
AcDbLine
 10
18.5430427526
 20
43.0639561129
 30
0.0
 11
71.4085187421
 21
43.0639561129
 31
0.0
  0
LINE
  5
170
330
1F
100
AcDbEntity
  8
0
  6
CENTERX2
 62
     7
370
    18
100
AcDbLine
 10
55.5895141066
 20
17.3811495483
 30
0.0
 11
55.5895141066
 21
73.259866537
 31
0.0
  0
ARC
  5
171
330
1F
100
AcDbEntity
  8
0
  6
Continuous
 62
     7
370
    25
100
AcDbCircle
 10
103.6967417039
 20
70.1639561129
 30
0.0
 40
0.25
100
AcDbArc
 50
0.0
 51
90.0
  0
ARC
  5
172
330
1F
100
AcDbEntity
  8
0
  6
Continuous
 62
     7
370
    25
100
AcDbCircle
 10
93.1967417039
 20
70.1639561129
 30
0.0
 40
0.25
100
AcDbArc
 50
90.0
 51
180.0
  0
LINE
  5
173
330
1F
100
AcDbEntity
  8
0
  6
Continuous
 62
     7
370
    25
100
AcDbLine
 10
92.9467417039
 20
70.1639561129
 30
0.0
 11
92.9467417039
 21
69.5639561129
 31
0.0
  0
LINE
  5
174
330
1F
100
AcDbEntity
  8
0
  6
Continuous
 62
     7
370
    25
100
AcDbLine
 10
103.9467417039
 20
69.5639561129
 30
0.0
 11
103.9467417039
 21
70.1639561129
 31
0.0
  0
LINE
  5
175
330
1F
100
AcDbEntity
  8
0
  6
Continuous
 62
     7
370
    25
100
AcDbLine
 10
105.8967417039
 20
61.5639561129
 30
0.0
 11
103.9467417039
 21
69.5639561128
 31
0.0
  0
LINE
  5
176
330
1F
100
AcDbEntity
  8
0
  6
Continuous
 62
     7
370
    25
100
AcDbLine
 10
92.9467417039
 20
69.5639561128
 30
0.0
 11
90.9967417039
 21
61.5639561129
 31
0.0
  0
LINE
  5
177
330
1F
100
AcDbEntity
  8
0
  6
Continuous
 62
     7
370
    25
100
AcDbLine
 10
90.9967417039
 20
61.5639561129
 30
0.0
 11
91.4467417039
 21
53.5639561129
 31
0.0
  0
LINE
  5
178
330
1F
100
AcDbEntity
  8
0
  6
Continuous
 62
     7
370
    25
100
AcDbLine
 10
105.4467417039
 20
53.5639561129
 30
0.0
 11
105.8967417039
 21
61.5639561129
 31
0.0
  0
LINE
  5
179
330
1F
100
AcDbEntity
  8
0
  6
Continuous
 62
     7
370
    25
100
AcDbLine
 10
89.9467417039
 20
31.7219561129
 30
0.0
 11
90.2460657093
 21
22.1435879389
 31
0.0
  0
LINE
  5
17A
330
1F
100
AcDbEntity
  8
0
  6
Continuous
 62
     7
370
    25
100
AcDbLine
 10
106.6474176985
 20
22.1435879389
 30
0.0
 11
106.9467417039
 21
31.7219561129
 31
0.0
  0
LINE
  5
17B
330
1F
100
AcDbEntity
  8
0
  6
Continuous
 62
     7
370
    25
100
AcDbLine
 10
90.2460657093
 20
22.1435879389
 30
0.0
 11
91.4467417039
 21
20.0639561129
 31
0.0
  0
LINE
  5
17C
330
1F
100
AcDbEntity
  8
0
  6
Continuous
 62
     7
370
    25
100
AcDbLine
 10
105.4467417039
 20
20.0639561129
 30
0.0
 11
106.6474176985
 21
22.1435879389
 31
0.0
  0
LINE
  5
17D
330
1F
100
AcDbEntity
  8
0
  6
Continuous
 62
     7
370
    25
100
AcDbLine
 10
104.3467417039
 20
49.597182366
 30
0.0
 11
104.3467417039
 21
53.5639561129
 31
0.0
  0
LINE
  5
17E
330
1F
100
AcDbEntity
  8
0
  6
Continuous
 62
     7
370
    25
100
AcDbLine
 10
92.5467417039
 20
53.5639561129
 30
0.0
 11
92.5467417039
 21
49.6024847768
 31
0.0
  0
LINE
  5
17F
330
1F
100
AcDbEntity
  8
0
  6
Continuous
 62
     7
370
    25
100
AcDbLine
 10
106.7719243906
 20
48.0723642239
 30
0.0
 11
106.9467417039
 21
47.971433401
 31
0.0
  0
LINE
  5
180
330
1F
100
AcDbEntity
  8
0
  6
Continuous
 62
     7
370
    25
100
AcDbLine
 10
106.9467417039
 20
47.971433401
 30
0.0
 11
106.9467417039
 21
47.7695717551
 31
0.0
  0
LINE
  5
181
330
1F
100
AcDbEntity
  8
0
  6
Continuous
 62
     7
370
    25
100
AcDbLine
 10
89.9467417039
 20
47.7695717551
 30
0.0
 11
89.9467417039
 21
47.971433401
 31
0.0
  0
LINE
  5
182
330
1F
100
AcDbEntity
  8
0
  6
Continuous
 62
     7
370
    25
100
AcDbLine
 10
89.9467417039
 20
47.971433401
 30
0.0
 11
90.1215590172
 21
48.0723642239
 31
0.0
  0
LINE
  5
183
330
1F
100
AcDbEntity
  8
0
  6
Continuous
 62
     7
370
    25
100
AcDbLine
 10
99.6967417039
 20
69.5639561129
 30
0.0
 11
99.6967417039
 21
70.1639561129
 31
0.0
  0
LINE
  5
184
330
1F
100
AcDbEntity
  8
0
  6
Continuous
 62
     7
370
    25
100
AcDbLine
 10
99.6967417039
 20
70.1639561129
 30
0.0
 11
99.9467417039
 21
70.1639561129
 31
0.0
  0
LINE
  5
185
330
1F
100
AcDbEntity
  8
0
  6
Continuous
 62
     7
370
    25
100
AcDbLine
 10
99.9467417039
 20
70.1639561129
 30
0.0
 11
99.9467417039
 21
69.5639561129
 31
0.0
  0
LINE
  5
186
330
1F
100
AcDbEntity
  8
0
  6
Continuous
 62
     7
370
    25
100
AcDbLine
 10
99.9467417039
 20
69.5639561129
 30
0.0
 11
99.6967417039
 21
69.5639561129
 31
0.0
  0
LINE
  5
187
330
1F
100
AcDbEntity
  8
0
  6
Continuous
 62
     7
370
    25
100
AcDbLine
 10
96.9467417039
 20
69.5639561129
 30
0.0
 11
96.9467417039
 21
70.1639561129
 31
0.0
  0
LINE
  5
188
330
1F
100
AcDbEntity
  8
0
  6
Continuous
 62
     7
370
    25
100
AcDbLine
 10
96.9467417039
 20
70.1639561129
 30
0.0
 11
97.1967417039
 21
70.1639561129
 31
0.0
  0
LINE
  5
189
330
1F
100
AcDbEntity
  8
0
  6
Continuous
 62
     7
370
    25
100
AcDbLine
 10
97.1967417039
 20
70.1639561129
 30
0.0
 11
97.1967417039
 21
69.5639561129
 31
0.0
  0
LINE
  5
18A
330
1F
100
AcDbEntity
  8
0
  6
Continuous
 62
     7
370
    25
100
AcDbLine
 10
97.1967417039
 20
69.5639561129
 30
0.0
 11
96.9467417039
 21
69.5639561129
 31
0.0
  0
LINE
  5
18B
330
1F
100
AcDbEntity
  8
0
  6
Continuous
 62
     7
370
    25
100
AcDbLine
 10
99.6967417039
 20
70.1639561129
 30
0.0
 11
99.6967417039
 21
70.4139561129
 31
0.0
  0
LINE
  5
18C
330
1F
100
AcDbEntity
  8
0
  6
Continuous
 62
     7
370
    25
100
AcDbLine
 10
99.6967417039
 20
70.1639561129
 30
0.0
 11
97.1967417039
 21
70.1639561129
 31
0.0
  0
LINE
  5
18D
330
1F
100
AcDbEntity
  8
0
  6
Continuous
 62
     7
370
    25
100
AcDbLine
 10
97.1967417039
 20
70.4139561129
 30
0.0
 11
97.1967417039
 21
70.1639561129
 31
0.0
  0
LINE
  5
18E
330
1F
100
AcDbEntity
  8
0
  6
Continuous
 62
     7
370
    25
100
AcDbLine
 10
97.1967417039
 20
70.4139561129
 30
0.0
 11
99.6967417039
 21
70.4139561129
 31
0.0
  0
ARC
  5
18F
330
1F
100
AcDbEntity
  8
0
  6
Continuous
 62
     7
370
    25
100
AcDbCircle
 10
97.1967417039
 20
70.1639561129
 30
0.0
 40
0.25
100
AcDbArc
 50
90.0
 51
180.0
  0
ARC
  5
190
330
1F
100
AcDbEntity
  8
0
  6
Continuous
 62
     7
370
    25
100
AcDbCircle
 10
99.6967417039
 20
70.1639561129
 30
0.0
 40
0.25
100
AcDbArc
 50
0.0
 51
90.0
  0
LINE
  5
191
330
1F
100
AcDbEntity
  8
0
  6
Continuous
 62
     7
370
    25
100
AcDbLine
 10
99.6967417039
 20
69.5639561129
 30
0.0
 11
97.1967417039
 21
69.5639561129
 31
0.0
  0
SPLINE
  5
192
330
1F
100
AcDbEntity
  8
0
  6
Continuous
 62
     7
370
    25
100
AcDbSpline
210
0.0
220
0.0
230
1.0
 70
     8
 71
     3
 72
    15
 73
    11
 74
     0
 42
0.00000001
 43
0.00000001
 40
0.0
 40
0.0
 40
0.0
 40
0.0
 40
0.0081667445812973
 40
0.3321939991490804
 40
0.475627960058556
 40
0.6866830973284891
 40
0.8457435502264751
 40
0.8967566214763124
 40
0.9909540928118028
 40
1.0
 40
1.0
 40
1.0
 40
1.0
 10
99.69674170390955
 20
70.41395611285269
 30
0.0
 10
99.69817916684858
 20
70.4139534365069
 30
0.0
 10
99.75665002480058
 20
70.41384457232009
 30
0.0
 10
99.84107520251972
 20
70.40429856005068
 30
0.0
 10
99.95565427454223
 20
70.36693617679613
 30
0.0
 10
100.0370251617388
 20
70.32207066206145
 30
0.0
 10
100.0900441537405
 20
70.26419436248455
 30
0.0
 10
100.1142460855846
 20
70.21351832251261
 30
0.0
 10
100.1204357062508
 20
70.18482404299262
 30
0.0
 10
100.1206371016633
 20
70.1656372114371
 30
0.0
 10
100.1206547473878
 20
70.16395611285269
 30
0.0
  0
LINE
  5
193
330
1F
100
AcDbEntity
  8
0
  6
Continuous
 62
     7
370
    25
100
AcDbLine
 10
99.9467417039
 20
70.1639561129
 30
0.0
 11
100.1206547474
 21
70.1639561129
 31
0.0
  0
LINE
  5
194
330
1F
100
AcDbEntity
  8
0
  6
Continuous
 62
     7
370
    25
100
AcDbLine
 10
96.7728286604
 20
70.1639561129
 30
0.0
 11
96.9467417039
 21
70.1639561129
 31
0.0
  0
SPLINE
  5
195
330
1F
100
AcDbEntity
  8
0
  6
Continuous
 62
     7
370
    25
100
AcDbSpline
210
0.0
220
0.0
230
1.0
 70
     8
 71
     3
 72
    15
 73
    11
 74
     0
 42
0.00000001
 43
0.00000001
 40
0.0
 40
0.0
 40
0.0
 40
0.0
 40
0.0090459071881971
 40
0.1032433785236874
 40
0.1542564497735246
 40
0.313316902671511
 40
0.5243720399414428
 40
0.6678060008509903
 40
0.9918332554187292
 40
1.0
 40
1.0
 40
1.0
 40
1.0
 10
96.77282866043129
 20
70.16395611285269
 30
0.0
 10
96.77284630615576
 20
70.16563721143709
 30
0.0
 10
96.7730477015683
 20
70.18482404299264
 30
0.0
 10
96.7792373222345
 20
70.2135183225126
 30
0.0
 10
96.80343925407864
 20
70.26419436248457
 30
0.0
 10
96.85645824608031
 20
70.32207066206144
 30
0.0
 10
96.93782913327689
 20
70.36693617679613
 30
0.0
 10
97.05240820529934
 20
70.40429856005066
 30
0.0
 10
97.13683338301881
 20
70.41384457232013
 30
0.0
 10
97.19530424097053
 20
70.41395343650692
 30
0.0
 10
97.19674170390954
 20
70.41395611285269
 30
0.0
  0
LINE
  5
196
330
1F
100
AcDbEntity
  8
0
  6
Continuous
 62
     7
370
    25
100
AcDbLine
 10
96.7728286604
 20
69.5639561129
 30
0.0
 11
96.7728286604
 21
70.1639561129
 31
0.0
  0
LINE
  5
197
330
1F
100
AcDbEntity
  8
0
  6
Continuous
 62
     7
370
    25
100
AcDbLine
 10
96.9467417039
 20
69.5639561129
 30
0.0
 11
96.7728286604
 21
69.5639561129
 31
0.0
  0
LINE
  5
198
330
1F
100
AcDbEntity
  8
0
  6
Continuous
 62
     7
370
    25
100
AcDbLine
 10
100.1206547474
 20
70.1639561129
 30
0.0
 11
100.1206547474
 21
69.5639561129
 31
0.0
  0
LINE
  5
199
330
1F
100
AcDbEntity
  8
0
  6
Continuous
 62
     7
370
    25
100
AcDbLine
 10
100.1206547474
 20
69.5639561129
 30
0.0
 11
99.9467417039
 21
69.5639561129
 31
0.0
  0
LINE
  5
19A
330
1F
100
AcDbEntity
  8
0
  6
Continuous
 62
     7
370
    25
100
AcDbLine
 10
99.6967417039
 20
70.4139561129
 30
0.0
 11
103.6967417039
 21
70.4139561129
 31
0.0
  0
LINE
  5
19B
330
1F
100
AcDbEntity
  8
0
  6
Continuous
 62
     7
370
    25
100
AcDbLine
 10
93.1967417039
 20
70.4139561129
 30
0.0
 11
97.1967417039
 21
70.4139561129
 31
0.0
  0
LINE
  5
19C
330
1F
100
AcDbEntity
  8
0
  6
Continuous
 62
     7
370
    25
100
AcDbLine
 10
92.9467417039
 20
69.5639561129
 30
0.0
 11
96.7728286604
 21
69.5639561129
 31
0.0
  0
LINE
  5
19D
330
1F
100
AcDbEntity
  8
0
  6
Continuous
 62
     7
370
    25
100
AcDbLine
 10
100.1206547474
 20
69.5639561129
 30
0.0
 11
103.9467417039
 21
69.5639561129
 31
0.0
  0
LINE
  5
19E
330
1F
100
AcDbEntity
  8
0
  6
Continuous
 62
     7
370
    25
100
AcDbLine
 10
99.0467417039
 20
70.4139561129
 30
0.0
 11
99.0467417039
 21
70.4239561129
 31
0.0
  0
LINE
  5
19F
330
1F
100
AcDbEntity
  8
0
  6
Continuous
 62
     7
370
    25
100
AcDbLine
 10
97.8467417039
 20
70.4239561129
 30
0.0
 11
99.0467417039
 21
70.4239561129
 31
0.0
  0
LINE
  5
1A0
330
1F
100
AcDbEntity
  8
0
  6
Continuous
 62
     7
370
    25
100
AcDbLine
 10
97.8467417039
 20
70.4139561129
 30
0.0
 11
97.8467417039
 21
70.4239561129
 31
0.0
  0
LINE
  5
1A1
330
1F
100
AcDbEntity
  8
0
  6
Continuous
 62
     7
370
    25
100
AcDbLine
 10
90.9967417039
 20
61.5639561128
 30
0.0
 11
105.8967417039
 21
61.5639561128
 31
0.0
  0
LINE
  5
1A2
330
1F
100
AcDbEntity
  8
0
  6
Continuous
 62
     7
370
    25
100
AcDbLine
 10
91.4467417039
 20
53.5639561129
 30
0.0
 11
105.4467417039
 21
53.5639561129
 31
0.0
  0
LINE
  5
1A3
330
1F
100
AcDbEntity
  8
0
  6
Continuous
 62
     7
370
    25
100
AcDbLine
 10
94.9467417039
 20
71.5639561129
 30
0.0
 11
94.9467417039
 21
70.4139561129
 31
0.0
  0
LINE
  5
1A4
330
1F
100
AcDbEntity
  8
0
  6
Continuous
 62
     7
370
    25
100
AcDbLine
 10
94.9467417039
 20
71.5639561129
 30
0.0
 11
95.1750424399
 21
71.5639561129
 31
0.0
  0
LINE
  5
1A5
330
1F
100
AcDbEntity
  8
0
  6
Continuous
 62
     7
370
    25
100
AcDbLine
 10
95.1750424399
 20
71.5639561129
 30
0.0
 11
95.1750424399
 21
70.4139561129
 31
0.0
  0
LINE
  5
1A6
330
1F
100
AcDbEntity
  8
0
  6
Continuous
 62
     7
370
    25
100
AcDbLine
 10
101.718440968
 20
71.5639561129
 30
0.0
 11
101.718440968
 21
70.4139561129
 31
0.0
  0
LINE
  5
1A7
330
1F
100
AcDbEntity
  8
0
  6
Continuous
 62
     7
370
    25
100
AcDbLine
 10
101.718440968
 20
71.5639561129
 30
0.0
 11
101.9467417039
 21
71.5639561129
 31
0.0
  0
LINE
  5
1A8
330
1F
100
AcDbEntity
  8
0
  6
Continuous
 62
     7
370
    25
100
AcDbLine
 10
101.9467417039
 20
70.4139561129
 30
0.0
 11
101.9467417039
 21
71.5639561129
 31
0.0
  0
LINE
  5
1A9
330
1F
100
AcDbEntity
  8
0
  6
Continuous
 62
     7
370
    25
100
AcDbLine
 10
95.1750424399
 20
71.5639561129
 30
0.0
 11
101.718440968
 21
71.5639561129
 31
0.0
  0
SPLINE
  5
1AA
330
1F
100
AcDbEntity
  8
0
  6
Continuous
 62
     7
370
    25
100
AcDbSpline
210
0.0
220
0.0
230
1.0
 70
     8
 71
     3
 72
    10
 73
     6
 74
     0
 42
0.00000001
 43
0.00000001
 40
0.0
 40
0.0
 40
0.0
 40
0.0
 40
0.5
 40
0.5
 40
1.0
 40
1.0
 40
1.0
 40
1.0
 10
89.94674170390955
 20
38.44515395933568
 30
0.0
 10
89.94674170390954
 20
38.35926689753322
 30
0.0
 10
89.96953415323935
 20
38.27185968855308
 30
0.0
 10
90.05747685733242
 20
38.11922324595936
 30
0.0
 10
90.12233463100628
 20
38.05510020101377
 30
0.0
 10
90.19674170390954
 20
38.01214125744346
 30
0.0
  0
SPLINE
  5
1AB
330
1F
100
AcDbEntity
  8
0
  6
Continuous
 62
     7
370
    25
100
AcDbSpline
210
0.0
220
0.0
230
1.0
 70
    24
 71
     3
 72
    14
 73
    10
 74
     0
 42
0.00000001
 43
0.00000001
 40
0.0
 40
0.0
 40
0.0
 40
0.0
 40
0.25
 40
0.25
 40
0.5
 40
0.5
 40
0.75
 40
0.75
 40
1.0
 40
1.0
 40
1.0
 40
1.0
 10
89.94674170390955
 20
38.44515395933563
 30
0.0
 10
89.94674170390955
 20
39.19953401998562
 30
0.0
 10
89.94674170390955
 20
39.96897518745111
 30
0.0
 10
89.94674170390955
 20
41.50948654839228
 30
0.0
 10
89.94674170390955
 20
42.2843409283993
 30
0.0
 10
89.94674170390954
 20
43.84470188328486
 30
0.0
 10
89.94674170390955
 20
44.63515807606989
 30
0.0
 10
89.94674170390954
 20
46.17743773887835
 30
0.0
 10
89.94674170390955
 20
46.93482849207954
 30
0.0
 10
89.94674170390955
 20
47.6827582663697
 30
0.0
  0
SPLINE
  5
1AC
330
1F
100
AcDbEntity
  8
0
  6
Continuous
 62
     7
370
    25
100
AcDbSpline
210
0.0
220
0.0
230
1.0
 70
     8
 71
     3
 72
    10
 73
     6
 74
     0
 42
0.00000001
 43
0.00000001
 40
0.0
 40
0.0
 40
0.0
 40
0.0
 40
0.5
 40
0.5
 40
1.0
 40
1.0
 40
1.0
 40
1.0
 10
90.19674170390955
 20
48.11577096826192
 30
0.0
 10
90.12236132653221
 20
48.07282743736069
 30
0.0
 10
90.05806068774643
 20
48.00938499273656
 30
0.0
 10
89.96984500296351
 20
47.8569061556176
 30
0.0
 10
89.94674170390955
 20
47.76867615351033
 30
0.0
 10
89.94674170390955
 20
47.6827582663697
 30
0.0
  0
SPLINE
  5
1AD
330
1F
100
AcDbEntity
  8
0
  6
Continuous
 62
     7
370
    25
100
AcDbSpline
210
0.0
220
0.0
230
1.0
 70
    24
 71
     3
 72
    16
 73
    12
 74
     0
 42
0.00000001
 43
0.00000001
 40
0.0
 40
0.0
 40
0.0
 40
0.0
 40
0.2500000000000001
 40
0.2500000000000001
 40
0.5000000000000001
 40
0.5000000000000001
 40
0.6250000000000001
 40
0.6250000000000001
 40
0.7500000000000002
 40
0.7500000000000002
 40
1.0
 40
1.0
 40
1.0
 40
1.0
 10
98.19674170390955
 20
52.73457312177893
 30
0.0
 10
97.54322492386875
 20
52.35726503290243
 30
0.0
 10
96.88500451477877
 20
51.97724130252823
 30
0.0
 10
95.55544193141299
 20
51.20961798711753
 30
0.0
 10
94.88401794934244
 20
50.82197117032873
 30
0.0
 10
93.86501686233571
 20
50.23365061844088
 30
0.0
 10
93.52367608001953
 20
50.03657742588524
 30
0.0
 10
92.84807757704908
 20
49.64652044833114
 30
0.0
 10
92.51241842708446
 20
49.4527275477431
 30
0.0
 10
91.51115279058475
 20
48.87464656297968
 30
0.0
 10
90.8512451319816
 20
48.49364869864485
 30
0.0
 10
90.19674170390955
 20
48.11577096826192
 30
0.0
  0
SPLINE
  5
1AE
330
1F
100
AcDbEntity
  8
0
  6
Continuous
 62
     7
370
    25
100
AcDbSpline
210
0.0
220
0.0
230
1.0
 70
     8
 71
     3
 72
    10
 73
     6
 74
     0
 42
0.00000001
 43
0.00000001
 40
0.0
 40
0.0
 40
0.0
 40
0.0
 40
0.5
 40
0.5
 40
1.0
 40
1.0
 40
1.0
 40
1.0
 10
98.69674170390955
 20
52.73457312177893
 30
0.0
 10
98.62236132653221
 20
52.77751665268016
 30
0.0
 10
98.53526823841665
 20
52.80148141703614
 30
0.0
 10
98.35910984954064
 20
52.80163902251092
 30
0.0
 10
98.27114877681281
 20
52.77753206534924
 30
0.0
 10
98.19674170390955
 20
52.73457312177893
 30
0.0
  0
SPLINE
  5
1AF
330
1F
100
AcDbEntity
  8
0
  6
Continuous
 62
     7
370
    25
100
AcDbSpline
210
0.0
220
0.0
230
1.0
 70
    24
 71
     3
 72
    16
 73
    12
 74
     0
 42
0.00000001
 43
0.00000001
 40
0.0
 40
0.0
 40
0.0
 40
0.0
 40
0.2499999999999997
 40
0.2499999999999997
 40
0.4999999999999993
 40
0.4999999999999993
 40
0.6249999999999993
 40
0.6249999999999993
 40
0.7499999999999996
 40
0.7499999999999996
 40
1.0
 40
1.0
 40
1.0
 40
1.0
 10
106.6967417039096
 20
48.11577096826192
 30
0.0
 10
106.0432249238687
 20
48.49307905713842
 30
0.0
 10
105.3850045147788
 20
48.87310278751262
 30
0.0
 10
104.055441931413
 20
49.64072610292331
 30
0.0
 10
103.3840179493424
 20
50.02837291971211
 30
0.0
 10
102.3650168623357
 20
50.61669347159996
 30
0.0
 10
102.0236760800195
 20
50.81376666415561
 30
0.0
 10
101.3480775770491
 20
51.20382364170971
 30
0.0
 10
101.0124184270845
 20
51.39761654229775
 30
0.0
 10
100.0111527905848
 20
51.97569752706117
 30
0.0
 10
99.3512451319816
 20
52.35669539139599
 30
0.0
 10
98.69674170390955
 20
52.73457312177893
 30
0.0
  0
SPLINE
  5
1B0
330
1F
100
AcDbEntity
  8
0
  6
Continuous
 62
     7
370
    25
100
AcDbSpline
210
0.0
220
0.0
230
1.0
 70
     8
 71
     3
 72
    10
 73
     6
 74
     0
 42
0.00000001
 43
0.00000001
 40
0.0
 40
0.0
 40
0.0
 40
0.0
 40
0.5
 40
0.5
 40
1.0
 40
1.0
 40
1.0
 40
1.0
 10
106.9467417039096
 20
47.6827582663697
 30
0.0
 10
106.9467417039096
 20
47.76864532817216
 30
0.0
 10
106.9239492545798
 20
47.85605253715227
 30
0.0
 10
106.8360065504867
 20
48.00868897974601
 30
0.0
 10
106.7711487768128
 20
48.07281202469161
 30
0.0
 10
106.6967417039096
 20
48.11577096826192
 30
0.0
  0
SPLINE
  5
1B1
330
1F
100
AcDbEntity
  8
0
  6
Continuous
 62
     7
370
    25
100
AcDbSpline
210
0.0
220
0.0
230
1.0
 70
    24
 71
     3
 72
    14
 73
    10
 74
     0
 42
0.00000001
 43
0.00000001
 40
0.0
 40
0.0
 40
0.0
 40
0.0
 40
0.25
 40
0.25
 40
0.5
 40
0.5
 40
0.75
 40
0.75
 40
1.0
 40
1.0
 40
1.0
 40
1.0
 10
106.9467417039096
 20
38.44515395933563
 30
0.0
 10
106.9467417039096
 20
39.19953401998561
 30
0.0
 10
106.9467417039096
 20
39.96897518745111
 30
0.0
 10
106.9467417039096
 20
41.50948654839227
 30
0.0
 10
106.9467417039096
 20
42.28434092839929
 30
0.0
 10
106.9467417039096
 20
43.84470188328486
 30
0.0
 10
106.9467417039096
 20
44.63515807606989
 30
0.0
 10
106.9467417039096
 20
46.17743773887835
 30
0.0
 10
106.9467417039096
 20
46.93482849207954
 30
0.0
 10
106.9467417039096
 20
47.6827582663697
 30
0.0
  0
SPLINE
  5
1B2
330
1F
100
AcDbEntity
  8
0
  6
Continuous
 62
     7
370
    25
100
AcDbSpline
210
0.0
220
0.0
230
1.0
 70
     8
 71
     3
 72
    10
 73
     6
 74
     0
 42
0.00000001
 43
0.00000001
 40
0.0
 40
0.0
 40
0.0
 40
0.0
 40
0.5
 40
0.5
 40
1.0
 40
1.0
 40
1.0
 40
1.0
 10
106.6967417039096
 20
38.01214125744346
 30
0.0
 10
106.7711220812867
 20
38.05508478834459
 30
0.0
 10
106.8354227200722
 20
38.11852723296827
 30
0.0
 10
106.9236384048555
 20
38.27100607008739
 30
0.0
 10
106.9467417039095
 20
38.35923607219488
 30
0.0
 10
106.9467417039096
 20
38.44515395933566
 30
0.0
  0
SPLINE
  5
1B3
330
1F
100
AcDbEntity
  8
0
  6
Continuous
 62
     7
370
    25
100
AcDbSpline
210
0.0
220
0.0
230
1.0
 70
    24
 71
     3
 72
    16
 73
    12
 74
     0
 42
0.00000001
 43
0.00000001
 40
0.0
 40
0.0
 40
0.0
 40
0.0
 40
0.2500000000000002
 40
0.2500000000000002
 40
0.5000000000000004
 40
0.5000000000000004
 40
0.6250000000000003
 40
0.6250000000000003
 40
0.7500000000000002
 40
0.7500000000000002
 40
1.0
 40
1.0
 40
1.0
 40
1.0
 10
98.69674170390955
 20
33.39333910392646
 30
0.0
 10
99.35025848395031
 20
33.77064719280293
 30
0.0
 10
100.0084788930402
 20
34.1506709231771
 30
0.0
 10
101.3380414764059
 20
34.91829423858773
 30
0.0
 10
102.0094654584764
 20
35.3059410553765
 30
0.0
 10
103.028466545483
 20
35.8942616072643
 30
0.0
 10
103.3698073277992
 20
36.09133479981993
 30
0.0
 10
104.0454058307696
 20
36.48139177737401
 30
0.0
 10
104.3810649807342
 20
36.67518467796204
 30
0.0
 10
105.3823306172338
 20
37.25326566272541
 30
0.0
 10
106.042238275837
 20
37.63426352706021
 30
0.0
 10
106.6967417039089
 20
38.01214125744311
 30
0.0
  0
SPLINE
  5
1B4
330
1F
100
AcDbEntity
  8
0
  6
Continuous
 62
     7
370
    25
100
AcDbSpline
210
0.0
220
0.0
230
1.0
 70
     8
 71
     3
 72
    10
 73
     6
 74
     0
 42
0.00000001
 43
0.00000001
 40
0.0
 40
0.0
 40
0.0
 40
0.0
 40
0.5
 40
0.5
 40
1.0
 40
1.0
 40
1.0
 40
1.0
 10
98.19674170390955
 20
33.39333910392646
 30
0.0
 10
98.27112208128688
 20
33.35039557302523
 30
0.0
 10
98.35821516940246
 20
33.32643080866924
 30
0.0
 10
98.53437355827845
 20
33.32627320319447
 30
0.0
 10
98.62233463100628
 20
33.35038016035615
 30
0.0
 10
98.69674170390955
 20
33.39333910392646
 30
0.0
  0
SPLINE
  5
1B5
330
1F
100
AcDbEntity
  8
0
  6
Continuous
 62
     7
370
    25
100
AcDbSpline
210
0.0
220
0.0
230
1.0
 70
    24
 71
     3
 72
    16
 73
    12
 74
     0
 42
0.00000001
 43
0.00000001
 40
0.0
 40
0.0
 40
0.0
 40
0.0
 40
0.2500000000000001
 40
0.2500000000000001
 40
0.5000000000000002
 40
0.5000000000000002
 40
0.6250000000000001
 40
0.6250000000000001
 40
0.7500000000000001
 40
0.7500000000000001
 40
1.0
 40
1.0
 40
1.0
 40
1.0
 10
90.19674170390954
 20
38.01214125744347
 30
0.0
 10
90.85025848395036
 20
37.63483316856696
 30
0.0
 10
91.50847889304033
 20
37.25480943819277
 30
0.0
 10
92.83804147640612
 20
36.48718612278207
 30
0.0
 10
93.50946545847665
 20
36.09953930599328
 30
0.0
 10
94.52846654548337
 20
35.51121875410543
 30
0.0
 10
94.86980732779956
 20
35.31414556154978
 30
0.0
 10
95.54540583077002
 20
34.92408858399568
 30
0.0
 10
95.88106498073465
 20
34.73029568340764
 30
0.0
 10
96.88233061723435
 20
34.15221469864422
 30
0.0
 10
97.54223827583749
 20
33.77121683430939
 30
0.0
 10
98.19674170390955
 20
33.39333910392646
 30
0.0
  0
CIRCLE
  5
1B6
330
1F
100
AcDbEntity
  8
0
  6
Continuous
 62
     7
370
    25
100
AcDbCircle
 10
98.4467417039
 20
43.0639561129
 30
0.0
 40
8.25
  0
LINE
  5
1B7
330
1F
100
AcDbEntity
  8
0
  6
Continuous
 62
     7
370
    25
100
AcDbLine
 10
98.6967417039
 20
33.3933391039
 30
0.0
 11
98.6967417039
 21
32.5639561129
 31
0.0
  0
LINE
  5
1B8
330
1F
100
AcDbEntity
  8
0
  6
Continuous
 62
     7
370
    25
100
AcDbLine
 10
98.1967417039
 20
32.5639561129
 30
0.0
 11
98.1967417039
 21
33.3933391039
 31
0.0
  0
LINE
  5
1B9
330
1F
100
AcDbEntity
  8
0
  6
Continuous
 62
     7
370
    25
100
AcDbLine
 10
98.1967417039
 20
32.5639561129
 30
0.0
 11
98.6967417039
 21
32.5639561129
 31
0.0
  0
SPLINE
  5
1BA
330
1F
100
AcDbEntity
  8
0
  6
Continuous
 62
     7
370
    25
100
AcDbSpline
210
0.0
220
0.0
230
1.0
 70
     8
 71
     3
 72
    22
 73
    18
 74
     0
 42
0.00000001
 43
0.00000001
 40
0.0
 40
0.0
 40
0.0
 40
0.0
 40
0.2499999999999984
 40
0.2499999999999984
 40
0.3749999999999976
 40
0.3749999999999976
 40
0.4374999999999972
 40
0.4374999999999972
 40
0.4999999999999968
 40
0.4999999999999968
 40
0.5624999999999963
 40
0.5624999999999963
 40
0.624999999999996
 40
0.624999999999996
 40
0.7499999999999974
 40
0.7499999999999974
 40
1.0
 40
1.0
 40
1.0
 40
1.0
 10
103.2763999098742
 20
32.56395611285269
 30
0.0
 10
103.2162385533614
 20
32.38944741521711
 30
0.0
 10
103.1493944665423
 20
32.21710895831725
 30
0.0
 10
103.0199601369271
 20
31.97937352501021
 30
0.0
 10
102.9715615775346
 20
31.90259095562817
 30
0.0
 10
102.882398067247
 20
31.80623655911861
 30
0.0
 10
102.8497389916161
 20
31.77746295865651
 30
0.0
 10
102.7778994241677
 20
31.73524939362754
 30
0.0
 10
102.7374064810226
 20
31.72187629566501
 30
0.0
 10
102.6552985944726
 20
31.72203669026156
 30
0.0
 10
102.6147360510515
 20
31.73554138238104
 30
0.0
 10
102.5422860814222
 20
31.77853282511849
 30
0.0
 10
102.5095205036089
 20
31.80771746128922
 30
0.0
 10
102.4206975240136
 20
31.90435011175589
 30
0.0
 10
102.3725182059154
 20
31.98101135725204
 30
0.0
 10
102.2431692124117
 20
32.21922179728588
 30
0.0
 10
102.1771138554357
 20
32.38982740114144
 30
0.0
 10
102.1170834979447
 20
32.56395611285255
 30
0.0
  0
SPLINE
  5
1BB
330
1F
100
AcDbEntity
  8
0
  6
Continuous
 62
     7
370
    25
100
AcDbSpline
210
0.0
220
0.0
230
1.0
 70
     8
 71
     3
 72
    12
 73
     8
 74
     0
 42
0.00000001
 43
0.00000001
 40
0.0
 40
0.0
 40
0.0
 40
0.0
 40
0.2499999999999999
 40
0.2499999999999999
 40
0.4999999999999998
 40
0.4999999999999998
 40
1.0
 40
1.0
 40
1.0
 40
1.0
 10
102.8211717966619
 20
35.77457992821783
 30
0.0
 10
103.1503067870551
 20
35.7708714423614
 30
0.0
 10
103.4797689399918
 20
35.75228893952372
 30
0.0
 10
104.1326425580495
 20
35.68742190255757
 30
0.0
 10
104.4570951499266
 20
35.64115634930731
 30
0.0
 10
105.4251555911187
 20
35.46543181900034
 30
0.0
 10
106.0634780753666
 20
35.29912841022359
 30
0.0
 10
106.6967417039095
 20
35.09755957299769
 30
0.0
  0
LINE
  5
1BC
330
1F
100
AcDbEntity
  8
0
  6
Continuous
 62
     7
370
    25
100
AcDbLine
 10
106.6967417039
 20
32.5639561129
 30
0.0
 11
106.6967417039
 21
35.097559573
 31
0.0
  0
LINE
  5
1BD
330
1F
100
AcDbEntity
  8
0
  6
Continuous
 62
     7
370
    25
100
AcDbLine
 10
106.6967417039
 20
32.5639561129
 30
0.0
 11
103.2763999099
 21
32.5639561129
 31
0.0
  0
LINE
  5
1BE
330
1F
100
AcDbEntity
  8
0
  6
Continuous
 62
     7
370
    25
100
AcDbLine
 10
102.1170834979
 20
32.5639561129
 30
0.0
 11
98.6967417039
 21
32.5639561129
 31
0.0
  0
SPLINE
  5
1BF
330
1F
100
AcDbEntity
  8
0
  6
Continuous
 62
     7
370
    25
100
AcDbSpline
210
0.0
220
0.0
230
1.0
 70
     8
 71
     3
 72
    22
 73
    18
 74
     0
 42
0.00000001
 43
0.00000001
 40
0.0
 40
0.0
 40
0.0
 40
0.0
 40
0.2499999999999977
 40
0.2499999999999977
 40
0.3749999999999955
 40
0.3749999999999955
 40
0.4374999999999958
 40
0.4374999999999958
 40
0.4999999999999961
 40
0.4999999999999961
 40
0.5624999999999964
 40
0.5624999999999964
 40
0.6249999999999967
 40
0.6249999999999967
 40
0.7499999999999978
 40
0.7499999999999978
 40
1.0
 40
1.0
 40
1.0
 40
1.0
 10
94.77639990987421
 20
32.56395611285269
 30
0.0
 10
94.71623855336145
 20
32.38944741521707
 30
0.0
 10
94.64939446654228
 20
32.21710895831713
 30
0.0
 10
94.5199601369271
 20
31.97937352501004
 30
0.0
 10
94.47156157753454
 20
31.90259095562799
 30
0.0
 10
94.38239806724688
 20
31.80623655911842
 30
0.0
 10
94.34973899161598
 20
31.77746295865629
 30
0.0
 10
94.27789942416746
 20
31.73524939362734
 30
0.0
 10
94.23740648102232
 20
31.72187629566496
 30
0.0
 10
94.15529859447219
 20
31.72203669026164
 30
0.0
 10
94.11473605105124
 20
31.73554138238108
 30
0.0
 10
94.04228608142198
 20
31.77853282511858
 30
0.0
 10
94.00952050360864
 20
31.80771746128939
 30
0.0
 10
93.92069752401349
 20
31.90435011175605
 30
0.0
 10
93.87251820591517
 20
31.9810113572523
 30
0.0
 10
93.74316921241159
 20
32.21922179728602
 30
0.0
 10
93.67711385543565
 20
32.3898274011415
 30
0.0
 10
93.61708349794466
 20
32.56395611285256
 30
0.0
  0
LINE
  5
1C0
330
1F
100
AcDbEntity
  8
0
  6
Continuous
 62
     7
370
    25
100
AcDbLine
 10
93.6170834979
 20
32.5639561129
 30
0.0
 11
90.1967417039
 21
32.5639561129
 31
0.0
  0
LINE
  5
1C1
330
1F
100
AcDbEntity
  8
0
  6
Continuous
 62
     7
370
    25
100
AcDbLine
 10
90.1967417039
 20
35.097559573
 30
0.0
 11
90.1967417039
 21
32.5639561129
 31
0.0
  0
SPLINE
  5
1C2
330
1F
100
AcDbEntity
  8
0
  6
Continuous
 62
     7
370
    25
100
AcDbSpline
210
0.0
220
0.0
230
1.0
 70
     8
 71
     3
 72
    10
 73
     6
 74
     0
 42
0.00000001
 43
0.00000001
 40
0.0
 40
0.0
 40
0.0
 40
0.0
 40
0.5
 40
0.5
 40
1.0
 40
1.0
 40
1.0
 40
1.0
 10
90.19674170391002
 20
35.09755957299784
 30
0.0
 10
90.83156940972367
 20
35.29962625854877
 30
0.0
 10
91.47083511229945
 20
35.46601903081941
 30
0.0
 10
92.76165004388933
 20
35.70006600468946
 30
0.0
 10
93.41326967935917
 20
35.76715425864829
 30
0.0
 10
94.07231161117927
 20
35.77457992821807
 30
0.0
  0
LINE
  5
1C3
330
1F
100
AcDbEntity
  8
0
  6
Continuous
 62
     7
370
    25
100
AcDbLine
 10
98.1967417039
 20
32.5639561129
 30
0.0
 11
94.7763999099
 21
32.5639561129
 31
0.0
  0
LINE
  5
1C4
330
1F
100
AcDbEntity
  8
0
  6
Continuous
 62
     7
370
    25
100
AcDbLine
 10
98.4467417039
 20
22.1435879389
 30
0.0
 11
106.6474176985
 21
22.1435879389
 31
0.0
  0
LINE
  5
1C5
330
1F
100
AcDbEntity
  8
0
  6
Continuous
 62
     7
370
    25
100
AcDbLine
 10
90.2460657093
 20
22.1435879389
 30
0.0
 11
98.4467417039
 21
22.1435879389
 31
0.0
  0
SPLINE
  5
1C6
330
1F
100
AcDbEntity
  8
0
  6
Continuous
 62
     7
370
    25
100
AcDbSpline
210
0.0
220
0.0
230
1.0
 70
    24
 71
     3
 72
    12
 73
     8
 74
     0
 42
0.00000001
 43
0.00000001
 40
0.0
 40
0.0
 40
0.0
 40
0.0
 40
0.4338437646708269
 40
0.7594543990201992
 40
0.8895242238100214
 40
0.9834748015156801
 40
1.0
 40
1.0
 40
1.0
 40
1.0
 10
89.94674170390955
 20
32.56395611285269
 30
0.0
 10
89.94674170390955
 20
32.4154948624293
 30
0.0
 10
89.94674170390955
 20
32.15560971736185
 30
0.0
 10
89.94674170390955
 20
31.8712237283546
 30
0.0
 10
89.94674170390955
 20
31.75260207719352
 30
0.0
 10
89.94674170390954
 20
31.71817963455593
 30
0.0
 10
89.94674170390955
 20
31.72407220354172
 30
0.0
 10
89.94674170390955
 20
31.72495362637875
 30
0.0
  0
SPLINE
  5
1C7
330
1F
100
AcDbEntity
  8
0
  6
Continuous
 62
     7
370
    25
100
AcDbSpline
210
0.0
220
0.0
230
1.0
 70
    24
 71
     3
 72
    12
 73
     8
 74
     0
 42
0.00000001
 43
0.00000001
 40
0.0
 40
0.0
 40
0.0
 40
0.0
 40
0.0165251984843207
 40
0.1104757761899793
 40
0.2405456009798015
 40
0.5661562353291735
 40
1.0
 40
1.0
 40
1.0
 40
1.0
 10
106.9467417039096
 20
31.72495362637875
 30
0.0
 10
106.9467417039096
 20
31.72407220354172
 30
0.0
 10
106.9467417039095
 20
31.71817963455593
 30
0.0
 10
106.9467417039096
 20
31.75260207719352
 30
0.0
 10
106.9467417039096
 20
31.8712237283546
 30
0.0
 10
106.9467417039096
 20
32.15560971736186
 30
0.0
 10
106.9467417039096
 20
32.4154948624293
 30
0.0
 10
106.9467417039096
 20
32.56395611285269
 30
0.0
  0
LINE
  5
1C8
330
1F
100
AcDbEntity
  8
0
  6
Continuous
 62
     7
370
    25
100
AcDbLine
 10
105.4467417039
 20
20.0639561129
 30
0.0
 11
91.4467417039
 21
20.0639561129
 31
0.0
  0
SPLINE
  5
1C9
330
1F
100
AcDbEntity
  8
0
  6
Continuous
 62
     7
370
    25
100
AcDbSpline
210
0.0
220
0.0
230
1.0
 70
     8
 71
     3
 72
     8
 73
     4
 74
     0
 42
0.00000001
 43
0.00000001
 40
0.0
 40
0.0
 40
0.0
 40
0.0
 40
1.0
 40
1.0
 40
1.0
 40
1.0
 10
89.94674170390955
 20
35.25904490127871
 30
0.0
 10
90.46854785521137
 20
35.53163503694805
 30
0.0
 10
90.99220132406757
 20
35.80078753806945
 30
0.0
 10
91.51853847363404
 20
36.06395611285269
 30
0.0
  0
SPLINE
  5
1CA
330
1F
100
AcDbEntity
  8
0
  6
Continuous
 62
     7
370
    25
100
AcDbSpline
210
0.0
220
0.0
230
1.0
 70
     8
 71
     3
 72
    10
 73
     6
 74
     0
 42
0.00000001
 43
0.00000001
 40
0.0
 40
0.0
 40
0.0
 40
0.0
 40
0.5
 40
0.5
 40
1.0
 40
1.0
 40
1.0
 40
1.0
 10
89.94674170390955
 20
35.09755957299767
 30
0.0
 10
89.94674170390954
 20
35.07388417857325
 30
0.0
 10
89.96953415323938
 20
35.06079306868863
 30
0.0
 10
90.05747685733265
 20
35.06070674740041
 30
0.0
 10
90.12233463100681
 20
35.07387568134435
 30
0.0
 10
90.19674170391022
 20
35.0975595729979
 30
0.0
  0
SPLINE
  5
1CB
330
1F
100
AcDbEntity
  8
0
  6
Continuous
 62
     7
370
    25
100
AcDbSpline
210
0.0
220
0.0
230
1.0
 70
    24
 71
     3
 72
     8
 73
     4
 74
     0
 42
0.00000001
 43
0.00000001
 40
0.0
 40
0.0
 40
0.0
 40
0.0
 40
1.0
 40
1.0
 40
1.0
 40
1.0
 10
89.94674170390955
 20
35.25904490127871
 30
0.0
 10
89.94674170390955
 20
35.20815011157788
 30
0.0
 10
89.94674170390955
 20
35.15421626221644
 30
0.0
 10
89.94674170390955
 20
35.09755957299768
 30
0.0
  0
SPLINE
  5
1CC
330
1F
100
AcDbEntity
  8
0
  6
Continuous
 62
     7
370
    25
100
AcDbSpline
210
0.0
220
0.0
230
1.0
 70
     8
 71
     3
 72
     8
 73
     4
 74
     0
 42
0.00000001
 43
0.00000001
 40
0.0
 40
0.0
 40
0.0
 40
0.0
 40
1.0
 40
1.0
 40
1.0
 40
1.0
 10
105.3749449341851
 20
36.06395611285269
 30
0.0
 10
105.9013657953943
 20
35.80074568224808
 30
0.0
 10
106.424910252108
 20
35.53164825386138
 30
0.0
 10
106.9467417039096
 20
35.25904490127872
 30
0.0
  0
SPLINE
  5
1CD
330
1F
100
AcDbEntity
  8
0
  6
Continuous
 62
     7
370
    25
100
AcDbSpline
210
0.0
220
0.0
230
1.0
 70
     8
 71
     3
 72
    10
 73
     6
 74
     0
 42
0.00000001
 43
0.00000001
 40
0.0
 40
0.0
 40
0.0
 40
0.0
 40
0.5
 40
0.5
 40
1.0
 40
1.0
 40
1.0
 40
1.0
 10
106.6967417039096
 20
35.09755957299769
 30
0.0
 10
106.7711220812869
 20
35.0738841785733
 30
0.0
 10
106.8354227200727
 20
35.06079306868866
 30
0.0
 10
106.9236384048556
 20
35.06070674740038
 30
0.0
 10
106.9467417039096
 20
35.07387568134421
 30
0.0
 10
106.9467417039096
 20
35.09755957299768
 30
0.0
  0
SPLINE
  5
1CE
330
1F
100
AcDbEntity
  8
0
  6
Continuous
 62
     7
370
    25
100
AcDbSpline
210
0.0
220
0.0
230
1.0
 70
    24
 71
     3
 72
     8
 73
     4
 74
     0
 42
0.00000001
 43
0.00000001
 40
0.0
 40
0.0
 40
0.0
 40
0.0
 40
1.0
 40
1.0
 40
1.0
 40
1.0
 10
106.9467417039096
 20
35.25904490127871
 30
0.0
 10
106.9467417039096
 20
35.20815011157788
 30
0.0
 10
106.9467417039096
 20
35.15421626221644
 30
0.0
 10
106.9467417039096
 20
35.09755957299768
 30
0.0
  0
LINE
  5
1CF
330
1F
100
AcDbEntity
  8
0
  6
Continuous
 62
     7
370
    25
100
AcDbLine
 10
103.3223860509
 20
36.0639561129
 30
0.0
 11
105.9467417039
 21
36.0639561129
 31
0.0
  0
LINE
  5
1D0
330
1F
100
AcDbEntity
  8
0
  6
Continuous
 62
     7
370
    25
100
AcDbLine
 10
105.9467417039
 20
37.5791285556
 30
0.0
 11
105.9467417039
 21
36.0639561129
 31
0.0
  0
LINE
  5
1D1
330
1F
100
AcDbEntity
  8
0
  6
Continuous
 62
     7
370
    25
100
AcDbLine
 10
90.9467417039
 20
36.0639561129
 30
0.0
 11
90.9467417039
 21
37.5791285556
 31
0.0
  0
LINE
  5
1D2
330
1F
100
AcDbEntity
  8
0
  6
Continuous
 62
     7
370
    25
100
AcDbLine
 10
90.9467417039
 20
36.0639561129
 30
0.0
 11
93.5710973569
 21
36.0639561129
 31
0.0
  0
LINE
  5
1D3
330
1F
100
AcDbEntity
  8
0
  6
Continuous
 62
     7
370
    25
100
AcDbLine
 10
89.9467417039
 20
32.5639561129
 30
0.0
 11
90.1967417039
 21
32.5639561129
 31
0.0
  0
LINE
  5
1D4
330
1F
100
AcDbEntity
  8
0
  6
Continuous
 62
     7
370
    25
100
AcDbLine
 10
89.9467417039
 20
32.5639561129
 30
0.0
 11
89.9467417039
 21
35.097559573
 31
0.0
  0
LINE
  5
1D5
330
1F
100
AcDbEntity
  8
0
  6
Continuous
 62
     7
370
    25
100
AcDbLine
 10
106.6967417039
 20
32.5639561129
 30
0.0
 11
106.9467417039
 21
32.5639561129
 31
0.0
  0
LINE
  5
1D6
330
1F
100
AcDbEntity
  8
0
  6
Continuous
 62
     7
370
    25
100
AcDbLine
 10
106.9467417039
 20
35.097559573
 30
0.0
 11
106.9467417039
 21
32.5639561129
 31
0.0
  0
LINE
  5
1D7
330
1F
100
AcDbEntity
  8
0
  6
Continuous
 62
     7
370
    25
100
AcDbLine
 10
89.9467417039
 20
35.2590449013
 30
0.0
 11
89.9467417039
 21
38.4017372149
 31
0.0
  0
LINE
  5
1D8
330
1F
100
AcDbEntity
  8
0
  6
Continuous
 62
     7
370
    25
100
AcDbLine
 10
106.9467417039
 20
35.2590449013
 30
0.0
 11
106.9467417039
 21
38.4017372149
 31
0.0
  0
LINE
  5
1D9
330
1F
100
AcDbEntity
  8
0
  6
Continuous
 62
     7
370
    25
100
AcDbLine
 10
103.9467417039
 20
70.1639561129
 30
0.0
 11
100.1206547474
 21
70.1639561129
 31
0.0
  0
LINE
  5
1DA
330
1F
100
AcDbEntity
  8
0
  6
Continuous
 62
     7
370
    25
100
AcDbLine
 10
96.7728286604
 20
70.1639561129
 30
0.0
 11
92.9467417039
 21
70.1639561129
 31
0.0
  0
SPLINE
  5
1DB
330
1F
100
AcDbEntity
  8
0
  6
Continuous
 62
     7
370
    25
100
AcDbSpline
210
0.0
220
0.0
230
1.0
 70
     8
 71
     3
 72
    19
 73
    15
 74
     0
 42
0.00000001
 43
0.00000001
 40
0.0
 40
0.0
 40
0.0
 40
0.0
 40
0.0167619239775902
 40
0.0954796837712528
 40
0.1743020879696978
 40
0.2799225942234668
 40
0.385738736710748
 40
0.498823189806952
 40
0.6118891278455868
 40
0.7070698224187664
 40
0.8021763149617158
 40
0.8927544423222419
 40
0.9832579233709824
 40
1.0
 40
1.0
 40
1.0
 40
1.0
 10
92.55438338475497
 20
49.60335750730802
 30
0.0
 10
92.55185975609037
 20
49.60022520478402
 30
0.0
 10
92.53748460039981
 20
49.58238290607968
 30
0.0
 10
92.60092997293775
 20
49.6614459407679
 30
0.0
 10
92.75603387350131
 20
49.84592831970969
 30
0.0
 10
93.04433212033646
 20
50.16590815077962
 30
0.0
 10
93.4767658275015
 20
50.59035615472967
 30
0.0
 10
94.03119864337616
 20
51.05302080916374
 30
0.0
 10
94.67409418183992
 20
51.49350078414077
 30
0.0
 10
95.37353111049816
 20
51.87156172229539
 30
0.0
 10
96.09553142961849
 20
52.17478525111825
 30
0.0
 10
96.87325081911244
 20
52.39318436957333
 30
0.0
 10
97.46129929182246
 20
52.51458412929156
 30
0.0
 10
97.79088947033783
 20
52.52788395664216
 30
0.0
 10
97.84234170896067
 20
52.52996018929439
 30
0.0
  0
SPLINE
  5
1DC
330
1F
100
AcDbEntity
  8
0
  6
Continuous
 62
     7
370
    25
100
AcDbSpline
210
0.0
220
0.0
230
1.0
 70
     8
 71
     3
 72
    19
 73
    15
 74
     0
 42
0.00000001
 43
0.00000001
 40
0.0
 40
0.0
 40
0.0
 40
0.0
 40
0.0313541451200035
 40
0.09739673322341
 40
0.1974102146046133
 40
0.2975359612800582
 40
0.4181234890411867
 40
0.5388074594761504
 40
0.6564384498497914
 40
0.7739030459668342
 40
0.8504375747461441
 40
0.9268713940993815
 40
0.9967382536582571
 40
1.0
 40
1.0
 40
1.0
 40
1.0
 10
99.05893891385062
 20
52.52545846511972
 30
0.0
 10
99.154810835473
 20
52.52023842558753
 30
0.0
 10
99.45262192035932
 20
52.50402319165955
 30
0.0
 10
100.0355073223204
 20
52.38965072677306
 30
0.0
 10
100.7847516607569
 20
52.1803782213028
 30
0.0
 10
101.6052163865364
 20
51.83605632878972
 30
0.0
 10
102.3723630725594
 20
51.40045728781039
 30
0.0
 10
103.0536536679245
 20
50.9050583923261
 30
0.0
 10
103.6043637608519
 20
50.41466236169584
 30
0.0
 10
103.9731013246402
 20
50.03170632764917
 30
0.0
 10
104.201126635689
 20
49.77095445091972
 30
0.0
 10
104.3122326609348
 20
49.6364974774647
 30
0.0
 10
104.3562087759124
 20
49.58259973832531
 30
0.0
 10
104.3452834123994
 20
49.59593361918239
 30
0.0
 10
104.3447961097354
 20
49.59652834865346
 30
0.0
  0
INSERT
  5
1E8
330
1F
100
AcDbEntity
  8
0
  6
Continuous
 62
     7
370
    18
100
AcDbBlockReference
  2
SW_CENTERMARKSYMBOL_0
 10
98.4467417039
 20
43.0639561129
 30
0.0
  0
LINE
  5
1E9
330
1F
100
AcDbEntity
  8
0
  6
Continuous
 62
     7
370
    18
100
AcDbLine
 10
90.5967417039
 20
32.0639561129
 30
0.0
 11
90.9445603403
 21
20.9337597493
 31
0.0
  0
LINE
  5
1EA
330
1F
100
AcDbEntity
  8
0
  6
Continuous
 62
     7
370
    18
100
AcDbLine
 10
105.9489230675
 20
20.9337597493
 30
0.0
 11
106.2967417039
 21
32.0639561129
 31
0.0
  0
LINE
  5
1EB
330
1F
100
AcDbEntity
  8
0
  6
Continuous
 62
     7
370
    25
100
AcDbLine
 10
94.5659994621
 20
32.0639561129
 30
0.0
 11
93.8274839457
 21
32.0639561129
 31
0.0
  0
LINE
  5
1EC
330
1F
100
AcDbEntity
  8
0
  6
Continuous
 62
     7
370
    25
100
AcDbLine
 10
103.0659994621
 20
32.0639561129
 30
0.0
 11
102.3274839457
 21
32.0639561129
 31
0.0
  0
LINE
  5
1ED
330
1F
100
AcDbEntity
  8
0
  6
Continuous
 62
     7
370
    25
100
AcDbLine
 10
22.9855177237
 20
111.0639027304
 30
0.0
 11
22.8411801564
 21
110.8139027304
 31
0.0
  0
LINE
  5
1EE
330
1F
100
AcDbEntity
  8
0
  6
Continuous
 62
     7
370
    25
100
AcDbLine
 10
22.8411801564
 20
94.3139027304
 30
0.0
 11
22.9855177237
 21
94.0639027304
 31
0.0
  0
LINE
  5
1EF
330
1F
100
AcDbEntity
  8
0
  6
Continuous
 62
     7
370
    25
100
AcDbLine
 10
35.6968425891
 20
94.0639027304
 30
0.0
 11
35.8411801564
 21
94.3139027304
 31
0.0
  0
LINE
  5
1F0
330
1F
100
AcDbEntity
  8
0
  6
Continuous
 62
     7
370
    25
100
AcDbLine
 10
35.8411801564
 20
110.8139027304
 30
0.0
 11
35.6968425891
 21
111.0639027304
 31
0.0
  0
LINE
  5
1F1
330
1F
100
AcDbEntity
  8
0
  6
Continuous
 62
     7
370
    25
100
AcDbLine
 10
41.2895141066
 20
111.0639027304
 30
0.0
 11
41.0895141066
 21
110.8639027304
 31
0.0
  0
LINE
  5
1F2
330
1F
100
AcDbEntity
  8
0
  6
Continuous
 62
     7
370
    25
100
AcDbLine
 10
41.0895141066
 20
94.2639027304
 30
0.0
 11
41.2895141066
 21
94.0639027304
 31
0.0
  0
LINE
  5
1F3
330
1F
100
AcDbEntity
  8
0
  6
Continuous
 62
     7
370
    25
100
AcDbLine
 10
41.2895141066
 20
94.0639027304
 30
0.0
 11
44.0895141066
 21
94.0639027304
 31
0.0
  0
LINE
  5
1F4
330
1F
100
AcDbEntity
  8
0
  6
Continuous
 62
     7
370
    25
100
AcDbLine
 10
44.0895141066
 20
111.0639027304
 30
0.0
 11
41.2895141066
 21
111.0639027304
 31
0.0
  0
LINE
  5
1F5
330
1F
100
AcDbEntity
  8
0
  6
Continuous
 62
     7
370
    25
100
AcDbLine
 10
41.0895141066
 20
109.1424027304
 30
0.0
 11
35.8411801564
 21
109.1424027304
 31
0.0
  0
LINE
  5
1F6
330
1F
100
AcDbEntity
  8
0
  6
Continuous
 62
     7
370
    25
100
AcDbLine
 10
35.8411801564
 20
95.9854027304
 30
0.0
 11
41.0895141066
 21
95.9854027304
 31
0.0
  0
LINE
  5
1F7
330
1F
100
AcDbEntity
  8
0
  6
Continuous
 62
     7
370
    25
100
AcDbLine
 10
67.4451765393
 20
94.0639027304
 30
0.0
 11
67.5895141066
 21
94.3139027304
 31
0.0
  0
LINE
  5
1F8
330
1F
100
AcDbEntity
  8
0
  6
Continuous
 62
     7
370
    25
100
AcDbLine
 10
67.5895141066
 20
110.8139027304
 30
0.0
 11
67.4451765393
 21
111.0639027304
 31
0.0
  0
SPLINE
  5
1F9
330
1F
100
AcDbEntity
  8
0
  6
Continuous
 62
     7
370
    25
100
AcDbSpline
210
0.0
220
0.0
230
1.0
 70
    24
 71
     3
 72
    10
 73
     6
 74
     0
 42
0.00000001
 43
0.00000001
 40
0.0
 40
0.0
 40
0.0
 40
0.0
 40
0.242206421200277
 40
0.6190305480039353
 40
1.0
 40
1.0
 40
1.0
 40
1.0
 10
22.98912571876664
 20
94.06390273042705
 30
0.0
 10
22.99778520877327
 20
94.06390273042705
 30
0.0
 10
23.01991711104772
 20
94.06390273042706
 30
0.0
 10
23.26130400648671
 20
94.06390273042709
 30
0.0
 10
23.58298617569462
 20
94.06390273042709
 30
0.0
 10
23.74470710227486
 20
94.0639027304271
 30
0.0
  0
SPLINE
  5
1FA
330
1F
100
AcDbEntity
  8
0
  6
Continuous
 62
     7
370
    25
100
AcDbSpline
210
0.0
220
0.0
230
1.0
 70
    24
 71
     3
 72
    10
 73
     6
 74
     0
 42
0.00000001
 43
0.00000001
 40
0.0
 40
0.0
 40
0.0
 40
0.0
 40
0.377151919957641
 40
0.7577898272227023
 40
1.0
 40
1.0
 40
1.0
 40
1.0
 10
23.74470710227486
 20
111.0639027304271
 30
0.0
 10
23.58443535827541
 20
111.0639027304271
 30
0.0
 10
23.26241049039814
 20
111.0639027304271
 30
0.0
 10
23.02066275056293
 20
111.0639027304271
 30
0.0
 10
22.99698979752088
 20
111.0639027304271
 30
0.0
 10
22.98778397313097
 20
111.0639027304271
 30
0.0
  0
SPLINE
  5
1FB
330
1F
100
AcDbEntity
  8
0
  6
Continuous
 62
     7
370
    25
100
AcDbSpline
210
0.0
220
0.0
230
1.0
 70
     8
 71
     3
 72
    11
 73
     7
 74
     0
 42
0.00000001
 43
0.00000001
 40
0.0
 40
0.0
 40
0.0
 40
0.0
 40
0.2078428791078414
 40
0.4041174254395333
 40
0.6004225887532606
 40
0.9999999999999999
 40
0.9999999999999999
 40
0.9999999999999999
 40
0.9999999999999999
 10
23.01681362292866
 20
106.063902730427
 30
0.0
 10
23.0000122093392
 20
106.4146949491018
 30
0.0
 10
22.9673445325217
 20
107.0967546322798
 30
0.0
 10
23.04935813630534
 20
108.1092404122708
 30
0.0
 10
23.25183905141727
 20
109.4362293146063
 30
0.0
 10
23.54686997907978
 20
110.4105549925756
 30
0.0
 10
23.74470710227486
 20
111.0639027304271
 30
0.0
  0
SPLINE
  5
1FC
330
1F
100
AcDbEntity
  8
0
  6
Continuous
 62
     7
370
    25
100
AcDbSpline
210
0.0
220
0.0
230
1.0
 70
     8
 71
     3
 72
    12
 73
     8
 74
     0
 42
0.00000001
 43
0.00000001
 40
0.0
 40
0.0
 40
0.0
 40
0.0
 40
0.2253923253478588
 40
0.4507209242740504
 40
0.6810902123832252
 40
0.9114179295261151
 40
0.9999999999999999
 40
0.9999999999999999
 40
0.9999999999999999
 40
0.9999999999999999
 10
23.74470710227486
 20
94.0639027304271
 30
0.0
 10
23.62922001294089
 20
94.43113213017334
 30
0.0
 10
23.39827848657794
 20
95.16548710086181
 30
0.0
 10
23.14836379623672
 20
96.29640909893932
 30
0.0
 10
23.00371003097458
 20
97.44832208287224
 30
0.0
 10
22.96445215470808
 20
98.3775592213466
 30
0.0
 10
23.00939104052268
 20
98.91470286818793
 30
0.0
 10
23.02187350329058
 20
99.06390273042695
 30
0.0
  0
LINE
  5
1FD
330
1F
100
AcDbEntity
  8
0
  6
Continuous
 62
     7
370
    25
100
AcDbLine
 10
22.8411801564
 20
94.3139027304
 30
0.0
 11
22.8411801564
 21
99.0639027304
 31
0.0
  0
LINE
  5
1FE
330
1F
100
AcDbEntity
  8
0
  6
Continuous
 62
     7
370
    25
100
AcDbLine
 10
22.8411801564
 20
106.0639027304
 30
0.0
 11
22.8411801564
 21
110.8139027304
 31
0.0
  0
LINE
  5
1FF
330
1F
100
AcDbEntity
  8
0
  6
Continuous
 62
     7
370
    25
100
AcDbLine
 10
23.7447071023
 20
111.0639027304
 30
0.0
 11
34.9376532106
 21
111.0639027304
 31
0.0
  0
SPLINE
  5
200
330
1F
100
AcDbEntity
  8
0
  6
Continuous
 62
     7
370
    25
100
AcDbSpline
210
0.0
220
0.0
230
1.0
 70
     8
 71
     3
 72
    11
 73
     7
 74
     0
 42
0.00000001
 43
0.00000001
 40
0.0
 40
0.0
 40
0.0
 40
0.0
 40
0.1955388504218082
 40
0.3948619935340018
 40
0.5942162291806374
 40
1.0
 40
1.0
 40
1.0
 40
1.0
 10
35.66754546939752
 20
106.1413333434866
 30
0.0
 10
35.682862308586
 20
106.466309760034
 30
0.0
 10
35.7137924160483
 20
107.1225519104437
 30
0.0
 10
35.6327745764338
 20
108.1092388553463
 30
0.0
 10
35.43065025849504
 20
109.4362301970254
 30
0.0
 10
35.13554211315873
 20
110.4105553467784
 30
0.0
 10
34.93765321057035
 20
111.0639027304271
 30
0.0
  0
SPLINE
  5
201
330
1F
100
AcDbEntity
  8
0
  6
Continuous
 62
     7
370
    25
100
AcDbSpline
210
0.0
220
0.0
230
1.0
 70
    24
 71
     3
 72
    10
 73
     6
 74
     0
 42
0.00000001
 43
0.00000001
 40
0.0
 40
0.0
 40
0.0
 40
0.0
 40
0.3771519199576411
 40
0.7577898272227023
 40
1.0
 40
1.0
 40
1.0
 40
1.0
 10
34.93765321057035
 20
111.0639027304271
 30
0.0
 10
35.0979249545698
 20
111.0639027304271
 30
0.0
 10
35.41994982244709
 20
111.0639027304271
 30
0.0
 10
35.66169756228228
 20
111.0639027304271
 30
0.0
 10
35.68537051532434
 20
111.0639027304271
 30
0.0
 10
35.69457633971425
 20
111.0639027304271
 30
0.0
  0
SPLINE
  5
202
330
1F
100
AcDbEntity
  8
0
  6
Continuous
 62
     7
370
    25
100
AcDbSpline
210
0.0
220
0.0
230
1.0
 70
    24
 71
     3
 72
    10
 73
     6
 74
     0
 42
0.00000001
 43
0.00000001
 40
0.0
 40
0.0
 40
0.0
 40
0.0
 40
0.2422064212002769
 40
0.6190305480039353
 40
1.0
 40
1.0
 40
1.0
 40
1.0
 10
35.69323459407858
 20
94.06390273042705
 30
0.0
 10
35.68457510407194
 20
94.06390273042706
 30
0.0
 10
35.66244320179749
 20
94.06390273042706
 30
0.0
 10
35.42105630635852
 20
94.06390273042707
 30
0.0
 10
35.0993741371506
 20
94.06390273042709
 30
0.0
 10
34.93765321057035
 20
94.0639027304271
 30
0.0
  0
SPLINE
  5
203
330
1F
100
AcDbEntity
  8
0
  6
Continuous
 62
     7
370
    25
100
AcDbSpline
210
0.0
220
0.0
230
1.0
 70
     8
 71
     3
 72
    12
 73
     8
 74
     0
 42
0.00000001
 43
0.00000001
 40
0.0
 40
0.0
 40
0.0
 40
0.0
 40
0.2291251646727521
 40
0.4581855475174806
 40
0.6923701010159022
 40
0.9265123950696827
 40
1.0
 40
1.0
 40
1.0
 40
1.0
 10
34.93765321057035
 20
94.0639027304271
 30
0.0
 10
35.05312809601906
 20
94.43113170339073
 30
0.0
 10
35.28404521806194
 20
95.16548582063464
 30
0.0
 10
35.53414426554018
 20
96.29641426587372
 30
0.0
 10
35.67808240207626
 20
97.44830222352289
 30
0.0
 10
35.71824757843071
 20
98.35005049154731
 30
0.0
 10
35.67640773378051
 20
98.85978191541265
 30
0.0
 10
35.66641289912968
 20
98.98154817292301
 30
0.0
  0
LINE
  5
204
330
1F
100
AcDbEntity
  8
0
  6
Continuous
 62
     7
370
    25
100
AcDbLine
 10
35.8411801564
 20
94.3139027304
 30
0.0
 11
35.8411801564
 21
99.0185728586
 31
0.0
  0
LINE
  5
205
330
1F
100
AcDbEntity
  8
0
  6
Continuous
 62
     7
370
    25
100
AcDbLine
 10
35.8411801564
 20
106.1092326023
 30
0.0
 11
35.8411801564
 21
110.8139027304
 31
0.0
  0
LINE
  5
206
330
1F
100
AcDbEntity
  8
0
  6
Continuous
 62
     7
370
    25
100
AcDbLine
 10
23.7447071023
 20
94.0639027304
 30
0.0
 11
34.9376532106
 21
94.0639027304
 31
0.0
  0
SPLINE
  5
207
330
1F
100
AcDbEntity
  8
0
  6
Continuous
 62
     7
370
    25
100
AcDbSpline
210
0.0
220
0.0
230
1.0
 70
     8
 71
     3
 72
    15
 73
    11
 74
     0
 42
0.00000001
 43
0.00000001
 40
0.0
 40
0.0
 40
0.0
 40
0.0
 40
0.0090459071881971
 40
0.1032433785236817
 40
0.1542564497735191
 40
0.3133169026715104
 40
0.5243720399414403
 40
0.667806000850918
 40
0.9918332554187028
 40
1.0
 40
1.0
 40
1.0
 40
1.0
 10
50.35042877392497
 20
104.2378157739053
 30
0.0
 10
50.35043446589164
 20
104.2377981281808
 30
0.0
 10
50.35049942984243
 20
104.2375967327683
 30
0.0
 10
50.35249511627831
 20
104.2314071121021
 30
0.0
 10
50.36031211249477
 20
104.207205180258
 30
0.0
 10
50.37748193624973
 20
104.1541861882563
 30
0.0
 10
50.40406583281727
 20
104.0728153010597
 30
0.0
 10
50.44189513130591
 20
103.9582362290372
 30
0.0
 10
50.47017591131614
 20
103.8738110513181
 30
0.0
 10
50.49000705884743
 20
103.8153401933661
 30
0.0
 10
50.4904945929903
 20
103.813902730427
 30
0.0
  0
ARC
  5
208
330
1F
100
AcDbEntity
  8
0
  6
Continuous
 62
     7
370
    25
100
AcDbCircle
 10
55.5895141066
 20
102.5639027304
 30
0.0
 40
5.500000000000004
100
AcDbArc
 50
17.7189318734
 51
162.2810681266
  0
SPLINE
  5
209
330
1F
100
AcDbEntity
  8
0
  6
Continuous
 62
     7
370
    25
100
AcDbSpline
210
0.0
220
0.0
230
1.0
 70
     8
 71
     3
 72
    15
 73
    11
 74
     0
 42
0.00000001
 43
0.00000001
 40
0.0
 40
0.0
 40
0.0
 40
0.0
 40
0.0081667445812973
 40
0.3321939991490804
 40
0.475627960058556
 40
0.6866830973284891
 40
0.8457435502264751
 40
0.8967566214763124
 40
0.9909540928118028
 40
1.0
 40
1.0
 40
1.0
 40
1.0
 10
60.68853362017587
 20
103.813902730427
 30
0.0
 10
60.68902115431874
 20
103.8153401933661
 30
0.0
 10
60.70885230184999
 20
103.8738110513181
 30
0.0
 10
60.73713308186025
 20
103.9582362290372
 30
0.0
 10
60.77496238034888
 20
104.0728153010597
 30
0.0
 10
60.80154627691642
 20
104.1541861882563
 30
0.0
 10
60.81871610067138
 20
104.207205180258
 30
0.0
 10
60.82653309688785
 20
104.2314071121021
 30
0.0
 10
60.82852878332373
 20
104.2375967327683
 30
0.0
 10
60.82859374727452
 20
104.2377981281808
 30
0.0
 10
60.82859943924119
 20
104.2378157739053
 30
0.0
  0
ARC
  5
20A
330
1F
100
AcDbEntity
  8
0
  6
Continuous
 62
     7
370
    25
100
AcDbCircle
 10
55.5895141066
 20
102.5639027304
 30
0.0
 40
5.250000000000002
100
AcDbArc
 50
13.774146998
 51
166.225853002
  0
SPLINE
  5
20B
330
1F
100
AcDbEntity
  8
0
  6
Continuous
 62
     7
370
    25
100
AcDbSpline
210
0.0
220
0.0
230
1.0
 70
     8
 71
     3
 72
    15
 73
    11
 74
     0
 42
0.00000001
 43
0.00000001
 40
0.0
 40
0.0
 40
0.0
 40
0.0
 40
0.0080847466189582
 40
0.3310106400648243
 40
0.4750333064304948
 40
0.6874363079215142
 40
0.8468367539418303
 40
0.9000996640391847
 40
0.9910442771984082
 40
1.0
 40
1.0
 40
1.0
 40
1.0
 10
50.4904945929903
 20
103.813902730427
 30
0.0
 10
50.48921476144618
 20
103.8147186664153
 30
0.0
 10
50.43681511572293
 20
103.8481252166099
 30
0.0
 10
50.36146002426782
 20
103.8969387813437
 30
0.0
 10
50.25954091225017
 20
103.964309253612
 30
0.0
 10
50.18714996725824
 20
104.0128932939555
 30
0.0
 10
50.13944453899342
 20
104.045342155414
 30
0.0
 10
50.11790905528611
 20
104.0600531964803
 30
0.0
 10
50.11248003926659
 20
104.0637716473984
 30
0.0
 10
50.11230428711003
 20
104.0638919460639
 30
0.0
 10
50.11228853153142
 20
104.063902730427
 30
0.0
  0
ARC
  5
20C
330
1F
100
AcDbEntity
  8
0
  6
Continuous
 62
     7
370
    25
100
AcDbCircle
 10
50.1122885315
 20
104.3139027304
 30
0.0
 40
0.25
100
AcDbArc
 50
270.0
 51
342.2810681266
  0
SPLINE
  5
20D
330
1F
100
AcDbEntity
  8
0
  6
Continuous
 62
     7
370
    25
100
AcDbSpline
210
0.0
220
0.0
230
1.0
 70
     8
 71
     3
 72
    15
 73
    11
 74
     0
 42
0.00000001
 43
0.00000001
 40
0.0
 40
0.0
 40
0.0
 40
0.0
 40
0.0089557228015919
 40
0.0999003359608209
 40
0.1531632460581751
 40
0.3125636920784904
 40
0.5249666935695061
 40
0.6689893599351777
 40
0.991915253381045
 40
1.0
 40
1.0
 40
1.0
 40
1.0
 10
61.06673968163474
 20
104.063902730427
 30
0.0
 10
61.06672392605613
 20
104.0638919460639
 30
0.0
 10
61.06654817389958
 20
104.0637716473984
 30
0.0
 10
61.06111915788005
 20
104.0600531964803
 30
0.0
 10
61.03958367417273
 20
104.045342155414
 30
0.0
 10
60.99187824590791
 20
104.0128932939555
 30
0.0
 10
60.919487300916
 20
103.964309253612
 30
0.0
 10
60.81756818889832
 20
103.8969387813437
 30
0.0
 10
60.74221309744328
 20
103.8481252166098
 30
0.0
 10
60.68981345171999
 20
103.8147186664153
 30
0.0
 10
60.68853362017587
 20
103.813902730427
 30
0.0
  0
ARC
  5
20E
330
1F
100
AcDbEntity
  8
0
  6
Continuous
 62
     7
370
    25
100
AcDbCircle
 10
61.0667396816
 20
104.3139027304
 30
0.0
 40
0.2500000000000034
100
AcDbArc
 50
197.7189318734
 51
270.0
  0
SPLINE
  5
20F
330
1F
100
AcDbEntity
  8
0
  6
Continuous
 62
     7
370
    25
100
AcDbSpline
210
0.0
220
0.0
230
1.0
 70
     8
 71
     3
 72
    15
 73
    11
 74
     0
 42
0.00000001
 43
0.00000001
 40
0.0
 40
0.0
 40
0.0
 40
0.0
 40
0.0081667445812695
 40
0.3321939991490083
 40
0.4756279600585602
 40
0.6866830973284899
 40
0.8457435502264811
 40
0.8967566214763185
 40
0.9909540928118029
 40
1.0
 40
1.0
 40
1.0
 40
1.0
 10
50.4904945929903
 20
101.313902730427
 30
0.0
 10
50.4900070588474
 20
101.312465267488
 30
0.0
 10
50.47017591131534
 20
101.2539944095363
 30
0.0
 10
50.44189513130606
 20
101.1695692318168
 30
0.0
 10
50.40406583281724
 20
101.0549901597944
 30
0.0
 10
50.37748193624974
 20
100.9736192725978
 30
0.0
 10
50.36031211249477
 20
100.9206002805961
 30
0.0
 10
50.35249511627832
 20
100.896398348752
 30
0.0
 10
50.35049942984243
 20
100.8902087280858
 30
0.0
 10
50.35043446589164
 20
100.8900073326732
 30
0.0
 10
50.35042877392497
 20
100.8899896869488
 30
0.0
  0
ARC
  5
210
330
1F
100
AcDbEntity
  8
0
  6
Continuous
 62
     7
370
    25
100
AcDbCircle
 10
55.5895141066
 20
102.5639027304
 30
0.0
 40
5.250000000000002
100
AcDbArc
 50
193.774146998
 51
346.225853002
  0
SPLINE
  5
211
330
1F
100
AcDbEntity
  8
0
  6
Continuous
 62
     7
370
    25
100
AcDbSpline
210
0.0
220
0.0
230
1.0
 70
     8
 71
     3
 72
    15
 73
    11
 74
     0
 42
0.00000001
 43
0.00000001
 40
0.0
 40
0.0
 40
0.0
 40
0.0
 40
0.0090459071881971
 40
0.1032433785236874
 40
0.1542564497735246
 40
0.313316902671511
 40
0.5243720399414428
 40
0.6678060008509903
 40
0.9918332554187292
 40
1.0
 40
1.0
 40
1.0
 40
1.0
 10
60.82859943924119
 20
100.8899896869488
 30
0.0
 10
60.82859374727452
 20
100.8900073326732
 30
0.0
 10
60.82852878332373
 20
100.8902087280858
 30
0.0
 10
60.82653309688785
 20
100.896398348752
 30
0.0
 10
60.81871610067139
 20
100.9206002805961
 30
0.0
 10
60.8015462769164
 20
100.9736192725978
 30
0.0
 10
60.77496238034892
 20
101.0549901597944
 30
0.0
 10
60.73713308186009
 20
101.1695692318168
 30
0.0
 10
60.70885230185083
 20
101.2539944095363
 30
0.0
 10
60.68902115431874
 20
101.312465267488
 30
0.0
 10
60.68853362017587
 20
101.313902730427
 30
0.0
  0
ARC
  5
212
330
1F
100
AcDbEntity
  8
0
  6
Continuous
 62
     7
370
    25
100
AcDbCircle
 10
55.5895141066
 20
102.5639027304
 30
0.0
 40
5.5
100
AcDbArc
 50
197.7189318734
 51
342.2810681266
  0
ARC
  5
213
330
1F
100
AcDbEntity
  8
0
  6
Continuous
 62
     7
370
    25
100
AcDbCircle
 10
61.0667396816
 20
100.8139027304
 30
0.0
 40
0.2500000000000077
100
AcDbArc
 50
90.0
 51
162.2810681266
  0
SPLINE
  5
214
330
1F
100
AcDbEntity
  8
0
  6
Continuous
 62
     7
370
    25
100
AcDbSpline
210
0.0
220
0.0
230
1.0
 70
     8
 71
     3
 72
    15
 73
    11
 74
     0
 42
0.00000001
 43
0.00000001
 40
0.0
 40
0.0
 40
0.0
 40
0.0
 40
0.0080847466189818
 40
0.3310106400647567
 40
0.4750333064304972
 40
0.6874363079215137
 40
0.8468367539418253
 40
0.9000996640391794
 40
0.9910442771984082
 40
1.0
 40
1.0
 40
1.0
 40
1.0
 10
60.68853362017587
 20
101.313902730427
 30
0.0
 10
60.68981345172001
 20
101.3130867944388
 30
0.0
 10
60.74221309744379
 20
101.2796802442451
 30
0.0
 10
60.81756818889822
 20
101.2308666795103
 30
0.0
 10
60.91948730091601
 20
101.1634962072421
 30
0.0
 10
60.99187824590791
 20
101.1149121668986
 30
0.0
 10
61.03958367417274
 20
101.0824633054401
 30
0.0
 10
61.06111915788005
 20
101.0677522643738
 30
0.0
 10
61.06654817389958
 20
101.0640338134557
 30
0.0
 10
61.06672392605613
 20
101.0639135147902
 30
0.0
 10
61.06673968163474
 20
101.063902730427
 30
0.0
  0
ARC
  5
215
330
1F
100
AcDbEntity
  8
0
  6
Continuous
 62
     7
370
    25
100
AcDbCircle
 10
50.1122885315
 20
100.8139027304
 30
0.0
 40
0.2500000000000009
100
AcDbArc
 50
17.7189318734
 51
90.0
  0
SPLINE
  5
216
330
1F
100
AcDbEntity
  8
0
  6
Continuous
 62
     7
370
    25
100
AcDbSpline
210
0.0
220
0.0
230
1.0
 70
     8
 71
     3
 72
    15
 73
    11
 74
     0
 42
0.00000001
 43
0.00000001
 40
0.0
 40
0.0
 40
0.0
 40
0.0
 40
0.0089557228015919
 40
0.0999003359608148
 40
0.153163246058169
 40
0.3125636920784848
 40
0.5249666935694999
 40
0.6689893599352451
 40
0.9919152533810159
 40
1.0
 40
1.0
 40
1.0
 40
1.0
 10
50.11228853153142
 20
101.063902730427
 30
0.0
 10
50.11230428711003
 20
101.0639135147902
 30
0.0
 10
50.11248003926659
 20
101.0640338134557
 30
0.0
 10
50.11790905528611
 20
101.0677522643738
 30
0.0
 10
50.13944453899342
 20
101.0824633054401
 30
0.0
 10
50.18714996725824
 20
101.1149121668986
 30
0.0
 10
50.25954091225016
 20
101.1634962072421
 30
0.0
 10
50.36146002426793
 20
101.2308666795103
 30
0.0
 10
50.4368151157224
 20
101.2796802442451
 30
0.0
 10
50.48921476144616
 20
101.3130867944388
 30
0.0
 10
50.4904945929903
 20
101.313902730427
 30
0.0
  0
LINE
  5
217
330
1F
100
AcDbEntity
  8
0
  6
Continuous
 62
     7
370
    25
100
AcDbLine
 10
50.5895141066
 20
101.9639027304
 30
0.0
 11
60.5895141066
 21
101.9639027304
 31
0.0
  0
LINE
  5
218
330
1F
100
AcDbEntity
  8
0
  6
Continuous
 62
     7
370
    25
100
AcDbLine
 10
60.5895141066
 20
103.1639027304
 30
0.0
 11
50.5895141066
 21
103.1639027304
 31
0.0
  0
LINE
  5
219
330
1F
100
AcDbEntity
  8
0
  6
Continuous
 62
     7
370
    25
100
AcDbLine
 10
60.5895141066
 20
101.9639027304
 30
0.0
 11
60.5895141066
 21
103.1639027304
 31
0.0
  0
LINE
  5
21A
330
1F
100
AcDbEntity
  8
0
  6
Continuous
 62
     7
370
    25
100
AcDbLine
 10
50.5895141066
 20
103.1639027304
 30
0.0
 11
50.5895141066
 21
101.9639027304
 31
0.0
  0
LINE
  5
21B
330
1F
100
AcDbEntity
  8
0
  6
Continuous
 62
     7
370
    25
100
AcDbLine
 10
49.8395141066
 20
101.3139027304
 30
0.0
 11
50.490494593
 21
101.3139027304
 31
0.0
  0
LINE
  5
21C
330
1F
100
AcDbEntity
  8
0
  6
Continuous
 62
     7
370
    25
100
AcDbLine
 10
49.8395141066
 20
103.8139027304
 30
0.0
 11
49.8395141066
 21
101.3139027304
 31
0.0
  0
LINE
  5
21D
330
1F
100
AcDbEntity
  8
0
  6
Continuous
 62
     7
370
    25
100
AcDbLine
 10
50.490494593
 20
103.8139027304
 30
0.0
 11
49.8395141066
 21
103.8139027304
 31
0.0
  0
LINE
  5
21E
330
1F
100
AcDbEntity
  8
0
  6
Continuous
 62
     7
370
    25
100
AcDbLine
 10
61.3395141066
 20
103.8139027304
 30
0.0
 11
60.6885336202
 21
103.8139027304
 31
0.0
  0
LINE
  5
21F
330
1F
100
AcDbEntity
  8
0
  6
Continuous
 62
     7
370
    25
100
AcDbLine
 10
61.3395141066
 20
101.3139027304
 30
0.0
 11
61.3395141066
 21
103.8139027304
 31
0.0
  0
LINE
  5
220
330
1F
100
AcDbEntity
  8
0
  6
Continuous
 62
     7
370
    25
100
AcDbLine
 10
60.6885336202
 20
101.3139027304
 30
0.0
 11
61.3395141066
 21
101.3139027304
 31
0.0
  0
ARC
  5
221
330
1F
100
AcDbEntity
  8
0
  6
Continuous
 62
     7
370
    25
100
AcDbCircle
 10
49.8395141066
 20
103.8139027304
 30
0.0
 40
0.25
100
AcDbArc
 50
90.0
 51
180.0
  0
LINE
  5
222
330
1F
100
AcDbEntity
  8
0
  6
Continuous
 62
     7
370
    25
100
AcDbLine
 10
49.8395141066
 20
104.0639027304
 30
0.0
 11
49.8395141066
 21
103.8139027304
 31
0.0
  0
LINE
  5
223
330
1F
100
AcDbEntity
  8
0
  6
Continuous
 62
     7
370
    25
100
AcDbLine
 10
49.8395141066
 20
103.8139027304
 30
0.0
 11
49.5895141066
 21
103.8139027304
 31
0.0
  0
LINE
  5
224
330
1F
100
AcDbEntity
  8
0
  6
Continuous
 62
     7
370
    25
100
AcDbLine
 10
49.8395141066
 20
104.0639027304
 30
0.0
 11
50.1122885315
 21
104.0639027304
 31
0.0
  0
LINE
  5
225
330
1F
100
AcDbEntity
  8
0
  6
Continuous
 62
     7
370
    25
100
AcDbLine
 10
61.0667396816
 20
104.0639027304
 30
0.0
 11
61.3395141066
 21
104.0639027304
 31
0.0
  0
LINE
  5
226
330
1F
100
AcDbEntity
  8
0
  6
Continuous
 62
     7
370
    25
100
AcDbLine
 10
61.3395141066
 20
103.8139027304
 30
0.0
 11
61.3395141066
 21
104.0639027304
 31
0.0
  0
LINE
  5
227
330
1F
100
AcDbEntity
  8
0
  6
Continuous
 62
     7
370
    25
100
AcDbLine
 10
61.5895141066
 20
103.8139027304
 30
0.0
 11
61.3395141066
 21
103.8139027304
 31
0.0
  0
ARC
  5
228
330
1F
100
AcDbEntity
  8
0
  6
Continuous
 62
     7
370
    25
100
AcDbCircle
 10
61.3395141066
 20
103.8139027304
 30
0.0
 40
0.25
100
AcDbArc
 50
0.0
 51
90.0
  0
LINE
  5
229
330
1F
100
AcDbEntity
  8
0
  6
Continuous
 62
     7
370
    25
100
AcDbLine
 10
61.5895141066
 20
103.8139027304
 30
0.0
 11
61.5895141066
 21
101.3139027304
 31
0.0
  0
LINE
  5
22A
330
1F
100
AcDbEntity
  8
0
  6
Continuous
 62
     7
370
    25
100
AcDbLine
 10
61.3395141066
 20
101.3139027304
 30
0.0
 11
61.5895141066
 21
101.3139027304
 31
0.0
  0
LINE
  5
22B
330
1F
100
AcDbEntity
  8
0
  6
Continuous
 62
     7
370
    25
100
AcDbLine
 10
49.5895141066
 20
101.3139027304
 30
0.0
 11
49.8395141066
 21
101.3139027304
 31
0.0
  0
LINE
  5
22C
330
1F
100
AcDbEntity
  8
0
  6
Continuous
 62
     7
370
    25
100
AcDbLine
 10
49.5895141066
 20
101.3139027304
 30
0.0
 11
49.5895141066
 21
103.8139027304
 31
0.0
  0
LINE
  5
22D
330
1F
100
AcDbEntity
  8
0
  6
Continuous
 62
     7
370
    25
100
AcDbLine
 10
61.3395141066
 20
101.0639027304
 30
0.0
 11
61.3395141066
 21
101.3139027304
 31
0.0
  0
LINE
  5
22E
330
1F
100
AcDbEntity
  8
0
  6
Continuous
 62
     7
370
    25
100
AcDbLine
 10
61.3395141066
 20
101.0639027304
 30
0.0
 11
61.0667396816
 21
101.0639027304
 31
0.0
  0
ARC
  5
22F
330
1F
100
AcDbEntity
  8
0
  6
Continuous
 62
     7
370
    25
100
AcDbCircle
 10
49.8395141066
 20
101.3139027304
 30
0.0
 40
0.25
100
AcDbArc
 50
180.0
 51
270.0
  0
LINE
  5
230
330
1F
100
AcDbEntity
  8
0
  6
Continuous
 62
     7
370
    25
100
AcDbLine
 10
49.8395141066
 20
101.3139027304
 30
0.0
 11
49.8395141066
 21
101.0639027304
 31
0.0
  0
LINE
  5
231
330
1F
100
AcDbEntity
  8
0
  6
Continuous
 62
     7
370
    25
100
AcDbLine
 10
50.1122885315
 20
101.0639027304
 30
0.0
 11
49.8395141066
 21
101.0639027304
 31
0.0
  0
ARC
  5
232
330
1F
100
AcDbEntity
  8
0
  6
Continuous
 62
     7
370
    25
100
AcDbCircle
 10
61.3395141066
 20
101.3139027304
 30
0.0
 40
0.25
100
AcDbArc
 50
270.0
 51
0.0
  0
LINE
  5
233
330
1F
100
AcDbEntity
  8
0
  6
Continuous
 62
     7
370
    25
100
AcDbLine
 10
35.5895141066
 20
105.8356019945
 30
0.0
 11
33.414077245
 21
106.0639027304
 31
0.0
  0
LINE
  5
234
330
1F
100
AcDbEntity
  8
0
  6
Continuous
 62
     7
370
    25
100
AcDbLine
 10
35.5895141066
 20
99.2922034664
 30
0.0
 11
35.5895141066
 21
105.8356019945
 31
0.0
  0
LINE
  5
235
330
1F
100
AcDbEntity
  8
0
  6
Continuous
 62
     7
370
    25
100
AcDbLine
 10
33.414077245
 20
99.0639027304
 30
0.0
 11
35.5895141066
 21
99.2922034664
 31
0.0
  0
LINE
  5
236
330
1F
100
AcDbEntity
  8
0
  6
Continuous
 62
     7
370
    25
100
AcDbLine
 10
15.5895141066
 20
99.0639027304
 30
0.0
 11
33.414077245
 21
99.0639027304
 31
0.0
  0
LINE
  5
237
330
1F
100
AcDbEntity
  8
0
  6
Continuous
 62
     7
370
    25
100
AcDbLine
 10
15.5895141066
 20
106.0639027304
 30
0.0
 11
15.5895141066
 21
99.0639027304
 31
0.0
  0
LINE
  5
238
330
1F
100
AcDbEntity
  8
0
  6
Continuous
 62
     7
370
    25
100
AcDbLine
 10
33.414077245
 20
106.0639027304
 30
0.0
 11
15.5895141066
 21
106.0639027304
 31
0.0
  0
LINE
  5
239
330
1F
100
AcDbEntity
  8
0
  6
Continuous
 62
     7
370
    25
100
AcDbLine
 10
50.3657119322
 20
104.2849172112
 30
0.0
 11
50.2691476149
 21
104.125517891
 31
0.0
  0
LINE
  5
23A
330
1F
100
AcDbEntity
  8
0
  6
Continuous
 62
     7
370
    25
100
AcDbLine
 10
50.2468702343
 20
101.0186850631
 30
0.0
 11
50.3657119322
 21
100.8428882496
 31
0.0
  0
LINE
  5
23B
330
1F
100
AcDbEntity
  8
0
  6
Continuous
 62
     7
370
    25
100
AcDbLine
 10
42.172944453
 20
105.144705366
 30
0.0
 11
42.172944453
 21
99.9831000949
 31
0.0
  0
LINE
  5
23C
330
1F
100
AcDbEntity
  8
0
  6
Continuous
 62
     7
370
    25
100
AcDbLine
 10
50.3657119322
 20
100.8428882496
 30
0.0
 11
42.172944453
 21
99.9831000949
 31
0.0
  0
LINE
  5
23D
330
1F
100
AcDbEntity
  8
0
  6
Continuous
 62
     7
370
    25
100
AcDbLine
 10
42.172944453
 20
105.144705366
 30
0.0
 11
50.3657119322
 21
104.2849172113
 31
0.0
  0
LINE
  5
23E
330
1F
100
AcDbEntity
  8
0
  6
Continuous
 62
     7
370
    25
100
AcDbLine
 10
42.172944453
 20
99.9831000949
 30
0.0
 11
35.5895141066
 21
99.2922034664
 31
0.0
  0
LINE
  5
23F
330
1F
100
AcDbEntity
  8
0
  6
Continuous
 62
     7
370
    25
100
AcDbLine
 10
35.5895141066
 20
105.8356019945
 30
0.0
 11
42.172944453
 21
105.144705366
 31
0.0
  0
ARC
  5
240
330
1F
100
AcDbEntity
  8
0
  6
Continuous
 62
     7
370
    25
100
AcDbCircle
 10
55.5895141066
 20
102.5639027304
 30
0.0
 40
7.450000000000657
100
AcDbArc
 50
233.0863788866
 51
126.9136211134
  0
ARC
  5
241
330
1F
100
AcDbEntity
  8
0
  6
Continuous
 62
     7
370
    25
100
AcDbCircle
 10
55.5895141066
 20
102.5639027304
 30
0.0
 40
7.207531252870791
100
AcDbArc
 50
195.3041237151
 51
238.9797515565
  0
ARC
  5
242
330
1F
100
AcDbEntity
  8
0
  6
Continuous
 62
     7
370
    25
100
AcDbCircle
 10
55.5895141066
 20
102.5639027304
 30
0.0
 40
7.207531252872437
100
AcDbArc
 50
121.0202484435
 51
164.6958762849
  0
ARC
  5
243
330
1F
100
AcDbEntity
  8
0
  6
Continuous
 62
     7
370
    25
100
AcDbCircle
 10
33.414077245
 20
171.0639027304
 30
0.0
 40
64.99999999999997
100
AcDbArc
 50
270.0
 51
286.5000949923
  0
ARC
  5
244
330
1F
100
AcDbEntity
  8
0
  6
Continuous
 62
     7
370
    25
100
AcDbCircle
 10
33.414077245
 20
34.0639027304
 30
0.0
 40
65.0
100
AcDbArc
 50
73.4999050077
 51
90.0
  0
LINE
  5
245
330
1F
100
AcDbEntity
  8
0
  6
Continuous
 62
     7
370
    25
100
AcDbLine
 10
41.2895141066
 20
96.3732009658
 30
0.0
 11
41.2895141066
 21
94.0639027304
 31
0.0
  0
LINE
  5
246
330
1F
100
AcDbEntity
  8
0
  6
Continuous
 62
     7
370
    25
100
AcDbLine
 10
41.2895141066
 20
111.0639027304
 30
0.0
 11
41.2895141066
 21
106.5427628285
 31
0.0
  0
LINE
  5
247
330
1F
100
AcDbEntity
  8
0
  6
Continuous
 62
     7
370
    25
100
AcDbLine
 10
41.2895141066
 20
98.5850426323
 30
0.0
 11
41.2895141066
 21
96.3732009658
 31
0.0
  0
LINE
  5
248
330
1F
100
AcDbEntity
  8
0
  6
Continuous
 62
     7
370
    25
100
AcDbLine
 10
41.0895141066
 20
96.5188645367
 30
0.0
 11
41.0895141066
 21
98.6091401146
 31
0.0
  0
LINE
  5
249
330
1F
100
AcDbEntity
  8
0
  6
Continuous
 62
     7
370
    25
100
AcDbLine
 10
41.0895141066
 20
106.5186653462
 30
0.0
 11
41.0895141066
 21
110.8639027304
 31
0.0
  0
LINE
  5
24A
330
1F
100
AcDbEntity
  8
0
  6
Continuous
 62
     7
370
    25
100
AcDbLine
 10
41.0895141066
 20
94.2639027304
 30
0.0
 11
41.0895141066
 21
96.5188645367
 31
0.0
  0
LINE
  5
24B
330
1F
100
AcDbEntity
  8
0
  6
Continuous
 62
     7
370
    25
100
AcDbLine
 10
44.0895141066
 20
96.3732009658
 30
0.0
 11
44.0895141066
 21
94.0639027304
 31
0.0
  0
LINE
  5
24C
330
1F
100
AcDbEntity
  8
0
  6
Continuous
 62
     7
370
    25
100
AcDbLine
 10
44.0895141066
 20
111.0639027304
 30
0.0
 11
44.0895141066
 21
106.9465490123
 31
0.0
  0
LINE
  5
24D
330
1F
100
AcDbEntity
  8
0
  6
Continuous
 62
     7
370
    25
100
AcDbLine
 10
44.0895141066
 20
98.1812564486
 30
0.0
 11
44.0895141066
 21
96.3732009658
 31
0.0
  0
SPLINE
  5
24E
330
1F
100
AcDbEntity
  8
0
  6
Continuous
 62
     7
370
    25
100
AcDbSpline
210
0.0
220
0.0
230
1.0
 70
    24
 71
     3
 72
    10
 73
     6
 74
     0
 42
0.00000001
 43
0.00000001
 40
0.0
 40
0.0
 40
0.0
 40
0.0
 40
0.3696205915157963
 40
0.742286756096892
 40
1.0
 40
1.0
 40
1.0
 40
1.0
 10
66.76745513402548
 20
94.06390273042705
 30
0.0
 10
66.90865789281472
 20
94.06390273042706
 30
0.0
 10
67.19222688269097
 20
94.06390273042705
 30
0.0
 10
67.41136539228611
 20
94.06390273042706
 30
0.0
 10
67.43375635997303
 20
94.06390273042705
 30
0.0
 10
67.44291028987473
 20
94.06390273042705
 30
0.0
  0
SPLINE
  5
24F
330
1F
100
AcDbEntity
  8
0
  6
Continuous
 62
     7
370
    25
100
AcDbSpline
210
0.0
220
0.0
230
1.0
 70
     8
 71
     3
 72
    10
 73
     6
 74
     0
 42
0.00000001
 43
0.00000001
 40
0.0
 40
0.0
 40
0.0
 40
0.0
 40
0.5
 40
0.5
 40
1.0
 40
1.0
 40
1.0
 40
1.0
 10
66.76745513402548
 20
94.31390273042705
 30
0.0
 10
66.7437797396011
 20
94.23952235304972
 30
0.0
 10
66.73068862971645
 20
94.17522171426394
 30
0.0
 10
66.73060230842817
 20
94.087006029481
 30
0.0
 10
66.74377124237202
 20
94.06390273042705
 30
0.0
 10
66.76745513402548
 20
94.06390273042705
 30
0.0
  0
SPLINE
  5
250
330
1F
100
AcDbEntity
  8
0
  6
Continuous
 62
     7
370
    25
100
AcDbSpline
210
0.0
220
0.0
230
1.0
 70
     8
 71
     3
 72
    16
 73
    12
 74
     0
 42
0.00000001
 43
0.00000001
 40
0.0
 40
0.0
 40
0.0
 40
0.0
 40
0.2500000000000001
 40
0.2500000000000001
 40
0.5000000000000001
 40
0.5000000000000001
 40
0.6250000000000001
 40
0.6250000000000001
 40
0.7500000000000002
 40
0.7500000000000002
 40
1.0
 40
1.0
 40
1.0
 40
1.0
 10
66.76745513402548
 20
102.313902730427
 30
0.0
 10
66.97547058213124
 20
101.6603859503862
 30
0.0
 10
67.14567688710422
 20
101.0021655412963
 30
0.0
 10
67.38061291867182
 20
99.67260295793047
 30
0.0
 10
67.44468505033547
 20
99.00117897585993
 30
0.0
 10
67.44541799925648
 20
97.98217788885322
 30
0.0
 10
67.42975851917345
 20
97.64083710653703
 30
0.0
 10
67.3684833925365
 20
96.96523860356658
 30
0.0
 10
67.32292712003739
 20
96.62957945360195
 30
0.0
 10
67.14644108728112
 20
95.62831381710225
 30
0.0
 10
66.97578463379541
 20
94.96840615849909
 30
0.0
 10
66.76745513402548
 20
94.31390273042706
 30
0.0
  0
SPLINE
  5
251
330
1F
100
AcDbEntity
  8
0
  6
Continuous
 62
     7
370
    25
100
AcDbSpline
210
0.0
220
0.0
230
1.0
 70
     8
 71
     3
 72
    10
 73
     6
 74
     0
 42
0.00000001
 43
0.00000001
 40
0.0
 40
0.0
 40
0.0
 40
0.0
 40
0.5
 40
0.5
 40
1.0
 40
1.0
 40
1.0
 40
1.0
 10
66.76745513402548
 20
102.813902730427
 30
0.0
 10
66.7437797396011
 20
102.7395223530497
 30
0.0
 10
66.73068862971645
 20
102.6524292649341
 30
0.0
 10
66.73060230842817
 20
102.4762708760582
 30
0.0
 10
66.74377124237202
 20
102.3883098033303
 30
0.0
 10
66.76745513402548
 20
102.313902730427
 30
0.0
  0
SPLINE
  5
252
330
1F
100
AcDbEntity
  8
0
  6
Continuous
 62
     7
370
    25
100
AcDbSpline
210
0.0
220
0.0
230
1.0
 70
     8
 71
     3
 72
    16
 73
    12
 74
     0
 42
0.00000001
 43
0.00000001
 40
0.0
 40
0.0
 40
0.0
 40
0.0
 40
0.2499999999999997
 40
0.2499999999999997
 40
0.4999999999999993
 40
0.4999999999999993
 40
0.6249999999999993
 40
0.6249999999999993
 40
0.7499999999999996
 40
0.7499999999999996
 40
1.0
 40
1.0
 40
1.0
 40
1.0
 10
66.76745513402548
 20
110.813902730427
 30
0.0
 10
66.97547058213122
 20
110.1603859503862
 30
0.0
 10
67.14567688710422
 20
109.5021655412963
 30
0.0
 10
67.38061291867182
 20
108.1726029579305
 30
0.0
 10
67.44468505033547
 20
107.5011789758599
 30
0.0
 10
67.44541799925648
 20
106.4821778888532
 30
0.0
 10
67.42975851917345
 20
106.140837106537
 30
0.0
 10
67.3684833925365
 20
105.4652386035666
 30
0.0
 10
67.32292712003739
 20
105.1295794536019
 30
0.0
 10
67.14644108728112
 20
104.1283138171023
 30
0.0
 10
66.97578463379541
 20
103.4684061584991
 30
0.0
 10
66.76745513402548
 20
102.813902730427
 30
0.0
  0
SPLINE
  5
253
330
1F
100
AcDbEntity
  8
0
  6
Continuous
 62
     7
370
    25
100
AcDbSpline
210
0.0
220
0.0
230
1.0
 70
     8
 71
     3
 72
    10
 73
     6
 74
     0
 42
0.00000001
 43
0.00000001
 40
0.0
 40
0.0
 40
0.0
 40
0.0
 40
0.5
 40
0.5
 40
1.0
 40
1.0
 40
1.0
 40
1.0
 10
66.76745513402548
 20
111.063902730427
 30
0.0
 10
66.7437797396011
 20
111.063902730427
 30
0.0
 10
66.73068862971645
 20
111.0411102810973
 30
0.0
 10
66.73060230842817
 20
110.9531675770042
 30
0.0
 10
66.74377124237202
 20
110.8883098033303
 30
0.0
 10
66.76745513402548
 20
110.8139027304271
 30
0.0
  0
SPLINE
  5
254
330
1F
100
AcDbEntity
  8
0
  6
Continuous
 62
     7
370
    25
100
AcDbSpline
210
0.0
220
0.0
230
1.0
 70
    24
 71
     3
 72
    10
 73
     6
 74
     0
 42
0.00000001
 43
0.00000001
 40
0.0
 40
0.0
 40
0.0
 40
0.0
 40
0.2577094621933239
 40
0.6270769858099916
 40
1.0
 40
1.0
 40
1.0
 40
1.0
 10
67.4415685442294
 20
111.063902730427
 30
0.0
 10
67.43296503987666
 20
111.063902730427
 30
0.0
 10
67.41203038140122
 20
111.063902730427
 30
0.0
 10
67.19306120059349
 20
111.063902730427
 30
0.0
 10
66.90977612440255
 20
111.063902730427
 30
0.0
 10
66.76745513402548
 20
111.063902730427
 30
0.0
  0
LINE
  5
255
330
1F
100
AcDbEntity
  8
0
  6
Continuous
 62
     7
370
    25
100
AcDbLine
 10
67.5895141066
 20
110.8139027304
 30
0.0
 11
67.5895141066
 21
94.3139027304
 31
0.0
  0
SPLINE
  5
256
330
1F
100
AcDbEntity
  8
0
  6
Continuous
 62
     7
370
    25
100
AcDbSpline
210
0.0
220
0.0
230
1.0
 70
     8
 71
     3
 72
    10
 73
     6
 74
     0
 42
0.00000001
 43
0.00000001
 40
0.0
 40
0.0
 40
0.0
 40
0.0
 40
0.045757365713458
 40
0.5189421521736014
 40
1.0
 40
1.0
 40
1.0
 40
1.0
 10
61.59118816728031
 20
106.9362812118066
 30
0.0
 10
61.59183023155266
 20
106.9962263536445
 30
0.0
 10
61.59911199286331
 20
107.6760745143207
 30
0.0
 10
61.74547202516256
 20
108.9870709184799
 30
0.0
 10
62.09236033894044
 20
110.2016185496941
 30
0.0
 10
62.26723551184327
 20
110.813902730427
 30
0.0
  0
LINE
  5
257
330
1F
100
AcDbEntity
  8
0
  6
Continuous
 62
     7
370
    25
100
AcDbLine
 10
66.767455134
 20
110.8139027304
 30
0.0
 11
62.2672355118
 21
110.8139027304
 31
0.0
  0
SPLINE
  5
258
330
1F
100
AcDbEntity
  8
0
  6
Continuous
 62
     7
370
    25
100
AcDbSpline
210
0.0
220
0.0
230
1.0
 70
     8
 71
     3
 72
    10
 73
     6
 74
     0
 42
0.00000001
 43
0.00000001
 40
0.0
 40
0.0
 40
0.0
 40
0.0
 40
0.0840695266924885
 40
0.5387221316637326
 40
1.0
 40
1.0
 40
1.0
 40
1.0
 10
44.09337720999615
 20
106.9854637791743
 30
0.0
 10
44.09520340799893
 20
107.0942274278198
 30
0.0
 10
44.10690578482448
 20
107.7911908454938
 30
0.0
 10
44.27102896126349
 20
109.0835218994566
 30
0.0
 10
44.60103763677613
 20
110.2343343695737
 30
0.0
 10
44.76723551184327
 20
110.813902730427
 30
0.0
  0
LINE
  5
259
330
1F
100
AcDbEntity
  8
0
  6
Continuous
 62
     7
370
    25
100
AcDbLine
 10
48.9117927013
 20
110.8139027304
 30
0.0
 11
44.7672355118
 21
110.8139027304
 31
0.0
  0
SPLINE
  5
25A
330
1F
100
AcDbEntity
  8
0
  6
Continuous
 62
     7
370
    25
100
AcDbSpline
210
0.0
220
0.0
230
1.0
 70
     8
 71
     3
 72
     9
 73
     5
 74
     0
 42
0.00000001
 43
0.00000001
 40
0.0
 40
0.0
 40
0.0
 40
0.0
 40
0.7349475574826724
 40
1.0
 40
1.0
 40
1.0
 40
1.0
 10
48.91179270132288
 20
110.8139027304271
 30
0.0
 10
49.10366234906966
 20
110.1634906806524
 30
0.0
 10
49.36472811599862
 20
109.2785131837511
 30
0.0
 10
49.47344176850833
 20
108.3715208673805
 30
0.0
 10
49.50225658764101
 20
108.1311203385821
 30
0.0
  0
SPLINE
  5
25B
330
1F
100
AcDbEntity
  8
0
  6
Continuous
 62
     7
370
    25
100
AcDbSpline
210
0.0
220
0.0
230
1.0
 70
     8
 71
     3
 72
     9
 73
     5
 74
     0
 42
0.00000001
 43
0.00000001
 40
0.0
 40
0.0
 40
0.0
 40
0.0
 40
0.3108182931041076
 40
1.0
 40
1.0
 40
1.0
 40
1.0
 10
49.47619923337268
 20
97.0090093204469
 30
0.0
 10
49.45162142471636
 20
96.72516407591323
 30
0.0
 10
49.37254690046341
 20
95.81194483872173
 30
0.0
 10
49.09977920634291
 20
94.92509998231635
 30
0.0
 10
48.91179270132289
 20
94.31390273042705
 30
0.0
  0
LINE
  5
25C
330
1F
100
AcDbEntity
  8
0
  6
Continuous
 62
     7
370
    25
100
AcDbLine
 10
44.7672355118
 20
94.3139027304
 30
0.0
 11
48.9117927013
 21
94.3139027304
 31
0.0
  0
SPLINE
  5
25D
330
1F
100
AcDbEntity
  8
0
  6
Continuous
 62
     7
370
    25
100
AcDbSpline
210
0.0
220
0.0
230
1.0
 70
     8
 71
     3
 72
    10
 73
     6
 74
     0
 42
0.00000001
 43
0.00000001
 40
0.0
 40
0.0
 40
0.0
 40
0.0
 40
0.5170378213699007
 40
0.7801476410406945
 40
1.0
 40
1.0
 40
1.0
 40
1.0
 10
44.76723551184327
 20
94.31390273042705
 30
0.0
 10
44.58243163702972
 20
94.9649097406748
 30
0.0
 10
44.30358490467854
 20
95.9472007111885
 30
0.0
 10
44.12445225068933
 20
97.23580337392046
 30
0.0
 10
44.10578632677156
 20
97.86134039974546
 30
0.0
 10
44.09728928997021
 20
98.14609518351364
 30
0.0
  0
LINE
  5
25E
330
1F
100
AcDbEntity
  8
0
  6
Continuous
 62
     7
370
    25
100
AcDbLine
 10
62.2672355118
 20
94.3139027304
 30
0.0
 11
66.767455134
 21
94.3139027304
 31
0.0
  0
SPLINE
  5
25F
330
1F
100
AcDbEntity
  8
0
  6
Continuous
 62
     7
370
    25
100
AcDbSpline
210
0.0
220
0.0
230
1.0
 70
     8
 71
     3
 72
    10
 73
     6
 74
     0
 42
0.00000001
 43
0.00000001
 40
0.0
 40
0.0
 40
0.0
 40
0.0
 40
0.507228399620276
 40
0.7653464080909139
 40
1.0
 40
1.0
 40
1.0
 40
1.0
 10
62.26723551184328
 20
94.313902730427
 30
0.0
 10
62.08225557768775
 20
94.96490146120732
 30
0.0
 10
61.80314319304838
 20
95.94717993900439
 30
0.0
 10
61.62177034464109
 20
97.26076078844359
 30
0.0
 10
61.6028296227962
 20
97.91136842683687
 30
0.0
 10
61.59381021418818
 20
98.22118218062225
 30
0.0
  0
LINE
  5
260
330
1F
100
AcDbEntity
  8
0
  6
Continuous
 62
     7
370
    25
100
AcDbLine
 10
61.5895141066
 20
98.1477392371
 30
0.0
 11
61.5895141066
 21
95.0639027304
 31
0.0
  0
LINE
  5
261
330
1F
100
AcDbEntity
  8
0
  6
Continuous
 62
     7
370
    25
100
AcDbLine
 10
61.5895141066
 20
95.0639027304
 30
0.0
 11
49.5895141066
 21
95.0639027304
 31
0.0
  0
LINE
  5
262
330
1F
100
AcDbEntity
  8
0
  6
Continuous
 62
     7
370
    25
100
AcDbLine
 10
49.5895141066
 20
97.0190871265
 30
0.0
 11
49.5895141066
 21
95.0639027304
 31
0.0
  0
LINE
  5
263
330
1F
100
AcDbEntity
  8
0
  6
Continuous
 62
     7
370
    25
100
AcDbLine
 10
49.5895141066
 20
110.0639027304
 30
0.0
 11
49.5895141066
 21
108.1087183344
 31
0.0
  0
LINE
  5
264
330
1F
100
AcDbEntity
  8
0
  6
Continuous
 62
     7
370
    25
100
AcDbLine
 10
49.5895141066
 20
110.0639027304
 30
0.0
 11
61.5895141066
 21
110.0639027304
 31
0.0
  0
LINE
  5
265
330
1F
100
AcDbEntity
  8
0
  6
Continuous
 62
     7
370
    25
100
AcDbLine
 10
61.5895141066
 20
110.0639027304
 30
0.0
 11
61.5895141066
 21
106.9800662238
 31
0.0
  0
SPLINE
  5
266
330
1F
100
AcDbEntity
  8
0
  6
Continuous
 62
     7
370
    25
100
AcDbSpline
210
0.0
220
0.0
230
1.0
 70
     8
 71
     3
 72
     8
 73
     4
 74
     0
 42
0.00000001
 43
0.00000001
 40
0.0
 40
0.0
 40
0.0
 40
0.0
 40
1.0
 40
1.0
 40
1.0
 40
1.0
 10
49.0732780296039
 20
111.0639027304271
 30
0.0
 10
49.24698110582367
 20
110.7313913082916
 30
0.0
 10
49.41928332488638
 20
110.3980642083927
 30
0.0
 10
49.58951410658307
 20
110.063902730427
 30
0.0
  0
SPLINE
  5
267
330
1F
100
AcDbEntity
  8
0
  6
Continuous
 62
     7
370
    25
100
AcDbSpline
210
0.0
220
0.0
230
1.0
 70
     8
 71
     3
 72
    10
 73
     6
 74
     0
 42
0.00000001
 43
0.00000001
 40
0.0
 40
0.0
 40
0.0
 40
0.0
 40
0.5
 40
0.5
 40
1.0
 40
1.0
 40
1.0
 40
1.0
 10
48.91179270132853
 20
111.063902730427
 30
0.0
 10
48.88811730690423
 20
111.063902730427
 30
0.0
 10
48.87502619701392
 20
111.0411102810976
 30
0.0
 10
48.87493987572552
 20
110.9531675770045
 30
0.0
 10
48.88810880966935
 20
110.8883098033305
 30
0.0
 10
48.91179270132287
 20
110.8139027304271
 30
0.0
  0
SPLINE
  5
268
330
1F
100
AcDbEntity
  8
0
  6
Continuous
 62
     7
370
    25
100
AcDbSpline
210
0.0
220
0.0
230
1.0
 70
    24
 71
     3
 72
     8
 73
     4
 74
     0
 42
0.00000001
 43
0.00000001
 40
0.0
 40
0.0
 40
0.0
 40
0.0
 40
1.0
 40
1.0
 40
1.0
 40
1.0
 10
49.07327802960389
 20
111.063902730427
 30
0.0
 10
49.02237931268149
 20
111.063902730427
 30
0.0
 10
48.96844517643087
 20
111.063902730427
 30
0.0
 10
48.91179270132327
 20
111.063902730427
 30
0.0
  0
SPLINE
  5
269
330
1F
100
AcDbEntity
  8
0
  6
Continuous
 62
     7
370
    25
100
AcDbSpline
210
0.0
220
0.0
230
1.0
 70
     8
 71
     3
 72
     8
 73
     4
 74
     0
 42
0.00000001
 43
0.00000001
 40
0.0
 40
0.0
 40
0.0
 40
0.0
 40
1.0
 40
1.0
 40
1.0
 40
1.0
 10
61.58951410658308
 20
110.063902730427
 30
0.0
 10
61.7597917139268
 20
110.3981561267124
 30
0.0
 10
61.93206346255248
 20
110.7314226162813
 30
0.0
 10
62.10575018356214
 20
111.0639027304268
 30
0.0
  0
SPLINE
  5
26A
330
1F
100
AcDbEntity
  8
0
  6
Continuous
 62
     7
370
    25
100
AcDbSpline
210
0.0
220
0.0
230
1.0
 70
    24
 71
     3
 72
     8
 73
     4
 74
     0
 42
0.00000001
 43
0.00000001
 40
0.0
 40
0.0
 40
0.0
 40
0.0
 40
1.0
 40
1.0
 40
1.0
 40
1.0
 10
62.10575018356172
 20
111.063902730427
 30
0.0
 10
62.15664641681696
 20
111.063902730427
 30
0.0
 10
62.2105803717808
 20
111.063902730427
 30
0.0
 10
62.26723551184327
 20
111.063902730427
 30
0.0
  0
SPLINE
  5
26B
330
1F
100
AcDbEntity
  8
0
  6
Continuous
 62
     7
370
    25
100
AcDbSpline
210
0.0
220
0.0
230
1.0
 70
     8
 71
     3
 72
    10
 73
     6
 74
     0
 42
0.00000001
 43
0.00000001
 40
0.0
 40
0.0
 40
0.0
 40
0.0
 40
0.5
 40
0.5
 40
1.0
 40
1.0
 40
1.0
 40
1.0
 10
62.26723551184327
 20
110.813902730427
 30
0.0
 10
62.29091090626765
 20
110.8882831078044
 30
0.0
 10
62.3040020161523
 20
110.9525837465902
 30
0.0
 10
62.30408833744058
 20
111.0407994313731
 30
0.0
 10
62.29091940349674
 20
111.063902730427
 30
0.0
 10
62.26723551184327
 20
111.063902730427
 30
0.0
  0
SPLINE
  5
26C
330
1F
100
AcDbEntity
  8
0
  6
Continuous
 62
     7
370
    25
100
AcDbSpline
210
0.0
220
0.0
230
1.0
 70
     8
 71
     3
 72
    10
 73
     6
 74
     0
 42
0.00000001
 43
0.00000001
 40
0.0
 40
0.0
 40
0.0
 40
0.0
 40
0.5
 40
0.5
 40
1.0
 40
1.0
 40
1.0
 40
1.0
 10
44.76723551184327
 20
111.063902730427
 30
0.0
 10
44.79090941239922
 20
111.063902730427
 30
0.0
 10
44.80400196957837
 20
111.0411121587796
 30
0.0
 10
44.80408838356065
 20
110.9531661614808
 30
0.0
 10
44.79091799196203
 20
110.888305368748
 30
0.0
 10
44.76723551184327
 20
110.813902730427
 30
0.0
  0
SPLINE
  5
26D
330
1F
100
AcDbEntity
  8
0
  6
Continuous
 62
     7
370
    25
100
AcDbSpline
210
0.0
220
0.0
230
1.0
 70
    24
 71
     3
 72
    12
 73
     8
 74
     0
 42
0.00000001
 43
0.00000001
 40
0.0
 40
0.0
 40
0.0
 40
0.0
 40
0.2499999999999999
 40
0.2499999999999999
 40
0.4999999999999998
 40
0.4999999999999998
 40
1.0
 40
1.0
 40
1.0
 40
1.0
 10
44.08951410658308
 20
111.063902730427
 30
0.0
 10
44.08951410658308
 20
111.063902730427
 30
0.0
 10
44.10551291156415
 20
111.063902730427
 30
0.0
 10
44.16728304987855
 20
111.063902730427
 30
0.0
 10
44.21302517418014
 20
111.063902730427
 30
0.0
 10
44.38969532152698
 20
111.063902730427
 30
0.0
 10
44.55995038700728
 20
111.063902730427
 30
0.0
 10
44.76723551184327
 20
111.063902730427
 30
0.0
  0
SPLINE
  5
26E
330
1F
100
AcDbEntity
  8
0
  6
Continuous
 62
     7
370
    25
100
AcDbSpline
210
0.0
220
0.0
230
1.0
 70
     8
 71
     3
 72
     8
 73
     4
 74
     0
 42
0.00000001
 43
0.00000001
 40
0.0
 40
0.0
 40
0.0
 40
0.0
 40
1.0
 40
1.0
 40
1.0
 40
1.0
 10
49.58951410658307
 20
95.06390273042705
 30
0.0
 10
49.41923649923933
 20
94.72964933414164
 30
0.0
 10
49.24696475061361
 20
94.39638284457263
 30
0.0
 10
49.07327802960391
 20
94.06390273042705
 30
0.0
  0
SPLINE
  5
26F
330
1F
100
AcDbEntity
  8
0
  6
Continuous
 62
     7
370
    25
100
AcDbSpline
210
0.0
220
0.0
230
1.0
 70
    24
 71
     3
 72
     8
 73
     4
 74
     0
 42
0.00000001
 43
0.00000001
 40
0.0
 40
0.0
 40
0.0
 40
0.0
 40
1.0
 40
1.0
 40
1.0
 40
1.0
 10
49.07327802960391
 20
94.06390273042705
 30
0.0
 10
49.02237931268139
 20
94.06390273042705
 30
0.0
 10
48.96844517643063
 20
94.06390273042705
 30
0.0
 10
48.91179270132288
 20
94.06390273042705
 30
0.0
  0
SPLINE
  5
270
330
1F
100
AcDbEntity
  8
0
  6
Continuous
 62
     7
370
    25
100
AcDbSpline
210
0.0
220
0.0
230
1.0
 70
     8
 71
     3
 72
    10
 73
     6
 74
     0
 42
0.00000001
 43
0.00000001
 40
0.0
 40
0.0
 40
0.0
 40
0.0
 40
0.5
 40
0.5
 40
1.0
 40
1.0
 40
1.0
 40
1.0
 10
48.91179270132289
 20
94.31390273042705
 30
0.0
 10
48.8881173068985
 20
94.23952235304972
 30
0.0
 10
48.87502619701386
 20
94.17522171426394
 30
0.0
 10
48.87493987572558
 20
94.087006029481
 30
0.0
 10
48.88810880966942
 20
94.06390273042705
 30
0.0
 10
48.91179270132288
 20
94.06390273042705
 30
0.0
  0
SPLINE
  5
271
330
1F
100
AcDbEntity
  8
0
  6
Continuous
 62
     7
370
    25
100
AcDbSpline
210
0.0
220
0.0
230
1.0
 70
     8
 71
     3
 72
     8
 73
     4
 74
     0
 42
0.00000001
 43
0.00000001
 40
0.0
 40
0.0
 40
0.0
 40
0.0
 40
1.0
 40
1.0
 40
1.0
 40
1.0
 10
62.10575018356226
 20
94.06390273042705
 30
0.0
 10
61.93204710734248
 20
94.39641415256254
 30
0.0
 10
61.75974488827978
 20
94.72974125246142
 30
0.0
 10
61.58951410658308
 20
95.06390273042705
 30
0.0
  0
SPLINE
  5
272
330
1F
100
AcDbEntity
  8
0
  6
Continuous
 62
     7
370
    25
100
AcDbSpline
210
0.0
220
0.0
230
1.0
 70
     8
 71
     3
 72
    10
 73
     6
 74
     0
 42
0.00000001
 43
0.00000001
 40
0.0
 40
0.0
 40
0.0
 40
0.0
 40
0.5
 40
0.5
 40
1.0
 40
1.0
 40
1.0
 40
1.0
 10
62.2672355118433
 20
94.06390273042705
 30
0.0
 10
62.29091090626768
 20
94.06390273042705
 30
0.0
 10
62.3040020161523
 20
94.08669517975684
 30
0.0
 10
62.30408833744058
 20
94.17463788384988
 30
0.0
 10
62.29091940349675
 20
94.23949565752373
 30
0.0
 10
62.26723551184329
 20
94.31390273042699
 30
0.0
  0
SPLINE
  5
273
330
1F
100
AcDbEntity
  8
0
  6
Continuous
 62
     7
370
    25
100
AcDbSpline
210
0.0
220
0.0
230
1.0
 70
    24
 71
     3
 72
     8
 73
     4
 74
     0
 42
0.00000001
 43
0.00000001
 40
0.0
 40
0.0
 40
0.0
 40
0.0
 40
1.0
 40
1.0
 40
1.0
 40
1.0
 10
62.10575018356226
 20
94.06390273042705
 30
0.0
 10
62.15664641681734
 20
94.06390273042705
 30
0.0
 10
62.210580371781
 20
94.06390273042705
 30
0.0
 10
62.26723551184327
 20
94.06390273042705
 30
0.0
  0
SPLINE
  5
274
330
1F
100
AcDbEntity
  8
0
  6
Continuous
 62
     7
370
    25
100
AcDbSpline
210
0.0
220
0.0
230
1.0
 70
     8
 71
     3
 72
    10
 73
     6
 74
     0
 42
0.00000001
 43
0.00000001
 40
0.0
 40
0.0
 40
0.0
 40
0.0
 40
0.5
 40
0.5
 40
1.0
 40
1.0
 40
1.0
 40
1.0
 10
44.76723551184327
 20
94.31390273042705
 30
0.0
 10
44.79090775175483
 20
94.23953226350149
 30
0.0
 10
44.80400174169009
 20
94.17522666721364
 30
0.0
 10
44.80408860915154
 20
94.08700387940779
 30
0.0
 10
44.79091881939218
 20
94.06390273042705
 30
0.0
 10
44.76723551184327
 20
94.06390273042705
 30
0.0
  0
SPLINE
  5
275
330
1F
100
AcDbEntity
  8
0
  6
Continuous
 62
     7
370
    25
100
AcDbSpline
210
0.0
220
0.0
230
1.0
 70
    24
 71
     3
 72
    12
 73
     8
 74
     0
 42
0.00000001
 43
0.00000001
 40
0.0
 40
0.0
 40
0.0
 40
0.0
 40
0.2500000000000001
 40
0.2500000000000001
 40
0.5000000000000001
 40
0.5000000000000001
 40
1.0
 40
1.0
 40
1.0
 40
1.0
 10
44.08951410658308
 20
94.06390273042705
 30
0.0
 10
44.08951410658308
 20
94.06390273042705
 30
0.0
 10
44.10551291156415
 20
94.06390273042705
 30
0.0
 10
44.16728304987854
 20
94.06390273042705
 30
0.0
 10
44.21302517418013
 20
94.06390273042705
 30
0.0
 10
44.38969532152699
 20
94.06390273042705
 30
0.0
 10
44.55995038700728
 20
94.06390273042705
 30
0.0
 10
44.76723551184327
 20
94.06390273042705
 30
0.0
  0
LINE
  5
276
330
1F
100
AcDbEntity
  8
0
  6
Continuous
 62
     7
370
    25
100
AcDbLine
 10
44.0895141066
 20
94.0639027304
 30
0.0
 11
44.0895141066
 21
98.1812564486
 31
0.0
  0
LINE
  5
277
330
1F
100
AcDbEntity
  8
0
  6
Continuous
 62
     7
370
    25
100
AcDbLine
 10
62.2672355118
 20
111.0639027304
 30
0.0
 11
66.767455134
 21
111.0639027304
 31
0.0
  0
LINE
  5
278
330
1F
100
AcDbEntity
  8
0
  6
Continuous
 62
     7
370
    25
100
AcDbLine
 10
44.7672355118
 20
111.0639027304
 30
0.0
 11
48.9117927013
 21
111.0639027304
 31
0.0
  0
LINE
  5
279
330
1F
100
AcDbEntity
  8
0
  6
Continuous
 62
     7
370
    25
100
AcDbLine
 10
66.767455134
 20
94.0639027304
 30
0.0
 11
62.2672355118
 21
94.0639027304
 31
0.0
  0
LINE
  5
27A
330
1F
100
AcDbEntity
  8
0
  6
Continuous
 62
     7
370
    25
100
AcDbLine
 10
48.9117927013
 20
94.0639027304
 30
0.0
 11
44.7672355118
 21
94.0639027304
 31
0.0
  0
LINE
  5
27B
330
1F
100
AcDbEntity
  8
0
  6
Continuous
 62
     7
370
    25
100
AcDbLine
 10
62.1057501836
 20
111.0639027304
 30
0.0
 11
49.0732780296
 21
111.0639027304
 31
0.0
  0
LINE
  5
27C
330
1F
100
AcDbEntity
  8
0
  6
Continuous
 62
     7
370
    25
100
AcDbLine
 10
62.1057501836
 20
94.0639027304
 30
0.0
 11
49.0732780296
 21
94.0639027304
 31
0.0
  0
LINE
  5
27D
330
1F
100
AcDbEntity
  8
0
  6
Continuous
 62
     7
370
    25
100
AcDbLine
 10
66.767455134
 20
102.3139027304
 30
0.0
 11
63.0353182942
 21
102.3139027304
 31
0.0
  0
LINE
  5
27E
330
1F
100
AcDbEntity
  8
0
  6
Continuous
 62
     7
370
    25
100
AcDbLine
 10
63.0353182942
 20
102.8139027304
 30
0.0
 11
66.767455134
 21
102.8139027304
 31
0.0
  0
INSERT
  5
28A
330
1F
100
AcDbEntity
  8
0
  6
Continuous
 62
     7
370
    18
100
AcDbBlockReference
  2
SW_CENTERMARKSYMBOL_1
 10
55.5895141066
 20
102.5639027304
 30
0.0
  0
INSERT
  5
296
330
1F
100
AcDbEntity
  8
0
  6
Continuous
 62
     7
370
    18
100
AcDbBlockReference
  2
SW_CENTERMARKSYMBOL_2
 10
55.5895141066
 20
102.5639027304
 30
0.0
  0
ENDSEC
  0
SECTION
  2
OBJECTS
  0
DICTIONARY
  5
C
330
0
100
AcDbDictionary
281
     1
  3
ACAD_GROUP
350
D
  3
ACAD_LAYOUT
350
1A
  3
ACAD_MLINESTYLE
350
17
  3
ACAD_PLOTSETTINGS
350
19
  3
ACAD_PLOTSTYLENAME
350
E
  3
ACAD_SCALELIST
350
47
  3
DWGPROPS
350
297
  0
DICTIONARY
  5
D
102
{ACAD_REACTORS
330
C
102
}
330
C
100
AcDbDictionary
281
     1
  0
DICTIONARY
  5
1A
102
{ACAD_REACTORS
330
C
102
}
330
C
100
AcDbDictionary
281
     1
  3
Layout1
350
1E
  3
Layout2
350
26
  3
Model
350
22
  0
DICTIONARY
  5
17
102
{ACAD_REACTORS
330
C
102
}
330
C
100
AcDbDictionary
281
     1
  3
Standard
350
18
  0
DICTIONARY
  5
19
102
{ACAD_REACTORS
330
C
102
}
330
C
100
AcDbDictionary
281
     1
  0
ACDBDICTIONARYWDFLT
  5
E
102
{ACAD_REACTORS
330
C
102
}
330
C
100
AcDbDictionary
281
     1
  3
Normal
350
F
100
AcDbDictionaryWithDefault
340
F
  0
DICTIONARY
  5
47
102
{ACAD_REACTORS
330
C
102
}
330
C
100
AcDbDictionary
281
     1
  3
A0
350
48
  3
A1
350
49
  3
A2
350
4A
  3
A3
350
4B
  3
A4
350
4C
  3
A5
350
4D
  3
A6
350
4E
  3
A7
350
4F
  3
A8
350
50
  3
A9
350
51
  3
B0
350
52
  3
B1
350
53
  3
B2
350
54
  3
B3
350
55
  3
B4
350
56
  3
B5
350
57
  3
B6
350
58
  0
XRECORD
  5
297
102
{ACAD_REACTORS
330
C
102
}
330
C
100
AcDbXrecord
280
     1
  1
DWGPROPS COOKIE
  2

  3

  4

  6

  7

  8
user52
  9

300
=
301
=
302
=
303
=
304
=
305
=
306
=
307
=
308
=
309
=
 40
0.0
 41
2460339.190096783
 42
2460339.190097291
  1

 90
        0
  0
LAYOUT
  5
1E
102
{ACAD_REACTORS
330
1A
102
}
330
1A
100
AcDbPlotSettings
  1

  2
none_device
  4

  6

 40
0.0
 41
0.0
 42
0.0
 43
0.0
 44
0.0
 45
0.0
 46
0.0
 47
0.0
 48
0.0
 49
0.0
140
0.0
141
0.0
142
1.0
143
1.0
 70
   688
 72
     1
 73
     0
 74
     5
  7

 75
    16
147
1.0
148
0.0
149
0.0
100
AcDbLayout
  1
Layout1
 70
     1
 71
     1
 10
0.0
 20
0.0
 11
420.0
 21
297.0
 12
0.0
 22
0.0
 32
0.0
 14
1.0000000000E+20
 24
1.0000000000E+20
 34
1.0000000000E+20
 15
-1.0000000000E+20
 25
-1.0000000000E+20
 35
-1.0000000000E+20
146
0.0
 13
0.0
 23
0.0
 33
0.0
 16
1.0
 26
0.0
 36
0.0
 17
0.0
 27
1.0
 37
0.0
 76
     0
330
1B
  0
LAYOUT
  5
26
102
{ACAD_REACTORS
330
1A
102
}
330
1A
100
AcDbPlotSettings
  1

  2
none_device
  4

  6

 40
0.0
 41
0.0
 42
0.0
 43
0.0
 44
0.0
 45
0.0
 46
0.0
 47
0.0
 48
0.0
 49
0.0
140
0.0
141
0.0
142
1.0
143
1.0
 70
   688
 72
     1
 73
     0
 74
     5
  7

 75
    16
147
1.0
148
0.0
149
0.0
100
AcDbLayout
  1
Layout2
 70
     1
 71
     2
 10
0.0
 20
0.0
 11
0.0
 21
0.0
 12
0.0
 22
0.0
 32
0.0
 14
0.0
 24
0.0
 34
0.0
 15
0.0
 25
0.0
 35
0.0
146
0.0
 13
0.0
 23
0.0
 33
0.0
 16
1.0
 26
0.0
 36
0.0
 17
0.0
 27
1.0
 37
0.0
 76
     0
330
23
  0
LAYOUT
  5
22
102
{ACAD_REACTORS
330
1A
102
}
330
1A
100
AcDbPlotSettings
  1

  2
none_device
  4
Letter_(8.50_x_11.00_Inches)
  6

 40
6.35
 41
6.35
 42
6.35000508
 43
6.35000508
 44
215.9
 45
279.4
 46
0.0
 47
0.0
 48
0.0
 49
0.0
140
0.0
141
0.0
142
1.0
143
1.0
 70
  1712
 72
     1
 73
     0
 74
     0
  7

 75
     0
147
1.0
148
0.0
149
0.0
100
AcDbLayout
  1
Model
 70
     1
 71
     0
 10
0.0
 20
0.0
 11
431.8
 21
279.4
 12
0.0
 22
0.0
 32
0.0
 14
0.0
 24
0.0
 34
0.0
 15
431.8
 25
279.4
 35
0.0
146
0.0
 13
0.0
 23
0.0
 33
0.0
 16
1.0
 26
0.0
 36
0.0
 17
0.0
 27
1.0
 37
0.0
 76
     0
330
1F
331
29
  0
MLINESTYLE
  5
18
102
{ACAD_REACTORS
330
17
102
}
330
17
100
AcDbMlineStyle
  2
Standard
 70
     0
  3

 62
   256
 51
90.0
 52
90.0
 71
     2
 49
0.5
 62
   256
  6
BYLAYER
 49
-0.5
 62
   256
  6
BYLAYER
  0
ACDBPLACEHOLDER
  5
F
102
{ACAD_REACTORS
330
E
102
}
330
E
  0
SCALE
  5
48
102
{ACAD_REACTORS
330
47
102
}
330
47
100
AcDbScale
 70
     0
300
1:1
140
1.0
141
1.0
290
     1
  0
SCALE
  5
49
102
{ACAD_REACTORS
330
47
102
}
330
47
100
AcDbScale
 70
     0
300
1:2
140
1.0
141
2.0
290
     0
  0
SCALE
  5
4A
102
{ACAD_REACTORS
330
47
102
}
330
47
100
AcDbScale
 70
     0
300
1:4
140
1.0
141
4.0
290
     0
  0
SCALE
  5
4B
102
{ACAD_REACTORS
330
47
102
}
330
47
100
AcDbScale
 70
     0
300
1:5
140
1.0
141
5.0
290
     0
  0
SCALE
  5
4C
102
{ACAD_REACTORS
330
47
102
}
330
47
100
AcDbScale
 70
     0
300
1:8
140
1.0
141
8.0
290
     0
  0
SCALE
  5
4D
102
{ACAD_REACTORS
330
47
102
}
330
47
100
AcDbScale
 70
     0
300
1:10
140
1.0
141
10.0
290
     0
  0
SCALE
  5
4E
102
{ACAD_REACTORS
330
47
102
}
330
47
100
AcDbScale
 70
     0
300
1:16
140
1.0
141
16.0
290
     0
  0
SCALE
  5
4F
102
{ACAD_REACTORS
330
47
102
}
330
47
100
AcDbScale
 70
     0
300
1:20
140
1.0
141
20.0
290
     0
  0
SCALE
  5
50
102
{ACAD_REACTORS
330
47
102
}
330
47
100
AcDbScale
 70
     0
300
1:30
140
1.0
141
30.0
290
     0
  0
SCALE
  5
51
102
{ACAD_REACTORS
330
47
102
}
330
47
100
AcDbScale
 70
     0
300
1:40
140
1.0
141
40.0
290
     0
  0
SCALE
  5
52
102
{ACAD_REACTORS
330
47
102
}
330
47
100
AcDbScale
 70
     0
300
1:50
140
1.0
141
50.0
290
     0
  0
SCALE
  5
53
102
{ACAD_REACTORS
330
47
102
}
330
47
100
AcDbScale
 70
     0
300
1:100
140
1.0
141
100.0
290
     0
  0
SCALE
  5
54
102
{ACAD_REACTORS
330
47
102
}
330
47
100
AcDbScale
 70
     0
300
2:1
140
2.0
141
1.0
290
     0
  0
SCALE
  5
55
102
{ACAD_REACTORS
330
47
102
}
330
47
100
AcDbScale
 70
     0
300
4:1
140
4.0
141
1.0
290
     0
  0
SCALE
  5
56
102
{ACAD_REACTORS
330
47
102
}
330
47
100
AcDbScale
 70
     0
300
8:1
140
8.0
141
1.0
290
     0
  0
SCALE
  5
57
102
{ACAD_REACTORS
330
47
102
}
330
47
100
AcDbScale
 70
     0
300
10:1
140
10.0
141
1.0
290
     0
  0
SCALE
  5
58
102
{ACAD_REACTORS
330
47
102
}
330
47
100
AcDbScale
 70
     0
300
100:1
140
100.0
141
1.0
290
     0
  0
ENDSEC
  0
EOF
