  0
SECTION
  2
HEADER
  9
$ACADVER
  1
AC1015
  9
$ACADMAINTVER
 70
     6
  9
$DWGCODEPAGE
  3
DOS932
  9
$INSBASE
 10
0.0
 20
0.0
 30
0.0
  9
$EXTMIN
 10
0.0
 20
0.0
 30
0.0
  9
$EXTMAX
 10
431.8
 20
279.4
 30
0.0
  9
$LIMMIN
 10
0.0
 20
0.0
  9
$LIMMAX
 10
431.8
 20
279.4
  9
$ORTHOMODE
 70
     0
  9
$REGENMODE
 70
     1
  9
$FILLMODE
 70
     1
  9
$QTEXTMODE
 70
     0
  9
$MIRRTEXT
 70
     1
  9
$LTSCALE
 40
1.0
  9
$ATTMODE
 70
     1
  9
$TEXTSIZE
 40
3.5
  9
$TRACEWID
 40
1.0
  9
$TEXTSTYLE
  7
Standard
  9
$CLAYER
  8
0
  9
$CELTYPE
  6
ByLayer
  9
$CECOLOR
 62
   256
  9
$CELTSCALE
 40
1.0
  9
$DISPSILH
 70
     0
  9
$DIMSCALE
 40
1.0
  9
$DIMASZ
 40
3.556
  9
$DIMEXO
 40
1.0
  9
$DIMDLI
 40
3.75
  9
$DIMRND
 40
0.0
  9
$DIMDLE
 40
0.0
  9
$DIMEXE
 40
1.0
  9
$DIMTP
 40
0.0
  9
$DIMTM
 40
0.0
  9
$DIMTXT
 40
3.5
  9
$DIMCEN
 40
2.5
  9
$DIMTSZ
 40
0.0
  9
$DIMTOL
 70
     0
  9
$DIMLIM
 70
     0
  9
$DIMTIH
 70
     1
  9
$DIMTOH
 70
     1
  9
$DIMSE1
 70
     0
  9
$DIMSE2
 70
     0
  9
$DIMTAD
 70
     1
  9
$DIMZIN
 70
     0
  9
$DIMBLK
  1

  9
$DIMASO
 70
     1
  9
$DIMSHO
 70
     1
  9
$DIMPOST
  1

  9
$DIMAPOST
  1

  9
$DIMALT
 70
     0
  9
$DIMALTD
 70
     3
  9
$DIMALTF
 40
0.0393700787
  9
$DIMLFAC
 40
1.0
  9
$DIMTOFL
 70
     1
  9
$DIMTVP
 40
0.0
  9
$DIMTIX
 70
     0
  9
$DIMSOXD
 70
     0
  9
$DIMSAH
 70
     0
  9
$DIMBLK1
  1

  9
$DIMBLK2
  1

  9
$DIMSTYLE
  2
ISO-25
  9
$DIMCLRD
 70
     0
  9
$DIMCLRE
 70
     0
  9
$DIMCLRT
 70
     0
  9
$DIMTFAC
 40
1.0
  9
$DIMGAP
 40
1.524
  9
$DIMJUST
 70
     0
  9
$DIMSD1
 70
     0
  9
$DIMSD2
 70
     0
  9
$DIMTOLJ
 70
     0
  9
$DIMTZIN
 70
     0
  9
$DIMALTZ
 70
     0
  9
$DIMALTTZ
 70
     0
  9
$DIMUPT
 70
     0
  9
$DIMDEC
 70
     3
  9
$DIMTDEC
 70
     3
  9
$DIMALTU
 70
     2
  9
$DIMALTTD
 70
     3
  9
$DIMTXSTY
  7
Standard
  9
$DIMAUNIT
 70
     0
  9
$DIMADEC
 70
     2
  9
$DIMALTRND
 40
0.0
  9
$DIMAZIN
 70
     0
  9
$DIMDSEP
 70
    44
  9
$DIMATFIT
 70
     3
  9
$DIMFRAC
 70
     0
  9
$DIMLDRBLK
  1

  9
$DIMLUNIT
 70
     2
  9
$DIMLWD
 70
    -2
  9
$DIMLWE
 70
    -2
  9
$DIMTMOVE
 70
     0
  9
$LUNITS
 70
     2
  9
$LUPREC
 70
     3
  9
$SKETCHINC
 40
1.0
  9
$FILLETRAD
 40
0.0
  9
$AUNITS
 70
     0
  9
$AUPREC
 70
     2
  9
$MENU
  1
.
  9
$ELEVATION
 40
0.0
  9
$PELEVATION
 40
0.0
  9
$THICKNESS
 40
0.0
  9
$LIMCHECK
 70
     0
  9
$CHAMFERA
 40
0.0
  9
$CHAMFERB
 40
0.0
  9
$CHAMFERC
 40
0.0
  9
$CHAMFERD
 40
0.0
  9
$SKPOLY
 70
     0
  9
$TDCREATE
 40
2460339.558814873
  9
$TDUCREATE
 40
2460339.183814873
  9
$TDUPDATE
 40
2460339.55881544
  9
$TDUUPDATE
 40
2460339.18381544
  9
$TDINDWG
 40
0.0000000116
  9
$TDUSRTIMER
 40
0.0000000116
  9
$USRTIMER
 70
     1
  9
$ANGBASE
 50
0.0
  9
$ANGDIR
 70
     0
  9
$PDMODE
 70
     0
  9
$PDSIZE
 40
-1.0
  9
$PLINEWID
 40
0.0
  9
$SPLFRAME
 70
     0
  9
$SPLINETYPE
 70
     6
  9
$SPLINESEGS
 70
     8
  9
$HANDSEED
  5
2A9
  9
$SURFTAB1
 70
     6
  9
$SURFTAB2
 70
     6
  9
$SURFTYPE
 70
     6
  9
$SURFU
 70
     6
  9
$SURFV
 70
     6
  9
$UCSBASE
  2

  9
$UCSNAME
  2

  9
$UCSORG
 10
0.0
 20
0.0
 30
0.0
  9
$UCSXDIR
 10
1.0
 20
0.0
 30
0.0
  9
$UCSYDIR
 10
0.0
 20
1.0
 30
0.0
  9
$UCSORTHOREF
  2

  9
$UCSORTHOVIEW
 70
     0
  9
$UCSORGTOP
 10
0.0
 20
0.0
 30
0.0
  9
$UCSORGBOTTOM
 10
0.0
 20
0.0
 30
0.0
  9
$UCSORGLEFT
 10
0.0
 20
0.0
 30
0.0
  9
$UCSORGRIGHT
 10
0.0
 20
0.0
 30
0.0
  9
$UCSORGFRONT
 10
0.0
 20
0.0
 30
0.0
  9
$UCSORGBACK
 10
0.0
 20
0.0
 30
0.0
  9
$PUCSBASE
  2

  9
$PUCSNAME
  2

  9
$PUCSORG
 10
0.0
 20
0.0
 30
0.0
  9
$PUCSXDIR
 10
1.0
 20
0.0
 30
0.0
  9
$PUCSYDIR
 10
0.0
 20
1.0
 30
0.0
  9
$PUCSORTHOREF
  2

  9
$PUCSORTHOVIEW
 70
     0
  9
$PUCSORGTOP
 10
0.0
 20
0.0
 30
0.0
  9
$PUCSORGBOTTOM
 10
0.0
 20
0.0
 30
0.0
  9
$PUCSORGLEFT
 10
0.0
 20
0.0
 30
0.0
  9
$PUCSORGRIGHT
 10
0.0
 20
0.0
 30
0.0
  9
$PUCSORGFRONT
 10
0.0
 20
0.0
 30
0.0
  9
$PUCSORGBACK
 10
0.0
 20
0.0
 30
0.0
  9
$USERI1
 70
     0
  9
$USERI2
 70
     0
  9
$USERI3
 70
     0
  9
$USERI4
 70
     0
  9
$USERI5
 70
     0
  9
$USERR1
 40
0.0
  9
$USERR2
 40
0.0
  9
$USERR3
 40
0.0
  9
$USERR4
 40
0.0
  9
$USERR5
 40
0.0
  9
$WORLDVIEW
 70
     1
  9
$SHADEDGE
 70
     3
  9
$SHADEDIF
 70
    70
  9
$TILEMODE
 70
     1
  9
$MAXACTVP
 70
    64
  9
$PINSBASE
 10
0.0
 20
0.0
 30
0.0
  9
$PLIMCHECK
 70
     0
  9
$PEXTMIN
 10
1.0000000000E+20
 20
1.0000000000E+20
 30
1.0000000000E+20
  9
$PEXTMAX
 10
-1.0000000000E+20
 20
-1.0000000000E+20
 30
-1.0000000000E+20
  9
$PLIMMIN
 10
0.0
 20
0.0
  9
$PLIMMAX
 10
420.0
 20
297.0
  9
$UNITMODE
 70
     0
  9
$VISRETAIN
 70
     1
  9
$PLINEGEN
 70
     0
  9
$PSLTSCALE
 70
     1
  9
$TREEDEPTH
 70
  3020
  9
$CMLSTYLE
  2
Standard
  9
$CMLJUST
 70
     0
  9
$CMLSCALE
 40
20.0
  9
$PROXYGRAPHICS
 70
     1
  9
$MEASUREMENT
 70
     1
  9
$CELWEIGHT
370
    -1
  9
$ENDCAPS
280
     0
  9
$JOINSTYLE
280
     0
  9
$LWDISPLAY
290
     1
  9
$INSUNITS
 70
     4
  9
$HYPERLINKBASE
  1

  9
$STYLESHEET
  1

  9
$XEDIT
290
     1
  9
$CEPSNTYPE
380
     0
  9
$PSTYLEMODE
290
     1
  9
$FINGERPRINTGUID
  2
{7b119780-532c-44f5-bb61-6a1f21aca571}
  9
$VERSIONGUID
  2
{FAEB1C32-E019-11D5-929B-00C0DF256EC4}
  9
$EXTNAMES
290
     1
  9
$PSVPSCALE
 40
0.0
  9
$OLESTARTUP
290
     0
  0
ENDSEC
  0
SECTION
  2
CLASSES
  0
CLASS
  1
ACDBDICTIONARYWDFLT
  2
AcDbDictionaryWithDefault
  3
ObjectDBX Classes
 90
        0
280
     0
281
     0
  0
CLASS
  1
VISUALSTYLE
  2
AcDbVisualStyle
  3
ObjectDBX Classes
 90
     4095
280
     0
281
     0
  0
CLASS
  1
MATERIAL
  2
AcDbMaterial
  3
ObjectDBX Classes
 90
     1153
280
     0
281
     0
  0
CLASS
  1
SCALE
  2
AcDbScale
  3
ObjectDBX Classes
 90
     1153
280
     0
281
     0
  0
CLASS
  1
TABLESTYLE
  2
AcDbTableStyle
  3
ObjectDBX Classes
 90
     4095
280
     0
281
     0
  0
CLASS
  1
MLEADERSTYLE
  2
AcDbMLeaderStyle
  3
ACDB_MLEADERSTYLE_CLASS
 90
     4095
280
     0
281
     0
  0
CLASS
  1
SUN
  2
AcDbSun
  3
SCENEOE
 90
     1153
280
     0
281
     0
  0
CLASS
  1
ACDBPLACEHOLDER
  2
AcDbPlaceHolder
  3
ObjectDBX Classes
 90
        0
280
     0
281
     0
  0
CLASS
  1
LAYOUT
  2
AcDbLayout
  3
ObjectDBX Classes
 90
        0
280
     0
281
     0
  0
ENDSEC
  0
SECTION
  2
TABLES
  0
TABLE
  2
VPORT
  5
8
330
0
100
AcDbSymbolTable
 70
     1
  0
VPORT
  5
29
330
8
100
AcDbSymbolTableRecord
100
AcDbViewportTableRecord
  2
*Active
 70
     0
 10
0.0
 20
0.0
 11
1.0
 21
1.0
 12
215.9
 22
139.7
 13
0.0
 23
0.0
 14
10.0
 24
10.0
 15
10.0
 25
10.0
 16
0.0
 26
0.0
 36
1.0
 17
0.0
 27
0.0
 37
0.0
 40
279.4
 41
1.5454545455
 42
50.0
 43
0.0
 44
0.0
 50
0.0
 51
0.0
 71
     0
 72
  2000
 73
     1
 74
     3
 75
     0
 76
     0
 77
     0
 78
     0
281
     0
 65
     1
110
0.0
120
0.0
130
0.0
111
1.0
121
0.0
131
0.0
112
0.0
122
1.0
132
0.0
 79
     0
146
0.0
  0
ENDTAB
  0
TABLE
  2
LTYPE
  5
5
330
0
100
AcDbSymbolTable
 70
     6
  0
LTYPE
  5
14
330
5
100
AcDbSymbolTableRecord
100
AcDbLinetypeTableRecord
  2
ByBlock
 70
     0
  3

 72
    65
 73
     0
 40
0.0
  0
LTYPE
  5
15
330
5
100
AcDbSymbolTableRecord
100
AcDbLinetypeTableRecord
  2
ByLayer
 70
     0
  3

 72
    65
 73
     0
 40
0.0
  0
LTYPE
  5
16
330
5
100
AcDbSymbolTableRecord
100
AcDbLinetypeTableRecord
  2
Continuous
 70
     0
  3
Solid line
 72
    65
 73
     0
 40
0.0
  0
LTYPE
  5
5E
330
5
100
AcDbSymbolTableRecord
100
AcDbLinetypeTableRecord
  2
HIDDEN
 70
     0
  3
Hidden __ __ __ __ __ __ __ __ __ __ __ __ __ __
 72
    65
 73
     2
 40
1.905
 49
1.27
 74
     0
 49
-0.635
 74
     0
  0
LTYPE
  5
5F
330
5
100
AcDbSymbolTableRecord
100
AcDbLinetypeTableRecord
  2
PHANTOM
 70
     0
  3
Phantom ______  __  __  ______  __  __  ______
 72
    65
 73
     6
 40
12.7
 49
6.35
 74
     0
 49
-1.27
 74
     0
 49
1.27
 74
     0
 49
-1.27
 74
     0
 49
1.27
 74
     0
 49
-1.27
 74
     0
  0
LTYPE
  5
60
330
5
100
AcDbSymbolTableRecord
100
AcDbLinetypeTableRecord
  2
CENTER
 70
     0
  3
Center ____ _ ____ _ ____ _ ____ _ ____ _ ____
 72
    65
 73
     4
 40
10.16
 49
6.35
 74
     0
 49
-1.27
 74
     0
 49
1.27
 74
     0
 49
-1.27
 74
     0
  0
LTYPE
  5
61
330
5
100
AcDbSymbolTableRecord
100
AcDbLinetypeTableRecord
  2
CENTERX2
 70
     0
  3
Center (2x) ________  __  ________  __  _____
 72
    65
 73
     4
 40
20.32
 49
12.7
 74
     0
 49
-2.54
 74
     0
 49
2.54
 74
     0
 49
-2.54
 74
     0
  0
LTYPE
  5
62
330
5
100
AcDbSymbolTableRecord
100
AcDbLinetypeTableRecord
  2
DOT2
 70
     0
  3
Dot (.5x) ........................................
 72
    65
 73
     2
 40
0.635
 49
0.0
 74
     0
 49
-0.635
 74
     0
  0
ENDTAB
  0
TABLE
  2
LAYER
  5
2
330
0
100
AcDbSymbolTable
 70
     1
  0
LAYER
  5
10
330
2
100
AcDbSymbolTableRecord
100
AcDbLayerTableRecord
  2
0
 70
     0
 62
     7
  6
Continuous
370
    -3
390
F
  0
ENDTAB
  0
TABLE
  2
STYLE
  5
3
330
0
100
AcDbSymbolTable
 70
     2
  0
STYLE
  5
11
330
3
100
AcDbSymbolTableRecord
100
AcDbTextStyleTableRecord
  2
Standard
 70
     0
 40
0.0
 41
1.0
 50
0.0
 71
     0
 42
3.5
  3
txt
  4
bigfont
  0
STYLE
  5
63
330
3
100
AcDbSymbolTableRecord
100
AcDbTextStyleTableRecord
  2
SLDTEXTSTYLE0
 70
     0
 40
0.0
 41
0.75
 50
0.0
 71
     0
 42
3.5
  3
TXT
  4
bigfont
  0
ENDTAB
  0
TABLE
  2
VIEW
  5
6
330
0
100
AcDbSymbolTable
 70
     0
  0
ENDTAB
  0
TABLE
  2
UCS
  5
7
330
0
100
AcDbSymbolTable
 70
     0
  0
ENDTAB
  0
TABLE
  2
APPID
  5
9
330
0
100
AcDbSymbolTable
 70
     1
  0
APPID
  5
12
330
9
100
AcDbSymbolTableRecord
100
AcDbRegAppTableRecord
  2
ACAD
 70
     0
  0
ENDTAB
  0
TABLE
  2
DIMSTYLE
  5
A
330
0
100
AcDbSymbolTable
 70
     1
100
AcDbDimStyleTable
  0
DIMSTYLE
105
27
330
A
100
AcDbSymbolTableRecord
100
AcDbDimStyleTableRecord
  2
ISO-25
 70
     0
 41
2.5
 42
0.625
 43
3.75
 44
1.25
 73
     0
 74
     0
 77
     1
 78
     8
140
2.5
141
2.5
143
0.0393700787
147
0.625
171
     3
172
     1
178
     0
271
     2
272
     2
274
     3
278
    44
283
     0
284
     8
340
11
  0
ENDTAB
  0
TABLE
  2
BLOCK_RECORD
  5
1
330
0
100
AcDbSymbolTable
 70
     3
  0
BLOCK_RECORD
  5
1F
330
1
100
AcDbSymbolTableRecord
100
AcDbBlockTableRecord
  2
*Model_Space
340
22
  0
BLOCK_RECORD
  5
1B
330
1
100
AcDbSymbolTableRecord
100
AcDbBlockTableRecord
  2
*Paper_Space
340
1E
  0
BLOCK_RECORD
  5
23
330
1
100
AcDbSymbolTableRecord
100
AcDbBlockTableRecord
  2
*Paper_Space0
340
26
  0
BLOCK_RECORD
  5
21A
330
1
100
AcDbSymbolTableRecord
100
AcDbBlockTableRecord
  2
SW_CENTERMARKSYMBOL_0
340
0
102
{BLKREFS
331
225
102
}
  0
BLOCK_RECORD
  5
298
330
1
100
AcDbSymbolTableRecord
100
AcDbBlockTableRecord
  2
SW_CENTERMARKSYMBOL_1
340
0
102
{BLKREFS
331
2A3
102
}
  0
ENDTAB
  0
ENDSEC
  0
SECTION
  2
BLOCKS
  0
BLOCK
  5
20
330
1F
100
AcDbEntity
  8
0
100
AcDbBlockBegin
  2
*Model_Space
 70
     0
 10
0.0
 20
0.0
 30
0.0
  3
*Model_Space
  1

  0
ENDBLK
  5
21
330
1F
100
AcDbEntity
  8
0
100
AcDbBlockEnd
  0
BLOCK
  5
1C
330
1B
100
AcDbEntity
 67
     1
  8
0
100
AcDbBlockBegin
  2
*Paper_Space
 70
     0
 10
0.0
 20
0.0
 30
0.0
  3
*Paper_Space
  1

  0
ENDBLK
  5
1D
330
1B
100
AcDbEntity
 67
     1
  8
0
100
AcDbBlockEnd
  0
BLOCK
  5
24
330
23
100
AcDbEntity
  8
0
100
AcDbBlockBegin
  2
*Paper_Space0
 70
     0
 10
0.0
 20
0.0
 30
0.0
  3
*Paper_Space0
  1

  0
ENDBLK
  5
25
330
23
100
AcDbEntity
  8
0
100
AcDbBlockEnd
  0
BLOCK
  5
21B
330
21A
100
AcDbEntity
  8
0
100
AcDbBlockBegin
  2
SW_CENTERMARKSYMBOL_0
 70
     0
 10
0.0
 20
0.0
 30
0.0
  3
SW_CENTERMARKSYMBOL_0
  1

  0
LINE
  5
21D
330
21A
100
AcDbEntity
  8
0
  6
Continuous
 62
     0
370
    18
100
AcDbLine
 10
0.0
 20
0.0
 30
0.0
 11
0.0
 21
2.5
 31
0.0
  0
LINE
  5
21E
330
21A
100
AcDbEntity
  8
0
  6
Continuous
 62
     0
370
    18
100
AcDbLine
 10
0.0
 20
0.0
 30
0.0
 11
-2.5
 21
0.0
 31
0.0
  0
LINE
  5
21F
330
21A
100
AcDbEntity
  8
0
  6
Continuous
 62
     0
370
    18
100
AcDbLine
 10
0.0
 20
0.0
 30
0.0
 11
0.0
 21
-2.5
 31
0.0
  0
LINE
  5
220
330
21A
100
AcDbEntity
  8
0
  6
Continuous
 62
     0
370
    18
100
AcDbLine
 10
0.0
 20
0.0
 30
0.0
 11
2.5
 21
0.0
 31
0.0
  0
LINE
  5
221
330
21A
100
AcDbEntity
  8
0
  6
Continuous
 62
     0
370
    18
100
AcDbLine
 10
0.0
 20
5.0
 30
0.0
 11
0.0
 21
11.416732609
 31
0.0
  0
LINE
  5
222
330
21A
100
AcDbEntity
  8
0
  6
Continuous
 62
     0
370
    18
100
AcDbLine
 10
-5.0
 20
0.0
 30
0.0
 11
-43.2865463899
 21
0.0
 31
0.0
  0
LINE
  5
223
330
21A
100
AcDbEntity
  8
0
  6
Continuous
 62
     0
370
    18
100
AcDbLine
 10
0.0
 20
-5.0
 30
0.0
 11
0.0
 21
-11.9227803896
 31
0.0
  0
LINE
  5
224
330
21A
100
AcDbEntity
  8
0
  6
Continuous
 62
     0
370
    18
100
AcDbLine
 10
5.0
 20
0.0
 30
0.0
 11
17.427727289
 21
0.0
 31
0.0
  0
ENDBLK
  5
21C
330
21A
100
AcDbEntity
  8
0
100
AcDbBlockEnd
  0
BLOCK
  5
299
330
298
100
AcDbEntity
  8
0
100
AcDbBlockBegin
  2
SW_CENTERMARKSYMBOL_1
 70
     0
 10
0.0
 20
0.0
 30
0.0
  3
SW_CENTERMARKSYMBOL_1
  1

  0
LINE
  5
29B
330
298
100
AcDbEntity
  8
0
  6
Continuous
 62
     0
370
    18
100
AcDbLine
 10
0.0
 20
0.0
 30
0.0
 11
0.0
 21
2.5
 31
0.0
  0
LINE
  5
29C
330
298
100
AcDbEntity
  8
0
  6
Continuous
 62
     0
370
    18
100
AcDbLine
 10
0.0
 20
0.0
 30
0.0
 11
-2.5
 21
0.0
 31
0.0
  0
LINE
  5
29D
330
298
100
AcDbEntity
  8
0
  6
Continuous
 62
     0
370
    18
100
AcDbLine
 10
0.0
 20
0.0
 30
0.0
 11
0.0
 21
-2.5
 31
0.0
  0
LINE
  5
29E
330
298
100
AcDbEntity
  8
0
  6
Continuous
 62
     0
370
    18
100
AcDbLine
 10
0.0
 20
0.0
 30
0.0
 11
2.5
 21
0.0
 31
0.0
  0
LINE
  5
29F
330
298
100
AcDbEntity
  8
0
  6
Continuous
 62
     0
370
    18
100
AcDbLine
 10
0.0
 20
5.0
 30
0.0
 11
0.0
 21
31.5728474165
 31
0.0
  0
LINE
  5
2A0
330
298
100
AcDbEntity
  8
0
  6
Continuous
 62
     0
370
    18
100
AcDbLine
 10
-5.0
 20
0.0
 30
0.0
 11
-14.7219400216
 21
0.0
 31
0.0
  0
LINE
  5
2A1
330
298
100
AcDbEntity
  8
0
  6
Continuous
 62
     0
370
    18
100
AcDbLine
 10
0.0
 20
-5.0
 30
0.0
 11
0.0
 21
-26.3028368436
 31
0.0
  0
LINE
  5
2A2
330
298
100
AcDbEntity
  8
0
  6
Continuous
 62
     0
370
    18
100
AcDbLine
 10
5.0
 20
0.0
 30
0.0
 11
14.9255494631
 21
0.0
 31
0.0
  0
ENDBLK
  5
29A
330
298
100
AcDbEntity
  8
0
100
AcDbBlockEnd
  0
ENDSEC
  0
SECTION
  2
ENTITIES
  0
MTEXT
  5
64
330
1F
100
AcDbEntity
  8
0
  6
Continuous
 62
     7
370
     0
100
AcDbMText
 10
61.5216320174
 20
86.5708112822
 30
0.0
 40
3.5
 41
0.0
 71
     1
 72
     1
  1
エースボール　アングル型
  7
SLDTEXTSTYLE0
 73
     1
 44
1.0
  0
MTEXT
  5
65
330
1F
100
AcDbEntity
  8
0
  6
Continuous
 62
     7
370
     0
100
AcDbMText
 10
61.5216320174
 20
82.0451167517
 30
0.0
 40
3.5
 41
0.0
 71
     1
 72
     1
  1
BR-3303
  7
SLDTEXTSTYLE0
 73
     1
 44
1.0
  0
LINE
  5
66
330
1F
100
AcDbEntity
  8
0
  6
Continuous
 62
     7
370
    25
100
AcDbLine
 10
38.8699463641
 20
32.6654468549
 30
0.0
 11
39.9521061049
 21
34.5398025078
 31
0.0
  0
LINE
  5
67
330
1F
100
AcDbEntity
  8
0
  6
Continuous
 62
     7
370
    25
100
AcDbLine
 10
39.9521061049
 20
55.0398025078
 30
0.0
 11
38.8699463641
 21
56.9141581608
 31
0.0
  0
LINE
  5
68
330
1F
100
AcDbEntity
  8
0
  6
Continuous
 62
     7
370
    25
100
AcDbLine
 10
26.0342658458
 20
56.9141581608
 30
0.0
 11
24.9521061049
 21
55.0398025078
 31
0.0
  0
LINE
  5
69
330
1F
100
AcDbEntity
  8
0
  6
Continuous
 62
     7
370
    25
100
AcDbLine
 10
24.9521061049
 20
34.5398025078
 30
0.0
 11
26.0342658458
 21
32.6654468549
 31
0.0
  0
LINE
  5
6A
330
1F
100
AcDbEntity
  8
0
  6
Continuous
 62
     7
370
    25
100
AcDbLine
 10
27.9521061049
 20
33.5984595567
 30
0.0
 11
28.2021061049
 21
32.6654468549
 31
0.0
  0
LINE
  5
6B
330
1F
100
AcDbEntity
  8
0
  6
Continuous
 62
     7
370
    25
100
AcDbLine
 10
27.7021061049
 20
32.6654468549
 30
0.0
 11
27.9521061049
 21
33.5984595567
 31
0.0
  0
LINE
  5
6C
330
1F
100
AcDbEntity
  8
0
  6
Continuous
 62
     7
370
    25
100
AcDbLine
 10
27.9521061049
 20
55.9811454589
 30
0.0
 11
27.7021061049
 21
56.9141581608
 31
0.0
  0
LINE
  5
6D
330
1F
100
AcDbEntity
  8
0
  6
Continuous
 62
     7
370
    25
100
AcDbLine
 10
28.2021061049
 20
56.9141581608
 30
0.0
 11
27.9521061049
 21
55.9811454589
 31
0.0
  0
LINE
  5
6E
330
1F
100
AcDbEntity
  8
0
  6
Continuous
 62
     7
370
    25
100
AcDbLine
 10
66.8363761756
 20
63.2898025078
 30
0.0
 11
64.8863761755
 21
71.2898025078
 31
0.0
  0
LINE
  5
6F
330
1F
100
AcDbEntity
  8
0
  6
Continuous
 62
     7
370
    25
100
AcDbLine
 10
66.3863761755
 20
55.2898025078
 30
0.0
 11
66.8363761755
 21
63.2898025078
 31
0.0
  0
LINE
  5
70
330
1F
100
AcDbEntity
  8
0
  6
Continuous
 62
     7
370
    25
100
AcDbLine
 10
52.317630758
 20
56.5119432651
 30
0.0
 11
52.3863761755
 21
55.2898025078
 31
0.0
  0
LINE
  5
71
330
1F
100
AcDbEntity
  8
0
  6
Continuous
 62
     7
370
    25
100
AcDbLine
 10
53.8863761756
 20
71.2898025078
 30
0.0
 11
53.633144641
 21
70.2509039047
 31
0.0
  0
LINE
  5
72
330
1F
100
AcDbEntity
  8
0
  6
Continuous
 62
     7
370
    25
100
AcDbLine
 10
47.8863761755
 20
53.2898025078
 30
0.0
 11
44.8863761755
 21
53.2898025078
 31
0.0
  0
LINE
  5
73
330
1F
100
AcDbEntity
  8
0
  6
Continuous
 62
     7
370
    25
100
AcDbLine
 10
44.8863761755
 20
36.2898025078
 30
0.0
 11
47.8863761755
 21
36.2898025078
 31
0.0
  0
LINE
  5
74
330
1F
100
AcDbEntity
  8
0
  6
Continuous
 62
     7
370
    25
100
AcDbLine
 10
44.8863761755
 20
53.1208025078
 30
0.0
 11
39.9521061049
 21
53.1208025078
 31
0.0
  0
LINE
  5
75
330
1F
100
AcDbEntity
  8
0
  6
Continuous
 62
     7
370
    25
100
AcDbLine
 10
39.9521061049
 20
36.4588025078
 30
0.0
 11
44.8863761755
 21
36.4588025078
 31
0.0
  0
LINE
  5
76
330
1F
100
AcDbEntity
  8
0
  6
Continuous
 62
     7
370
    25
100
AcDbLine
 10
70.5275074284
 20
35.0521982008
 30
0.0
 11
71.3863761755
 21
36.5398025078
 31
0.0
  0
LINE
  5
77
330
1F
100
AcDbEntity
  8
0
  6
Continuous
 62
     7
370
    25
100
AcDbLine
 10
71.3863761755
 20
53.0398025078
 30
0.0
 11
70.5275074284
 21
54.5274068149
 31
0.0
  0
LINE
  5
78
330
1F
100
AcDbEntity
  8
0
  6
Continuous
 62
     7
370
    25
100
AcDbLine
 10
50.8600636755
 20
34.2898025078
 30
0.0
 11
51.185700181
 21
23.8694343338
 31
0.0
  0
LINE
  5
79
330
1F
100
AcDbEntity
  8
0
  6
Continuous
 62
     7
370
    25
100
AcDbLine
 10
67.5870521701
 20
23.8694343338
 30
0.0
 11
67.9126886755
 21
34.2898025078
 31
0.0
  0
LINE
  5
7A
330
1F
100
AcDbEntity
  8
0
  6
Continuous
 62
     7
370
    25
100
AcDbLine
 10
51.185700181
 20
23.8694343338
 30
0.0
 11
52.3863761755
 21
21.7898025078
 31
0.0
  0
LINE
  5
7B
330
1F
100
AcDbEntity
  8
0
  6
Continuous
 62
     7
370
    25
100
AcDbLine
 10
66.3863761755
 20
21.7898025078
 30
0.0
 11
67.5870521701
 21
23.8694343338
 31
0.0
  0
SPLINE
  5
7C
330
1F
100
AcDbEntity
  8
0
  6
Continuous
 62
     7
370
    25
100
AcDbSpline
210
0.0
220
0.0
230
1.0
 70
     8
 71
     3
 72
    11
 73
     7
 74
     0
 42
0.00000001
 43
0.00000001
 40
0.0
 40
0.0
 40
0.0
 40
0.0
 40
0.2213341714956496
 40
0.5720700650549748
 40
0.8769002039997472
 40
1.0
 40
1.0
 40
1.0
 40
1.0
 10
65.5558879921778
 20
53.57831913543194
 30
0.0
 10
65.51508779400105
 20
53.620060080211
 30
0.0
 10
65.40963380166218
 20
53.72794556772454
 30
0.0
 10
65.31474280856186
 20
53.94203575300872
 30
0.0
 10
65.2653453424045
 20
54.14313648356121
 30
0.0
 10
65.27176423744247
 20
54.25548015655812
 30
0.0
 10
65.2736107188526
 20
54.2877973236888
 30
0.0
  0
SPLINE
  5
7D
330
1F
100
AcDbEntity
  8
0
  6
Continuous
 62
     7
370
    25
100
AcDbSpline
210
0.0
220
0.0
230
1.0
 70
     8
 71
     3
 72
    11
 73
     7
 74
     0
 42
0.00000001
 43
0.00000001
 40
0.0
 40
0.0
 40
0.0
 40
0.0
 40
0.1394749898402463
 40
0.4646168389612405
 40
0.8009765711299256
 40
1.0
 40
1.0
 40
1.0
 40
1.0
 10
53.49363741104317
 20
54.28939559278864
 30
0.0
 10
53.49561668202415
 20
54.25286236201574
 30
0.0
 10
53.50220999762632
 20
54.13116345228157
 30
0.0
 10
53.44622242901716
 20
53.92595892296428
 30
0.0
 10
53.34970405647435
 20
53.71823859089545
 30
0.0
 10
53.24898199626386
 20
53.61990095105429
 30
0.0
 10
53.21153956018303
 20
53.58334489981389
 30
0.0
  0
LINE
  5
7E
330
1F
100
AcDbEntity
  8
0
  6
Continuous
 62
     7
370
    25
100
AcDbLine
 10
65.2863761755
 20
54.2852716878
 30
0.0
 11
65.2863761755
 21
55.2898025078
 31
0.0
  0
LINE
  5
7F
330
1F
100
AcDbEntity
  8
0
  6
Continuous
 62
     7
370
    25
100
AcDbLine
 10
53.4863761755
 20
55.2898025078
 30
0.0
 11
53.4863761755
 21
54.2898025078
 31
0.0
  0
LINE
  5
80
330
1F
100
AcDbEntity
  8
0
  6
Continuous
 62
     7
370
    25
100
AcDbLine
 10
53.2162092682
 20
53.5845402371
 30
0.0
 11
52.6718449957
 21
54.5274068149
 31
0.0
  0
LINE
  5
81
330
1F
100
AcDbEntity
  8
0
  6
Continuous
 62
     7
370
    25
100
AcDbLine
 10
66.1009073554
 20
54.5274068149
 30
0.0
 11
65.5565430829
 21
53.5845402371
 31
0.0
  0
LINE
  5
82
330
1F
100
AcDbEntity
  8
0
  6
Continuous
 62
     7
370
    25
100
AcDbLine
 10
48.6009073554
 20
54.5274068149
 30
0.0
 11
47.8863761755
 21
53.2898025078
 31
0.0
  0
LINE
  5
83
330
1F
100
AcDbEntity
  8
0
  6
Continuous
 62
     7
370
    25
100
AcDbLine
 10
47.8863761755
 20
36.2898025078
 30
0.0
 11
48.6009073554
 21
35.0521982008
 31
0.0
  0
LINE
  5
84
330
1F
100
AcDbEntity
  8
0
  6
Continuous
 62
     7
370
    25
100
AcDbLine
 10
69.1239804826
 20
34.2898025078
 30
0.0
 11
69.1239804826
 21
35.0521982008
 31
0.0
  0
LINE
  5
85
330
1F
100
AcDbEntity
  8
0
  6
Continuous
 62
     7
370
    25
100
AcDbLine
 10
69.1239804826
 20
35.0521982008
 30
0.0
 11
70.5300754839
 21
35.0521982008
 31
0.0
  0
LINE
  5
86
330
1F
100
AcDbEntity
  8
0
  6
Continuous
 62
     7
370
    25
100
AcDbLine
 10
52.6744130512
 20
54.5274068149
 30
0.0
 11
48.598346974
 21
54.5274068149
 31
0.0
  0
LINE
  5
87
330
1F
100
AcDbEntity
  8
0
  6
Continuous
 62
     7
370
    25
100
AcDbLine
 10
70.5300754839
 20
54.5274068149
 30
0.0
 11
66.0983392999
 21
54.5274068149
 31
0.0
  0
LINE
  5
88
330
1F
100
AcDbEntity
  8
0
  6
Continuous
 62
     7
370
    25
100
AcDbLine
 10
48.598346974
 20
35.0521982008
 30
0.0
 11
49.6487718685
 21
35.0521982008
 31
0.0
  0
LINE
  5
89
330
1F
100
AcDbEntity
  8
0
  6
Continuous
 62
     7
370
    25
100
AcDbLine
 10
49.6487718685
 20
35.0521982008
 30
0.0
 11
49.6487718685
 21
34.2898025078
 31
0.0
  0
LINE
  5
8A
330
1F
100
AcDbEntity
  8
0
  6
Continuous
 62
     7
370
    25
100
AcDbLine
 10
26.0342658458
 20
38.7276246813
 30
0.0
 11
27.7021061049
 21
38.7276246813
 31
0.0
  0
LINE
  5
8B
330
1F
100
AcDbEntity
  8
0
  6
Continuous
 62
     7
370
    25
100
AcDbLine
 10
27.7021061049
 20
38.7276246813
 30
0.0
 11
27.9521061049
 21
37.6327793639
 31
0.0
  0
LINE
  5
8C
330
1F
100
AcDbEntity
  8
0
  6
Continuous
 62
     7
370
    25
100
AcDbLine
 10
27.9521061049
 20
37.6327793639
 30
0.0
 11
28.2021061049
 21
38.7276246813
 31
0.0
  0
LINE
  5
8D
330
1F
100
AcDbEntity
  8
0
  6
Continuous
 62
     7
370
    25
100
AcDbLine
 10
28.2021061049
 20
38.7276246813
 30
0.0
 11
38.8699463641
 21
38.7276246813
 31
0.0
  0
SPLINE
  5
8E
330
1F
100
AcDbEntity
  8
0
  6
Continuous
 62
     7
370
    25
100
AcDbSpline
210
0.0
220
0.0
230
1.0
 70
     8
 71
     3
 72
    15
 73
    11
 74
     0
 42
0.00000001
 43
0.00000001
 40
0.0
 40
0.0
 40
0.0
 40
0.0
 40
0.1323060649947139
 40
0.2645747216258911
 40
0.3998023269484418
 40
0.5350055300348284
 40
0.6501955637891818
 40
0.7654035659406109
 40
0.8826904433746946
 40
1.0
 40
1.0
 40
1.0
 40
1.0
 10
38.86994636413917
 20
38.72762468134604
 30
0.0
 10
39.01271011316641
 20
38.46571283533905
 30
0.0
 10
39.29819724604017
 20
37.94196319657085
 30
0.0
 10
39.60536963273069
 20
37.13543493026778
 30
0.0
 10
39.79006234467939
 20
36.31370335717455
 30
0.0
 10
39.82663664501216
 20
35.5217411384513
 30
0.0
 10
39.73173682518625
 20
34.77256812220285
 30
0.0
 10
39.5372893895194
 20
34.06553684870145
 30
0.0
 10
39.25205822169492
 20
33.36170232052821
 30
0.0
 10
38.99732519194463
 20
32.89754696720921
 30
0.0
 10
38.86994636413917
 20
32.66544685485486
 30
0.0
  0
LINE
  5
8F
330
1F
100
AcDbEntity
  8
0
  6
Continuous
 62
     7
370
    25
100
AcDbLine
 10
28.2021061049
 20
32.6654468549
 30
0.0
 11
38.8699463641
 21
32.6654468549
 31
0.0
  0
LINE
  5
90
330
1F
100
AcDbEntity
  8
0
  6
Continuous
 62
     7
370
    25
100
AcDbLine
 10
28.2021061049
 20
32.6654468549
 30
0.0
 11
27.9521061049
 21
33.7602921723
 31
0.0
  0
LINE
  5
91
330
1F
100
AcDbEntity
  8
0
  6
Continuous
 62
     7
370
    25
100
AcDbLine
 10
27.9521061049
 20
33.7602921723
 30
0.0
 11
27.7021061049
 21
32.6654468549
 31
0.0
  0
LINE
  5
92
330
1F
100
AcDbEntity
  8
0
  6
Continuous
 62
     7
370
    25
100
AcDbLine
 10
26.0342658458
 20
32.6654468549
 30
0.0
 11
27.7021061049
 21
32.6654468549
 31
0.0
  0
SPLINE
  5
93
330
1F
100
AcDbEntity
  8
0
  6
Continuous
 62
     7
370
    25
100
AcDbSpline
210
0.0
220
0.0
230
1.0
 70
     8
 71
     3
 72
    15
 73
    11
 74
     0
 42
0.00000001
 43
0.00000001
 40
0.0
 40
0.0
 40
0.0
 40
0.0
 40
0.1323060649947139
 40
0.264574721625891
 40
0.3998023269484416
 40
0.5350055300348283
 40
0.6501955637891818
 40
0.7654035659406111
 40
0.8826904433746948
 40
1.0
 40
1.0
 40
1.0
 40
1.0
 10
26.03426584575183
 20
32.66544685485486
 30
0.0
 10
25.89150209672459
 20
32.92735870086186
 30
0.0
 10
25.60601496385082
 20
33.45110833963005
 30
0.0
 10
25.29884257716033
 20
34.25763660593311
 30
0.0
 10
25.11414986521161
 20
35.07936817902633
 30
0.0
 10
25.07757556487885
 20
35.8713303977496
 30
0.0
 10
25.17247538470474
 20
36.62050341399806
 30
0.0
 10
25.36692282037161
 20
37.32753468749944
 30
0.0
 10
25.65215398819609
 20
38.0313692156727
 30
0.0
 10
25.90688701794637
 20
38.49552456899169
 30
0.0
 10
26.03426584575183
 20
38.72762468134604
 30
0.0
  0
LINE
  5
94
330
1F
100
AcDbEntity
  8
0
  6
Continuous
 62
     7
370
    25
100
AcDbLine
 10
27.9521061049
 20
37.6327793639
 30
0.0
 11
27.9521061049
 21
40.9173153163
 31
0.0
  0
LINE
  5
95
330
1F
100
AcDbEntity
  8
0
  6
Continuous
 62
     7
370
    25
100
AcDbLine
 10
28.2021061049
 20
38.7276246813
 30
0.0
 11
27.9521061049
 21
40.9173153163
 31
0.0
  0
LINE
  5
96
330
1F
100
AcDbEntity
  8
0
  6
Continuous
 62
     7
370
    25
100
AcDbLine
 10
26.0342658458
 20
50.8519803343
 30
0.0
 11
27.7021061049
 21
50.8519803343
 31
0.0
  0
LINE
  5
97
330
1F
100
AcDbEntity
  8
0
  6
Continuous
 62
     7
370
    25
100
AcDbLine
 10
27.7021061049
 20
50.8519803343
 30
0.0
 11
27.9521061049
 21
48.6622896994
 31
0.0
  0
SPLINE
  5
98
330
1F
100
AcDbEntity
  8
0
  6
Continuous
 62
     7
370
    25
100
AcDbSpline
210
0.0
220
0.0
230
1.0
 70
     8
 71
     3
 72
     9
 73
     5
 74
     0
 42
0.00000001
 43
0.00000001
 40
0.0
 40
0.0
 40
0.0
 40
0.0
 40
0.0515952755253541
 40
1.0
 40
1.0
 40
1.0
 40
1.0
 10
27.9521061049455
 20
48.66228969941181
 30
0.0
 10
27.95562939894647
 20
48.70003011619577
 30
0.0
 10
28.02391654278075
 20
49.43150051536837
 30
0.0
 10
28.11537062309909
 20
50.16054813115202
 30
0.0
 10
28.2021061049455
 20
50.85198033432821
 30
0.0
  0
LINE
  5
99
330
1F
100
AcDbEntity
  8
0
  6
Continuous
 62
     7
370
    25
100
AcDbLine
 10
28.2021061049
 20
50.8519803343
 30
0.0
 11
38.8699463641
 21
50.8519803343
 31
0.0
  0
SPLINE
  5
9A
330
1F
100
AcDbEntity
  8
0
  6
Continuous
 62
     7
370
    25
100
AcDbSpline
210
0.0
220
0.0
230
1.0
 70
     8
 71
     3
 72
    14
 73
    10
 74
     0
 42
0.00000001
 43
0.00000001
 40
0.0
 40
0.0
 40
0.0
 40
0.0
 40
0.1896140296832184
 40
0.381004658776511
 40
0.5067314515612955
 40
0.6324595800789626
 40
0.761538394088789
 40
0.8906532841057883
 40
1.0
 40
1.0
 40
1.0
 40
1.0
 10
38.86994636413917
 20
50.85198033432821
 30
0.0
 10
39.06989987026061
 20
50.09981920516272
 30
0.0
 10
39.4716803582247
 20
48.5884495304534
 30
0.0
 10
39.75941147889808
 20
46.52328954985003
 30
0.0
 10
39.82888467978039
 20
44.70638732486855
 30
0.0
 10
39.75611014893521
 20
43.14503054161234
 30
0.0
 10
39.54960132150386
 20
41.58226732666726
 30
0.0
 10
39.24874995225722
 20
40.10342360682827
 30
0.0
 10
38.9890376156499
 20
39.16015916888032
 30
0.0
 10
38.86994636413917
 20
38.72762468134604
 30
0.0
  0
SPLINE
  5
9B
330
1F
100
AcDbEntity
  8
0
  6
Continuous
 62
     7
370
    25
100
AcDbSpline
210
0.0
220
0.0
230
1.0
 70
     8
 71
     3
 72
     9
 73
     5
 74
     0
 42
0.00000001
 43
0.00000001
 40
0.0
 40
0.0
 40
0.0
 40
0.0
 40
0.051595275525361
 40
1.0
 40
1.0
 40
1.0
 40
1.0
 10
27.9521061049455
 20
40.91731531626243
 30
0.0
 10
27.94858281094454
 20
40.87957489947848
 30
0.0
 10
27.88029566711027
 20
40.14810450030588
 30
0.0
 10
27.7888415867919
 20
39.41905688452222
 30
0.0
 10
27.7021061049455
 20
38.72762468134604
 30
0.0
  0
SPLINE
  5
9C
330
1F
100
AcDbEntity
  8
0
  6
Continuous
 62
     7
370
    25
100
AcDbSpline
210
0.0
220
0.0
230
1.0
 70
     8
 71
     3
 72
    14
 73
    10
 74
     0
 42
0.00000001
 43
0.00000001
 40
0.0
 40
0.0
 40
0.0
 40
0.0
 40
0.1145241986511895
 40
0.2401403004584546
 40
0.3657240426131198
 40
0.4944006665828463
 40
0.6230760735400469
 40
0.810520619296005
 40
1.0
 40
1.0
 40
1.0
 40
1.0
 10
26.03426584575183
 20
38.72762468134604
 30
0.0
 10
25.90976741796054
 20
39.18071756591662
 30
0.0
 10
25.64871263470499
 20
40.13078630874853
 30
0.0
 10
25.35211631974428
 20
41.60284800355348
 30
0.0
 10
25.14784997565799
 20
43.14905665631309
 30
0.0
 10
25.07429312856082
 20
44.72036250630835
 30
0.0
 10
25.1472766255458
 20
46.54525393945561
 30
0.0
 10
25.43690368023088
 20
48.60516147019352
 30
0.0
 10
25.83442977179659
 20
50.10035010628107
 30
0.0
 10
26.03426584575183
 20
50.85198033432821
 30
0.0
  0
SPLINE
  5
9D
330
1F
100
AcDbEntity
  8
0
  6
Continuous
 62
     7
370
    25
100
AcDbSpline
210
0.0
220
0.0
230
1.0
 70
     8
 71
     3
 72
    15
 73
    11
 74
     0
 42
0.00000001
 43
0.00000001
 40
0.0
 40
0.0
 40
0.0
 40
0.0
 40
0.1323060649947157
 40
0.2645747216258946
 40
0.3998023269484468
 40
0.5350055300348352
 40
0.650195563789187
 40
0.7654035659406146
 40
0.8826904433746966
 40
1.0
 40
1.0
 40
1.0
 40
1.0
 10
38.86994636413917
 20
56.91415816081916
 30
0.0
 10
39.01271011316641
 20
56.65224631481218
 30
0.0
 10
39.29819724604017
 20
56.12849667604399
 30
0.0
 10
39.60536963273069
 20
55.32196840974094
 30
0.0
 10
39.79006234467936
 20
54.50023683664774
 30
0.0
 10
39.82663664501214
 20
53.7082746179245
 30
0.0
 10
39.73173682518622
 20
52.95910160167608
 30
0.0
 10
39.53728938951938
 20
52.25207032817473
 30
0.0
 10
39.2520582216949
 20
51.54823580000151
 30
0.0
 10
38.99732519194463
 20
51.08408044668254
 30
0.0
 10
38.86994636413917
 20
50.85198033432821
 30
0.0
  0
LINE
  5
9E
330
1F
100
AcDbEntity
  8
0
  6
Continuous
 62
     7
370
    25
100
AcDbLine
 10
39.9521061049
 20
55.0398025078
 30
0.0
 11
39.9521061049
 21
34.5398025078
 31
0.0
  0
SPLINE
  5
9F
330
1F
100
AcDbEntity
  8
0
  6
Continuous
 62
     7
370
    25
100
AcDbSpline
210
0.0
220
0.0
230
1.0
 70
     8
 71
     3
 72
    15
 73
    11
 74
     0
 42
0.00000001
 43
0.00000001
 40
0.0
 40
0.0
 40
0.0
 40
0.0
 40
0.1323060649947156
 40
0.2645747216258946
 40
0.3998023269484468
 40
0.5350055300348352
 40
0.6501955637891867
 40
0.7654035659406145
 40
0.8826904433746965
 40
1.0
 40
1.0
 40
1.0
 40
1.0
 10
26.03426584575183
 20
50.85198033432821
 30
0.0
 10
25.89150209672459
 20
51.1138921803352
 30
0.0
 10
25.60601496385084
 20
51.63764181910339
 30
0.0
 10
25.29884257716032
 20
52.44417008540643
 30
0.0
 10
25.11414986521164
 20
53.26590165849963
 30
0.0
 10
25.07757556487887
 20
54.05786387722287
 30
0.0
 10
25.17247538470477
 20
54.80703689347128
 30
0.0
 10
25.36692282037163
 20
55.51406816697264
 30
0.0
 10
25.6521539881961
 20
56.21790269514586
 30
0.0
 10
25.90688701794638
 20
56.68205804846482
 30
0.0
 10
26.03426584575183
 20
56.91415816081916
 30
0.0
  0
LINE
  5
A0
330
1F
100
AcDbEntity
  8
0
  6
Continuous
 62
     7
370
    25
100
AcDbLine
 10
24.9521061049
 20
44.7898025078
 30
0.0
 11
24.9521061049
 21
55.0398025078
 31
0.0
  0
LINE
  5
A1
330
1F
100
AcDbEntity
  8
0
  6
Continuous
 62
     7
370
    25
100
AcDbLine
 10
24.9521061049
 20
34.5398025078
 30
0.0
 11
24.9521061049
 21
44.7898025078
 31
0.0
  0
LINE
  5
A2
330
1F
100
AcDbEntity
  8
0
  6
Continuous
 62
     7
370
    25
100
AcDbLine
 10
27.9521061049
 20
48.6622896994
 30
0.0
 11
27.9521061049
 21
51.9468256518
 31
0.0
  0
LINE
  5
A3
330
1F
100
AcDbEntity
  8
0
  6
Continuous
 62
     7
370
    25
100
AcDbLine
 10
28.2021061049
 20
50.8519803343
 30
0.0
 11
27.9521061049
 21
51.9468256518
 31
0.0
  0
LINE
  5
A4
330
1F
100
AcDbEntity
  8
0
  6
Continuous
 62
     7
370
    25
100
AcDbLine
 10
27.9521061049
 20
51.9468256518
 30
0.0
 11
27.7021061049
 21
50.8519803343
 31
0.0
  0
LINE
  5
A5
330
1F
100
AcDbEntity
  8
0
  6
Continuous
 62
     7
370
    25
100
AcDbLine
 10
26.0342658458
 20
56.9141581608
 30
0.0
 11
27.7021061049
 21
56.9141581608
 31
0.0
  0
LINE
  5
A6
330
1F
100
AcDbEntity
  8
0
  6
Continuous
 62
     7
370
    25
100
AcDbLine
 10
27.7021061049
 20
56.9141581608
 30
0.0
 11
27.9521061049
 21
55.8193128434
 31
0.0
  0
LINE
  5
A7
330
1F
100
AcDbEntity
  8
0
  6
Continuous
 62
     7
370
    25
100
AcDbLine
 10
27.9521061049
 20
55.8193128434
 30
0.0
 11
28.2021061049
 21
56.9141581608
 31
0.0
  0
LINE
  5
A8
330
1F
100
AcDbEntity
  8
0
  6
Continuous
 62
     7
370
    25
100
AcDbLine
 10
28.2021061049
 20
56.9141581608
 30
0.0
 11
38.8699463641
 21
56.9141581608
 31
0.0
  0
LINE
  5
A9
330
1F
100
AcDbEntity
  8
0
  6
Continuous
 62
     7
370
    25
100
AcDbLine
 10
27.9521061049
 20
33.5984595567
 30
0.0
 11
27.9521061049
 21
33.7602921723
 31
0.0
  0
LINE
  5
AA
330
1F
100
AcDbEntity
  8
0
  6
Continuous
 62
     7
370
    25
100
AcDbLine
 10
27.9521061049
 20
55.8193128434
 30
0.0
 11
27.9521061049
 21
55.9811454589
 31
0.0
  0
SPLINE
  5
AB
330
1F
100
AcDbEntity
  8
0
  6
Continuous
 62
     7
370
    25
100
AcDbSpline
210
0.0
220
0.0
230
1.0
 70
     8
 71
     3
 72
    15
 73
    11
 74
     0
 42
0.00000001
 43
0.00000001
 40
0.0
 40
0.0
 40
0.0
 40
0.0
 40
0.0081667445812695
 40
0.3321939991490083
 40
0.4756279600585602
 40
0.6866830973284899
 40
0.8457435502264811
 40
0.8967566214763185
 40
0.9909540928118029
 40
1.0
 40
1.0
 40
1.0
 40
1.0
 10
54.28735666195581
 20
72.13980250783702
 30
0.0
 10
54.28686912781293
 20
72.13979983149123
 30
0.0
 10
54.26703798028085
 20
72.13969096730438
 30
0.0
 10
54.23875720027159
 20
72.13014495503501
 30
0.0
 10
54.20092790178276
 20
72.09278257178045
 30
0.0
 10
54.17434400521527
 20
72.04791705704578
 30
0.0
 10
54.15717418146029
 20
71.99004075746886
 30
0.0
 10
54.14935718524383
 20
71.93936471749694
 30
0.0
 10
54.14736149880795
 20
71.91067043797692
 30
0.0
 10
54.14729653485715
 20
71.89148360642143
 30
0.0
 10
54.14729084289048
 20
71.88980250783702
 30
0.0
  0
LINE
  5
AC
330
1F
100
AcDbEntity
  8
0
  6
Continuous
 62
     7
370
    25
100
AcDbLine
 10
54.287356662
 20
72.1398025078
 30
0.0
 11
64.4853956891
 21
72.1398025078
 31
0.0
  0
SPLINE
  5
AD
330
1F
100
AcDbEntity
  8
0
  6
Continuous
 62
     7
370
    25
100
AcDbSpline
210
0.0
220
0.0
230
1.0
 70
     8
 71
     3
 72
    15
 73
    11
 74
     0
 42
0.00000001
 43
0.00000001
 40
0.0
 40
0.0
 40
0.0
 40
0.0
 40
0.0090459071881971
 40
0.1032433785236874
 40
0.1542564497735246
 40
0.313316902671511
 40
0.5243720399414428
 40
0.6678060008509903
 40
0.9918332554187292
 40
1.0
 40
1.0
 40
1.0
 40
1.0
 10
64.62546150820671
 20
71.88980250783702
 30
0.0
 10
64.62545581624005
 20
71.89148360642142
 30
0.0
 10
64.62539085228924
 20
71.91067043797698
 30
0.0
 10
64.62339516585335
 20
71.93936471749693
 30
0.0
 10
64.6155781696369
 20
71.9900407574689
 30
0.0
 10
64.59840834588194
 20
72.04791705704577
 30
0.0
 10
64.57182444931445
 20
72.09278257178045
 30
0.0
 10
64.53399515082562
 20
72.130144955035
 30
0.0
 10
64.50571437081635
 20
72.13969096730445
 30
0.0
 10
64.48588322328428
 20
72.13979983149123
 30
0.0
 10
64.48539568914138
 20
72.13980250783702
 30
0.0
  0
LINE
  5
AE
330
1F
100
AcDbEntity
  8
0
  6
Continuous
 62
     7
370
    25
100
AcDbLine
 10
64.6254615082
 20
71.8898025078
 30
0.0
 11
54.1472908429
 21
71.8898025078
 31
0.0
  0
LINE
  5
AF
330
1F
100
AcDbEntity
  8
0
  6
Continuous
 62
     7
370
    25
100
AcDbLine
 10
54.1472908429
 20
71.8898025078
 30
0.0
 11
54.1472908429
 21
71.2898025078
 31
0.0
  0
LINE
  5
B0
330
1F
100
AcDbEntity
  8
0
  6
Continuous
 62
     7
370
    25
100
AcDbLine
 10
64.6254615082
 20
71.2898025078
 30
0.0
 11
64.6254615082
 21
71.8898025078
 31
0.0
  0
LINE
  5
B1
330
1F
100
AcDbEntity
  8
0
  6
Continuous
 62
     7
370
    25
100
AcDbLine
 10
54.1472908429
 20
71.2898025078
 30
0.0
 11
64.6254615082
 21
71.2898025078
 31
0.0
  0
LINE
  5
B2
330
1F
100
AcDbEntity
  8
0
  6
Continuous
 62
     7
370
    25
100
AcDbLine
 10
53.9091506005
 20
71.8898025078
 30
0.0
 11
54.1472908429
 21
71.8898025078
 31
0.0
  0
SPLINE
  5
B3
330
1F
100
AcDbEntity
  8
0
  6
Continuous
 62
     7
370
    25
100
AcDbSpline
210
0.0
220
0.0
230
1.0
 70
     8
 71
     3
 72
    15
 73
    11
 74
     0
 42
0.00000001
 43
0.00000001
 40
0.0
 40
0.0
 40
0.0
 40
0.0
 40
0.0089557228015919
 40
0.0999003359608148
 40
0.153163246058169
 40
0.3125636920784848
 40
0.5249666935694999
 40
0.6689893599352451
 40
0.9919152533810159
 40
1.0
 40
1.0
 40
1.0
 40
1.0
 10
53.90915060049694
 20
71.88980250783702
 30
0.0
 10
53.90916635607554
 20
71.89148363340992
 30
0.0
 10
53.9093421082321
 20
71.91023644803435
 30
0.0
 10
53.91477112425163
 20
71.93899867714184
 30
0.0
 10
53.93630660795893
 20
71.98988575061017
 30
0.0
 10
53.98401203622377
 20
72.04802140074281
 30
0.0
 10
54.05640298121567
 20
72.09272927392622
 30
0.0
 10
54.15832209323345
 20
72.13001109738798
 30
0.0
 10
54.23367718468792
 20
72.13969025222555
 30
0.0
 10
54.28607683041167
 20
72.13979983142733
 30
0.0
 10
54.28735666195581
 20
72.13980250783702
 30
0.0
  0
LINE
  5
B4
330
1F
100
AcDbEntity
  8
0
  6
Continuous
 62
     7
370
    25
100
AcDbLine
 10
64.6254615082
 20
71.8898025078
 30
0.0
 11
64.8636017506
 21
71.8898025078
 31
0.0
  0
SPLINE
  5
B5
330
1F
100
AcDbEntity
  8
0
  6
Continuous
 62
     7
370
    25
100
AcDbSpline
210
0.0
220
0.0
230
1.0
 70
     8
 71
     3
 72
    15
 73
    11
 74
     0
 42
0.00000001
 43
0.00000001
 40
0.0
 40
0.0
 40
0.0
 40
0.0
 40
0.0080847466189818
 40
0.3310106400647567
 40
0.4750333064304972
 40
0.6874363079215137
 40
0.8468367539418253
 40
0.9000996640391794
 40
0.9910442771984082
 40
1.0
 40
1.0
 40
1.0
 40
1.0
 10
64.48539568914138
 20
72.13980250783702
 30
0.0
 10
64.48667552068551
 20
72.13979983142734
 30
0.0
 10
64.5390751664093
 20
72.13969025222553
 30
0.0
 10
64.61443025786373
 20
72.13001109738798
 30
0.0
 10
64.71634936988154
 20
72.09272927392624
 30
0.0
 10
64.78874031487342
 20
72.04802140074281
 30
0.0
 10
64.83644574313826
 20
71.98988575061016
 30
0.0
 10
64.85798122684557
 20
71.93899867714185
 30
0.0
 10
64.8634102428651
 20
71.91023644803438
 30
0.0
 10
64.86358599502165
 20
71.89148363340992
 30
0.0
 10
64.86360175060025
 20
71.88980250783702
 30
0.0
  0
LINE
  5
B6
330
1F
100
AcDbEntity
  8
0
  6
Continuous
 62
     7
370
    25
100
AcDbLine
 10
53.9091506005
 20
71.2898025078
 30
0.0
 11
53.9091506005
 21
71.8898025078
 31
0.0
  0
LINE
  5
B7
330
1F
100
AcDbEntity
  8
0
  6
Continuous
 62
     7
370
    25
100
AcDbLine
 10
54.1472908429
 20
71.2898025078
 30
0.0
 11
53.9091506005
 21
71.2898025078
 31
0.0
  0
LINE
  5
B8
330
1F
100
AcDbEntity
  8
0
  6
Continuous
 62
     7
370
    25
100
AcDbLine
 10
64.8636017506
 20
71.8898025078
 30
0.0
 11
64.8636017506
 21
71.2898025078
 31
0.0
  0
LINE
  5
B9
330
1F
100
AcDbEntity
  8
0
  6
Continuous
 62
     7
370
    25
100
AcDbLine
 10
64.8636017506
 20
71.2898025078
 30
0.0
 11
64.6254615082
 21
71.2898025078
 31
0.0
  0
LINE
  5
BA
330
1F
100
AcDbEntity
  8
0
  6
Continuous
 62
     7
370
    25
100
AcDbLine
 10
53.6363761755
 20
72.1398025078
 30
0.0
 11
53.6363761755
 21
71.8898025078
 31
0.0
  0
LINE
  5
BB
330
1F
100
AcDbEntity
  8
0
  6
Continuous
 62
     7
370
    25
100
AcDbLine
 10
53.9091506005
 20
71.8898025078
 30
0.0
 11
53.6363761755
 21
71.8898025078
 31
0.0
  0
LINE
  5
BC
330
1F
100
AcDbEntity
  8
0
  6
Continuous
 62
     7
370
    25
100
AcDbLine
 10
53.6363761755
 20
72.1398025078
 30
0.0
 11
54.287356662
 21
72.1398025078
 31
0.0
  0
LINE
  5
BD
330
1F
100
AcDbEntity
  8
0
  6
Continuous
 62
     7
370
    25
100
AcDbLine
 10
53.6363761755
 20
71.8898025078
 30
0.0
 11
53.6363761755
 21
71.2898025078
 31
0.0
  0
LINE
  5
BE
330
1F
100
AcDbEntity
  8
0
  6
Continuous
 62
     7
370
    25
100
AcDbLine
 10
53.9091506005
 20
71.2898025078
 30
0.0
 11
53.6363761755
 21
71.2898025078
 31
0.0
  0
LINE
  5
BF
330
1F
100
AcDbEntity
  8
0
  6
Continuous
 62
     7
370
    25
100
AcDbLine
 10
53.3863761755
 20
71.8898025078
 30
0.0
 11
53.6363761755
 21
71.8898025078
 31
0.0
  0
ARC
  5
C0
330
1F
100
AcDbEntity
  8
0
  6
Continuous
 62
     7
370
    25
100
AcDbCircle
 10
53.6363761755
 20
71.8898025078
 30
0.0
 40
0.25
100
AcDbArc
 50
90.0
 51
180.0
  0
LINE
  5
C1
330
1F
100
AcDbEntity
  8
0
  6
Continuous
 62
     7
370
    25
100
AcDbLine
 10
53.3863761755
 20
71.2898025078
 30
0.0
 11
53.3863761755
 21
71.8898025078
 31
0.0
  0
LINE
  5
C2
330
1F
100
AcDbEntity
  8
0
  6
Continuous
 62
     7
370
    25
100
AcDbLine
 10
53.6363761755
 20
71.2898025078
 30
0.0
 11
53.3863761755
 21
71.2898025078
 31
0.0
  0
LINE
  5
C3
330
1F
100
AcDbEntity
  8
0
  6
Continuous
 62
     7
370
    25
100
AcDbLine
 10
65.1363761755
 20
71.8898025078
 30
0.0
 11
65.1363761755
 21
72.1398025078
 31
0.0
  0
LINE
  5
C4
330
1F
100
AcDbEntity
  8
0
  6
Continuous
 62
     7
370
    25
100
AcDbLine
 10
65.1363761755
 20
71.8898025078
 30
0.0
 11
64.8636017506
 21
71.8898025078
 31
0.0
  0
LINE
  5
C5
330
1F
100
AcDbEntity
  8
0
  6
Continuous
 62
     7
370
    25
100
AcDbLine
 10
64.4853956891
 20
72.1398025078
 30
0.0
 11
65.1363761755
 21
72.1398025078
 31
0.0
  0
LINE
  5
C6
330
1F
100
AcDbEntity
  8
0
  6
Continuous
 62
     7
370
    25
100
AcDbLine
 10
65.1363761755
 20
71.2898025078
 30
0.0
 11
65.1363761755
 21
71.8898025078
 31
0.0
  0
LINE
  5
C7
330
1F
100
AcDbEntity
  8
0
  6
Continuous
 62
     7
370
    25
100
AcDbLine
 10
65.1363761755
 20
71.8898025078
 30
0.0
 11
65.3863761755
 21
71.8898025078
 31
0.0
  0
LINE
  5
C8
330
1F
100
AcDbEntity
  8
0
  6
Continuous
 62
     7
370
    25
100
AcDbLine
 10
65.3863761755
 20
71.8898025078
 30
0.0
 11
65.3863761755
 21
71.2898025078
 31
0.0
  0
LINE
  5
C9
330
1F
100
AcDbEntity
  8
0
  6
Continuous
 62
     7
370
    25
100
AcDbLine
 10
65.3863761755
 20
71.2898025078
 30
0.0
 11
65.1363761755
 21
71.2898025078
 31
0.0
  0
LINE
  5
CA
330
1F
100
AcDbEntity
  8
0
  6
Continuous
 62
     7
370
    25
100
AcDbLine
 10
65.1363761755
 20
71.2898025078
 30
0.0
 11
64.8636017506
 21
71.2898025078
 31
0.0
  0
ARC
  5
CB
330
1F
100
AcDbEntity
  8
0
  6
Continuous
 62
     7
370
    25
100
AcDbCircle
 10
65.1363761755
 20
71.8898025078
 30
0.0
 40
0.25
100
AcDbArc
 50
0.0
 51
90.0
  0
LINE
  5
CC
330
1F
100
AcDbEntity
  8
0
  6
Continuous
 62
     7
370
    25
100
AcDbLine
 10
54.3863761755
 20
72.1498025078
 30
0.0
 11
64.3863761755
 21
72.1498025078
 31
0.0
  0
LINE
  5
CD
330
1F
100
AcDbEntity
  8
0
  6
Continuous
 62
     7
370
    25
100
AcDbLine
 10
64.3863761755
 20
72.1398025078
 30
0.0
 11
64.3863761755
 21
72.1498025078
 31
0.0
  0
LINE
  5
CE
330
1F
100
AcDbEntity
  8
0
  6
Continuous
 62
     7
370
    25
100
AcDbLine
 10
54.3863761755
 20
72.1398025078
 30
0.0
 11
54.3863761755
 21
72.1498025078
 31
0.0
  0
LINE
  5
CF
330
1F
100
AcDbEntity
  8
0
  6
Continuous
 62
     7
370
    25
100
AcDbLine
 10
54.9118292915
 20
63.2898025078
 30
0.0
 11
66.8363761756
 21
63.2898025078
 31
0.0
  0
LINE
  5
D0
330
1F
100
AcDbEntity
  8
0
  6
Continuous
 62
     7
370
    25
100
AcDbLine
 10
55.6720400472
 20
64.2845460858
 30
0.0
 11
54.9118292915
 21
63.2898025078
 31
0.0
  0
LINE
  5
D1
330
1F
100
AcDbEntity
  8
0
  6
Continuous
 62
     7
370
    25
100
AcDbLine
 10
54.1625740012
 20
71.2898025078
 30
0.0
 11
52.4344353372
 21
64.2845460858
 31
0.0
  0
LINE
  5
D2
330
1F
100
AcDbEntity
  8
0
  6
Continuous
 62
     7
370
    25
100
AcDbLine
 10
64.6254615082
 20
71.2898025078
 30
0.0
 11
54.1625740012
 21
71.2898025078
 31
0.0
  0
LINE
  5
D3
330
1F
100
AcDbEntity
  8
0
  6
Continuous
 62
     7
370
    25
100
AcDbLine
 10
57.3863761755
 20
55.2898025078
 30
0.0
 11
66.3863761755
 21
55.2898025078
 31
0.0
  0
LINE
  5
D4
330
1F
100
AcDbEntity
  8
0
  6
Continuous
 62
     7
370
    25
100
AcDbLine
 10
57.3863761755
 20
55.3276194316
 30
0.0
 11
57.3863761755
 21
55.2898025078
 31
0.0
  0
SPLINE
  5
D5
330
1F
100
AcDbEntity
  8
0
  6
Continuous
 62
     7
370
    25
100
AcDbSpline
210
0.0
220
0.0
230
1.0
 70
     8
 71
     3
 72
     9
 73
     5
 74
     0
 42
0.00000001
 43
0.00000001
 40
0.0
 40
0.0
 40
0.0
 40
0.0
 40
0.4875141023677128
 40
0.9999999999999999
 40
0.9999999999999999
 40
0.9999999999999999
 40
0.9999999999999999
 10
57.2304309251214
 20
55.28980250783707
 30
0.0
 10
57.25673749904399
 20
55.29152985380878
 30
0.0
 10
57.31069814099224
 20
55.29507302510025
 30
0.0
 10
57.36073367168699
 20
55.31659151104956
 30
0.0
 10
57.38637617554861
 20
55.32761943163699
 30
0.0
  0
SPLINE
  5
D6
330
1F
100
AcDbEntity
  8
0
  6
Continuous
 62
     7
370
    25
100
AcDbSpline
210
0.0
220
0.0
230
1.0
 70
     8
 71
     3
 72
    17
 73
    13
 74
     0
 42
0.00000001
 43
0.00000001
 40
0.0
 40
0.0
 40
0.0
 40
0.0
 40
0.3241697628029869
 40
0.5422758463620718
 40
0.6895090526939279
 40
0.7894036290694505
 40
0.8577090008137825
 40
0.9049823971474138
 40
0.9551712229700868
 40
0.9753097783197817
 40
0.9919572060138849
 40
1.0
 40
1.0
 40
1.0
 40
1.0
 10
54.91182929146645
 20
63.28980250783464
 30
0.0
 10
55.05454465148362
 20
62.37718900522896
 30
0.0
 10
55.29328096042558
 20
60.85055599896761
 30
0.0
 10
55.67286815487724
 20
58.92378309668666
 30
0.0
 10
55.98200236322432
 20
57.63614762575389
 30
0.0
 10
56.23811589142444
 20
56.77699565903215
 30
0.0
 10
56.45242689431942
 20
56.20352777065474
 30
0.0
 10
56.65566111534733
 20
55.78199561662478
 30
0.0
 10
56.84020637988993
 20
55.50150307382935
 30
0.0
 10
57.02627746625807
 20
55.34595440524868
 30
0.0
 10
57.14148806551399
 20
55.29534380605118
 30
0.0
 10
57.20857687098687
 20
55.29116405424655
 30
0.0
 10
57.2304309251214
 20
55.28980250783707
 30
0.0
  0
SPLINE
  5
D7
330
1F
100
AcDbEntity
  8
0
  6
Continuous
 62
     7
370
    25
100
AcDbSpline
210
0.0
220
0.0
230
1.0
 70
     8
 71
     3
 72
    14
 73
    10
 74
     0
 42
0.00000001
 43
0.00000001
 40
0.0
 40
0.0
 40
0.0
 40
0.0
 40
0.1576095309202822
 40
0.3152382602707094
 40
0.4726926441579501
 40
0.6301650083177253
 40
0.7907313191165902
 40
0.9513050385928076
 40
1.0
 40
1.0
 40
1.0
 40
1.0
 10
52.88637617554861
 20
55.28980250783701
 30
0.0
 10
52.81980516076657
 20
55.5033042963144
 30
0.0
 10
52.68665502218164
 20
55.93033387993992
 30
0.0
 10
52.35808806043094
 20
56.51558095879624
 30
0.0
 10
51.94469841969892
 20
57.03773549961866
 30
0.0
 10
51.44902350075428
 20
57.48671362703852
 30
0.0
 10
50.88273379546978
 20
57.84599535884491
 30
0.0
 10
50.40648313907675
 20
58.05056153794609
 30
0.0
 10
50.12628857088397
 20
58.13135608629739
 30
0.0
 10
50.06108978611095
 20
58.15015625934416
 30
0.0
  0
LINE
  5
D8
330
1F
100
AcDbEntity
  8
0
  6
Continuous
 62
     7
370
    25
100
AcDbLine
 10
50.0610897861
 20
58.1501562593
 30
0.0
 11
44.2813329363
 21
59.7187776998
 31
0.0
  0
SPLINE
  5
D9
330
1F
100
AcDbEntity
  8
0
  6
Continuous
 62
     7
370
    25
100
AcDbSpline
210
0.0
220
0.0
230
1.0
 70
     8
 71
     3
 72
    11
 73
     7
 74
     0
 42
0.00000001
 43
0.00000001
 40
0.0
 40
0.0
 40
0.0
 40
0.0
 40
0.2488466353289361
 40
0.4976946020535205
 40
0.7488461225871278
 40
1.0
 40
1.0
 40
1.0
 40
1.0
 10
37.21093931401195
 20
61.04197820081256
 30
0.0
 10
37.80537536314821
 20
60.97245382431892
 30
0.0
 10
38.99425064181161
 20
60.83340469935774
 30
0.0
 10
40.76897531252065
 20
60.53307596123246
 30
0.0
 10
42.53555595426302
 20
60.17116634297732
 30
0.0
 10
43.69940545528269
 20
59.86957438591276
 30
0.0
 10
44.28133293625569
 20
59.71877769982704
 30
0.0
  0
LINE
  5
DA
330
1F
100
AcDbEntity
  8
0
  6
Continuous
 62
     7
370
    25
100
AcDbLine
 10
37.210939314
 20
61.0419782008
 30
0.0
 11
37.210939314
 21
64.2845460858
 31
0.0
  0
LINE
  5
DB
330
1F
100
AcDbEntity
  8
0
  6
Continuous
 62
     7
370
    25
100
AcDbLine
 10
37.210939314
 20
64.2845460858
 30
0.0
 11
55.6720400472
 21
64.2845460858
 31
0.0
  0
LINE
  5
DC
330
1F
100
AcDbEntity
  8
0
  6
Continuous
 62
     7
370
    25
100
AcDbLine
 10
57.2304309251
 20
55.2898025078
 30
0.0
 11
52.8863761755
 21
55.2898025078
 31
0.0
  0
LINE
  5
DD
330
1F
100
AcDbEntity
  8
0
  6
Continuous
 62
     7
370
    25
100
AcDbLine
 10
57.3863761755
 20
55.3276194316
 30
0.0
 11
57.3795768176
 21
55.2898025078
 31
0.0
  0
LINE
  5
DE
330
1F
100
AcDbEntity
  8
0
  6
Continuous
 62
     7
370
    25
100
AcDbLine
 10
57.3795768176
 20
55.2898025078
 30
0.0
 11
57.2304309251
 21
55.2898025078
 31
0.0
  0
LINE
  5
DF
330
1F
100
AcDbEntity
  8
0
  6
Continuous
 62
     7
370
    25
100
AcDbLine
 10
57.3863761755
 20
55.2898025078
 30
0.0
 11
57.3795768176
 21
55.2898025078
 31
0.0
  0
LINE
  5
E0
330
1F
100
AcDbEntity
  8
0
  6
Continuous
 62
     7
370
    25
100
AcDbLine
 10
19.3863761755
 20
73.2898025078
 30
0.0
 11
37.210939314
 21
73.2898025078
 31
0.0
  0
LINE
  5
E1
330
1F
100
AcDbEntity
  8
0
  6
Continuous
 62
     7
370
    25
100
AcDbLine
 10
37.210939314
 20
73.2898025078
 30
0.0
 11
37.210939314
 21
64.2845460858
 31
0.0
  0
LINE
  5
E2
330
1F
100
AcDbEntity
  8
0
  6
Continuous
 62
     7
370
    25
100
AcDbLine
 10
32.4947083178
 20
61.2898025078
 30
0.0
 11
24.3863761755
 21
61.2898025078
 31
0.0
  0
ARC
  5
E3
330
1F
100
AcDbEntity
  8
0
  6
Continuous
 62
     7
370
    25
100
AcDbCircle
 10
24.3863761755
 20
66.2898025078
 30
0.0
 40
5.0
100
AcDbArc
 50
180.0
 51
270.0
  0
LINE
  5
E4
330
1F
100
AcDbEntity
  8
0
  6
Continuous
 62
     7
370
    25
100
AcDbLine
 10
19.3863761755
 20
66.2898025078
 30
0.0
 11
19.3863761755
 21
73.2898025078
 31
0.0
  0
ARC
  5
E5
330
1F
100
AcDbEntity
  8
0
  6
Continuous
 62
     7
370
    25
100
AcDbCircle
 10
32.4947083178
 20
16.2896732537
 30
0.0
 40
45.00012925418374
100
AcDbArc
 50
83.9840777705
 51
90.0
  0
LINE
  5
E6
330
1F
100
AcDbEntity
  8
0
  6
Continuous
 62
     7
370
    25
100
AcDbLine
 10
39.3863761755
 20
73.2898025078
 30
0.0
 11
39.3863761755
 21
71.3087580312
 31
0.0
  0
ARC
  5
E7
330
1F
100
AcDbEntity
  8
0
  6
Continuous
 62
     7
370
    25
100
AcDbCircle
 10
45.3863761755
 20
71.3087580312
 30
0.0
 40
6.000000000000003
100
AcDbArc
 50
180.0
 51
275.5801667845
  0
ARC
  5
E8
330
1F
100
AcDbEntity
  8
0
  6
Continuous
 62
     7
370
    25
100
AcDbCircle
 10
44.9974226113
 20
75.2898025078
 30
0.0
 40
10.00000000000847
100
AcDbArc
 50
275.5801667845
 51
336.4218215217
  0
LINE
  5
E9
330
1F
100
AcDbEntity
  8
0
  6
Continuous
 62
     7
370
    25
100
AcDbLine
 10
37.210939314
 20
73.2898025078
 30
0.0
 11
39.3863761755
 21
73.2898025078
 31
0.0
  0
LINE
  5
EA
330
1F
100
AcDbEntity
  8
0
  6
Continuous
 62
     7
370
    25
100
AcDbLine
 10
52.8863761755
 20
55.2898025078
 30
0.0
 11
52.3863761755
 21
55.2898025078
 31
0.0
  0
LINE
  5
EB
330
1F
100
AcDbEntity
  8
0
  6
Continuous
 62
     7
370
    25
100
AcDbLine
 10
54.1472908429
 20
71.2898025078
 30
0.0
 11
54.1625740012
 21
71.2898025078
 31
0.0
  0
LINE
  5
EC
330
1F
100
AcDbEntity
  8
0
  6
Continuous
 62
     7
370
    25
100
AcDbLine
 10
47.8863761755
 20
41.0335882796
 30
0.0
 11
47.8863761755
 21
53.2898025078
 31
0.0
  0
LINE
  5
ED
330
1F
100
AcDbEntity
  8
0
  6
Continuous
 62
     7
370
    25
100
AcDbLine
 10
47.8863761755
 20
36.2898025078
 30
0.0
 11
47.8863761755
 21
41.0335882796
 31
0.0
  0
LINE
  5
EE
330
1F
100
AcDbEntity
  8
0
  6
Continuous
 62
     7
370
    25
100
AcDbLine
 10
44.8863761755
 20
41.0335882796
 30
0.0
 11
44.8863761755
 21
53.2898025078
 31
0.0
  0
LINE
  5
EF
330
1F
100
AcDbEntity
  8
0
  6
Continuous
 62
     7
370
    25
100
AcDbLine
 10
44.8863761755
 20
36.2898025078
 30
0.0
 11
44.8863761755
 21
41.0335882796
 31
0.0
  0
SPLINE
  5
F0
330
1F
100
AcDbEntity
  8
0
  6
Continuous
 62
     7
370
    25
100
AcDbSpline
210
0.0
220
0.0
230
1.0
 70
     8
 71
     3
 72
    22
 73
    18
 74
     0
 42
0.00000001
 43
0.00000001
 40
0.0
 40
0.0
 40
0.0
 40
0.0
 40
0.2499999999999979
 40
0.2499999999999979
 40
0.3749999999999969
 40
0.3749999999999969
 40
0.4374999999999972
 40
0.4374999999999972
 40
0.4999999999999974
 40
0.4999999999999974
 40
0.5624999999999978
 40
0.5624999999999978
 40
0.6249999999999982
 40
0.6249999999999982
 40
0.7499999999999988
 40
0.7499999999999988
 40
1.0
 40
1.0
 40
1.0
 40
1.0
 10
58.71704453304525
 20
34.28980250783702
 30
0.0
 10
58.7864896246323
 20
34.11535223863753
 30
0.0
 10
58.86356172432163
 20
33.94321552840942
 30
0.0
 10
59.01304825735856
 20
33.70536895206974
 30
0.0
 10
59.06919182090382
 20
33.6282175588619
 30
0.0
 10
59.17238342948076
 20
33.53176270210817
 30
0.0
 10
59.2104835545795
 20
33.50273689791617
 30
0.0
 10
59.29419276154076
 20
33.46050133515647
 30
0.0
 10
59.34106135625153
 20
33.44745862466857
 30
0.0
 10
59.43563663391225
 20
33.44816104330429
 30
0.0
 10
59.48234938012054
 20
33.46181446599463
 30
0.0
 10
59.56642737434509
 20
33.50549356185147
 30
0.0
 10
59.60379387554784
 20
33.53454989027733
 30
0.0
 10
59.70682955395779
 20
33.63216567421905
 30
0.0
 10
59.76145162362243
 20
33.70785126770469
 30
0.0
 10
59.91057314097962
 20
33.94602642991933
 30
0.0
 10
59.98703975153036
 20
34.11730417258614
 30
0.0
 10
60.05570781805199
 20
34.289802507837
 30
0.0
  0
LINE
  5
F1
330
1F
100
AcDbEntity
  8
0
  6
Continuous
 62
     7
370
    25
100
AcDbLine
 10
58.717044533
 20
34.2898025078
 30
0.0
 11
54.767574022
 21
34.2898025078
 31
0.0
  0
LINE
  5
F2
330
1F
100
AcDbEntity
  8
0
  6
Continuous
 62
     7
370
    25
100
AcDbLine
 10
54.767574022
 20
36.823405968
 30
0.0
 11
54.767574022
 21
34.2898025078
 31
0.0
  0
SPLINE
  5
F3
330
1F
100
AcDbEntity
  8
0
  6
Continuous
 62
     7
370
    25
100
AcDbSpline
210
0.0
220
0.0
230
1.0
 70
     8
 71
     3
 72
     8
 73
     4
 74
     0
 42
0.00000001
 43
0.00000001
 40
0.0
 40
0.0
 40
0.0
 40
0.0
 40
1.0
 40
1.0
 40
1.0
 40
1.0
 10
54.76757402203157
 20
36.82340596798202
 30
0.0
 10
54.97275984457487
 20
36.87996693510624
 30
0.0
 10
55.17898304528217
 20
36.93390700652007
 30
0.0
 10
55.38637617554861
 20
36.98489129626304
 30
0.0
  0
LINE
  5
F4
330
1F
100
AcDbEntity
  8
0
  6
Continuous
 62
     7
370
    25
100
AcDbLine
 10
55.3863761755
 20
40.7898025078
 30
0.0
 11
52.8701400986
 21
40.7898025078
 31
0.0
  0
SPLINE
  5
F5
330
1F
100
AcDbEntity
  8
0
  6
Continuous
 62
     7
370
    25
100
AcDbSpline
210
0.0
220
0.0
230
1.0
 70
     8
 71
     3
 72
     8
 73
     4
 74
     0
 42
0.00000001
 43
0.00000001
 40
0.0
 40
0.0
 40
0.0
 40
0.0
 40
1.0
 40
1.0
 40
1.0
 40
1.0
 10
52.70865477028842
 20
40.17100035431997
 30
0.0
 10
52.76521813975665
 20
40.37619489182974
 30
0.0
 10
52.8191580625779
 20
40.5824185453469
 30
0.0
 10
52.87014009856943
 20
40.78980250783701
 30
0.0
  0
LINE
  5
F6
330
1F
100
AcDbEntity
  8
0
  6
Continuous
 62
     7
370
    25
100
AcDbLine
 10
48.5640975808
 20
40.1710003543
 30
0.0
 11
52.7086547703
 21
40.1710003543
 31
0.0
  0
SPLINE
  5
F7
330
1F
100
AcDbEntity
  8
0
  6
Continuous
 62
     7
370
    25
100
AcDbSpline
210
0.0
220
0.0
230
1.0
 70
     8
 71
     3
 72
    10
 73
     6
 74
     0
 42
0.00000001
 43
0.00000001
 40
0.0
 40
0.0
 40
0.0
 40
0.0
 40
0.5
 40
0.5
 40
1.0
 40
1.0
 40
1.0
 40
1.0
 10
48.56409758080878
 20
40.17100035431999
 30
0.0
 10
48.35602890457757
 20
40.92580962736929
 30
0.0
 10
48.18562989855304
 20
41.68655601460119
 30
0.0
 10
47.95046991885419
 20
43.22469839222445
 30
0.0
 10
47.8863761755486
 20
44.00219954474927
 30
0.0
 10
47.8863761755486
 20
44.78980250783701
 30
0.0
  0
SPLINE
  5
F8
330
1F
100
AcDbEntity
  8
0
  6
Continuous
 62
     7
370
    25
100
AcDbSpline
210
0.0
220
0.0
230
1.0
 70
     8
 71
     3
 72
    12
 73
     8
 74
     0
 42
0.00000001
 43
0.00000001
 40
0.0
 40
0.0
 40
0.0
 40
0.0
 40
0.2500000000000001
 40
0.2500000000000001
 40
0.5000000000000001
 40
0.5000000000000001
 40
1.0
 40
1.0
 40
1.0
 40
1.0
 10
47.8863761755486
 20
44.78980250783701
 30
0.0
 10
47.8863761755486
 20
45.18412058850885
 30
0.0
 10
47.90237498052967
 20
45.57777963245928
 30
0.0
 10
47.96414511884406
 20
46.35731563200463
 30
0.0
 10
48.00988724314566
 20
46.74426882013005
 30
0.0
 10
48.1865573904925
 20
47.89765538298405
 30
0.0
 10
48.3568124559728
 20
48.65663787218909
 30
0.0
 10
48.56409758080879
 20
49.40860466135402
 30
0.0
  0
LINE
  5
F9
330
1F
100
AcDbEntity
  8
0
  6
Continuous
 62
     7
370
    25
100
AcDbLine
 10
52.7086547703
 20
49.4086046614
 30
0.0
 11
48.5640975808
 21
49.4086046614
 31
0.0
  0
SPLINE
  5
FA
330
1F
100
AcDbEntity
  8
0
  6
Continuous
 62
     7
370
    25
100
AcDbSpline
210
0.0
220
0.0
230
1.0
 70
     8
 71
     3
 72
     8
 73
     4
 74
     0
 42
0.00000001
 43
0.00000001
 40
0.0
 40
0.0
 40
0.0
 40
0.0
 40
1.0
 40
1.0
 40
1.0
 40
1.0
 10
52.87014009856943
 20
48.78980250783702
 30
0.0
 10
52.8192413816469
 20
48.99684754626601
 30
0.0
 10
52.76530724539614
 20
49.20308687594265
 30
0.0
 10
52.7086547702884
 20
49.40860466135402
 30
0.0
  0
SPLINE
  5
FB
330
1F
100
AcDbEntity
  8
0
  6
Continuous
 62
     7
370
    25
100
AcDbSpline
210
0.0
220
0.0
230
1.0
 70
     8
 71
     3
 72
     8
 73
     4
 74
     0
 42
0.00000001
 43
0.00000001
 40
0.0
 40
0.0
 40
0.0
 40
0.0
 40
1.0
 40
1.0
 40
1.0
 40
1.0
 10
65.90261225252779
 20
48.78980250783708
 30
0.0
 10
65.95350848578286
 20
48.99683744324084
 30
0.0
 10
66.00744244074652
 20
49.20307720830584
 30
0.0
 10
66.06409758080879
 20
49.40860466135403
 30
0.0
  0
LINE
  5
FC
330
1F
100
AcDbEntity
  8
0
  6
Continuous
 62
     7
370
    25
100
AcDbLine
 10
70.564317203
 20
49.4086046614
 30
0.0
 11
66.0640975808
 21
49.4086046614
 31
0.0
  0
SPLINE
  5
FD
330
1F
100
AcDbEntity
  8
0
  6
Continuous
 62
     7
370
    25
100
AcDbSpline
210
0.0
220
0.0
230
1.0
 70
     8
 71
     3
 72
    14
 73
    10
 74
     0
 42
0.00000001
 43
0.00000001
 40
0.0
 40
0.0
 40
0.0
 40
0.0
 40
0.25
 40
0.25
 40
0.5
 40
0.5
 40
0.75
 40
0.75
 40
1.0
 40
1.0
 40
1.0
 40
1.0
 10
70.564317202991
 20
40.17100035431996
 30
0.0
 10
70.77226756369679
 20
40.92538041496994
 30
0.0
 10
70.94448937238565
 20
41.69482158243544
 30
0.0
 10
71.17912449513655
 20
43.2353329433766
 30
0.0
 10
71.24206855376423
 20
44.01018732338363
 30
0.0
 10
71.24200864103277
 20
45.57054827826918
 30
0.0
 10
71.17739397474065
 20
46.36100447105421
 30
0.0
 10
70.94083463533943
 20
47.90328413386268
 30
0.0
 10
70.77048949526
 20
48.66067488706386
 30
0.0
 10
70.564317202991
 20
49.40860466135402
 30
0.0
  0
LINE
  5
FE
330
1F
100
AcDbEntity
  8
0
  6
Continuous
 62
     7
370
    25
100
AcDbLine
 10
66.0640975808
 20
40.1710003543
 30
0.0
 11
70.564317203
 21
40.1710003543
 31
0.0
  0
SPLINE
  5
FF
330
1F
100
AcDbEntity
  8
0
  6
Continuous
 62
     7
370
    25
100
AcDbSpline
210
0.0
220
0.0
230
1.0
 70
     8
 71
     3
 72
     8
 73
     4
 74
     0
 42
0.00000001
 43
0.00000001
 40
0.0
 40
0.0
 40
0.0
 40
0.0
 40
1.0
 40
1.0
 40
1.0
 40
1.0
 10
66.06409758080878
 20
40.17100035431998
 30
0.0
 10
66.00753573737184
 20
40.37618935585679
 30
0.0
 10
65.95359572011546
 20
40.58241272192149
 30
0.0
 10
65.90261225252777
 20
40.78980250783695
 30
0.0
  0
LINE
  5
100
330
1F
100
AcDbEntity
  8
0
  6
Continuous
 62
     7
370
    25
100
AcDbLine
 10
65.9026122525
 20
40.7898025078
 30
0.0
 11
63.3863761755
 21
40.7898025078
 31
0.0
  0
SPLINE
  5
101
330
1F
100
AcDbEntity
  8
0
  6
Continuous
 62
     7
370
    25
100
AcDbSpline
210
0.0
220
0.0
230
1.0
 70
     8
 71
     3
 72
     8
 73
     4
 74
     0
 42
0.00000001
 43
0.00000001
 40
0.0
 40
0.0
 40
0.0
 40
0.0
 40
1.0
 40
1.0
 40
1.0
 40
1.0
 10
63.3863761755486
 20
36.98489129626303
 30
0.0
 10
63.59340523888399
 20
36.9339965065622
 30
0.0
 10
63.79964525615334
 20
36.88006265720077
 30
0.0
 10
64.0051783290656
 20
36.82340596798201
 30
0.0
  0
LINE
  5
102
330
1F
100
AcDbEntity
  8
0
  6
Continuous
 62
     7
370
    25
100
AcDbLine
 10
64.0051783291
 20
34.2898025078
 30
0.0
 11
64.0051783291
 21
36.823405968
 31
0.0
  0
LINE
  5
103
330
1F
100
AcDbEntity
  8
0
  6
Continuous
 62
     7
370
    25
100
AcDbLine
 10
64.0051783291
 20
34.2898025078
 30
0.0
 11
60.0557078181
 21
34.2898025078
 31
0.0
  0
LINE
  5
104
330
1F
100
AcDbEntity
  8
0
  6
Continuous
 62
     7
370
    25
100
AcDbLine
 10
58.4846172616
 20
43.3674294902
 30
0.0
 11
58.4429669423
 21
43.3436245604
 31
0.0
  0
ELLIPSE
  5
105
330
1F
100
AcDbEntity
  8
0
  6
Continuous
 62
     7
370
    25
100
AcDbEllipse
 10
58.0941237628
 20
43.8983070316
 30
0.0
 11
0.6784129479252599
 21
6.110667527536862E-13
 31
0.0
210
0.0
220
0.0
230
1.0
 40
0.9533039403
 41
3.470145824140269
 42
5.252469180536298
  0
LINE
  5
106
330
1F
100
AcDbEntity
  8
0
  6
Continuous
 62
     7
370
    25
100
AcDbLine
 10
57.4519989957
 20
43.6896229166
 30
0.0
 11
56.1923447908
 21
47.2120673133
 31
0.0
  0
ELLIPSE
  5
107
330
1F
100
AcDbEntity
  8
0
  6
Continuous
 62
     7
370
    25
100
AcDbEllipse
 10
55.6013622329
 20
46.9497280772
 30
0.0
 11
0.6519124952381574
 21
6.110667527536862E-13
 31
0.0
210
0.0
220
0.0
230
1.0
 40
0.9533023292
 41
0.4357905044354863
 42
2.7058001163615
  0
LINE
  5
108
330
1F
100
AcDbEntity
  8
0
  6
Continuous
 62
     7
370
    25
100
AcDbLine
 10
55.0103802344
 20
47.2120684585
 30
0.0
 11
53.7510154327
 21
43.6904450568
 31
0.0
  0
ELLIPSE
  5
109
330
1F
100
AcDbEntity
  8
0
  6
Continuous
 62
     7
370
    25
100
AcDbEllipse
 10
53.1088942487
 20
43.8991278905
 30
0.0
 11
-0.6784085062757725
 21
3.268496584496461E-13
 31
0.0
210
0.0
220
0.0
230
1.0
 40
0.9533122623
 41
1.047193771187948
 42
2.813042320199934
  0
LINE
  5
10A
330
1F
100
AcDbEntity
  8
0
  6
Continuous
 62
     7
370
    25
100
AcDbLine
 10
52.7696877747
 20
43.3390400452
 30
0.0
 11
52.7181072042
 21
43.3674294902
 31
0.0
  0
LINE
  5
10B
330
1F
100
AcDbEntity
  8
0
  6
Continuous
 62
     7
370
    25
100
AcDbLine
 10
52.7181072042
 20
43.3674294902
 30
0.0
 11
53.5143758637
 21
41.8492573888
 31
0.0
  0
ELLIPSE
  5
10C
330
1F
100
AcDbEntity
  8
0
  6
Continuous
 62
     7
370
    25
100
AcDbEllipse
 10
53.5902247372
 20
41.8854109038
 30
0.0
 11
0.08480161849065837
 21
-2.131628207280301E-14
 31
0.0
210
0.0
220
0.0
230
1.0
 40
0.9533039403
 41
3.605240262590902
 42
5.462183310215417
  0
ELLIPSE
  5
10D
330
1F
100
AcDbEntity
  8
0
  6
Continuous
 62
     7
370
    25
100
AcDbEllipse
 10
55.6013622329
 20
39.8265622832
 30
0.0
 11
2.866293551216209
 21
-1.492139745096211E-12
 31
0.0
210
0.0
220
0.0
230
1.0
 40
0.9533046568
 41
0.8210016221243793
 42
2.320591031466437
  0
ELLIPSE
  5
10E
330
1F
100
AcDbEntity
  8
0
  6
Continuous
 62
     7
370
    25
100
AcDbEllipse
 10
57.6124997286
 20
41.8854109038
 30
0.0
 11
0.08480161849060863
 21
-7.105427357601002E-15
 31
0.0
210
0.0
220
0.0
230
1.0
 40
0.9533039403
 41
3.962594650556714
 42
5.819537698177298
  0
LINE
  5
10F
330
1F
100
AcDbEntity
  8
0
  6
Continuous
 62
     7
370
    25
100
AcDbLine
 10
57.688348602
 20
41.8492573888
 30
0.0
 11
58.4846172616
 21
43.3674294902
 31
0.0
  0
ARC
  5
110
330
1F
100
AcDbEntity
  8
0
  6
Continuous
 62
     7
370
    25
100
AcDbCircle
 10
64.2792521276
 20
44.2128835145
 30
0.0
 40
0.8889999999999718
100
AcDbArc
 50
45.0
 51
159.0751675724
  0
LINE
  5
111
330
1F
100
AcDbEntity
  8
0
  6
Continuous
 62
     7
370
    25
100
AcDbLine
 10
64.9078700561
 20
44.841501443
 30
0.0
 11
65.3744804417
 21
45.3081118286
 31
0.0
  0
ARC
  5
112
330
1F
100
AcDbEntity
  8
0
  6
Continuous
 62
     7
370
    25
100
AcDbCircle
 10
64.2792521276
 20
44.2128835145
 30
0.0
 40
1.548886735692379
100
AcDbArc
 50
45.0
 51
315.0
  0
LINE
  5
113
330
1F
100
AcDbEntity
  8
0
  6
Continuous
 62
     7
370
    25
100
AcDbLine
 10
65.3744804417
 20
43.1176552004
 30
0.0
 11
64.9078700561
 21
43.5842655861
 31
0.0
  0
ARC
  5
114
330
1F
100
AcDbEntity
  8
0
  6
Continuous
 62
     7
370
    25
100
AcDbCircle
 10
64.2792521276
 20
44.2128835145
 30
0.0
 40
0.8890000000000166
100
AcDbArc
 50
200.9248324276
 51
315.0
  0
LINE
  5
115
330
1F
100
AcDbEntity
  8
0
  6
Continuous
 62
     7
370
    25
100
AcDbLine
 10
63.4488818789
 20
43.8953835145
 30
0.0
 11
65.3744804417
 21
43.8953835145
 31
0.0
  0
LINE
  5
116
330
1F
100
AcDbEntity
  8
0
  6
Continuous
 62
     7
370
    25
100
AcDbLine
 10
65.3744804417
 20
43.8953835145
 30
0.0
 11
65.3744804417
 21
44.5303835145
 31
0.0
  0
LINE
  5
117
330
1F
100
AcDbEntity
  8
0
  6
Continuous
 62
     7
370
    25
100
AcDbLine
 10
65.3744804417
 20
44.5303835145
 30
0.0
 11
63.4488818789
 21
44.5303835145
 31
0.0
  0
ARC
  5
118
330
1F
100
AcDbEntity
  8
0
  6
Continuous
 62
     7
370
    25
100
AcDbCircle
 10
60.9371075313
 20
44.2128835145
 30
0.0
 40
0.889000000000007
100
AcDbArc
 50
45.0
 51
315.0
  0
LINE
  5
119
330
1F
100
AcDbEntity
  8
0
  6
Continuous
 62
     7
370
    25
100
AcDbLine
 10
61.5657254597
 20
44.841501443
 30
0.0
 11
62.0323358454
 21
45.3081118286
 31
0.0
  0
ARC
  5
11A
330
1F
100
AcDbEntity
  8
0
  6
Continuous
 62
     7
370
    25
100
AcDbCircle
 10
60.9371075313
 20
44.2128835145
 30
0.0
 40
1.548886735692399
100
AcDbArc
 50
45.0
 51
315.0
  0
LINE
  5
11B
330
1F
100
AcDbEntity
  8
0
  6
Continuous
 62
     7
370
    25
100
AcDbLine
 10
62.0323358454
 20
43.1176552004
 30
0.0
 11
61.5657254597
 21
43.5842655861
 31
0.0
  0
LINE
  5
11C
330
1F
100
AcDbEntity
  8
0
  6
Continuous
 62
     7
370
    25
100
AcDbLine
 10
63.3863761755
 20
36.9848912963
 30
0.0
 11
63.3863761755
 21
40.7898025078
 31
0.0
  0
LINE
  5
11D
330
1F
100
AcDbEntity
  8
0
  6
Continuous
 62
     7
370
    25
100
AcDbLine
 10
55.3863761755
 20
36.9848912963
 30
0.0
 11
55.3863761755
 21
40.7898025078
 31
0.0
  0
LINE
  5
11E
330
1F
100
AcDbEntity
  8
0
  6
Continuous
 62
     7
370
    25
100
AcDbLine
 10
65.9026122525
 20
48.7898025078
 30
0.0
 11
52.8701400986
 21
48.7898025078
 31
0.0
  0
LINE
  5
11F
330
1F
100
AcDbEntity
  8
0
  6
Continuous
 62
     7
370
    25
100
AcDbLine
 10
53.3863761755
 20
52.15101844
 30
0.0
 11
53.3863761755
 21
48.7898025078
 31
0.0
  0
SPLINE
  5
120
330
1F
100
AcDbEntity
  8
0
  6
Continuous
 62
     7
370
    25
100
AcDbSpline
210
0.0
220
0.0
230
1.0
 70
     8
 71
     3
 72
    10
 73
     6
 74
     0
 42
0.00000001
 43
0.00000001
 40
0.0
 40
0.0
 40
0.0
 40
0.0
 40
0.5
 40
0.5
 40
1.0
 40
1.0
 40
1.0
 40
1.0
 10
52.70865477028841
 20
49.84161736324624
 30
0.0
 10
52.68497937586402
 20
49.79867383234502
 30
0.0
 10
52.67188826597938
 20
49.73523138772089
 30
0.0
 10
52.67180194469109
 20
49.58275255060192
 30
0.0
 10
52.68497087863494
 20
49.49452254849465
 30
0.0
 10
52.7086547702884
 20
49.40860466135402
 30
0.0
  0
SPLINE
  5
121
330
1F
100
AcDbEntity
  8
0
  6
Continuous
 62
     7
370
    25
100
AcDbSpline
210
0.0
220
0.0
230
1.0
 70
     8
 71
     3
 72
    12
 73
     8
 74
     0
 42
0.00000001
 43
0.00000001
 40
0.0
 40
0.0
 40
0.0
 40
0.0
 40
0.2500000000000001
 40
0.2500000000000001
 40
0.5000000000000002
 40
0.5000000000000002
 40
1.0
 40
1.0
 40
1.0
 40
1.0
 10
53.38637617554861
 20
52.15101844000474
 30
0.0
 10
53.38637617554861
 20
51.95527617712523
 30
0.0
 10
53.37053323945965
 20
51.75860956793467
 30
0.0
 10
53.30903037922197
 20
51.36934134060638
 30
0.0
 10
53.26342673817828
 20
51.17593730765347
 30
0.0
 10
53.08697572068908
 20
50.59900825639671
 30
0.0
 10
52.91657835343722
 20
50.2187588231937
 30
0.0
 10
52.70865477028841
 20
49.84161736324624
 30
0.0
  0
SPLINE
  5
122
330
1F
100
AcDbEntity
  8
0
  6
Continuous
 62
     7
370
    25
100
AcDbSpline
210
0.0
220
0.0
230
1.0
 70
     8
 71
     3
 72
     8
 73
     4
 74
     0
 42
0.00000001
 43
0.00000001
 40
0.0
 40
0.0
 40
0.0
 40
0.0
 40
1.0
 40
1.0
 40
1.0
 40
1.0
 10
65.72893813436247
 20
37.78980250783701
 30
0.0
 10
66.05141746121174
 20
37.69808822010256
 30
0.0
 10
66.3667352175357
 20
37.60143143103465
 30
0.0
 10
66.67575236018321
 20
37.5004263232024
 30
0.0
  0
SPLINE
  5
123
330
1F
100
AcDbEntity
  8
0
  6
Continuous
 62
     7
370
    25
100
AcDbSpline
210
0.0
220
0.0
230
1.0
 70
     8
 71
     3
 72
    10
 73
     6
 74
     0
 42
0.00000001
 43
0.00000001
 40
0.0
 40
0.0
 40
0.0
 40
0.0
 40
0.5
 40
0.5
 40
1.0
 40
1.0
 40
1.0
 40
1.0
 10
64.43819103095811
 20
36.82340596798216
 30
0.0
 10
64.80470897779864
 20
37.02547265353309
 30
0.0
 10
65.17378920326446
 20
37.19186542580373
 30
0.0
 10
65.91904155149186
 20
37.42591239967378
 30
0.0
 10
66.29525432343964
 20
37.49300065363261
 30
0.0
 10
66.67575236018321
 20
37.5004263232024
 30
0.0
  0
SPLINE
  5
124
330
1F
100
AcDbEntity
  8
0
  6
Continuous
 62
     7
370
    25
100
AcDbSpline
210
0.0
220
0.0
230
1.0
 70
     8
 71
     3
 72
    10
 73
     6
 74
     0
 42
0.00000001
 43
0.00000001
 40
0.0
 40
0.0
 40
0.0
 40
0.0
 40
0.5
 40
0.5
 40
1.0
 40
1.0
 40
1.0
 40
1.0
 10
64.0051783290656
 20
36.82340596798199
 30
0.0
 10
64.09106539086815
 20
36.79973057355758
 30
0.0
 10
64.17847259984835
 20
36.78663946367295
 30
0.0
 10
64.33110904244222
 20
36.78655314238473
 30
0.0
 10
64.39523208738798
 20
36.79972207632867
 30
0.0
 10
64.43819103095821
 20
36.82340596798223
 30
0.0
  0
SPLINE
  5
125
330
1F
100
AcDbEntity
  8
0
  6
Continuous
 62
     7
370
    25
100
AcDbSpline
210
0.0
220
0.0
230
1.0
 70
     8
 71
     3
 72
     8
 73
     4
 74
     0
 42
0.00000001
 43
0.00000001
 40
0.0
 40
0.0
 40
0.0
 40
0.0
 40
1.0
 40
1.0
 40
1.0
 40
1.0
 10
65.50775966704475
 20
38.37968097451177
 30
0.0
 10
65.46664439140349
 20
38.51571136900132
 30
0.0
 10
65.42615540853564
 20
38.65241543363875
 30
0.0
 10
65.3863761755486
 20
38.78980250783701
 30
0.0
  0
LINE
  5
126
330
1F
100
AcDbEntity
  8
0
  6
Continuous
 62
     7
370
    25
100
AcDbLine
 10
65.3863761755
 20
40.7898025078
 30
0.0
 11
65.3863761755
 21
38.7898025078
 31
0.0
  0
SPLINE
  5
127
330
1F
100
AcDbEntity
  8
0
  6
Continuous
 62
     7
370
    25
100
AcDbSpline
210
0.0
220
0.0
230
1.0
 70
     8
 71
     3
 72
    10
 73
     6
 74
     0
 42
0.00000001
 43
0.00000001
 40
0.0
 40
0.0
 40
0.0
 40
0.0
 40
0.5
 40
0.5
 40
1.0
 40
1.0
 40
1.0
 40
1.0
 10
66.06409758080554
 20
39.73798765242779
 30
0.0
 10
66.08777297522987
 20
39.78093118332894
 30
0.0
 10
66.10086408511778
 20
39.84437362795273
 30
0.0
 10
66.10095040640614
 20
39.99685246507182
 30
0.0
 10
66.0877814724623
 20
40.08508246717925
 30
0.0
 10
66.06409758080879
 20
40.17100035431999
 30
0.0
  0
SPLINE
  5
128
330
1F
100
AcDbEntity
  8
0
  6
Continuous
 62
     7
370
    25
100
AcDbSpline
210
0.0
220
0.0
230
1.0
 70
     8
 71
     3
 72
     8
 73
     4
 74
     0
 42
0.00000001
 43
0.00000001
 40
0.0
 40
0.0
 40
0.0
 40
0.0
 40
1.0
 40
1.0
 40
1.0
 40
1.0
 10
65.50775966704475
 20
38.37968097451177
 30
0.0
 10
65.6233922770738
 20
38.83823190656953
 30
0.0
 10
65.81728168189424
 20
39.29030150232778
 30
0.0
 10
66.06409758080864
 20
39.73798765242753
 30
0.0
  0
LINE
  5
129
330
1F
100
AcDbEntity
  8
0
  6
Continuous
 62
     7
370
    25
100
AcDbLine
 10
47.8863761755
 20
44.7898025078
 30
0.0
 11
47.8863761755
 21
52.15101844
 31
0.0
  0
SPLINE
  5
12A
330
1F
100
AcDbEntity
  8
0
  6
Continuous
 62
     7
370
    25
100
AcDbSpline
210
0.0
220
0.0
230
1.0
 70
     8
 71
     3
 72
    10
 73
     6
 74
     0
 42
0.00000001
 43
0.00000001
 40
0.0
 40
0.0
 40
0.0
 40
0.0
 40
0.5
 40
0.5
 40
1.0
 40
1.0
 40
1.0
 40
1.0
 10
48.56409758080832
 20
49.84161736324621
 30
0.0
 10
48.35528765614207
 20
50.2203665106375
 30
0.0
 10
48.18475351639481
 20
50.6015717870488
 30
0.0
 10
47.94996771137589
 20
51.37080240823659
 30
0.0
 10
47.8863761755486
 20
51.75887011303491
 30
0.0
 10
47.8863761755486
 20
52.15101844000474
 30
0.0
  0
SPLINE
  5
12B
330
1F
100
AcDbEntity
  8
0
  6
Continuous
 62
     7
370
    25
100
AcDbSpline
210
0.0
220
0.0
230
1.0
 70
     8
 71
     3
 72
    10
 73
     6
 74
     0
 42
0.00000001
 43
0.00000001
 40
0.0
 40
0.0
 40
0.0
 40
0.0
 40
0.5
 40
0.5
 40
1.0
 40
1.0
 40
1.0
 40
1.0
 10
48.56409758080879
 20
49.84161736324624
 30
0.0
 10
48.58776982072035
 20
49.79867955414701
 30
0.0
 10
48.6008638106556
 20
49.7352389642548
 30
0.0
 10
48.60095067811705
 20
49.58274981874596
 30
0.0
 10
48.5877808883577
 20
49.49452042954265
 30
0.0
 10
48.56409758080879
 20
49.40860466135402
 30
0.0
  0
LINE
  5
12C
330
1F
100
AcDbEntity
  8
0
  6
Continuous
 62
     7
370
    25
100
AcDbLine
 10
47.8863761755
 20
44.7898025078
 30
0.0
 11
47.8863761755
 21
37.4285865757
 31
0.0
  0
SPLINE
  5
12D
330
1F
100
AcDbEntity
  8
0
  6
Continuous
 62
     7
370
    25
100
AcDbSpline
210
0.0
220
0.0
230
1.0
 70
     8
 71
     3
 72
    10
 73
     6
 74
     0
 42
0.00000001
 43
0.00000001
 40
0.0
 40
0.0
 40
0.0
 40
0.0
 40
0.5
 40
0.5
 40
1.0
 40
1.0
 40
1.0
 40
1.0
 10
48.56409758080879
 20
40.17100035431999
 30
0.0
 10
48.58777148136474
 20
40.08511871181354
 30
0.0
 10
48.60086403854388
 20
39.99770950584811
 30
0.0
 10
48.60095045252616
 20
39.84506702077318
 30
0.0
 10
48.58778006092754
 20
39.78094403569081
 30
0.0
 10
48.56409758080879
 20
39.73798765242779
 30
0.0
  0
SPLINE
  5
12E
330
1F
100
AcDbEntity
  8
0
  6
Continuous
 62
     7
370
    25
100
AcDbSpline
210
0.0
220
0.0
230
1.0
 70
     8
 71
     3
 72
    12
 73
     8
 74
     0
 42
0.00000001
 43
0.00000001
 40
0.0
 40
0.0
 40
0.0
 40
0.0
 40
0.2499999999999999
 40
0.2499999999999999
 40
0.4999999999999998
 40
0.4999999999999998
 40
1.0
 40
1.0
 40
1.0
 40
1.0
 10
47.8863761755486
 20
37.42858657566928
 30
0.0
 10
47.8863761755486
 20
37.62359005567507
 30
0.0
 10
47.90212250557055
 20
37.82012471469948
 30
0.0
 10
47.96356753015598
 20
38.20954440230503
 30
0.0
 10
48.00915628940972
 20
38.4030290953653
 30
0.0
 10
48.18560729166632
 20
38.9802126941209
 30
0.0
 10
48.3560649936298
 20
39.36064847590386
 30
0.0
 10
48.56409758080864
 20
39.7379876524278
 30
0.0
  0
SPLINE
  5
12F
330
1F
100
AcDbEntity
  8
0
  6
Continuous
 62
     7
370
    25
100
AcDbSpline
210
0.0
220
0.0
230
1.0
 70
     8
 71
     3
 72
    10
 73
     6
 74
     0
 42
0.00000001
 43
0.00000001
 40
0.0
 40
0.0
 40
0.0
 40
0.0
 40
0.5
 40
0.5
 40
1.0
 40
1.0
 40
1.0
 40
1.0
 10
70.56431720299088
 20
40.17100035432
 30
0.0
 10
70.54064180856649
 20
40.08511329251754
 30
0.0
 10
70.52755069868196
 20
39.99770608353741
 30
0.0
 10
70.52746437739368
 20
39.84506964094368
 30
0.0
 10
70.54063331133753
 20
39.7809465959981
 30
0.0
 10
70.564317202991
 20
39.73798765242779
 30
0.0
  0
SPLINE
  5
130
330
1F
100
AcDbEntity
  8
0
  6
Continuous
 62
     7
370
    25
100
AcDbSpline
210
0.0
220
0.0
230
1.0
 70
     8
 71
     3
 72
    10
 73
     6
 74
     0
 42
0.00000001
 43
0.00000001
 40
0.0
 40
0.0
 40
0.0
 40
0.0
 40
0.5
 40
0.5
 40
1.0
 40
1.0
 40
1.0
 40
1.0
 10
70.564317202991
 20
49.84161736324624
 30
0.0
 10
70.54064180856662
 20
49.79867383234502
 30
0.0
 10
70.52755069868196
 20
49.73523138772089
 30
0.0
 10
70.52746437739368
 20
49.58275255060192
 30
0.0
 10
70.54063331133753
 20
49.49452254849464
 30
0.0
 10
70.564317202991
 20
49.40860466135402
 30
0.0
  0
SPLINE
  5
131
330
1F
100
AcDbEntity
  8
0
  6
Continuous
 62
     7
370
    25
100
AcDbSpline
210
0.0
220
0.0
230
1.0
 70
     8
 71
     3
 72
    16
 73
    12
 74
     0
 42
0.00000001
 43
0.00000001
 40
0.0
 40
0.0
 40
0.0
 40
0.0
 40
0.2500000000000001
 40
0.2500000000000001
 40
0.5000000000000001
 40
0.5000000000000001
 40
0.6250000000000001
 40
0.6250000000000001
 40
0.7500000000000002
 40
0.7500000000000002
 40
1.0
 40
1.0
 40
1.0
 40
1.0
 10
70.564317202991
 20
54.46041951676325
 30
0.0
 10
70.77233265109675
 20
54.08311142788675
 30
0.0
 10
70.94253895606974
 20
53.70308769751255
 30
0.0
 10
71.17747498763734
 20
52.93546438210185
 30
0.0
 10
71.24154711930098
 20
52.54781756531305
 30
0.0
 10
71.242280068222
 20
51.95949701342521
 30
0.0
 10
71.22662058813897
 20
51.76242382086956
 30
0.0
 10
71.16534546150204
 20
51.37236684331546
 30
0.0
 10
71.1197891890029
 20
51.17857394272743
 30
0.0
 10
70.94330315624664
 20
50.60049295796399
 30
0.0
 10
70.77264670276092
 20
50.21949509362918
 30
0.0
 10
70.564317202991
 20
49.84161736324624
 30
0.0
  0
SPLINE
  5
132
330
1F
100
AcDbEntity
  8
0
  6
Continuous
 62
     7
370
    25
100
AcDbSpline
210
0.0
220
0.0
230
1.0
 70
     8
 71
     3
 72
    10
 73
     6
 74
     0
 42
0.00000001
 43
0.00000001
 40
0.0
 40
0.0
 40
0.0
 40
0.0
 40
0.1601790552921226
 40
0.7197651707803578
 40
1.0
 40
1.0
 40
1.0
 40
1.0
 10
70.53008776987409
 20
54.52269779551299
 30
0.0
 10
70.52932497978084
 20
54.52409002353937
 30
0.0
 10
70.5258973797071
 20
54.53034600526768
 30
0.0
 10
70.5404048445054
 20
54.50383874053978
 30
0.0
 10
70.55833439762324
 20
54.47128288539461
 30
0.0
 10
70.564317202991
 20
54.46041951676325
 30
0.0
  0
SPLINE
  5
133
330
1F
100
AcDbEntity
  8
0
  6
Continuous
 62
     7
370
    25
100
AcDbSpline
210
0.0
220
0.0
230
1.0
 70
     8
 71
     3
 72
     9
 73
     5
 74
     0
 42
0.00000001
 43
0.00000001
 40
0.0
 40
0.0
 40
0.0
 40
0.0
 40
0.5797912171256352
 40
1.0
 40
1.0
 40
1.0
 40
1.0
 10
70.564317202991
 20
35.11918549891078
 30
0.0
 10
70.55195859964452
 20
35.09671185066965
 30
0.0
 10
70.53064298985014
 20
35.05795022824883
 30
0.0
 10
70.53025204734736
 20
35.05721582349062
 30
0.0
 10
70.53008776987409
 20
35.05690722016104
 30
0.0
  0
SPLINE
  5
134
330
1F
100
AcDbEntity
  8
0
  6
Continuous
 62
     7
370
    25
100
AcDbSpline
210
0.0
220
0.0
230
1.0
 70
     8
 71
     3
 72
    16
 73
    12
 74
     0
 42
0.00000001
 43
0.00000001
 40
0.0
 40
0.0
 40
0.0
 40
0.0
 40
0.2500000000000001
 40
0.2500000000000001
 40
0.5000000000000002
 40
0.5000000000000002
 40
0.6250000000000001
 40
0.6250000000000001
 40
0.7500000000000001
 40
0.7500000000000001
 40
1.0
 40
1.0
 40
1.0
 40
1.0
 10
70.564317202991
 20
39.73798765242779
 30
0.0
 10
70.77233265109675
 20
39.36067956355129
 30
0.0
 10
70.94253895606975
 20
38.98065583317709
 30
0.0
 10
71.17747498763734
 20
38.21303251776639
 30
0.0
 10
71.24154711930098
 20
37.8253857009776
 30
0.0
 10
71.242280068222
 20
37.23706514908974
 30
0.0
 10
71.22662058813897
 20
37.0399919565341
 30
0.0
 10
71.16534546150204
 20
36.64993497898
 30
0.0
 10
71.1197891890029
 20
36.45614207839196
 30
0.0
 10
70.94330315624664
 20
35.87806109362854
 30
0.0
 10
70.77264670276092
 20
35.49706322929371
 30
0.0
 10
70.564317202991
 20
35.11918549891078
 30
0.0
  0
LINE
  5
135
330
1F
100
AcDbEntity
  8
0
  6
Continuous
 62
     7
370
    25
100
AcDbLine
 10
71.3863761755
 20
53.0398025078
 30
0.0
 11
71.3863761755
 21
36.5398025078
 31
0.0
  0
LINE
  5
136
330
1F
100
AcDbEntity
  8
0
  6
Continuous
 62
     7
370
    25
100
AcDbLine
 10
64.438191031
 20
36.823405968
 30
0.0
 11
64.438191031
 21
34.2898025078
 31
0.0
  0
LINE
  5
137
330
1F
100
AcDbEntity
  8
0
  6
Continuous
 62
     7
370
    25
100
AcDbLine
 10
64.0051783291
 20
34.2898025078
 30
0.0
 11
64.438191031
 21
34.2898025078
 31
0.0
  0
LINE
  5
138
330
1F
100
AcDbEntity
  8
0
  6
Continuous
 62
     7
370
    25
100
AcDbLine
 10
53.3863761755
 20
40.7898025078
 30
0.0
 11
53.3863761755
 21
38.7898025078
 31
0.0
  0
SPLINE
  5
139
330
1F
100
AcDbEntity
  8
0
  6
Continuous
 62
     7
370
    25
100
AcDbSpline
210
0.0
220
0.0
230
1.0
 70
     8
 71
     3
 72
     8
 73
     4
 74
     0
 42
0.00000001
 43
0.00000001
 40
0.0
 40
0.0
 40
0.0
 40
0.0
 40
1.0
 40
1.0
 40
1.0
 40
1.0
 10
53.3863761755486
 20
38.78980250783701
 30
0.0
 10
53.34659751735843
 20
38.6524174188369
 30
0.0
 10
53.30610855453019
 20
38.51571333702514
 30
0.0
 10
53.26499268405244
 20
38.37968097451176
 30
0.0
  0
SPLINE
  5
13A
330
1F
100
AcDbEntity
  8
0
  6
Continuous
 62
     7
370
    25
100
AcDbSpline
210
0.0
220
0.0
230
1.0
 70
     8
 71
     3
 72
     8
 73
     4
 74
     0
 42
0.00000001
 43
0.00000001
 40
0.0
 40
0.0
 40
0.0
 40
0.0
 40
1.0
 40
1.0
 40
1.0
 40
1.0
 10
52.7086547702884
 20
39.73798765242779
 30
0.0
 10
52.95582855117234
 20
39.28965235937646
 30
0.0
 10
53.14955021947632
 20
38.83747786863287
 30
0.0
 10
53.26499268405244
 20
38.37968097451176
 30
0.0
  0
SPLINE
  5
13B
330
1F
100
AcDbEntity
  8
0
  6
Continuous
 62
     7
370
    25
100
AcDbSpline
210
0.0
220
0.0
230
1.0
 70
     8
 71
     3
 72
    10
 73
     6
 74
     0
 42
0.00000001
 43
0.00000001
 40
0.0
 40
0.0
 40
0.0
 40
0.0
 40
0.5
 40
0.5
 40
1.0
 40
1.0
 40
1.0
 40
1.0
 10
52.70865477028835
 20
40.17100035432
 30
0.0
 10
52.68497937586397
 20
40.08511329251755
 30
0.0
 10
52.67188826597938
 20
39.99770608353742
 30
0.0
 10
52.6718019446911
 20
39.84506964094368
 30
0.0
 10
52.68497087863494
 20
39.7809465959981
 30
0.0
 10
52.7086547702884
 20
39.73798765242779
 30
0.0
  0
LINE
  5
13C
330
1F
100
AcDbEntity
  8
0
  6
Continuous
 62
     7
370
    25
100
AcDbLine
 10
70.564317203
 20
39.7379876524
 30
0.0
 11
66.0640975808
 21
39.7379876524
 31
0.0
  0
LINE
  5
13D
330
1F
100
AcDbEntity
  8
0
  6
Continuous
 62
     7
370
    25
100
AcDbLine
 10
65.3863761755
 20
52.15101844
 30
0.0
 11
65.3863761755
 21
48.7898025078
 31
0.0
  0
SPLINE
  5
13E
330
1F
100
AcDbEntity
  8
0
  6
Continuous
 62
     7
370
    25
100
AcDbSpline
210
0.0
220
0.0
230
1.0
 70
     8
 71
     3
 72
    10
 73
     6
 74
     0
 42
0.00000001
 43
0.00000001
 40
0.0
 40
0.0
 40
0.0
 40
0.0
 40
0.5
 40
0.5
 40
1.0
 40
1.0
 40
1.0
 40
1.0
 10
66.0640975808088
 20
49.84161736324621
 30
0.0
 10
65.85567682799137
 20
50.21966061264838
 30
0.0
 10
65.68521299271394
 20
50.60043011744423
 30
0.0
 10
65.45023055777555
 20
51.36957864300177
 30
0.0
 10
65.3863761755486
 20
51.75800537117701
 30
0.0
 10
65.3863761755486
 20
52.15101844000474
 30
0.0
  0
SPLINE
  5
13F
330
1F
100
AcDbEntity
  8
0
  6
Continuous
 62
     7
370
    25
100
AcDbSpline
210
0.0
220
0.0
230
1.0
 70
     8
 71
     3
 72
    10
 73
     6
 74
     0
 42
0.00000001
 43
0.00000001
 40
0.0
 40
0.0
 40
0.0
 40
0.0
 40
0.5
 40
0.5
 40
1.0
 40
1.0
 40
1.0
 40
1.0
 10
66.0640975808088
 20
49.40860466135402
 30
0.0
 10
66.0877729752332
 20
49.49449172315647
 30
0.0
 10
66.1008640851178
 20
49.58189893213658
 30
0.0
 10
66.1009504064061
 20
49.73453537473031
 30
0.0
 10
66.08778147246228
 20
49.7986584196759
 30
0.0
 10
66.0640975808088
 20
49.84161736324621
 30
0.0
  0
SPLINE
  5
140
330
1F
100
AcDbEntity
  8
0
  6
Continuous
 62
     7
370
    25
100
AcDbSpline
210
0.0
220
0.0
230
1.0
 70
     8
 71
     3
 72
     8
 73
     4
 74
     0
 42
0.00000001
 43
0.00000001
 40
0.0
 40
0.0
 40
0.0
 40
0.0
 40
1.0
 40
1.0
 40
1.0
 40
1.0
 10
52.09699999093198
 20
37.50042632320827
 30
0.0
 10
52.40601713357373
 20
37.60143143103841
 30
0.0
 10
52.72133488989171
 20
37.69808822010434
 30
0.0
 10
53.04381421673474
 20
37.78980250783701
 30
0.0
  0
SPLINE
  5
141
330
1F
100
AcDbEntity
  8
0
  6
Continuous
 62
     7
370
    25
100
AcDbSpline
210
0.0
220
0.0
230
1.0
 70
     8
 71
     3
 72
    10
 73
     6
 74
     0
 42
0.00000001
 43
0.00000001
 40
0.0
 40
0.0
 40
0.0
 40
0.0
 40
0.5
 40
0.5
 40
1.0
 40
1.0
 40
1.0
 40
1.0
 10
54.33456132013938
 20
36.82340596798201
 30
0.0
 10
54.3775048510406
 20
36.79973057355762
 30
0.0
 10
54.44094729566473
 20
36.78663946367298
 30
0.0
 10
54.59342613278369
 20
36.7865531423847
 30
0.0
 10
54.68165613489096
 20
36.79972207632854
 30
0.0
 10
54.76757402203158
 20
36.823405967982
 30
0.0
  0
SPLINE
  5
142
330
1F
100
AcDbEntity
  8
0
  6
Continuous
 62
     7
370
    25
100
AcDbSpline
210
0.0
220
0.0
230
1.0
 70
     8
 71
     3
 72
    12
 73
     8
 74
     0
 42
0.00000001
 43
0.00000001
 40
0.0
 40
0.0
 40
0.0
 40
0.0
 40
0.2500000000000002
 40
0.2500000000000002
 40
0.5000000000000004
 40
0.5000000000000004
 40
1.0
 40
1.0
 40
1.0
 40
1.0
 10
52.09699999092673
 20
37.50042632320215
 30
0.0
 10
52.28702616622995
 20
37.49671783734572
 30
0.0
 10
52.47724122891577
 20
37.47813533450804
 30
0.0
 10
52.85417798804816
 20
37.41326829754189
 30
0.0
 10
53.04150077930767
 20
37.36700274429163
 30
0.0
 10
53.60041073562176
 20
37.19127821398467
 30
0.0
 10
53.96894639373208
 20
37.02497480520792
 30
0.0
 10
54.33456132013938
 20
36.82340596798201
 30
0.0
  0
LINE
  5
143
330
1F
100
AcDbEntity
  8
0
  6
Continuous
 62
     7
370
    25
100
AcDbLine
 10
54.3345613201
 20
34.2898025078
 30
0.0
 11
54.3345613201
 21
36.823405968
 31
0.0
  0
LINE
  5
144
330
1F
100
AcDbEntity
  8
0
  6
Continuous
 62
     7
370
    25
100
AcDbLine
 10
54.3345613201
 20
34.2898025078
 30
0.0
 11
54.767574022
 21
34.2898025078
 31
0.0
  0
LINE
  5
145
330
1F
100
AcDbEntity
  8
0
  6
Continuous
 62
     7
370
    25
100
AcDbLine
 10
66.0640975808
 20
49.8416173632
 30
0.0
 11
70.564317203
 21
49.8416173632
 31
0.0
  0
LINE
  5
146
330
1F
100
AcDbEntity
  8
0
  6
Continuous
 62
     7
370
    25
100
AcDbLine
 10
52.7086547703
 20
39.7379876524
 30
0.0
 11
48.5640975808
 21
39.7379876524
 31
0.0
  0
LINE
  5
147
330
1F
100
AcDbEntity
  8
0
  6
Continuous
 62
     7
370
    25
100
AcDbLine
 10
48.5640975808
 20
49.8416173632
 30
0.0
 11
52.7086547703
 21
49.8416173632
 31
0.0
  0
ELLIPSE
  5
148
330
1F
100
AcDbEntity
  8
0
  6
Continuous
 62
     7
370
    25
100
AcDbEllipse
 10
55.332615169
 20
44.2962123684
 30
0.0
 11
0.08480161849065837
 21
-7.105427357601002E-15
 31
0.0
210
0.0
220
0.0
230
1.0
 40
0.9533039403
 41
2.798568711308326
 42
4.712388980384699
  0
LINE
  5
149
330
1F
100
AcDbEntity
  8
0
  6
Continuous
 62
     7
370
    25
100
AcDbLine
 10
55.332615169
 20
44.2153706514
 30
0.0
 11
55.9399635278
 21
44.2153706514
 31
0.0
  0
LINE
  5
14A
330
1F
100
AcDbEntity
  8
0
  6
Continuous
 62
     7
370
    25
100
AcDbLine
 10
55.5564281119
 20
45.1339849973
 30
0.0
 11
55.2527539308
 21
44.3234023804
 31
0.0
  0
ELLIPSE
  5
14B
330
1F
100
AcDbEntity
  8
0
  6
Continuous
 62
     7
370
    25
100
AcDbEllipse
 10
55.6362893502
 20
45.1067949854
 30
0.0
 11
0.08480161849065837
 21
0.0
 31
0.0
210
0.0
220
0.0
230
1.0
 40
0.9533039403
 41
0.3430239404206104
 42
2.798568713169185
  0
LINE
  5
14C
330
1F
100
AcDbEntity
  8
0
  6
Continuous
 62
     7
370
    25
100
AcDbLine
 10
56.0198247662
 20
44.3234023801
 30
0.0
 11
55.7161505885
 21
45.1339849973
 31
0.0
  0
ELLIPSE
  5
14D
330
1F
100
AcDbEntity
  8
0
  6
Continuous
 62
     7
370
    25
100
AcDbEllipse
 10
55.9399635278
 20
44.2962123684
 30
0.0
 11
-0.08480161849066548
 21
-4.973799150320701E-14
 31
0.0
210
0.0
220
0.0
230
1.0
 40
0.9533039403
 41
1.570796326794337
 42
3.484616592149223
  0
LINE
  5
14E
330
1F
100
AcDbEntity
  8
0
  6
Continuous
 62
     7
370
    25
100
AcDbLine
 10
51.185700181
 20
23.8694343338
 30
0.0
 11
67.5870521701
 21
23.8694343338
 31
0.0
  0
SPLINE
  5
14F
330
1F
100
AcDbEntity
  8
0
  6
Continuous
 62
     7
370
    25
100
AcDbSpline
210
0.0
220
0.0
230
1.0
 70
     8
 71
     3
 72
    22
 73
    18
 74
     0
 42
0.00000001
 43
0.00000001
 40
0.0
 40
0.0
 40
0.0
 40
0.0
 40
0.249999999999999
 40
0.249999999999999
 40
0.3749999999999976
 40
0.3749999999999976
 40
0.4374999999999975
 40
0.4374999999999975
 40
0.4999999999999973
 40
0.4999999999999973
 40
0.5624999999999972
 40
0.5624999999999972
 40
0.6249999999999971
 40
0.6249999999999971
 40
0.7499999999999972
 40
0.7499999999999972
 40
1.0
 40
1.0
 40
1.0
 40
1.0
 10
52.35982606463255
 20
34.28980250783701
 30
0.0
 10
52.32509188925511
 20
34.11529381020144
 30
0.0
 10
52.28649943773632
 20
33.94295535330156
 30
0.0
 10
52.21177049269065
 20
33.70521991999451
 30
0.0
 10
52.183827571397
 20
33.62843735061248
 30
0.0
 10
52.13234899473056
 20
33.53208295410291
 30
0.0
 10
52.11349326862358
 20
33.50330935364081
 30
0.0
 10
52.07201667501878
 20
33.46109578861183
 30
0.0
 10
52.04863806339364
 20
33.44772269064934
 30
0.0
 10
52.0012330529914
 20
33.44788308524588
 30
0.0
 10
51.97781425762825
 20
33.46138777736527
 30
0.0
 10
51.93598524815997
 20
33.50437922010271
 30
0.0
 10
51.91706803298929
 20
33.53356385627345
 30
0.0
 10
51.86578606180976
 20
33.63019650674012
 30
0.0
 10
51.83796971953632
 20
33.70685775223627
 30
0.0
 10
51.76329004331755
 20
33.94506819227015
 30
0.0
 10
51.72515296518606
 20
34.11567379612573
 30
0.0
 10
51.69049442212906
 20
34.28980250783687
 30
0.0
  0
SPLINE
  5
150
330
1F
100
AcDbEntity
  8
0
  6
Continuous
 62
     7
370
    25
100
AcDbSpline
210
0.0
220
0.0
230
1.0
 70
     8
 71
     3
 72
    22
 73
    18
 74
     0
 42
0.00000001
 43
0.00000001
 40
0.0
 40
0.0
 40
0.0
 40
0.0
 40
0.2499999999999977
 40
0.2499999999999977
 40
0.3749999999999955
 40
0.3749999999999955
 40
0.4374999999999958
 40
0.4374999999999958
 40
0.4999999999999961
 40
0.4999999999999961
 40
0.5624999999999964
 40
0.5624999999999964
 40
0.6249999999999967
 40
0.6249999999999967
 40
0.7499999999999978
 40
0.7499999999999978
 40
1.0
 40
1.0
 40
1.0
 40
1.0
 10
67.082257928968
 20
34.28980250783701
 30
0.0
 10
67.04752375359055
 20
34.11529381020139
 30
0.0
 10
67.00893130207174
 20
33.94295535330146
 30
0.0
 10
66.93420235702605
 20
33.70521991999436
 30
0.0
 10
66.90625943573238
 20
33.62843735061232
 30
0.0
 10
66.8547808590659
 20
33.53208295410275
 30
0.0
 10
66.8359251329589
 20
33.50330935364062
 30
0.0
 10
66.79444853935405
 20
33.46109578861166
 30
0.0
 10
66.77106992772892
 20
33.44772269064928
 30
0.0
 10
66.72366491732662
 20
33.44788308524596
 30
0.0
 10
66.70024612196352
 20
33.4613877773654
 30
0.0
 10
66.65841711249527
 20
33.50437922010291
 30
0.0
 10
66.6394998973246
 20
33.53356385627371
 30
0.0
 10
66.5882179261451
 20
33.63019650674038
 30
0.0
 10
66.56040158387167
 20
33.70685775223662
 30
0.0
 10
66.48572190765297
 20
33.94506819227033
 30
0.0
 10
66.4475848295215
 20
34.11567379612583
 30
0.0
 10
66.41292628646451
 20
34.28980250783687
 30
0.0
  0
SPLINE
  5
151
330
1F
100
AcDbEntity
  8
0
  6
Continuous
 62
     7
370
    25
100
AcDbSpline
210
0.0
220
0.0
230
1.0
 70
     8
 71
     3
 72
    12
 73
     8
 74
     0
 42
0.00000001
 43
0.00000001
 40
0.0
 40
0.0
 40
0.0
 40
0.0
 40
0.2499999999999999
 40
0.2499999999999999
 40
0.4999999999999998
 40
0.4999999999999998
 40
1.0
 40
1.0
 40
1.0
 40
1.0
 10
65.3863761755486
 20
52.15101844000474
 30
0.0
 10
65.3863761755486
 20
52.34676070288425
 30
0.0
 10
65.40221911163755
 20
52.54342731207481
 30
0.0
 10
65.46372197187522
 20
52.9326955394031
 30
0.0
 10
65.50932561291891
 20
53.12609957235602
 30
0.0
 10
65.68577663040813
 20
53.70302862361278
 30
0.0
 10
65.85617399765998
 20
54.08327805681579
 30
0.0
 10
66.06409758080879
 20
54.46041951676325
 30
0.0
  0
LINE
  5
152
330
1F
100
AcDbEntity
  8
0
  6
Continuous
 62
     7
370
    25
100
AcDbLine
 10
70.564317203
 20
54.4604195168
 30
0.0
 11
66.0640975808
 21
54.4604195168
 31
0.0
  0
ELLIPSE
  5
153
330
1F
100
AcDbEntity
  8
0
  6
Continuous
 62
     7
370
    25
100
AcDbEllipse
 10
59.3863761755
 20
34.9748479316
 30
0.0
 11
8.500000000000014
 21
0.0
 31
0.0
210
0.0
220
0.0
230
1.0
 40
0.5773502692
 41
2.374833212873084
 42
2.530692279913059
  0
LINE
  5
154
330
1F
100
AcDbEntity
  8
0
  6
Continuous
 62
     7
370
    25
100
AcDbLine
 10
52.0969999909
 20
37.5004263232
 30
0.0
 11
49.7157591666
 21
35.1191854989
 31
0.0
  0
LINE
  5
155
330
1F
100
AcDbEntity
  8
0
  6
Continuous
 62
     7
370
    25
100
AcDbLine
 10
48.5640975808
 20
35.1191854989
 30
0.0
 11
49.7157591666
 21
35.1191854989
 31
0.0
  0
SPLINE
  5
156
330
1F
100
AcDbEntity
  8
0
  6
Continuous
 62
     7
370
    25
100
AcDbSpline
210
0.0
220
0.0
230
1.0
 70
     8
 71
     3
 72
    10
 73
     6
 74
     0
 42
0.00000001
 43
0.00000001
 40
0.0
 40
0.0
 40
0.0
 40
0.0
 40
0.5
 40
0.5
 40
1.0
 40
1.0
 40
1.0
 40
1.0
 10
48.56409758080832
 20
35.11918549891075
 30
0.0
 10
48.35528765614206
 20
35.49793464630203
 30
0.0
 10
48.18475351639481
 20
35.87913992271334
 30
0.0
 10
47.94996771137589
 20
36.64837054390112
 30
0.0
 10
47.8863761755486
 20
37.03643824869944
 30
0.0
 10
47.8863761755486
 20
37.42858657566928
 30
0.0
  0
ELLIPSE
  5
157
330
1F
100
AcDbEntity
  8
0
  6
Continuous
 62
     7
370
    25
100
AcDbEllipse
 10
59.3863761755
 20
34.9748479316
 30
0.0
 11
8.500000000000014
 21
0.0
 31
0.0
210
0.0
220
0.0
230
1.0
 40
0.5773502692
 41
0.6109003736767326
 42
0.7667594407167084
  0
LINE
  5
158
330
1F
100
AcDbEntity
  8
0
  6
Continuous
 62
     7
370
    25
100
AcDbLine
 10
69.0569931845
 20
35.1191854989
 30
0.0
 11
70.564317203
 21
35.1191854989
 31
0.0
  0
LINE
  5
159
330
1F
100
AcDbEntity
  8
0
  6
Continuous
 62
     7
370
    25
100
AcDbLine
 10
69.0569931845
 20
35.1191854989
 30
0.0
 11
66.6757523602
 21
37.5004263232
 31
0.0
  0
SPLINE
  5
15A
330
1F
100
AcDbEntity
  8
0
  6
Continuous
 62
     7
370
    25
100
AcDbSpline
210
0.0
220
0.0
230
1.0
 70
     8
 71
     3
 72
    12
 73
     8
 74
     0
 42
0.00000001
 43
0.00000001
 40
0.0
 40
0.0
 40
0.0
 40
0.0
 40
0.2499999999999999
 40
0.2499999999999999
 40
0.5
 40
0.5
 40
1.0
 40
1.0
 40
1.0
 40
1.0
 10
47.8863761755486
 20
52.15101844000474
 30
0.0
 10
47.8863761755486
 20
52.34602192001054
 30
0.0
 10
47.90212250557055
 20
52.54255657903495
 30
0.0
 10
47.96356753015598
 20
52.9319762666405
 30
0.0
 10
48.00915628940972
 20
53.12546095970075
 30
0.0
 10
48.18560729166631
 20
53.70264455845636
 30
0.0
 10
48.3560649936298
 20
54.08308034023932
 30
0.0
 10
48.56409758080864
 20
54.46041951676326
 30
0.0
  0
LINE
  5
15B
330
1F
100
AcDbEntity
  8
0
  6
Continuous
 62
     7
370
    25
100
AcDbLine
 10
52.7086547703
 20
54.4604195168
 30
0.0
 11
48.5640975808
 21
54.4604195168
 31
0.0
  0
SPLINE
  5
15C
330
1F
100
AcDbEntity
  8
0
  6
Continuous
 62
     7
370
    25
100
AcDbSpline
210
0.0
220
0.0
230
1.0
 70
     8
 71
     3
 72
    10
 73
     6
 74
     0
 42
0.00000001
 43
0.00000001
 40
0.0
 40
0.0
 40
0.0
 40
0.0
 40
0.5
 40
0.5
 40
1.0
 40
1.0
 40
1.0
 40
1.0
 10
52.7086547702884
 20
54.46041951676327
 30
0.0
 10
52.91707552310582
 20
54.08237626736111
 30
0.0
 10
53.08753935838325
 20
53.70160676256526
 30
0.0
 10
53.32252179332164
 20
52.93245823700772
 30
0.0
 10
53.38637617554861
 20
52.54403150883248
 30
0.0
 10
53.38637617554861
 20
52.15101844000474
 30
0.0
  0
LINE
  5
15D
330
1F
100
AcDbEntity
  8
0
  6
Continuous
 62
     7
370
    25
100
AcDbLine
 10
51.6904944221
 20
34.2898025078
 30
0.0
 11
49.7157591666
 21
34.2898025078
 31
0.0
  0
LINE
  5
15E
330
1F
100
AcDbEntity
  8
0
  6
Continuous
 62
     7
370
    25
100
AcDbLine
 10
49.7157591666
 20
35.1191854989
 30
0.0
 11
49.7157591666
 21
34.2898025078
 31
0.0
  0
LINE
  5
15F
330
1F
100
AcDbEntity
  8
0
  6
Continuous
 62
     7
370
    25
100
AcDbLine
 10
54.3345613201
 20
34.2898025078
 30
0.0
 11
52.3598260646
 21
34.2898025078
 31
0.0
  0
LINE
  5
160
330
1F
100
AcDbEntity
  8
0
  6
Continuous
 62
     7
370
    25
100
AcDbLine
 10
69.0569931845
 20
34.2898025078
 30
0.0
 11
69.0569931845
 21
35.1191854989
 31
0.0
  0
LINE
  5
161
330
1F
100
AcDbEntity
  8
0
  6
Continuous
 62
     7
370
    25
100
AcDbLine
 10
69.0569931845
 20
34.2898025078
 30
0.0
 11
67.082257929
 21
34.2898025078
 31
0.0
  0
LINE
  5
162
330
1F
100
AcDbEntity
  8
0
  6
Continuous
 62
     7
370
    25
100
AcDbLine
 10
66.4129262865
 20
34.2898025078
 30
0.0
 11
64.438191031
 21
34.2898025078
 31
0.0
  0
LINE
  5
163
330
1F
100
AcDbEntity
  8
0
  6
Continuous
 62
     7
370
    25
100
AcDbLine
 10
66.3863761755
 20
21.7898025078
 30
0.0
 11
52.3863761755
 21
21.7898025078
 31
0.0
  0
LINE
  5
164
330
1F
100
AcDbEntity
  8
0
  6
Continuous
 62
     7
370
    25
100
AcDbLine
 10
65.3863761755
 20
38.7898025078
 30
0.0
 11
63.3863761755
 21
40.7898025078
 31
0.0
  0
LINE
  5
165
330
1F
100
AcDbEntity
  8
0
  6
Continuous
 62
     7
370
    25
100
AcDbLine
 10
63.3863761755
 20
37.7898025078
 30
0.0
 11
66.3489972482
 21
37.7898025078
 31
0.0
  0
LINE
  5
166
330
1F
100
AcDbEntity
  8
0
  6
Continuous
 62
     7
370
    25
100
AcDbLine
 10
55.3863761755
 20
40.7898025078
 30
0.0
 11
53.3863761755
 21
38.7898025078
 31
0.0
  0
LINE
  5
167
330
1F
100
AcDbEntity
  8
0
  6
Continuous
 62
     7
370
    25
100
AcDbLine
 10
52.4237551029
 20
37.7898025078
 30
0.0
 11
55.3863761755
 21
37.7898025078
 31
0.0
  0
LINE
  5
168
330
1F
100
AcDbEntity
  8
0
  6
Continuous
 62
     7
370
    25
100
AcDbLine
 10
53.3863761755
 20
52.7242569861
 30
0.0
 11
53.3863761755
 21
52.15101844
 31
0.0
  0
SPLINE
  5
169
330
1F
100
AcDbEntity
  8
0
  6
Continuous
 62
     7
370
    25
100
AcDbSpline
210
0.0
220
0.0
230
1.0
 70
     8
 71
     3
 72
    32
 73
    28
 74
     0
 42
0.00000001
 43
0.00000001
 40
0.0
 40
0.0
 40
0.0
 40
0.0
 40
0.0625000000000001
 40
0.0625000000000001
 40
0.1250000000000001
 40
0.1250000000000001
 40
0.1875000000000002
 40
0.1875000000000002
 40
0.2500000000000003
 40
0.2500000000000003
 40
0.3750000000000003
 40
0.3750000000000003
 40
0.4375000000000003
 40
0.4375000000000003
 40
0.5000000000000002
 40
0.5000000000000002
 40
0.5625000000000002
 40
0.5625000000000002
 40
0.6250000000000001
 40
0.6250000000000001
 40
0.7500000000000001
 40
0.7500000000000001
 40
0.8750000000000002
 40
0.8750000000000002
 40
0.9375000000000001
 40
0.9375000000000001
 40
1.0
 40
1.0
 40
1.0
 40
1.0
 10
65.38637617554014
 20
52.72425698605766
 30
0.0
 10
65.22951983962324
 20
52.62930000816197
 30
0.0
 10
65.05652140546759
 20
52.52654683353679
 30
0.0
 10
64.6798168188418
 20
52.30983563188852
 30
0.0
 10
64.47696403838509
 20
52.19641692139851
 30
0.0
 10
64.05098277558251
 20
51.96832678470034
 30
0.0
 10
63.82680481529449
 20
51.85301990224848
 30
0.0
 10
63.35545372171811
 20
51.6246967998737
 30
0.0
 10
63.106768206353
 20
51.51104678373995
 30
0.0
 10
62.33619572166137
 20
51.18798275250591
 30
0.0
 10
61.7905583115792
 20
50.99508422834241
 30
0.0
 10
60.90777856308286
 20
50.78349030306871
 30
0.0
 10
60.60913946321001
 20
50.72784791695096
 30
0.0
 10
60.00263786249424
 20
50.65217984758712
 30
0.0
 10
59.69249062382831
 20
50.63220660181081
 30
0.0
 10
59.07240513514455
 20
50.63254036806406
 30
0.0
 10
58.76583409767651
 20
50.65253933338684
 30
0.0
 10
58.15917935036833
 20
50.72857811958331
 30
0.0
 10
57.85680628574301
 20
50.78523121971487
 30
0.0
 10
56.98016998299006
 20
50.99600976976071
 30
0.0
 10
56.43211585101314
 20
51.18955560033246
 30
0.0
 10
55.40161858376987
 20
51.62217489360825
 30
0.0
 10
54.9340585484904
 20
51.85465153829868
 30
0.0
 10
54.29584494486246
 20
52.19638953921772
 30
0.0
 10
54.09263520667263
 20
52.31000705464611
 30
0.0
 10
53.7162982802782
 20
52.52650944700235
 30
0.0
 10
53.5433196717867
 20
52.62924724344674
 30
0.0
 10
53.38637617554861
 20
52.72425698606282
 30
0.0
  0
LINE
  5
16A
330
1F
100
AcDbEntity
  8
0
  6
Continuous
 62
     7
370
    25
100
AcDbLine
 10
65.3863761755
 20
52.7242569861
 30
0.0
 11
65.3863761755
 21
52.15101844
 31
0.0
  0
SPLINE
  5
16B
330
1F
100
AcDbEntity
  8
0
  6
Continuous
 62
     7
370
    25
100
AcDbSpline
210
0.0
220
0.0
230
1.0
 70
     8
 71
     3
 72
    12
 73
     8
 74
     0
 42
0.00000001
 43
0.00000001
 40
0.0
 40
0.0
 40
0.0
 40
0.0
 40
0.0860276384484858
 40
0.3125921905364371
 40
0.5444262578673806
 40
0.772029644149985
 40
1.0
 40
1.0
 40
1.0
 40
1.0
 10
65.55972336301562
 20
53.58270410153813
 30
0.0
 10
65.56093361210748
 20
53.58673402517994
 30
0.0
 10
65.56533120364365
 20
53.60137725707155
 30
0.0
 10
65.53280881035239
 20
53.49379983079832
 30
0.0
 10
65.47678063416795
 20
53.2876510149576
 30
0.0
 10
65.4085878063723
 20
53.00441053754695
 30
0.0
 10
65.39378402735777
 20
52.81769163791589
 30
0.0
 10
65.3863761755486
 20
52.72425698605569
 30
0.0
  0
SPLINE
  5
16C
330
1F
100
AcDbEntity
  8
0
  6
Continuous
 62
     7
370
    25
100
AcDbSpline
210
0.0
220
0.0
230
1.0
 70
     8
 71
     3
 72
    11
 73
     7
 74
     0
 42
0.00000001
 43
0.00000001
 40
0.0
 40
0.0
 40
0.0
 40
0.0
 40
0.3176285299018559
 40
0.6359441764512622
 40
0.865668042908048
 40
1.0
 40
1.0
 40
1.0
 40
1.0
 10
53.3863761755486
 20
52.72425698606272
 30
0.0
 10
53.37273744422515
 20
52.85552152833069
 30
0.0
 10
53.34543047730374
 20
53.11833457366905
 30
0.0
 10
53.25742547560701
 20
53.42998030499643
 30
0.0
 10
53.21286438052919
 20
53.58372927941283
 30
0.0
 10
53.21321346087601
 20
53.58221463616346
 30
0.0
 10
53.21334226707314
 20
53.5816557521165
 30
0.0
  0
LINE
  5
16D
330
1F
100
AcDbEntity
  8
0
  6
Continuous
 62
     7
370
    25
100
AcDbLine
 10
65.2811573589
 20
54.2852716878
 30
0.0
 11
65.2837889689
 21
54.2874962168
 31
0.0
  0
SPLINE
  5
16E
330
1F
100
AcDbEntity
  8
0
  6
Continuous
 62
     7
370
    25
100
AcDbSpline
210
0.0
220
0.0
230
1.0
 70
     8
 71
     3
 72
    10
 73
     6
 74
     0
 42
0.00000001
 43
0.00000001
 40
0.0
 40
0.0
 40
0.0
 40
0.0
 40
0.1601790552921523
 40
0.7197651707804853
 40
1.0
 40
1.0
 40
1.0
 40
1.0
 10
52.6744253371715
 20
54.52269779551299
 30
0.0
 10
52.67366254707825
 20
54.52409002353937
 30
0.0
 10
52.67023494700452
 20
54.53034600526769
 30
0.0
 10
52.6847424118028
 20
54.50383874053978
 30
0.0
 10
52.70267196492063
 20
54.47128288539463
 30
0.0
 10
52.7086547702884
 20
54.46041951676327
 30
0.0
  0
SPLINE
  5
16F
330
1F
100
AcDbEntity
  8
0
  6
Continuous
 62
     7
370
    25
100
AcDbSpline
210
0.0
220
0.0
230
1.0
 70
     8
 71
     3
 72
     9
 73
     5
 74
     0
 42
0.00000001
 43
0.00000001
 40
0.0
 40
0.0
 40
0.0
 40
0.0
 40
0.5797912171256431
 40
1.0
 40
1.0
 40
1.0
 40
1.0
 10
66.06409758080879
 20
54.46041951676325
 30
0.0
 10
66.07645618415525
 20
54.48289316500438
 30
0.0
 10
66.09777179394966
 20
54.52165478742521
 30
0.0
 10
66.09816273645244
 20
54.52238919218341
 30
0.0
 10
66.09832701392571
 20
54.52269779551299
 30
0.0
  0
SPLINE
  5
170
330
1F
100
AcDbEntity
  8
0
  6
Continuous
 62
     7
370
    25
100
AcDbSpline
210
0.0
220
0.0
230
1.0
 70
     8
 71
     3
 72
    10
 73
     6
 74
     0
 42
0.00000001
 43
0.00000001
 40
0.0
 40
0.0
 40
0.0
 40
0.0
 40
0.1593935212994522
 40
0.7189934545690309
 40
1.0
 40
1.0
 40
1.0
 40
1.0
 10
48.59833457038624
 20
54.5227115962297
 30
0.0
 10
48.59909609738369
 20
54.52410151505632
 30
0.0
 10
48.60253119889961
 20
54.53037117100326
 30
0.0
 10
48.58803657643312
 20
54.50388722917946
 30
0.0
 10
48.5700952059404
 20
54.47130982513259
 30
0.0
 10
48.56409758080879
 20
54.46041951676325
 30
0.0
  0
LINE
  5
171
330
1F
100
AcDbEntity
  8
0
  6
Continuous
 62
     7
370
    25
100
AcDbLine
 10
47.8863761755
 20
53.2898025078
 30
0.0
 11
47.8863761755
 21
52.15101844
 31
0.0
  0
SPLINE
  5
172
330
1F
100
AcDbEntity
  8
0
  6
Continuous
 62
     7
370
    25
100
AcDbSpline
210
0.0
220
0.0
230
1.0
 70
     8
 71
     3
 72
     9
 73
     5
 74
     0
 42
0.00000001
 43
0.00000001
 40
0.0
 40
0.0
 40
0.0
 40
0.0
 40
0.5789479223839474
 40
0.9999999999999999
 40
0.9999999999999999
 40
0.9999999999999999
 40
0.9999999999999999
 10
48.56409758080879
 20
35.11918549891077
 30
0.0
 10
48.57643847112305
 20
35.09674413171841
 30
0.0
 10
48.59775453399696
 20
35.05798180729385
 30
0.0
 10
48.59816270791149
 20
35.05721590443449
 30
0.0
 10
48.59833457038624
 20
35.05689341944431
 30
0.0
  0
LINE
  5
173
330
1F
100
AcDbEntity
  8
0
  6
Continuous
 62
     7
370
    25
100
AcDbLine
 10
47.8863761755
 20
37.4285865757
 30
0.0
 11
47.8863761755
 21
36.2898025078
 31
0.0
  0
LINE
  5
174
330
1F
100
AcDbEntity
  8
0
  6
Continuous
 62
     7
370
    25
100
AcDbLine
 10
69.1239804826
 20
35.0521982008
 30
0.0
 11
69.0569931845
 21
35.1191854989
 31
0.0
  0
LINE
  5
175
330
1F
100
AcDbEntity
  8
0
  6
Continuous
 62
     7
370
    25
100
AcDbLine
 10
69.0569931845
 20
34.2898025078
 30
0.0
 11
69.1239804826
 21
34.2898025078
 31
0.0
  0
LINE
  5
176
330
1F
100
AcDbEntity
  8
0
  6
Continuous
 62
     7
370
    25
100
AcDbLine
 10
49.7157591666
 20
35.1191854989
 30
0.0
 11
49.6487718685
 21
35.0521982008
 31
0.0
  0
LINE
  5
177
330
1F
100
AcDbEntity
  8
0
  6
Continuous
 62
     7
370
    25
100
AcDbLine
 10
49.6487718685
 20
34.2898025078
 30
0.0
 11
49.7157591666
 21
34.2898025078
 31
0.0
  0
SPLINE
  5
178
330
1F
100
AcDbEntity
  8
0
  6
Continuous
 62
     7
370
    25
100
AcDbSpline
210
0.0
220
0.0
230
1.0
 70
     8
 71
     3
 72
    30
 73
    26
 74
     0
 42
0.00000001
 43
0.00000001
 40
0.0
 40
0.0
 40
0.0
 40
0.0
 40
0.0110569947995957
 40
0.0534018586163523
 40
0.0957739243294413
 40
0.152560285963683
 40
0.2094465507836707
 40
0.2166929089147469
 40
0.2775705853057713
 40
0.3384474861342897
 40
0.3856607907517328
 40
0.4327791182719195
 40
0.4698641362073264
 40
0.5069103241819656
 40
0.5439143354842868
 40
0.5809675385159896
 40
0.6306181182252716
 40
0.6803606635267528
 40
0.7335199301453341
 40
0.786670493119384
 40
0.8314134775104652
 40
0.876121580665438
 40
0.9187009688159357
 40
0.961245266880381
 40
1.0
 40
1.0
 40
1.0
 40
1.0
 10
53.48637617554859
 20
54.28980250783702
 30
0.0
 10
53.48720022289484
 20
54.2891046759393
 30
0.0
 10
53.49118011622705
 20
54.28573436411271
 30
0.0
 10
53.56196182515625
 20
54.22538472050738
 30
0.0
 10
53.78325055525552
 20
54.03985462484945
 30
0.0
 10
54.17381357065205
 20
53.71930867990784
 30
0.0
 10
54.57705565673819
 20
53.40563177636743
 30
0.0
 10
55.04386989582721
 20
53.05924248847763
 30
0.0
 10
55.57949772990156
 20
52.67881754147107
 30
0.0
 10
56.39524810791927
 20
52.18079399122328
 30
0.0
 10
57.23680791363964
 20
51.76867611811215
 30
0.0
 10
58.02021483240993
 20
51.49167700201858
 30
0.0
 10
58.79319970908585
 20
51.34025984919387
 30
0.0
 10
59.52379001487242
 20
51.30211037993678
 30
0.0
 10
60.24851247168275
 20
51.38144227159895
 30
0.0
 10
61.02188208488612
 20
51.57394547472863
 30
0.0
 10
61.81227693609105
 20
51.89110496819838
 30
0.0
 10
62.60908136673051
 20
52.3163834078233
 30
0.0
 10
63.33644893468809
 20
52.77884450848679
 30
0.0
 10
63.95065311736278
 20
53.21925648513555
 30
0.0
 10
64.44411658470777
 20
53.59772010057391
 30
0.0
 10
64.81916640021717
 20
53.89947535178444
 30
0.0
 10
65.08942132946017
 20
54.1231207113025
 30
0.0
 10
65.25839612983685
 20
54.26604804084784
 30
0.0
 10
65.27380977288504
 20
54.27906607388122
 30
0.0
 10
65.28115735887756
 20
54.28527168775635
 30
0.0
  0
LINE
  5
179
330
1F
100
AcDbEntity
  8
0
  6
Continuous
 62
     7
370
    18
100
AcDbLine
 10
51.5363761755
 20
33.7898025078
 30
0.0
 11
51.8841948119
 21
22.6596061443
 31
0.0
  0
LINE
  5
17A
330
1F
100
AcDbEntity
  8
0
  6
Continuous
 62
     7
370
    18
100
AcDbLine
 10
66.8885575392
 20
22.6596061443
 30
0.0
 11
67.2363761755
 21
33.7898025078
 31
0.0
  0
LINE
  5
17B
330
1F
100
AcDbEntity
  8
0
  6
Continuous
 62
     7
370
    25
100
AcDbLine
 10
66.9607831738
 20
33.7898025078
 30
0.0
 11
66.5344010416
 21
33.7898025078
 31
0.0
  0
LINE
  5
17C
330
1F
100
AcDbEntity
  8
0
  6
Continuous
 62
     7
370
    25
100
AcDbLine
 10
59.8127583077
 20
33.7898025078
 30
0.0
 11
58.9599940434
 21
33.7898025078
 31
0.0
  0
LINE
  5
17D
330
1F
100
AcDbEntity
  8
0
  6
Continuous
 62
     7
370
    25
100
AcDbLine
 10
52.2383513095
 20
33.7898025078
 30
0.0
 11
51.8119691773
 21
33.7898025078
 31
0.0
  0
LINE
  5
17E
330
1F
100
AcDbEntity
  8
0
  6
Continuous
 62
     7
370
    18
100
AcDbLine
 10
44.8863761755
 20
52.2648025078
 30
0.0
 11
39.9521061049
 21
52.2648025078
 31
0.0
  0
LINE
  5
17F
330
1F
100
AcDbEntity
  8
0
  6
Continuous
 62
     7
370
    18
100
AcDbLine
 10
39.9521061049
 20
37.3148025078
 30
0.0
 11
44.8863761755
 21
37.3148025078
 31
0.0
  0
LINE
  5
180
330
1F
100
AcDbEntity
  8
0
  6
Continuous
 62
     7
370
    25
100
AcDbLine
 10
44.8863761755
 20
53.1208025078
 30
0.0
 11
44.8863761755
 21
53.0989182179
 31
0.0
  0
SPLINE
  5
181
330
1F
100
AcDbEntity
  8
0
  6
Continuous
 62
     7
370
     0
100
AcDbSpline
210
0.0
220
0.0
230
1.0
 70
     8
 71
     3
 72
    39
 73
    35
 74
     0
 42
0.00000001
 43
0.00000001
 40
0.0
 40
0.0
 40
0.0
 40
0.0
 40
0.0314959362534657
 40
0.0629918724910749
 40
0.094487808728684
 40
0.1259837449662932
 40
0.1574796812039023
 40
0.1889756174415115
 40
0.2204715536791206
 40
0.2519674899167298
 40
0.2834634261543389
 40
0.3149593623919479
 40
0.3464552986295573
 40
0.3779512348671663
 40
0.4094471711047753
 40
0.4409431073423847
 40
0.4724390435799938
 40
0.503934979817603
 40
0.5354309160552122
 40
0.5669268522928214
 40
0.5984227885304305
 40
0.6299187247680397
 40
0.6614146610056487
 40
0.6929105972432581
 40
0.724406533480867
 40
0.7559024697184763
 40
0.7873984059560855
 40
0.8188943421936946
 40
0.8503902784313039
 40
0.8818862146689131
 40
0.9133821509065222
 40
0.9448780871441315
 40
0.9763740233817407
 40
1.0
 40
1.0
 40
1.0
 40
1.0
 10
44.88635063171387
 20
53.09891821791683
 30
0.0
 10
44.8863761755486
 20
53.0018864880786
 30
0.0
 10
44.8863761755486
 20
52.82818074274213
 30
0.0
 10
44.8863761755486
 20
52.5794228256492
 30
0.0
 10
44.8863761755486
 20
52.2579353224475
 30
0.0
 10
44.8863761755486
 20
51.86671987533439
 30
0.0
 10
44.8863761755486
 20
51.40942915753228
 30
0.0
 10
44.8863761755486
 20
50.89033276926304
 30
0.0
 10
44.8863761755486
 20
50.31427737364105
 30
0.0
 10
44.8863761755486
 20
49.68664144468557
 30
0.0
 10
44.8863761755486
 20
49.013285049958
 30
0.0
 10
44.8863761755486
 20
48.30049513668991
 30
0.0
 10
44.8863761755486
 20
47.55492683225074
 30
0.0
 10
44.8863761755486
 20
46.78354130701661
 30
0.0
 10
44.8863761755486
 20
45.99354077979815
 30
0.0
 10
44.8863761755486
 20
45.19230127266396
 30
0.0
 10
44.8863761755486
 20
44.38730374300996
 30
0.0
 10
44.8863761755486
 20
43.58606423587577
 30
0.0
 10
44.8863761755486
 20
42.79606370865731
 30
0.0
 10
44.8863761755486
 20
42.02467818342318
 30
0.0
 10
44.8863761755486
 20
41.27910987898401
 30
0.0
 10
44.8863761755486
 20
40.56631996571593
 30
0.0
 10
44.8863761755486
 20
39.89296357098836
 30
0.0
 10
44.8863761755486
 20
39.26532764203289
 30
0.0
 10
44.8863761755486
 20
38.68927224641091
 30
0.0
 10
44.8863761755486
 20
38.17017585814168
 30
0.0
 10
44.8863761755486
 20
37.71288514033957
 30
0.0
 10
44.8863761755486
 20
37.32166969322646
 30
0.0
 10
44.8863761755486
 20
37.00018219002479
 30
0.0
 10
44.8863761755486
 20
36.75142427293186
 30
0.0
 10
44.8863761755486
 20
36.57771852759541
 30
0.0
 10
44.8863761755486
 20
36.48068679775719
 30
0.0
 10
44.8863761755486
 20
36.45880250783701
 30
0.0
 10
44.8863761755486
 20
36.46310368544906
 30
0.0
 10
44.8863761755486
 20
36.45880250783701
 30
0.0
  0
LINE
  5
182
330
1F
100
AcDbEntity
  8
0
  6
CENTERX2
 62
     7
370
    18
100
AcDbLine
 10
59.3863761755
 20
18.6905393218
 30
0.0
 11
59.3863761755
 21
76.0719649781
 31
0.0
  0
LINE
  5
183
330
1F
100
AcDbEntity
  8
0
  6
CENTERX2
 62
     7
370
    18
100
AcDbLine
 10
74.700382752
 20
44.7898025078
 30
0.0
 11
19.4246974868
 21
44.7898025078
 31
0.0
  0
LINE
  5
184
330
1F
100
AcDbEntity
  8
0
  6
Continuous
 62
     7
370
    25
100
AcDbLine
 10
25.0964436722
 20
112.5052791712
 30
0.0
 11
24.9521061049
 21
112.2552791712
 31
0.0
  0
LINE
  5
185
330
1F
100
AcDbEntity
  8
0
  6
Continuous
 62
     7
370
    25
100
AcDbLine
 10
24.9521061049
 20
91.7552791712
 30
0.0
 11
25.0964436722
 21
91.5052791712
 31
0.0
  0
LINE
  5
186
330
1F
100
AcDbEntity
  8
0
  6
Continuous
 62
     7
370
    25
100
AcDbLine
 10
39.8077685376
 20
91.5052791712
 30
0.0
 11
39.9521061049
 21
91.7552791712
 31
0.0
  0
LINE
  5
187
330
1F
100
AcDbEntity
  8
0
  6
Continuous
 62
     7
370
    25
100
AcDbLine
 10
39.9521061049
 20
112.2552791712
 30
0.0
 11
39.8077685376
 21
112.5052791712
 31
0.0
  0
LINE
  5
188
330
1F
100
AcDbEntity
  8
0
  6
Continuous
 62
     7
370
    25
100
AcDbLine
 10
47.8863761755
 20
110.5052791712
 30
0.0
 11
44.8863761755
 21
110.5052791712
 31
0.0
  0
LINE
  5
189
330
1F
100
AcDbEntity
  8
0
  6
Continuous
 62
     7
370
    25
100
AcDbLine
 10
44.8863761755
 20
93.5052791712
 30
0.0
 11
47.8863761755
 21
93.5052791712
 31
0.0
  0
LINE
  5
18A
330
1F
100
AcDbEntity
  8
0
  6
Continuous
 62
     7
370
    25
100
AcDbLine
 10
44.8863761755
 20
110.3362791712
 30
0.0
 11
39.9521061049
 21
110.3362791712
 31
0.0
  0
LINE
  5
18B
330
1F
100
AcDbEntity
  8
0
  6
Continuous
 62
     7
370
    25
100
AcDbLine
 10
39.9521061049
 20
93.6742791712
 30
0.0
 11
44.8863761755
 21
93.6742791712
 31
0.0
  0
LINE
  5
18C
330
1F
100
AcDbEntity
  8
0
  6
Continuous
 62
     7
370
    25
100
AcDbLine
 10
71.2420386083
 20
93.5052791712
 30
0.0
 11
71.3863761755
 21
93.7552791712
 31
0.0
  0
LINE
  5
18D
330
1F
100
AcDbEntity
  8
0
  6
Continuous
 62
     7
370
    25
100
AcDbLine
 10
71.3863761755
 20
110.2552791712
 30
0.0
 11
71.2420386083
 21
110.5052791712
 31
0.0
  0
SPLINE
  5
18E
330
1F
100
AcDbEntity
  8
0
  6
Continuous
 62
     7
370
    25
100
AcDbSpline
210
0.0
220
0.0
230
1.0
 70
    24
 71
     3
 72
    10
 73
     6
 74
     0
 42
0.00000001
 43
0.00000001
 40
0.0
 40
0.0
 40
0.0
 40
0.0
 40
0.3752150044134718
 40
0.7538540204394795
 40
1.0
 40
1.0
 40
1.0
 40
1.0
 10
26.03426584575183
 20
112.5052791712021
 30
0.0
 10
25.83718715794641
 20
112.505279171202
 30
0.0
 10
25.44123134755103
 20
112.505279171202
 30
0.0
 10
25.14131269324533
 20
112.505279171202
 30
0.0
 10
25.11039837909961
 20
112.505279171202
 30
0.0
 10
25.09821909471924
 20
112.505279171202
 30
0.0
  0
SPLINE
  5
18F
330
1F
100
AcDbEntity
  8
0
  6
Continuous
 62
     7
370
    25
100
AcDbSpline
210
0.0
220
0.0
230
1.0
 70
     8
 71
     3
 72
    13
 73
     9
 74
     0
 42
0.00000001
 43
0.00000001
 40
0.0
 40
0.0
 40
0.0
 40
0.0
 40
0.0969524086029671
 40
0.3003769341856198
 40
0.4736899728815827
 40
0.6470300465335764
 40
0.8234979618969037
 40
1.0
 40
1.0
 40
1.0
 40
1.0
 10
25.22576483229756
 20
105.505279171202
 30
0.0
 10
25.19356134108007
 20
105.7325929076046
 30
0.0
 10
25.09378882277577
 20
106.4368539385863
 30
0.0
 10
25.08152105464627
 20
107.5583995615583
 30
0.0
 10
25.17149125458368
 20
108.8555464844132
 30
0.0
 10
25.36719056422971
 20
110.0802770858956
 30
0.0
 10
25.65208653900866
 20
111.299323052041
 30
0.0
 10
25.90686453343493
 20
112.1032678915046
 30
0.0
 10
26.03426584575183
 20
112.5052791712021
 30
0.0
  0
SPLINE
  5
190
330
1F
100
AcDbEntity
  8
0
  6
Continuous
 62
     7
370
    25
100
AcDbSpline
210
0.0
220
0.0
230
1.0
 70
     8
 71
     3
 72
    13
 73
     9
 74
     0
 42
0.00000001
 43
0.00000001
 40
0.0
 40
0.0
 40
0.0
 40
0.0
 40
0.1991009934765401
 40
0.3981456929173929
 40
0.6016431710280824
 40
0.8051039273946595
 40
0.9784478338890716
 40
1.0
 40
1.0
 40
1.0
 40
1.0
 10
26.03426584575183
 20
91.5052791712021
 30
0.0
 10
25.89145797145533
 20
91.9589285666287
 30
0.0
 10
25.60588260051909
 20
92.86609909214876
 30
0.0
 10
25.29937678918768
 20
94.26297495376214
 30
0.0
 10
25.11209659598974
 20
95.68653555957758
 30
0.0
 10
25.08475476918768
 20
97.05725610022081
 30
0.0
 10
25.13203596128322
 20
97.99910993394099
 30
0.0
 10
25.20532599443743
 20
98.45487892980294
 30
0.0
 10
25.21343061628896
 20
98.50527917120196
 30
0.0
  0
SPLINE
  5
191
330
1F
100
AcDbEntity
  8
0
  6
Continuous
 62
     7
370
    25
100
AcDbSpline
210
0.0
220
0.0
230
1.0
 70
    24
 71
     3
 72
    10
 73
     6
 74
     0
 42
0.00000001
 43
0.00000001
 40
0.0
 40
0.0
 40
0.0
 40
0.0
 40
0.2461426844256931
 40
0.6210364817226002
 40
1.0
 40
1.0
 40
1.0
 40
1.0
 10
25.09990210879809
 20
91.50527917120203
 30
0.0
 10
25.11139488072963
 20
91.50527917120205
 30
0.0
 10
25.1403920075882
 20
91.50527917120206
 30
0.0
 10
25.43988588806405
 20
91.50527917120208
 30
0.0
 10
25.83542741232272
 20
91.50527917120209
 30
0.0
 10
26.03426584575183
 20
91.5052791712021
 30
0.0
  0
LINE
  5
192
330
1F
100
AcDbEntity
  8
0
  6
Continuous
 62
     7
370
    25
100
AcDbLine
 10
24.9521061049
 20
91.7552791712
 30
0.0
 11
24.9521061049
 21
98.5052791712
 31
0.0
  0
LINE
  5
193
330
1F
100
AcDbEntity
  8
0
  6
Continuous
 62
     7
370
    25
100
AcDbLine
 10
24.9521061049
 20
105.5052791712
 30
0.0
 11
24.9521061049
 21
112.2552791712
 31
0.0
  0
SPLINE
  5
194
330
1F
100
AcDbEntity
  8
0
  6
Continuous
 62
     7
370
    25
100
AcDbSpline
210
0.0
220
0.0
230
1.0
 70
     8
 71
     3
 72
    13
 73
     9
 74
     0
 42
0.00000001
 43
0.00000001
 40
0.0
 40
0.0
 40
0.0
 40
0.0
 40
0.2015814266683096
 40
0.4031058579805005
 40
0.6091385414175593
 40
0.8151340456249286
 40
0.9906374992504371
 40
1.0
 40
1.0
 40
1.0
 40
1.0
 10
38.86994636413916
 20
112.5052791712021
 30
0.0
 10
39.0127602034439
 20
112.0516291772283
 30
0.0
 10
39.29834750271007
 20
111.1444574547831
 30
0.0
 10
39.60476320405286
 20
109.7475906350817
 30
0.0
 10
39.7923931820167
 20
108.3239949307925
 30
0.0
 10
39.81848693075312
 20
106.9533996261216
 30
0.0
 10
39.77547389091892
 20
106.0403570448024
 30
0.0
 10
39.70774323176704
 20
105.6132697362006
 30
0.0
 10
39.70431302554425
 20
105.591639981493
 30
0.0
  0
SPLINE
  5
195
330
1F
100
AcDbEntity
  8
0
  6
Continuous
 62
     7
370
    25
100
AcDbSpline
210
0.0
220
0.0
230
1.0
 70
    24
 71
     3
 72
    10
 73
     6
 74
     0
 42
0.00000001
 43
0.00000001
 40
0.0
 40
0.0
 40
0.0
 40
0.0
 40
0.2379725812642173
 40
0.6168725839538826
 40
1.0
 40
1.0
 40
1.0
 40
1.0
 10
39.8022734091652
 20
112.505279171202
 30
0.0
 10
39.79240474744114
 20
112.505279171202
 30
0.0
 10
39.76682320008158
 20
112.505279171202
 30
0.0
 10
39.47004066597784
 20
112.505279171202
 30
0.0
 10
39.07071622709943
 20
112.505279171202
 30
0.0
 10
38.86994636413916
 20
112.5052791712021
 30
0.0
  0
SPLINE
  5
196
330
1F
100
AcDbEntity
  8
0
  6
Continuous
 62
     7
370
    25
100
AcDbSpline
210
0.0
220
0.0
230
1.0
 70
    24
 71
     3
 72
    10
 73
     6
 74
     0
 42
0.00000001
 43
0.00000001
 40
0.0
 40
0.0
 40
0.0
 40
0.0
 40
0.3792353053045669
 40
0.7620238773205105
 40
0.9999999999999999
 40
0.9999999999999999
 40
0.9999999999999999
 40
0.9999999999999999
 10
38.86994636413916
 20
91.5052791712021
 30
0.0
 10
39.06889315742618
 20
91.50527917120209
 30
0.0
 10
39.46865078726845
 20
91.50527917120208
 30
0.0
 10
39.76590179382983
 20
91.50527917120206
 30
0.0
 10
39.793371975025
 20
91.50527917120205
 30
0.0
 10
39.80390293347994
 20
91.50527917120203
 30
0.0
  0
SPLINE
  5
197
330
1F
100
AcDbEntity
  8
0
  6
Continuous
 62
     7
370
    25
100
AcDbSpline
210
0.0
220
0.0
230
1.0
 70
     8
 71
     3
 72
    13
 73
     9
 74
     0
 42
0.00000001
 43
0.00000001
 40
0.0
 40
0.0
 40
0.0
 40
0.0
 40
0.0852055935633831
 40
0.2912762590608125
 40
0.4668437483847422
 40
0.6424386243345718
 40
0.8212020288636315
 40
1.0
 40
1.0
 40
1.0
 40
1.0
 10
39.68997368384788
 20
98.41486326555956
 30
0.0
 10
39.71766442976908
 20
98.21763760718281
 30
0.0
 10
39.81232554936483
 20
97.54341952407009
 30
0.0
 10
39.82222093389717
 20
96.45212333268375
 30
0.0
 10
39.73283824340558
 20
95.15502069988528
 30
0.0
 10
39.5369897360923
 20
93.93027885096997
 30
0.0
 10
39.25213370944018
 20
92.71123589635883
 30
0.0
 10
38.99735035614803
 20
91.90729065291114
 30
0.0
 10
38.86994636413915
 20
91.5052791712021
 30
0.0
  0
LINE
  5
198
330
1F
100
AcDbEntity
  8
0
  6
Continuous
 62
     7
370
    25
100
AcDbLine
 10
39.9521061049
 20
112.2552791712
 30
0.0
 11
39.9521061049
 21
105.5631048572
 31
0.0
  0
LINE
  5
199
330
1F
100
AcDbEntity
  8
0
  6
Continuous
 62
     7
370
    25
100
AcDbLine
 10
39.9521061049
 20
98.4474534852
 30
0.0
 11
39.9521061049
 21
91.7552791712
 31
0.0
  0
LINE
  5
19A
330
1F
100
AcDbEntity
  8
0
  6
Continuous
 62
     7
370
    25
100
AcDbLine
 10
26.0342658458
 20
112.5052791712
 30
0.0
 11
27.7021061049
 21
112.5052791712
 31
0.0
  0
LINE
  5
19B
330
1F
100
AcDbEntity
  8
0
  6
Continuous
 62
     7
370
    25
100
AcDbLine
 10
27.7021061049
 20
112.5052791712
 30
0.0
 11
27.9521061049
 21
110.6089514549
 31
0.0
  0
LINE
  5
19C
330
1F
100
AcDbEntity
  8
0
  6
Continuous
 62
     7
370
    25
100
AcDbLine
 10
27.9521061049
 20
110.6089514549
 30
0.0
 11
28.2021061049
 21
112.5052791712
 31
0.0
  0
LINE
  5
19D
330
1F
100
AcDbEntity
  8
0
  6
Continuous
 62
     7
370
    25
100
AcDbLine
 10
28.2021061049
 20
112.5052791712
 30
0.0
 11
38.8699463641
 21
112.5052791712
 31
0.0
  0
LINE
  5
19E
330
1F
100
AcDbEntity
  8
0
  6
Continuous
 62
     7
370
    25
100
AcDbLine
 10
28.2021061049
 20
91.5052791712
 30
0.0
 11
38.8699463641
 21
91.5052791712
 31
0.0
  0
LINE
  5
19F
330
1F
100
AcDbEntity
  8
0
  6
Continuous
 62
     7
370
    25
100
AcDbLine
 10
28.2021061049
 20
91.5052791712
 30
0.0
 11
27.9521061049
 21
93.4016068875
 31
0.0
  0
LINE
  5
1A0
330
1F
100
AcDbEntity
  8
0
  6
Continuous
 62
     7
370
    25
100
AcDbLine
 10
27.9521061049
 20
93.4016068875
 30
0.0
 11
27.7021061049
 21
91.5052791712
 31
0.0
  0
LINE
  5
1A1
330
1F
100
AcDbEntity
  8
0
  6
Continuous
 62
     7
370
    25
100
AcDbLine
 10
26.0342658458
 20
91.5052791712
 30
0.0
 11
27.7021061049
 21
91.5052791712
 31
0.0
  0
LINE
  5
1A2
330
1F
100
AcDbEntity
  8
0
  6
Continuous
 62
     7
370
    25
100
AcDbLine
 10
27.9521061049
 20
91.5052791712
 30
0.0
 11
27.9521061049
 21
93.4016068875
 31
0.0
  0
SPLINE
  5
1A3
330
1F
100
AcDbEntity
  8
0
  6
Continuous
 62
     7
370
    25
100
AcDbSpline
210
0.0
220
0.0
230
1.0
 70
    24
 71
     3
 72
     9
 73
     5
 74
     0
 42
0.00000001
 43
0.00000001
 40
0.0
 40
0.0
 40
0.0
 40
0.0
 40
0.0515952755253541
 40
1.0
 40
1.0
 40
1.0
 40
1.0
 10
27.9521061049455
 20
91.50527917120208
 30
0.0
 10
27.95562939894646
 20
91.50527917120208
 30
0.0
 10
28.02391654278074
 20
91.50527917120208
 30
0.0
 10
28.11537062309908
 20
91.50527917120209
 30
0.0
 10
28.20210610494549
 20
91.5052791712021
 30
0.0
  0
LINE
  5
1A4
330
1F
100
AcDbEntity
  8
0
  6
Continuous
 62
     7
370
    25
100
AcDbLine
 10
27.7021061049
 20
91.5052791712
 30
0.0
 11
27.9521061049
 21
91.5052791712
 31
0.0
  0
LINE
  5
1A5
330
1F
100
AcDbEntity
  8
0
  6
Continuous
 62
     7
370
    25
100
AcDbLine
 10
27.9521061049
 20
110.6089514549
 30
0.0
 11
27.9521061049
 21
112.5052791712
 31
0.0
  0
SPLINE
  5
1A6
330
1F
100
AcDbEntity
  8
0
  6
Continuous
 62
     7
370
    25
100
AcDbSpline
210
0.0
220
0.0
230
1.0
 70
    24
 71
     3
 72
     9
 73
     5
 74
     0
 42
0.00000001
 43
0.00000001
 40
0.0
 40
0.0
 40
0.0
 40
0.0
 40
0.0515952755253606
 40
1.0
 40
1.0
 40
1.0
 40
1.0
 10
27.9521061049455
 20
112.505279171202
 30
0.0
 10
27.94858281094452
 20
112.505279171202
 30
0.0
 10
27.88029566711023
 20
112.505279171202
 30
0.0
 10
27.78884158679188
 20
112.505279171202
 30
0.0
 10
27.70210610494548
 20
112.5052791712021
 30
0.0
  0
LINE
  5
1A7
330
1F
100
AcDbEntity
  8
0
  6
Continuous
 62
     7
370
    25
100
AcDbLine
 10
28.2021061049
 20
112.5052791712
 30
0.0
 11
27.9521061049
 21
112.5052791712
 31
0.0
  0
SPLINE
  5
1A8
330
1F
100
AcDbEntity
  8
0
  6
Continuous
 62
     7
370
    25
100
AcDbSpline
210
0.0
220
0.0
230
1.0
 70
     8
 71
     3
 72
    15
 73
    11
 74
     0
 42
0.00000001
 43
0.00000001
 40
0.0
 40
0.0
 40
0.0
 40
0.0
 40
0.0090459071881971
 40
0.1032433785236817
 40
0.1542564497735191
 40
0.3133169026715104
 40
0.5243720399414403
 40
0.667806000850918
 40
0.9918332554187028
 40
1.0
 40
1.0
 40
1.0
 40
1.0
 10
54.14729084289048
 20
103.6791922146803
 30
0.0
 10
54.14729653485715
 20
103.6791745689558
 30
0.0
 10
54.14736149880795
 20
103.6789731735433
 30
0.0
 10
54.14935718524382
 20
103.6727835528771
 30
0.0
 10
54.15717418146028
 20
103.6485816210329
 30
0.0
 10
54.17434400521525
 20
103.5955626290313
 30
0.0
 10
54.20092790178278
 20
103.5141917418347
 30
0.0
 10
54.23875720027142
 20
103.3996126698122
 30
0.0
 10
54.26703798028165
 20
103.3151874920931
 30
0.0
 10
54.28686912781293
 20
103.2567166341411
 30
0.0
 10
54.2873566619558
 20
103.255279171202
 30
0.0
  0
ARC
  5
1A9
330
1F
100
AcDbEntity
  8
0
  6
Continuous
 62
     7
370
    25
100
AcDbCircle
 10
59.3863761755
 20
102.0052791712
 30
0.0
 40
5.5
100
AcDbArc
 50
17.7189318734
 51
162.2810681266
  0
SPLINE
  5
1AA
330
1F
100
AcDbEntity
  8
0
  6
Continuous
 62
     7
370
    25
100
AcDbSpline
210
0.0
220
0.0
230
1.0
 70
     8
 71
     3
 72
    15
 73
    11
 74
     0
 42
0.00000001
 43
0.00000001
 40
0.0
 40
0.0
 40
0.0
 40
0.0
 40
0.0081667445812973
 40
0.3321939991490804
 40
0.475627960058556
 40
0.6866830973284891
 40
0.8457435502264751
 40
0.8967566214763124
 40
0.9909540928118028
 40
1.0
 40
1.0
 40
1.0
 40
1.0
 10
64.48539568914138
 20
103.255279171202
 30
0.0
 10
64.48588322328425
 20
103.2567166341411
 30
0.0
 10
64.50571437081551
 20
103.3151874920931
 30
0.0
 10
64.53399515082576
 20
103.3996126698122
 30
0.0
 10
64.57182444931439
 20
103.5141917418347
 30
0.0
 10
64.59840834588194
 20
103.5955626290313
 30
0.0
 10
64.61557816963689
 20
103.6485816210329
 30
0.0
 10
64.62339516585335
 20
103.6727835528771
 30
0.0
 10
64.62539085228924
 20
103.6789731735433
 30
0.0
 10
64.62545581624003
 20
103.6791745689558
 30
0.0
 10
64.6254615082067
 20
103.6791922146803
 30
0.0
  0
ARC
  5
1AB
330
1F
100
AcDbEntity
  8
0
  6
Continuous
 62
     7
370
    25
100
AcDbCircle
 10
59.3863761755
 20
102.0052791712
 30
0.0
 40
5.250000000000009
100
AcDbArc
 50
13.774146998
 51
166.225853002
  0
SPLINE
  5
1AC
330
1F
100
AcDbEntity
  8
0
  6
Continuous
 62
     7
370
    25
100
AcDbSpline
210
0.0
220
0.0
230
1.0
 70
     8
 71
     3
 72
    15
 73
    11
 74
     0
 42
0.00000001
 43
0.00000001
 40
0.0
 40
0.0
 40
0.0
 40
0.0
 40
0.0080847466189582
 40
0.3310106400648243
 40
0.4750333064304948
 40
0.6874363079215142
 40
0.8468367539418303
 40
0.9000996640391847
 40
0.9910442771984082
 40
1.0
 40
1.0
 40
1.0
 40
1.0
 10
54.2873566619558
 20
103.255279171202
 30
0.0
 10
54.28607683041169
 20
103.2560951071903
 30
0.0
 10
54.23367718468844
 20
103.2895016573849
 30
0.0
 10
54.15832209323333
 20
103.3383152221187
 30
0.0
 10
54.05640298121568
 20
103.405685694387
 30
0.0
 10
53.98401203622376
 20
103.4542697347304
 30
0.0
 10
53.93630660795893
 20
103.486718596189
 30
0.0
 10
53.91477112425162
 20
103.5014296372553
 30
0.0
 10
53.9093421082321
 20
103.5051480881734
 30
0.0
 10
53.90916635607554
 20
103.5052683868389
 30
0.0
 10
53.90915060049694
 20
103.505279171202
 30
0.0
  0
ARC
  5
1AD
330
1F
100
AcDbEntity
  8
0
  6
Continuous
 62
     7
370
    25
100
AcDbCircle
 10
53.9091506005
 20
103.7552791712
 30
0.0
 40
0.25
100
AcDbArc
 50
270.0
 51
342.2810681266
  0
SPLINE
  5
1AE
330
1F
100
AcDbEntity
  8
0
  6
Continuous
 62
     7
370
    25
100
AcDbSpline
210
0.0
220
0.0
230
1.0
 70
     8
 71
     3
 72
    15
 73
    11
 74
     0
 42
0.00000001
 43
0.00000001
 40
0.0
 40
0.0
 40
0.0
 40
0.0
 40
0.0089557228015919
 40
0.0999003359608209
 40
0.1531632460581751
 40
0.3125636920784904
 40
0.5249666935695061
 40
0.6689893599351777
 40
0.991915253381045
 40
1.0
 40
1.0
 40
1.0
 40
1.0
 10
64.86360175060025
 20
103.505279171202
 30
0.0
 10
64.86358599502165
 20
103.5052683868389
 30
0.0
 10
64.86341024286509
 20
103.5051480881734
 30
0.0
 10
64.85798122684557
 20
103.5014296372553
 30
0.0
 10
64.83644574313824
 20
103.486718596189
 30
0.0
 10
64.78874031487342
 20
103.4542697347304
 30
0.0
 10
64.71634936988151
 20
103.405685694387
 30
0.0
 10
64.61443025786384
 20
103.3383152221187
 30
0.0
 10
64.53907516640881
 20
103.2895016573848
 30
0.0
 10
64.48667552068551
 20
103.2560951071903
 30
0.0
 10
64.48539568914138
 20
103.255279171202
 30
0.0
  0
ARC
  5
1AF
330
1F
100
AcDbEntity
  8
0
  6
Continuous
 62
     7
370
    25
100
AcDbCircle
 10
64.8636017506
 20
103.7552791712
 30
0.0
 40
0.2500000000000077
100
AcDbArc
 50
197.7189318734
 51
270.0
  0
SPLINE
  5
1B0
330
1F
100
AcDbEntity
  8
0
  6
Continuous
 62
     7
370
    25
100
AcDbSpline
210
0.0
220
0.0
230
1.0
 70
     8
 71
     3
 72
    15
 73
    11
 74
     0
 42
0.00000001
 43
0.00000001
 40
0.0
 40
0.0
 40
0.0
 40
0.0
 40
0.0081667445812695
 40
0.3321939991490083
 40
0.4756279600585602
 40
0.6866830973284899
 40
0.8457435502264811
 40
0.8967566214763185
 40
0.9909540928118029
 40
1.0
 40
1.0
 40
1.0
 40
1.0
 10
54.2873566619558
 20
100.755279171202
 30
0.0
 10
54.28686912781291
 20
100.753841708263
 30
0.0
 10
54.26703798028085
 20
100.6953708503113
 30
0.0
 10
54.23875720027158
 20
100.6109456725918
 30
0.0
 10
54.20092790178275
 20
100.4963666005694
 30
0.0
 10
54.17434400521526
 20
100.4149957133728
 30
0.0
 10
54.15717418146028
 20
100.3619767213711
 30
0.0
 10
54.14935718524383
 20
100.337774789527
 30
0.0
 10
54.14736149880795
 20
100.3315851688608
 30
0.0
 10
54.14729653485715
 20
100.3313837734483
 30
0.0
 10
54.14729084289048
 20
100.3313661277238
 30
0.0
  0
ARC
  5
1B1
330
1F
100
AcDbEntity
  8
0
  6
Continuous
 62
     7
370
    25
100
AcDbCircle
 10
59.3863761755
 20
102.0052791712
 30
0.0
 40
5.250000000000009
100
AcDbArc
 50
193.774146998
 51
346.225853002
  0
SPLINE
  5
1B2
330
1F
100
AcDbEntity
  8
0
  6
Continuous
 62
     7
370
    25
100
AcDbSpline
210
0.0
220
0.0
230
1.0
 70
     8
 71
     3
 72
    15
 73
    11
 74
     0
 42
0.00000001
 43
0.00000001
 40
0.0
 40
0.0
 40
0.0
 40
0.0
 40
0.0090459071881971
 40
0.1032433785236874
 40
0.1542564497735246
 40
0.313316902671511
 40
0.5243720399414428
 40
0.6678060008509903
 40
0.9918332554187292
 40
1.0
 40
1.0
 40
1.0
 40
1.0
 10
64.6254615082067
 20
100.3313661277238
 30
0.0
 10
64.62545581624003
 20
100.3313837734483
 30
0.0
 10
64.62539085228924
 20
100.3315851688608
 30
0.0
 10
64.62339516585335
 20
100.337774789527
 30
0.0
 10
64.61557816963689
 20
100.3619767213711
 30
0.0
 10
64.59840834588192
 20
100.4149957133728
 30
0.0
 10
64.57182444931443
 20
100.4963666005694
 30
0.0
 10
64.5339951508256
 20
100.6109456725918
 30
0.0
 10
64.50571437081634
 20
100.6953708503113
 30
0.0
 10
64.48588322328426
 20
100.753841708263
 30
0.0
 10
64.48539568914138
 20
100.755279171202
 30
0.0
  0
ARC
  5
1B3
330
1F
100
AcDbEntity
  8
0
  6
Continuous
 62
     7
370
    25
100
AcDbCircle
 10
59.3863761755
 20
102.0052791712
 30
0.0
 40
5.500000000000004
100
AcDbArc
 50
197.7189318734
 51
342.2810681266
  0
ARC
  5
1B4
330
1F
100
AcDbEntity
  8
0
  6
Continuous
 62
     7
370
    25
100
AcDbCircle
 10
64.8636017506
 20
100.2552791712
 30
0.0
 40
0.2500000000000034
100
AcDbArc
 50
90.0
 51
162.2810681266
  0
SPLINE
  5
1B5
330
1F
100
AcDbEntity
  8
0
  6
Continuous
 62
     7
370
    25
100
AcDbSpline
210
0.0
220
0.0
230
1.0
 70
     8
 71
     3
 72
    15
 73
    11
 74
     0
 42
0.00000001
 43
0.00000001
 40
0.0
 40
0.0
 40
0.0
 40
0.0
 40
0.0080847466189818
 40
0.3310106400647567
 40
0.4750333064304972
 40
0.6874363079215137
 40
0.8468367539418253
 40
0.9000996640391794
 40
0.9910442771984082
 40
1.0
 40
1.0
 40
1.0
 40
1.0
 10
64.48539568914138
 20
100.755279171202
 30
0.0
 10
64.48667552068551
 20
100.7544632352138
 30
0.0
 10
64.5390751664093
 20
100.7210566850201
 30
0.0
 10
64.61443025786373
 20
100.6722431202852
 30
0.0
 10
64.71634936988153
 20
100.6048726480171
 30
0.0
 10
64.78874031487342
 20
100.5562886076736
 30
0.0
 10
64.83644574313826
 20
100.5238397462151
 30
0.0
 10
64.85798122684557
 20
100.5091287051488
 30
0.0
 10
64.8634102428651
 20
100.5054102542307
 30
0.0
 10
64.86358599502165
 20
100.5052899555652
 30
0.0
 10
64.86360175060025
 20
100.505279171202
 30
0.0
  0
ARC
  5
1B6
330
1F
100
AcDbEntity
  8
0
  6
Continuous
 62
     7
370
    25
100
AcDbCircle
 10
53.9091506005
 20
100.2552791712
 30
0.0
 40
0.25
100
AcDbArc
 50
17.7189318734
 51
90.0
  0
SPLINE
  5
1B7
330
1F
100
AcDbEntity
  8
0
  6
Continuous
 62
     7
370
    25
100
AcDbSpline
210
0.0
220
0.0
230
1.0
 70
     8
 71
     3
 72
    15
 73
    11
 74
     0
 42
0.00000001
 43
0.00000001
 40
0.0
 40
0.0
 40
0.0
 40
0.0
 40
0.0089557228015919
 40
0.0999003359608148
 40
0.153163246058169
 40
0.3125636920784848
 40
0.5249666935694999
 40
0.6689893599352451
 40
0.9919152533810159
 40
1.0
 40
1.0
 40
1.0
 40
1.0
 10
53.90915060049694
 20
100.505279171202
 30
0.0
 10
53.90916635607554
 20
100.5052899555652
 30
0.0
 10
53.9093421082321
 20
100.5054102542307
 30
0.0
 10
53.91477112425162
 20
100.5091287051488
 30
0.0
 10
53.93630660795893
 20
100.5238397462151
 30
0.0
 10
53.98401203622376
 20
100.5562886076736
 30
0.0
 10
54.05640298121567
 20
100.6048726480171
 30
0.0
 10
54.15832209323344
 20
100.6722431202853
 30
0.0
 10
54.23367718468791
 20
100.72105668502
 30
0.0
 10
54.28607683041167
 20
100.7544632352138
 30
0.0
 10
54.2873566619558
 20
100.755279171202
 30
0.0
  0
LINE
  5
1B8
330
1F
100
AcDbEntity
  8
0
  6
Continuous
 62
     7
370
    25
100
AcDbLine
 10
54.3863761755
 20
101.4052791712
 30
0.0
 11
64.3863761755
 21
101.4052791712
 31
0.0
  0
LINE
  5
1B9
330
1F
100
AcDbEntity
  8
0
  6
Continuous
 62
     7
370
    25
100
AcDbLine
 10
64.3863761755
 20
102.6052791712
 30
0.0
 11
54.3863761755
 21
102.6052791712
 31
0.0
  0
LINE
  5
1BA
330
1F
100
AcDbEntity
  8
0
  6
Continuous
 62
     7
370
    25
100
AcDbLine
 10
64.3863761755
 20
101.4052791712
 30
0.0
 11
64.3863761755
 21
102.6052791712
 31
0.0
  0
LINE
  5
1BB
330
1F
100
AcDbEntity
  8
0
  6
Continuous
 62
     7
370
    25
100
AcDbLine
 10
54.3863761755
 20
102.6052791712
 30
0.0
 11
54.3863761755
 21
101.4052791712
 31
0.0
  0
LINE
  5
1BC
330
1F
100
AcDbEntity
  8
0
  6
Continuous
 62
     7
370
    25
100
AcDbLine
 10
53.6363761755
 20
100.7552791712
 30
0.0
 11
54.287356662
 21
100.7552791712
 31
0.0
  0
LINE
  5
1BD
330
1F
100
AcDbEntity
  8
0
  6
Continuous
 62
     7
370
    25
100
AcDbLine
 10
53.6363761755
 20
103.2552791712
 30
0.0
 11
53.6363761755
 21
100.7552791712
 31
0.0
  0
LINE
  5
1BE
330
1F
100
AcDbEntity
  8
0
  6
Continuous
 62
     7
370
    25
100
AcDbLine
 10
54.287356662
 20
103.2552791712
 30
0.0
 11
53.6363761755
 21
103.2552791712
 31
0.0
  0
LINE
  5
1BF
330
1F
100
AcDbEntity
  8
0
  6
Continuous
 62
     7
370
    25
100
AcDbLine
 10
65.1363761755
 20
103.2552791712
 30
0.0
 11
64.4853956891
 21
103.2552791712
 31
0.0
  0
LINE
  5
1C0
330
1F
100
AcDbEntity
  8
0
  6
Continuous
 62
     7
370
    25
100
AcDbLine
 10
65.1363761755
 20
100.7552791712
 30
0.0
 11
65.1363761755
 21
103.2552791712
 31
0.0
  0
LINE
  5
1C1
330
1F
100
AcDbEntity
  8
0
  6
Continuous
 62
     7
370
    25
100
AcDbLine
 10
64.4853956891
 20
100.7552791712
 30
0.0
 11
65.1363761755
 21
100.7552791712
 31
0.0
  0
ARC
  5
1C2
330
1F
100
AcDbEntity
  8
0
  6
Continuous
 62
     7
370
    25
100
AcDbCircle
 10
53.6363761755
 20
103.2552791712
 30
0.0
 40
0.25
100
AcDbArc
 50
90.0
 51
180.0
  0
LINE
  5
1C3
330
1F
100
AcDbEntity
  8
0
  6
Continuous
 62
     7
370
    25
100
AcDbLine
 10
53.6363761755
 20
103.5052791712
 30
0.0
 11
53.6363761755
 21
103.2552791712
 31
0.0
  0
LINE
  5
1C4
330
1F
100
AcDbEntity
  8
0
  6
Continuous
 62
     7
370
    25
100
AcDbLine
 10
53.6363761755
 20
103.2552791712
 30
0.0
 11
53.3863761755
 21
103.2552791712
 31
0.0
  0
LINE
  5
1C5
330
1F
100
AcDbEntity
  8
0
  6
Continuous
 62
     7
370
    25
100
AcDbLine
 10
65.3863761755
 20
103.2552791712
 30
0.0
 11
65.1363761755
 21
103.2552791712
 31
0.0
  0
LINE
  5
1C6
330
1F
100
AcDbEntity
  8
0
  6
Continuous
 62
     7
370
    25
100
AcDbLine
 10
65.1363761755
 20
103.2552791712
 30
0.0
 11
65.1363761755
 21
103.5052791712
 31
0.0
  0
ARC
  5
1C7
330
1F
100
AcDbEntity
  8
0
  6
Continuous
 62
     7
370
    25
100
AcDbCircle
 10
65.1363761755
 20
103.2552791712
 30
0.0
 40
0.25
100
AcDbArc
 50
0.0
 51
90.0
  0
LINE
  5
1C8
330
1F
100
AcDbEntity
  8
0
  6
Continuous
 62
     7
370
    25
100
AcDbLine
 10
53.6363761755
 20
103.5052791712
 30
0.0
 11
53.9091506005
 21
103.5052791712
 31
0.0
  0
LINE
  5
1C9
330
1F
100
AcDbEntity
  8
0
  6
Continuous
 62
     7
370
    25
100
AcDbLine
 10
64.8636017506
 20
103.5052791712
 30
0.0
 11
65.1363761755
 21
103.5052791712
 31
0.0
  0
LINE
  5
1CA
330
1F
100
AcDbEntity
  8
0
  6
Continuous
 62
     7
370
    25
100
AcDbLine
 10
65.3863761755
 20
103.2552791712
 30
0.0
 11
65.3863761755
 21
100.7552791712
 31
0.0
  0
LINE
  5
1CB
330
1F
100
AcDbEntity
  8
0
  6
Continuous
 62
     7
370
    25
100
AcDbLine
 10
65.1363761755
 20
100.7552791712
 30
0.0
 11
65.3863761755
 21
100.7552791712
 31
0.0
  0
LINE
  5
1CC
330
1F
100
AcDbEntity
  8
0
  6
Continuous
 62
     7
370
    25
100
AcDbLine
 10
53.3863761755
 20
100.7552791712
 30
0.0
 11
53.6363761755
 21
100.7552791712
 31
0.0
  0
LINE
  5
1CD
330
1F
100
AcDbEntity
  8
0
  6
Continuous
 62
     7
370
    25
100
AcDbLine
 10
53.3863761755
 20
100.7552791712
 30
0.0
 11
53.3863761755
 21
103.2552791712
 31
0.0
  0
LINE
  5
1CE
330
1F
100
AcDbEntity
  8
0
  6
Continuous
 62
     7
370
    25
100
AcDbLine
 10
53.6363761755
 20
100.7552791712
 30
0.0
 11
53.6363761755
 21
100.5052791712
 31
0.0
  0
LINE
  5
1CF
330
1F
100
AcDbEntity
  8
0
  6
Continuous
 62
     7
370
    25
100
AcDbLine
 10
53.9091506005
 20
100.5052791712
 30
0.0
 11
53.6363761755
 21
100.5052791712
 31
0.0
  0
LINE
  5
1D0
330
1F
100
AcDbEntity
  8
0
  6
Continuous
 62
     7
370
    25
100
AcDbLine
 10
65.1363761755
 20
100.5052791712
 30
0.0
 11
65.1363761755
 21
100.7552791712
 31
0.0
  0
ARC
  5
1D1
330
1F
100
AcDbEntity
  8
0
  6
Continuous
 62
     7
370
    25
100
AcDbCircle
 10
65.1363761755
 20
100.7552791712
 30
0.0
 40
0.25
100
AcDbArc
 50
270.0
 51
0.0
  0
ARC
  5
1D2
330
1F
100
AcDbEntity
  8
0
  6
Continuous
 62
     7
370
    25
100
AcDbCircle
 10
53.6363761755
 20
100.7552791712
 30
0.0
 40
0.25
100
AcDbArc
 50
180.0
 51
270.0
  0
LINE
  5
1D3
330
1F
100
AcDbEntity
  8
0
  6
Continuous
 62
     7
370
    25
100
AcDbLine
 10
65.1363761755
 20
100.5052791712
 30
0.0
 11
64.8636017506
 21
100.5052791712
 31
0.0
  0
LINE
  5
1D4
330
1F
100
AcDbEntity
  8
0
  6
Continuous
 62
     7
370
    25
100
AcDbLine
 10
39.3863761755
 20
98.7335799071
 30
0.0
 11
39.3863761755
 21
105.2769784353
 31
0.0
  0
LINE
  5
1D5
330
1F
100
AcDbEntity
  8
0
  6
Continuous
 62
     7
370
    25
100
AcDbLine
 10
37.210939314
 20
98.5052791712
 30
0.0
 11
39.3863761755
 21
98.7335799071
 31
0.0
  0
LINE
  5
1D6
330
1F
100
AcDbEntity
  8
0
  6
Continuous
 62
     7
370
    25
100
AcDbLine
 10
19.3863761755
 20
98.5052791712
 30
0.0
 11
37.210939314
 21
98.5052791712
 31
0.0
  0
LINE
  5
1D7
330
1F
100
AcDbEntity
  8
0
  6
Continuous
 62
     7
370
    25
100
AcDbLine
 10
37.210939314
 20
105.5052791712
 30
0.0
 11
19.3863761755
 21
105.5052791712
 31
0.0
  0
LINE
  5
1D8
330
1F
100
AcDbEntity
  8
0
  6
Continuous
 62
     7
370
    25
100
AcDbLine
 10
39.3863761755
 20
105.2769784353
 30
0.0
 11
37.210939314
 21
105.5052791712
 31
0.0
  0
LINE
  5
1D9
330
1F
100
AcDbEntity
  8
0
  6
Continuous
 62
     7
370
    25
100
AcDbLine
 10
19.3863761755
 20
105.5052791712
 30
0.0
 11
19.3863761755
 21
98.5052791712
 31
0.0
  0
LINE
  5
1DA
330
1F
100
AcDbEntity
  8
0
  6
Continuous
 62
     7
370
    25
100
AcDbLine
 10
54.1625740012
 20
103.726293652
 30
0.0
 11
54.0660096839
 21
103.5668943318
 31
0.0
  0
LINE
  5
1DB
330
1F
100
AcDbEntity
  8
0
  6
Continuous
 62
     7
370
    25
100
AcDbLine
 10
54.0437323033
 20
100.4600615038
 30
0.0
 11
54.1625740012
 21
100.2842646904
 31
0.0
  0
LINE
  5
1DC
330
1F
100
AcDbEntity
  8
0
  6
Continuous
 62
     7
370
    25
100
AcDbLine
 10
45.9698065219
 20
104.5860818068
 30
0.0
 11
45.9698065219
 21
99.4244765356
 31
0.0
  0
LINE
  5
1DD
330
1F
100
AcDbEntity
  8
0
  6
Continuous
 62
     7
370
    25
100
AcDbLine
 10
54.1625740012
 20
100.2842646904
 30
0.0
 11
45.9698065219
 21
99.4244765356
 31
0.0
  0
LINE
  5
1DE
330
1F
100
AcDbEntity
  8
0
  6
Continuous
 62
     7
370
    25
100
AcDbLine
 10
45.9698065219
 20
104.5860818068
 30
0.0
 11
54.1625740012
 21
103.726293652
 31
0.0
  0
LINE
  5
1DF
330
1F
100
AcDbEntity
  8
0
  6
Continuous
 62
     7
370
    25
100
AcDbLine
 10
45.9698065219
 20
99.4244765356
 30
0.0
 11
39.3863761755
 21
98.7335799071
 31
0.0
  0
LINE
  5
1E0
330
1F
100
AcDbEntity
  8
0
  6
Continuous
 62
     7
370
    25
100
AcDbLine
 10
39.3863761755
 20
105.2769784353
 30
0.0
 11
45.9698065219
 21
104.5860818068
 31
0.0
  0
ARC
  5
1E1
330
1F
100
AcDbEntity
  8
0
  6
Continuous
 62
     7
370
    25
100
AcDbCircle
 10
59.3863761755
 20
102.0052791712
 30
0.0
 40
7.450000000000647
100
AcDbArc
 50
233.0863788866
 51
126.9136211134
  0
ARC
  5
1E2
330
1F
100
AcDbEntity
  8
0
  6
Continuous
 62
     7
370
    25
100
AcDbCircle
 10
59.3863761755
 20
102.0052791712
 30
0.0
 40
7.207531252870799
100
AcDbArc
 50
195.3041237151
 51
238.9797515565
  0
ARC
  5
1E3
330
1F
100
AcDbEntity
  8
0
  6
Continuous
 62
     7
370
    25
100
AcDbCircle
 10
59.3863761755
 20
102.0052791712
 30
0.0
 40
7.207531252872433
100
AcDbArc
 50
121.0202484435
 51
164.6958762849
  0
ARC
  5
1E4
330
1F
100
AcDbEntity
  8
0
  6
Continuous
 62
     7
370
    25
100
AcDbCircle
 10
37.210939314
 20
170.5052791712
 30
0.0
 40
65.0
100
AcDbArc
 50
270.0
 51
286.5000949923
  0
ARC
  5
1E5
330
1F
100
AcDbEntity
  8
0
  6
Continuous
 62
     7
370
    25
100
AcDbCircle
 10
37.210939314
 20
33.5052791712
 30
0.0
 40
64.99999999999999
100
AcDbArc
 50
73.4999050077
 51
90.0
  0
LINE
  5
1E6
330
1F
100
AcDbEntity
  8
0
  6
Continuous
 62
     7
370
    25
100
AcDbLine
 10
47.8863761755
 20
93.5052791712
 30
0.0
 11
47.8863761755
 21
97.6226328893
 31
0.0
  0
LINE
  5
1E7
330
1F
100
AcDbEntity
  8
0
  6
Continuous
 62
     7
370
    25
100
AcDbLine
 10
47.8863761755
 20
106.3879254531
 30
0.0
 11
47.8863761755
 21
110.5052791712
 31
0.0
  0
LINE
  5
1E8
330
1F
100
AcDbEntity
  8
0
  6
Continuous
 62
     7
370
    25
100
AcDbLine
 10
44.8863761755
 20
93.5052791712
 30
0.0
 11
44.8863761755
 21
98.0505165554
 31
0.0
  0
LINE
  5
1E9
330
1F
100
AcDbEntity
  8
0
  6
Continuous
 62
     7
370
    25
100
AcDbLine
 10
44.8863761755
 20
105.960041787
 30
0.0
 11
44.8863761755
 21
110.5052791712
 31
0.0
  0
SPLINE
  5
1EA
330
1F
100
AcDbEntity
  8
0
  6
Continuous
 62
     7
370
    25
100
AcDbSpline
210
0.0
220
0.0
230
1.0
 70
    24
 71
     3
 72
    10
 73
     6
 74
     0
 42
0.00000001
 43
0.00000001
 40
0.0
 40
0.0
 40
0.0
 40
0.0
 40
0.3696207583331816
 40
0.7422870911061924
 40
1.0
 40
1.0
 40
1.0
 40
1.0
 10
70.564317202991
 20
93.50527917120203
 30
0.0
 10
70.70551995920515
 20
93.50527917120203
 30
0.0
 10
70.98908894391002
 20
93.50527917120203
 30
0.0
 10
71.20822738960976
 20
93.50527917120203
 30
0.0
 10
71.23061835669122
 20
93.50527917120203
 30
0.0
 10
71.2397722768683
 20
93.50527917120203
 30
0.0
  0
SPLINE
  5
1EB
330
1F
100
AcDbEntity
  8
0
  6
Continuous
 62
     7
370
    25
100
AcDbSpline
210
0.0
220
0.0
230
1.0
 70
     8
 71
     3
 72
    10
 73
     6
 74
     0
 42
0.00000001
 43
0.00000001
 40
0.0
 40
0.0
 40
0.0
 40
0.0
 40
0.5
 40
0.5
 40
1.0
 40
1.0
 40
1.0
 40
1.0
 10
70.564317202991
 20
93.75527917120203
 30
0.0
 10
70.5406418085666
 20
93.68089879382471
 30
0.0
 10
70.52755069868196
 20
93.61659815503893
 30
0.0
 10
70.52746437739368
 20
93.52838247025599
 30
0.0
 10
70.54063331133753
 20
93.50527917120203
 30
0.0
 10
70.564317202991
 20
93.50527917120203
 30
0.0
  0
SPLINE
  5
1EC
330
1F
100
AcDbEntity
  8
0
  6
Continuous
 62
     7
370
    25
100
AcDbSpline
210
0.0
220
0.0
230
1.0
 70
     8
 71
     3
 72
    16
 73
    12
 74
     0
 42
0.00000001
 43
0.00000001
 40
0.0
 40
0.0
 40
0.0
 40
0.0
 40
0.2500000000000001
 40
0.2500000000000001
 40
0.5000000000000001
 40
0.5000000000000001
 40
0.6250000000000001
 40
0.6250000000000001
 40
0.7500000000000002
 40
0.7500000000000002
 40
1.0
 40
1.0
 40
1.0
 40
1.0
 10
70.564317202991
 20
101.755279171202
 30
0.0
 10
70.77233265109675
 20
101.1017623911612
 30
0.0
 10
70.94253895606973
 20
100.4435419820713
 30
0.0
 10
71.17747498763732
 20
99.11397939870547
 30
0.0
 10
71.24154711930098
 20
98.44255541663492
 30
0.0
 10
71.24228006822199
 20
97.4235543296282
 30
0.0
 10
71.22662058813896
 20
97.08221354731202
 30
0.0
 10
71.16534546150203
 20
96.40661504434156
 30
0.0
 10
71.1197891890029
 20
96.07095589437695
 30
0.0
 10
70.94330315624663
 20
95.06969025787724
 30
0.0
 10
70.77264670276092
 20
94.40978259927408
 30
0.0
 10
70.564317202991
 20
93.75527917120203
 30
0.0
  0
SPLINE
  5
1ED
330
1F
100
AcDbEntity
  8
0
  6
Continuous
 62
     7
370
    25
100
AcDbSpline
210
0.0
220
0.0
230
1.0
 70
     8
 71
     3
 72
    10
 73
     6
 74
     0
 42
0.00000001
 43
0.00000001
 40
0.0
 40
0.0
 40
0.0
 40
0.0
 40
0.5
 40
0.5
 40
1.0
 40
1.0
 40
1.0
 40
1.0
 10
70.564317202991
 20
102.255279171202
 30
0.0
 10
70.5406418085666
 20
102.1808987938247
 30
0.0
 10
70.52755069868196
 20
102.0938057057091
 30
0.0
 10
70.52746437739368
 20
101.9176473168331
 30
0.0
 10
70.54063331133753
 20
101.8296862441053
 30
0.0
 10
70.564317202991
 20
101.755279171202
 30
0.0
  0
SPLINE
  5
1EE
330
1F
100
AcDbEntity
  8
0
  6
Continuous
 62
     7
370
    25
100
AcDbSpline
210
0.0
220
0.0
230
1.0
 70
     8
 71
     3
 72
    16
 73
    12
 74
     0
 42
0.00000001
 43
0.00000001
 40
0.0
 40
0.0
 40
0.0
 40
0.0
 40
0.2499999999999997
 40
0.2499999999999997
 40
0.4999999999999993
 40
0.4999999999999993
 40
0.6249999999999993
 40
0.6249999999999993
 40
0.7499999999999996
 40
0.7499999999999996
 40
1.0
 40
1.0
 40
1.0
 40
1.0
 10
70.564317202991
 20
110.255279171202
 30
0.0
 10
70.77233265109673
 20
109.6017623911612
 30
0.0
 10
70.94253895606973
 20
108.9435419820713
 30
0.0
 10
71.17747498763732
 20
107.6139793987055
 30
0.0
 10
71.24154711930098
 20
106.9425554166349
 30
0.0
 10
71.24228006822199
 20
105.9235543296282
 30
0.0
 10
71.22662058813896
 20
105.582213547312
 30
0.0
 10
71.16534546150203
 20
104.9066150443416
 30
0.0
 10
71.1197891890029
 20
104.5709558943769
 30
0.0
 10
70.94330315624663
 20
103.5696902578772
 30
0.0
 10
70.77264670276092
 20
102.9097825992741
 30
0.0
 10
70.564317202991
 20
102.255279171202
 30
0.0
  0
SPLINE
  5
1EF
330
1F
100
AcDbEntity
  8
0
  6
Continuous
 62
     7
370
    25
100
AcDbSpline
210
0.0
220
0.0
230
1.0
 70
     8
 71
     3
 72
    10
 73
     6
 74
     0
 42
0.00000001
 43
0.00000001
 40
0.0
 40
0.0
 40
0.0
 40
0.0
 40
0.5
 40
0.5
 40
1.0
 40
1.0
 40
1.0
 40
1.0
 10
70.564317202991
 20
110.505279171202
 30
0.0
 10
70.5406418085666
 20
110.505279171202
 30
0.0
 10
70.52755069868196
 20
110.4824867218722
 30
0.0
 10
70.52746437739368
 20
110.3945440177792
 30
0.0
 10
70.54063331133753
 20
110.3296862441053
 30
0.0
 10
70.564317202991
 20
110.255279171202
 30
0.0
  0
SPLINE
  5
1F0
330
1F
100
AcDbEntity
  8
0
  6
Continuous
 62
     7
370
    25
100
AcDbSpline
210
0.0
220
0.0
230
1.0
 70
    24
 71
     3
 72
    10
 73
     6
 74
     0
 42
0.00000001
 43
0.00000001
 40
0.0
 40
0.0
 40
0.0
 40
0.0
 40
0.2577091362635829
 40
0.6270768220645372
 40
1.0
 40
1.0
 40
1.0
 40
1.0
 10
71.2384305357299
 20
110.505279171202
 30
0.0
 10
71.22982703982328
 20
110.505279171202
 30
0.0
 10
71.2088923808896
 20
110.505279171202
 30
0.0
 10
70.98992326184622
 20
110.505279171202
 30
0.0
 10
70.70663819078892
 20
110.505279171202
 30
0.0
 10
70.564317202991
 20
110.505279171202
 30
0.0
  0
LINE
  5
1F1
330
1F
100
AcDbEntity
  8
0
  6
Continuous
 62
     7
370
    25
100
AcDbLine
 10
71.3863761755
 20
110.2552791712
 30
0.0
 11
71.3863761755
 21
93.7552791712
 31
0.0
  0
SPLINE
  5
1F2
330
1F
100
AcDbEntity
  8
0
  6
Continuous
 62
     7
370
    25
100
AcDbSpline
210
0.0
220
0.0
230
1.0
 70
     8
 71
     3
 72
    10
 73
     6
 74
     0
 42
0.00000001
 43
0.00000001
 40
0.0
 40
0.0
 40
0.0
 40
0.0
 40
0.0470484943815209
 40
0.5195930427919918
 40
1.0
 40
1.0
 40
1.0
 40
1.0
 10
65.387977393188
 20
106.3723326229628
 30
0.0
 10
65.38863359709963
 20
106.4340527033235
 30
0.0
 10
65.39588056624531
 20
107.1156754582611
 30
0.0
 10
65.54229138780865
 20
108.428447058793
 30
0.0
 10
65.88920809438041
 20
109.6429948897658
 30
0.0
 10
66.06409758080878
 20
110.255279171202
 30
0.0
  0
LINE
  5
1F3
330
1F
100
AcDbEntity
  8
0
  6
Continuous
 62
     7
370
    25
100
AcDbLine
 10
70.564317203
 20
110.2552791712
 30
0.0
 11
66.0640975808
 21
110.2552791712
 31
0.0
  0
SPLINE
  5
1F4
330
1F
100
AcDbEntity
  8
0
  6
Continuous
 62
     7
370
    25
100
AcDbSpline
210
0.0
220
0.0
230
1.0
 70
     8
 71
     3
 72
    10
 73
     6
 74
     0
 42
0.00000001
 43
0.00000001
 40
0.0
 40
0.0
 40
0.0
 40
0.0
 40
0.084179291651143
 40
0.5387774111283008
 40
1.0
 40
1.0
 40
1.0
 40
1.0
 10
47.89022880495578
 20
106.4263750676507
 30
0.0
 10
47.89205687257233
 20
106.5352937830457
 30
0.0
 10
47.90375715560496
 20
107.2324123065314
 30
0.0
 10
48.06788757877479
 20
108.5248983742482
 30
0.0
 10
48.39789854972233
 20
109.6757108217421
 30
0.0
 10
48.56409758080878
 20
110.255279171202
 30
0.0
  0
LINE
  5
1F5
330
1F
100
AcDbEntity
  8
0
  6
Continuous
 62
     7
370
    25
100
AcDbLine
 10
52.7086547703
 20
110.2552791712
 30
0.0
 11
48.5640975808
 21
110.2552791712
 31
0.0
  0
SPLINE
  5
1F6
330
1F
100
AcDbEntity
  8
0
  6
Continuous
 62
     7
370
    25
100
AcDbSpline
210
0.0
220
0.0
230
1.0
 70
     8
 71
     3
 72
     9
 73
     5
 74
     0
 42
0.00000001
 43
0.00000001
 40
0.0
 40
0.0
 40
0.0
 40
0.0
 40
0.7348868664882142
 40
1.0
 40
1.0
 40
1.0
 40
1.0
 10
52.70865477028839
 20
110.2552791712021
 30
0.0
 10
52.90052215282848
 20
109.6048667941059
 30
0.0
 10
53.1616063976143
 20
108.7198157654975
 30
0.0
 10
53.27032594590633
 20
107.8127480993151
 30
0.0
 10
53.29914892602801
 20
107.5722725480263
 30
0.0
  0
SPLINE
  5
1F7
330
1F
100
AcDbEntity
  8
0
  6
Continuous
 62
     7
370
    25
100
AcDbSpline
210
0.0
220
0.0
230
1.0
 70
     8
 71
     3
 72
     9
 73
     5
 74
     0
 42
0.00000001
 43
0.00000001
 40
0.0
 40
0.0
 40
0.0
 40
0.0
 40
0.310645393086773
 40
1.0
 40
1.0
 40
1.0
 40
1.0
 10
53.2729867033947
 20
96.44970067188038
 30
0.0
 10
53.24842526084065
 20
96.16608494789853
 30
0.0
 10
53.16935940922767
 20
95.25309627884513
 30
0.0
 10
52.89664896877073
 20
94.36647537550508
 30
0.0
 10
52.7086547702884
 20
93.75527917120203
 30
0.0
  0
LINE
  5
1F8
330
1F
100
AcDbEntity
  8
0
  6
Continuous
 62
     7
370
    25
100
AcDbLine
 10
48.5640975808
 20
93.7552791712
 30
0.0
 11
52.7086547703
 21
93.7552791712
 31
0.0
  0
SPLINE
  5
1F9
330
1F
100
AcDbEntity
  8
0
  6
Continuous
 62
     7
370
    25
100
AcDbSpline
210
0.0
220
0.0
230
1.0
 70
     8
 71
     3
 72
    10
 73
     6
 74
     0
 42
0.00000001
 43
0.00000001
 40
0.0
 40
0.0
 40
0.0
 40
0.0
 40
0.5170785742034758
 40
0.7802091321457263
 40
1.0
 40
1.0
 40
1.0
 40
1.0
 10
48.56409758080878
 20
93.75527917120203
 30
0.0
 10
48.37929445373479
 20
94.40628621661341
 30
0.0
 10
48.10044884963233
 20
95.38857724018479
 30
0.0
 10
47.9213252139179
 20
96.67707810365091
 30
0.0
 10
47.90266040630332
 20
97.30251295860742
 30
0.0
 10
47.89416553727327
 20
97.58716562095404
 30
0.0
  0
LINE
  5
1FA
330
1F
100
AcDbEntity
  8
0
  6
Continuous
 62
     7
370
    25
100
AcDbLine
 10
66.0640975808
 20
93.7552791712
 30
0.0
 11
70.564317203
 21
93.7552791712
 31
0.0
  0
SPLINE
  5
1FB
330
1F
100
AcDbEntity
  8
0
  6
Continuous
 62
     7
370
    25
100
AcDbSpline
210
0.0
220
0.0
230
1.0
 70
     8
 71
     3
 72
    10
 73
     6
 74
     0
 42
0.00000001
 43
0.00000001
 40
0.0
 40
0.0
 40
0.0
 40
0.0
 40
0.5070881028569295
 40
0.7651347172156112
 40
1.0
 40
1.0
 40
1.0
 40
1.0
 10
66.06409758080879
 20
93.75527917120199
 30
0.0
 10
65.87911518406611
 20
94.40627778617527
 30
0.0
 10
65.5999990836801
 20
95.38855608923349
 30
0.0
 10
65.41859318111379
 20
96.70250117429566
 30
0.0
 10
65.39964843949234
 20
97.35347441369936
 30
0.0
 10
65.39062154822842
 20
97.66365360564782
 30
0.0
  0
LINE
  5
1FC
330
1F
100
AcDbEntity
  8
0
  6
Continuous
 62
     7
370
    25
100
AcDbLine
 10
65.3863761755
 20
97.5891156778
 30
0.0
 11
65.3863761755
 21
94.5052791712
 31
0.0
  0
LINE
  5
1FD
330
1F
100
AcDbEntity
  8
0
  6
Continuous
 62
     7
370
    25
100
AcDbLine
 10
65.3863761755
 20
94.5052791712
 30
0.0
 11
53.3863761755
 21
94.5052791712
 31
0.0
  0
LINE
  5
1FE
330
1F
100
AcDbEntity
  8
0
  6
Continuous
 62
     7
370
    25
100
AcDbLine
 10
53.3863761755
 20
96.4604635672
 30
0.0
 11
53.3863761755
 21
94.5052791712
 31
0.0
  0
LINE
  5
1FF
330
1F
100
AcDbEntity
  8
0
  6
Continuous
 62
     7
370
    25
100
AcDbLine
 10
53.3863761755
 20
109.5052791712
 30
0.0
 11
53.3863761755
 21
107.5500947752
 31
0.0
  0
LINE
  5
200
330
1F
100
AcDbEntity
  8
0
  6
Continuous
 62
     7
370
    25
100
AcDbLine
 10
53.3863761755
 20
109.5052791712
 30
0.0
 11
65.3863761755
 21
109.5052791712
 31
0.0
  0
LINE
  5
201
330
1F
100
AcDbEntity
  8
0
  6
Continuous
 62
     7
370
    25
100
AcDbLine
 10
65.3863761755
 20
109.5052791712
 30
0.0
 11
65.3863761755
 21
106.4214426646
 31
0.0
  0
SPLINE
  5
202
330
1F
100
AcDbEntity
  8
0
  6
Continuous
 62
     7
370
    25
100
AcDbSpline
210
0.0
220
0.0
230
1.0
 70
     8
 71
     3
 72
     8
 73
     4
 74
     0
 42
0.00000001
 43
0.00000001
 40
0.0
 40
0.0
 40
0.0
 40
0.0
 40
1.0
 40
1.0
 40
1.0
 40
1.0
 10
52.87014009856941
 20
110.505279171202
 30
0.0
 10
53.04384317478918
 20
110.1727677490666
 30
0.0
 10
53.21614539385189
 20
109.8394406491677
 30
0.0
 10
53.38637617554859
 20
109.505279171202
 30
0.0
  0
SPLINE
  5
203
330
1F
100
AcDbEntity
  8
0
  6
Continuous
 62
     7
370
    25
100
AcDbSpline
210
0.0
220
0.0
230
1.0
 70
     8
 71
     3
 72
    10
 73
     6
 74
     0
 42
0.00000001
 43
0.00000001
 40
0.0
 40
0.0
 40
0.0
 40
0.0
 40
0.5
 40
0.5
 40
1.0
 40
1.0
 40
1.0
 40
1.0
 10
52.70865477029405
 20
110.505279171202
 30
0.0
 10
52.68497937586974
 20
110.505279171202
 30
0.0
 10
52.67188826597943
 20
110.4824867218725
 30
0.0
 10
52.67180194469103
 20
110.3945440177795
 30
0.0
 10
52.68497087863486
 20
110.3296862441055
 30
0.0
 10
52.70865477028838
 20
110.2552791712021
 30
0.0
  0
SPLINE
  5
204
330
1F
100
AcDbEntity
  8
0
  6
Continuous
 62
     7
370
    25
100
AcDbSpline
210
0.0
220
0.0
230
1.0
 70
    24
 71
     3
 72
     8
 73
     4
 74
     0
 42
0.00000001
 43
0.00000001
 40
0.0
 40
0.0
 40
0.0
 40
0.0
 40
1.0
 40
1.0
 40
1.0
 40
1.0
 10
52.87014009856941
 20
110.505279171202
 30
0.0
 10
52.819241381647
 20
110.505279171202
 30
0.0
 10
52.76530724539638
 20
110.505279171202
 30
0.0
 10
52.70865477028878
 20
110.505279171202
 30
0.0
  0
SPLINE
  5
205
330
1F
100
AcDbEntity
  8
0
  6
Continuous
 62
     7
370
    25
100
AcDbSpline
210
0.0
220
0.0
230
1.0
 70
     8
 71
     3
 72
     8
 73
     4
 74
     0
 42
0.00000001
 43
0.00000001
 40
0.0
 40
0.0
 40
0.0
 40
0.0
 40
1.0
 40
1.0
 40
1.0
 40
1.0
 10
65.3863761755486
 20
109.505279171202
 30
0.0
 10
65.55665378289231
 20
109.8395325674874
 30
0.0
 10
65.72892553151799
 20
110.1727990570563
 30
0.0
 10
65.90261225252765
 20
110.5052791712018
 30
0.0
  0
SPLINE
  5
206
330
1F
100
AcDbEntity
  8
0
  6
Continuous
 62
     7
370
    25
100
AcDbSpline
210
0.0
220
0.0
230
1.0
 70
    24
 71
     3
 72
     8
 73
     4
 74
     0
 42
0.00000001
 43
0.00000001
 40
0.0
 40
0.0
 40
0.0
 40
0.0
 40
1.0
 40
1.0
 40
1.0
 40
1.0
 10
65.90261225252723
 20
110.505279171202
 30
0.0
 10
65.95350848578246
 20
110.505279171202
 30
0.0
 10
66.00744244074632
 20
110.505279171202
 30
0.0
 10
66.06409758080878
 20
110.505279171202
 30
0.0
  0
SPLINE
  5
207
330
1F
100
AcDbEntity
  8
0
  6
Continuous
 62
     7
370
    25
100
AcDbSpline
210
0.0
220
0.0
230
1.0
 70
     8
 71
     3
 72
    10
 73
     6
 74
     0
 42
0.00000001
 43
0.00000001
 40
0.0
 40
0.0
 40
0.0
 40
0.0
 40
0.5
 40
0.5
 40
1.0
 40
1.0
 40
1.0
 40
1.0
 10
66.06409758080878
 20
110.255279171202
 30
0.0
 10
66.08777297523316
 20
110.3296595485794
 30
0.0
 10
66.1008640851178
 20
110.3939601873652
 30
0.0
 10
66.1009504064061
 20
110.4821758721481
 30
0.0
 10
66.08778147246225
 20
110.505279171202
 30
0.0
 10
66.06409758080878
 20
110.505279171202
 30
0.0
  0
SPLINE
  5
208
330
1F
100
AcDbEntity
  8
0
  6
Continuous
 62
     7
370
    25
100
AcDbSpline
210
0.0
220
0.0
230
1.0
 70
     8
 71
     3
 72
    10
 73
     6
 74
     0
 42
0.00000001
 43
0.00000001
 40
0.0
 40
0.0
 40
0.0
 40
0.0
 40
0.5
 40
0.5
 40
1.0
 40
1.0
 40
1.0
 40
1.0
 10
48.56409758080878
 20
110.505279171202
 30
0.0
 10
48.58777148136473
 20
110.505279171202
 30
0.0
 10
48.60086403854388
 20
110.4824885995546
 30
0.0
 10
48.60095045252616
 20
110.3945426022558
 30
0.0
 10
48.58778006092754
 20
110.329681809523
 30
0.0
 10
48.56409758080878
 20
110.255279171202
 30
0.0
  0
SPLINE
  5
209
330
1F
100
AcDbEntity
  8
0
  6
Continuous
 62
     7
370
    25
100
AcDbSpline
210
0.0
220
0.0
230
1.0
 70
    24
 71
     3
 72
    12
 73
     8
 74
     0
 42
0.00000001
 43
0.00000001
 40
0.0
 40
0.0
 40
0.0
 40
0.0
 40
0.2499999999999999
 40
0.2499999999999999
 40
0.4999999999999998
 40
0.4999999999999998
 40
1.0
 40
1.0
 40
1.0
 40
1.0
 10
47.88637617554859
 20
110.505279171202
 30
0.0
 10
47.88637617554859
 20
110.505279171202
 30
0.0
 10
47.90237498052966
 20
110.505279171202
 30
0.0
 10
47.96414511884406
 20
110.505279171202
 30
0.0
 10
48.00988724314565
 20
110.505279171202
 30
0.0
 10
48.18655739049249
 20
110.505279171202
 30
0.0
 10
48.35681245597279
 20
110.505279171202
 30
0.0
 10
48.56409758080878
 20
110.505279171202
 30
0.0
  0
SPLINE
  5
20A
330
1F
100
AcDbEntity
  8
0
  6
Continuous
 62
     7
370
    25
100
AcDbSpline
210
0.0
220
0.0
230
1.0
 70
     8
 71
     3
 72
     8
 73
     4
 74
     0
 42
0.00000001
 43
0.00000001
 40
0.0
 40
0.0
 40
0.0
 40
0.0
 40
1.0
 40
1.0
 40
1.0
 40
1.0
 10
53.38637617554859
 20
94.50527917120203
 30
0.0
 10
53.21609856820483
 20
94.17102577491664
 30
0.0
 10
53.04382681957912
 20
93.83775928534762
 30
0.0
 10
52.87014009856942
 20
93.50527917120203
 30
0.0
  0
SPLINE
  5
20B
330
1F
100
AcDbEntity
  8
0
  6
Continuous
 62
     7
370
    25
100
AcDbSpline
210
0.0
220
0.0
230
1.0
 70
    24
 71
     3
 72
     8
 73
     4
 74
     0
 42
0.00000001
 43
0.00000001
 40
0.0
 40
0.0
 40
0.0
 40
0.0
 40
1.0
 40
1.0
 40
1.0
 40
1.0
 10
52.87014009856942
 20
93.50527917120203
 30
0.0
 10
52.8192413816469
 20
93.50527917120203
 30
0.0
 10
52.76530724539614
 20
93.50527917120203
 30
0.0
 10
52.7086547702884
 20
93.50527917120203
 30
0.0
  0
SPLINE
  5
20C
330
1F
100
AcDbEntity
  8
0
  6
Continuous
 62
     7
370
    25
100
AcDbSpline
210
0.0
220
0.0
230
1.0
 70
     8
 71
     3
 72
    10
 73
     6
 74
     0
 42
0.00000001
 43
0.00000001
 40
0.0
 40
0.0
 40
0.0
 40
0.0
 40
0.5
 40
0.5
 40
1.0
 40
1.0
 40
1.0
 40
1.0
 10
52.7086547702884
 20
93.75527917120203
 30
0.0
 10
52.68497937586401
 20
93.68089879382471
 30
0.0
 10
52.67188826597937
 20
93.61659815503893
 30
0.0
 10
52.67180194469109
 20
93.52838247025599
 30
0.0
 10
52.68497087863494
 20
93.50527917120203
 30
0.0
 10
52.7086547702884
 20
93.50527917120203
 30
0.0
  0
SPLINE
  5
20D
330
1F
100
AcDbEntity
  8
0
  6
Continuous
 62
     7
370
    25
100
AcDbSpline
210
0.0
220
0.0
230
1.0
 70
     8
 71
     3
 72
     8
 73
     4
 74
     0
 42
0.00000001
 43
0.00000001
 40
0.0
 40
0.0
 40
0.0
 40
0.0
 40
1.0
 40
1.0
 40
1.0
 40
1.0
 10
65.90261225252777
 20
93.50527917120203
 30
0.0
 10
65.728909176308
 20
93.83779059333753
 30
0.0
 10
65.5566069572453
 20
94.17111769323641
 30
0.0
 10
65.3863761755486
 20
94.50527917120203
 30
0.0
  0
SPLINE
  5
20E
330
1F
100
AcDbEntity
  8
0
  6
Continuous
 62
     7
370
    25
100
AcDbSpline
210
0.0
220
0.0
230
1.0
 70
     8
 71
     3
 72
    10
 73
     6
 74
     0
 42
0.00000001
 43
0.00000001
 40
0.0
 40
0.0
 40
0.0
 40
0.0
 40
0.5
 40
0.5
 40
1.0
 40
1.0
 40
1.0
 40
1.0
 10
66.0640975808088
 20
93.50527917120203
 30
0.0
 10
66.0877729752332
 20
93.50527917120203
 30
0.0
 10
66.1008640851178
 20
93.52807162053182
 30
0.0
 10
66.1009504064061
 20
93.61601432462489
 30
0.0
 10
66.08778147246227
 20
93.68087209829874
 30
0.0
 10
66.0640975808088
 20
93.75527917120198
 30
0.0
  0
SPLINE
  5
20F
330
1F
100
AcDbEntity
  8
0
  6
Continuous
 62
     7
370
    25
100
AcDbSpline
210
0.0
220
0.0
230
1.0
 70
    24
 71
     3
 72
     8
 73
     4
 74
     0
 42
0.00000001
 43
0.00000001
 40
0.0
 40
0.0
 40
0.0
 40
0.0
 40
1.0
 40
1.0
 40
1.0
 40
1.0
 10
65.90261225252777
 20
93.50527917120203
 30
0.0
 10
65.95350848578285
 20
93.50527917120203
 30
0.0
 10
66.0074424407465
 20
93.50527917120203
 30
0.0
 10
66.06409758080878
 20
93.50527917120203
 30
0.0
  0
SPLINE
  5
210
330
1F
100
AcDbEntity
  8
0
  6
Continuous
 62
     7
370
    25
100
AcDbSpline
210
0.0
220
0.0
230
1.0
 70
     8
 71
     3
 72
    10
 73
     6
 74
     0
 42
0.00000001
 43
0.00000001
 40
0.0
 40
0.0
 40
0.0
 40
0.0
 40
0.5
 40
0.5
 40
1.0
 40
1.0
 40
1.0
 40
1.0
 10
48.56409758080878
 20
93.75527917120203
 30
0.0
 10
48.58776982072034
 20
93.68090870427648
 30
0.0
 10
48.6008638106556
 20
93.61660310798861
 30
0.0
 10
48.60095067811705
 20
93.52838032018278
 30
0.0
 10
48.58778088835769
 20
93.50527917120203
 30
0.0
 10
48.56409758080878
 20
93.50527917120203
 30
0.0
  0
SPLINE
  5
211
330
1F
100
AcDbEntity
  8
0
  6
Continuous
 62
     7
370
    25
100
AcDbSpline
210
0.0
220
0.0
230
1.0
 70
    24
 71
     3
 72
    12
 73
     8
 74
     0
 42
0.00000001
 43
0.00000001
 40
0.0
 40
0.0
 40
0.0
 40
0.0
 40
0.2500000000000001
 40
0.2500000000000001
 40
0.5000000000000001
 40
0.5000000000000001
 40
1.0
 40
1.0
 40
1.0
 40
1.0
 10
47.88637617554859
 20
93.50527917120203
 30
0.0
 10
47.88637617554859
 20
93.50527917120203
 30
0.0
 10
47.90237498052966
 20
93.50527917120203
 30
0.0
 10
47.96414511884405
 20
93.50527917120203
 30
0.0
 10
48.00988724314564
 20
93.50527917120203
 30
0.0
 10
48.1865573904925
 20
93.50527917120203
 30
0.0
 10
48.35681245597279
 20
93.50527917120203
 30
0.0
 10
48.56409758080878
 20
93.50527917120203
 30
0.0
  0
LINE
  5
212
330
1F
100
AcDbEntity
  8
0
  6
Continuous
 62
     7
370
    25
100
AcDbLine
 10
66.0640975808
 20
110.5052791712
 30
0.0
 11
70.564317203
 21
110.5052791712
 31
0.0
  0
LINE
  5
213
330
1F
100
AcDbEntity
  8
0
  6
Continuous
 62
     7
370
    25
100
AcDbLine
 10
48.5640975808
 20
110.5052791712
 30
0.0
 11
52.7086547703
 21
110.5052791712
 31
0.0
  0
LINE
  5
214
330
1F
100
AcDbEntity
  8
0
  6
Continuous
 62
     7
370
    25
100
AcDbLine
 10
70.564317203
 20
93.5052791712
 30
0.0
 11
66.0640975808
 21
93.5052791712
 31
0.0
  0
LINE
  5
215
330
1F
100
AcDbEntity
  8
0
  6
Continuous
 62
     7
370
    25
100
AcDbLine
 10
52.7086547703
 20
93.5052791712
 30
0.0
 11
48.5640975808
 21
93.5052791712
 31
0.0
  0
LINE
  5
216
330
1F
100
AcDbEntity
  8
0
  6
Continuous
 62
     7
370
    25
100
AcDbLine
 10
65.9026122525
 20
110.5052791712
 30
0.0
 11
52.8701400986
 21
110.5052791712
 31
0.0
  0
LINE
  5
217
330
1F
100
AcDbEntity
  8
0
  6
Continuous
 62
     7
370
    25
100
AcDbLine
 10
65.9026122525
 20
93.5052791712
 30
0.0
 11
52.8701400986
 21
93.5052791712
 31
0.0
  0
LINE
  5
218
330
1F
100
AcDbEntity
  8
0
  6
Continuous
 62
     7
370
    25
100
AcDbLine
 10
70.564317203
 20
101.7552791712
 30
0.0
 11
66.8321803631
 21
101.7552791712
 31
0.0
  0
LINE
  5
219
330
1F
100
AcDbEntity
  8
0
  6
Continuous
 62
     7
370
    25
100
AcDbLine
 10
66.8321803631
 20
102.2552791712
 30
0.0
 11
70.564317203
 21
102.2552791712
 31
0.0
  0
INSERT
  5
225
330
1F
100
AcDbEntity
  8
0
  6
Continuous
 62
     7
370
    18
100
AcDbBlockReference
  2
SW_CENTERMARKSYMBOL_0
 10
59.3863761755
 20
102.0052791712
 30
0.0
  0
ARC
  5
226
330
1F
100
AcDbEntity
  8
0
  6
Continuous
 62
     7
370
    25
100
AcDbCircle
 10
112.7136841136
 20
71.8898025078
 30
0.0
 40
0.25
100
AcDbArc
 50
0.0
 51
90.0
  0
ARC
  5
227
330
1F
100
AcDbEntity
  8
0
  6
Continuous
 62
     7
370
    25
100
AcDbCircle
 10
102.2136841136
 20
71.8898025078
 30
0.0
 40
0.25
100
AcDbArc
 50
90.0
 51
180.0
  0
LINE
  5
228
330
1F
100
AcDbEntity
  8
0
  6
Continuous
 62
     7
370
    25
100
AcDbLine
 10
112.9636841136
 20
71.2898025078
 30
0.0
 11
112.9636841136
 21
71.8898025078
 31
0.0
  0
LINE
  5
229
330
1F
100
AcDbEntity
  8
0
  6
Continuous
 62
     7
370
    25
100
AcDbLine
 10
101.9636841136
 20
71.8898025078
 30
0.0
 11
101.9636841136
 21
71.2898025078
 31
0.0
  0
LINE
  5
22A
330
1F
100
AcDbEntity
  8
0
  6
Continuous
 62
     7
370
    25
100
AcDbLine
 10
100.0136841136
 20
63.2898025078
 30
0.0
 11
100.4636841136
 21
55.2898025078
 31
0.0
  0
LINE
  5
22B
330
1F
100
AcDbEntity
  8
0
  6
Continuous
 62
     7
370
    25
100
AcDbLine
 10
114.4636841136
 20
55.2898025078
 30
0.0
 11
114.9136841136
 21
63.2898025078
 31
0.0
  0
LINE
  5
22C
330
1F
100
AcDbEntity
  8
0
  6
Continuous
 62
     7
370
    25
100
AcDbLine
 10
114.9136841136
 20
63.2898025078
 30
0.0
 11
112.9636841136
 21
71.2898025078
 31
0.0
  0
LINE
  5
22D
330
1F
100
AcDbEntity
  8
0
  6
Continuous
 62
     7
370
    25
100
AcDbLine
 10
101.9636841136
 20
71.2898025078
 30
0.0
 11
100.0136841136
 21
63.2898025078
 31
0.0
  0
LINE
  5
22E
330
1F
100
AcDbEntity
  8
0
  6
Continuous
 62
     7
370
    25
100
AcDbLine
 10
98.9636841136
 20
33.4478025078
 30
0.0
 11
99.263008119
 21
23.8694343338
 31
0.0
  0
LINE
  5
22F
330
1F
100
AcDbEntity
  8
0
  6
Continuous
 62
     7
370
    25
100
AcDbLine
 10
115.6643601081
 20
23.8694343338
 30
0.0
 11
115.9636841136
 21
33.4478025078
 31
0.0
  0
LINE
  5
230
330
1F
100
AcDbEntity
  8
0
  6
Continuous
 62
     7
370
    25
100
AcDbLine
 10
99.263008119
 20
23.8694343338
 30
0.0
 11
100.4636841136
 21
21.7898025078
 31
0.0
  0
LINE
  5
231
330
1F
100
AcDbEntity
  8
0
  6
Continuous
 62
     7
370
    25
100
AcDbLine
 10
114.4636841136
 20
21.7898025078
 30
0.0
 11
115.6643601081
 21
23.8694343338
 31
0.0
  0
LINE
  5
232
330
1F
100
AcDbEntity
  8
0
  6
Continuous
 62
     7
370
    25
100
AcDbLine
 10
101.5644790716
 20
51.3297698996
 30
0.0
 11
101.5532385333
 21
51.1923597372
 31
0.0
  0
LINE
  5
233
330
1F
100
AcDbEntity
  8
0
  6
Continuous
 62
     7
370
    25
100
AcDbLine
 10
113.3636841136
 20
51.323028761
 30
0.0
 11
113.3636841136
 21
55.2898025078
 31
0.0
  0
LINE
  5
234
330
1F
100
AcDbEntity
  8
0
  6
Continuous
 62
     7
370
    25
100
AcDbLine
 10
101.5636841136
 20
55.2898025078
 30
0.0
 11
101.5636841136
 21
51.3283311718
 31
0.0
  0
ARC
  5
235
330
1F
100
AcDbEntity
  8
0
  6
Continuous
 62
     7
370
    25
100
AcDbCircle
 10
107.4636841136
 20
44.7898025078
 30
0.0
 40
10.24999999999999
100
AcDbArc
 50
0.0
 51
54.8576550221
  0
ARC
  5
236
330
1F
100
AcDbEntity
  8
0
  6
Continuous
 62
     7
370
    25
100
AcDbCircle
 10
107.4636841136
 20
44.7898025078
 30
0.0
 40
10.25000000000001
100
AcDbArc
 50
125.1423449779
 51
213.9763528195
  0
ARC
  5
237
330
1F
100
AcDbEntity
  8
0
  6
Continuous
 62
     7
370
    25
100
AcDbCircle
 10
107.4636841136
 20
44.7898025078
 30
0.0
 40
10.24999999999999
100
AcDbArc
 50
326.0236471805
 51
0.0
  0
SPLINE
  5
238
330
1F
100
AcDbEntity
  8
0
  6
Continuous
 62
     7
370
    25
100
AcDbSpline
210
0.0
220
0.0
230
1.0
 70
    24
 71
     3
 72
    11
 73
     7
 74
     0
 42
0.00000001
 43
0.00000001
 40
0.0
 40
0.0
 40
0.0
 40
0.0
 40
0.3014029122433532
 40
0.6027206054930598
 40
0.9107790007112981
 40
1.0
 40
1.0
 40
1.0
 40
1.0
 10
117.9636841135688
 20
50.85198033432806
 30
0.0
 10
117.5100544912851
 20
51.11388351886596
 30
0.0
 10
116.6029235064601
 20
51.63761583714493
 30
0.0
 10
115.2057489432177
 20
52.4442749473378
 30
0.0
 10
114.1225702405219
 20
53.0696484629197
 30
0.0
 10
113.5028588798312
 20
53.42743898383434
 30
0.0
 10
113.3636841135688
 20
53.50779157260035
 30
0.0
  0
SPLINE
  5
239
330
1F
100
AcDbEntity
  8
0
  6
Continuous
 62
     7
370
    25
100
AcDbSpline
210
0.0
220
0.0
230
1.0
 70
    24
 71
     3
 72
    14
 73
    10
 74
     0
 42
0.00000001
 43
0.00000001
 40
0.0
 40
0.0
 40
0.0
 40
0.0
 40
0.1093467744155767
 40
0.235238536875942
 40
0.361097583082769
 40
0.4900470120430302
 40
0.6189942679189903
 40
0.8084403027477283
 40
1.0
 40
1.0
 40
1.0
 40
1.0
 10
117.9636841135688
 20
38.72762468134589
 30
0.0
 10
117.9636841135688
 20
39.16015776852565
 30
0.0
 10
117.9636841135688
 20
40.09066944682997
 30
0.0
 10
117.9636841135688
 20
41.54328218270316
 30
0.0
 10
117.9636841135688
 20
43.09223224374291
 30
0.0
 10
117.9636841135688
 20
44.66666507324299
 30
0.0
 10
117.9636841135688
 20
46.5022038992363
 30
0.0
 10
117.9636841135688
 20
48.58055411802201
 30
0.0
 10
117.9636841135688
 20
50.09204322315261
 30
0.0
 10
117.9636841135688
 20
50.85198033432806
 30
0.0
  0
SPLINE
  5
23A
330
1F
100
AcDbEntity
  8
0
  6
Continuous
 62
     7
370
    25
100
AcDbSpline
210
0.0
220
0.0
230
1.0
 70
    24
 71
     3
 72
     9
 73
     5
 74
     0
 42
0.00000001
 43
0.00000001
 40
0.0
 40
0.0
 40
0.0
 40
0.0
 40
0.3921766557221067
 40
1.0
 40
1.0
 40
1.0
 40
1.0
 10
115.9636841135688
 20
37.57292414296667
 30
0.0
 10
116.2278730278769
 20
37.72545368375935
 30
0.0
 10
116.9015207589526
 20
38.1143843826349
 30
0.0
 10
117.5621426851091
 20
38.49579462953389
 30
0.0
 10
117.9636841135688
 20
38.72762468134589
 30
0.0
  0
SPLINE
  5
23B
330
1F
100
AcDbEntity
  8
0
  6
Continuous
 62
     7
370
    25
100
AcDbSpline
210
0.0
220
0.0
230
1.0
 70
    24
 71
     3
 72
     9
 73
     5
 74
     0
 42
0.00000001
 43
0.00000001
 40
0.0
 40
0.0
 40
0.0
 40
0.0
 40
0.6857591752833274
 40
1.0
 40
1.0
 40
1.0
 40
1.0
 10
96.96368411356873
 20
38.72762468134604
 30
0.0
 10
97.41649262918797
 20
38.4661955629619
 30
0.0
 10
98.07679515511796
 20
38.08496972186963
 30
0.0
 10
98.75162502021672
 20
37.69535651759766
 30
0.0
 10
98.96368411356879
 20
37.57292414296673
 30
0.0
  0
SPLINE
  5
23C
330
1F
100
AcDbEntity
  8
0
  6
Continuous
 62
     7
370
    25
100
AcDbSpline
210
0.0
220
0.0
230
1.0
 70
    24
 71
     3
 72
    14
 73
    10
 74
     0
 42
0.00000001
 43
0.00000001
 40
0.0
 40
0.0
 40
0.0
 40
0.0
 40
0.1896140296832184
 40
0.381004658776511
 40
0.5067314515612955
 40
0.6324595800789626
 40
0.761538394088789
 40
0.8906532841057883
 40
1.0
 40
1.0
 40
1.0
 40
1.0
 10
96.96368411356886
 20
50.85198033432821
 30
0.0
 10
96.96368411356885
 20
50.09981920516272
 30
0.0
 10
96.96368411356883
 20
48.5884495304534
 30
0.0
 10
96.96368411356882
 20
46.52328954985003
 30
0.0
 10
96.9636841135688
 20
44.70638732486855
 30
0.0
 10
96.96368411356877
 20
43.14503054161234
 30
0.0
 10
96.96368411356876
 20
41.58226732666726
 30
0.0
 10
96.96368411356875
 20
40.10342360682827
 30
0.0
 10
96.96368411356873
 20
39.16015916888032
 30
0.0
 10
96.96368411356873
 20
38.72762468134604
 30
0.0
  0
SPLINE
  5
23D
330
1F
100
AcDbEntity
  8
0
  6
Continuous
 62
     7
370
    25
100
AcDbSpline
210
0.0
220
0.0
230
1.0
 70
    24
 71
     3
 72
    11
 73
     7
 74
     0
 42
0.00000001
 43
0.00000001
 40
0.0
 40
0.0
 40
0.0
 40
0.0
 40
0.203160091294836
 40
0.4655991126831251
 40
0.732773725215951
 40
1.0
 40
1.0
 40
1.0
 40
1.0
 10
101.5636841135688
 20
53.50779157260042
 30
0.0
 10
101.2470586520815
 20
53.32498777717841
 30
0.0
 10
100.5214213825675
 20
52.90604090429053
 30
0.0
 10
99.38880420908573
 20
52.25212407429203
 30
0.0
 10
98.16961050397028
 20
51.54822226044933
 30
0.0
 10
97.36568548304113
 20
51.08407593320762
 30
0.0
 10
96.96368411356886
 20
50.85198033432821
 30
0.0
  0
ARC
  5
23E
330
1F
100
AcDbEntity
  8
0
  6
Continuous
 62
     7
370
    25
100
AcDbCircle
 10
106.2136841136
 20
71.8898025078
 30
0.0
 40
0.2500000000000142
100
AcDbArc
 50
90.0
 51
180.0
  0
LINE
  5
23F
330
1F
100
AcDbEntity
  8
0
  6
Continuous
 62
     7
370
    25
100
AcDbLine
 10
106.2136841136
 20
72.1398025078
 30
0.0
 11
106.2136841136
 21
71.8898025078
 31
0.0
  0
LINE
  5
240
330
1F
100
AcDbEntity
  8
0
  6
Continuous
 62
     7
370
    25
100
AcDbLine
 10
105.9636841136
 20
71.8898025078
 30
0.0
 11
106.2136841136
 21
71.8898025078
 31
0.0
  0
LINE
  5
241
330
1F
100
AcDbEntity
  8
0
  6
Continuous
 62
     7
370
    25
100
AcDbLine
 10
108.7136841136
 20
71.8898025078
 30
0.0
 11
108.7136841136
 21
72.1398025078
 31
0.0
  0
LINE
  5
242
330
1F
100
AcDbEntity
  8
0
  6
Continuous
 62
     7
370
    25
100
AcDbLine
 10
108.7136841136
 20
71.8898025078
 30
0.0
 11
106.2136841136
 21
71.8898025078
 31
0.0
  0
LINE
  5
243
330
1F
100
AcDbEntity
  8
0
  6
Continuous
 62
     7
370
    25
100
AcDbLine
 10
106.2136841136
 20
72.1398025078
 30
0.0
 11
108.7136841136
 21
72.1398025078
 31
0.0
  0
LINE
  5
244
330
1F
100
AcDbEntity
  8
0
  6
Continuous
 62
     7
370
    25
100
AcDbLine
 10
108.7136841136
 20
71.2898025078
 30
0.0
 11
108.7136841136
 21
71.8898025078
 31
0.0
  0
LINE
  5
245
330
1F
100
AcDbEntity
  8
0
  6
Continuous
 62
     7
370
    25
100
AcDbLine
 10
106.2136841136
 20
71.8898025078
 30
0.0
 11
106.2136841136
 21
71.2898025078
 31
0.0
  0
LINE
  5
246
330
1F
100
AcDbEntity
  8
0
  6
Continuous
 62
     7
370
    25
100
AcDbLine
 10
108.7136841136
 20
71.2898025078
 30
0.0
 11
106.2136841136
 21
71.2898025078
 31
0.0
  0
LINE
  5
247
330
1F
100
AcDbEntity
  8
0
  6
Continuous
 62
     7
370
    25
100
AcDbLine
 10
105.9636841136
 20
71.2898025078
 30
0.0
 11
105.9636841136
 21
71.8898025078
 31
0.0
  0
LINE
  5
248
330
1F
100
AcDbEntity
  8
0
  6
Continuous
 62
     7
370
    25
100
AcDbLine
 10
106.2136841136
 20
71.2898025078
 30
0.0
 11
105.9636841136
 21
71.2898025078
 31
0.0
  0
LINE
  5
249
330
1F
100
AcDbEntity
  8
0
  6
Continuous
 62
     7
370
    25
100
AcDbLine
 10
108.7136841136
 20
71.8898025078
 30
0.0
 11
108.9636841136
 21
71.8898025078
 31
0.0
  0
LINE
  5
24A
330
1F
100
AcDbEntity
  8
0
  6
Continuous
 62
     7
370
    25
100
AcDbLine
 10
108.9636841136
 20
71.8898025078
 30
0.0
 11
108.9636841136
 21
71.2898025078
 31
0.0
  0
LINE
  5
24B
330
1F
100
AcDbEntity
  8
0
  6
Continuous
 62
     7
370
    25
100
AcDbLine
 10
108.9636841136
 20
71.2898025078
 30
0.0
 11
108.7136841136
 21
71.2898025078
 31
0.0
  0
ARC
  5
24C
330
1F
100
AcDbEntity
  8
0
  6
Continuous
 62
     7
370
    25
100
AcDbCircle
 10
108.7136841136
 20
71.8898025078
 30
0.0
 40
0.25
100
AcDbArc
 50
0.0
 51
90.0
  0
SPLINE
  5
24D
330
1F
100
AcDbEntity
  8
0
  6
Continuous
 62
     7
370
    25
100
AcDbSpline
210
0.0
220
0.0
230
1.0
 70
     8
 71
     3
 72
    15
 73
    11
 74
     0
 42
0.00000001
 43
0.00000001
 40
0.0
 40
0.0
 40
0.0
 40
0.0
 40
0.0081667445812973
 40
0.3321939991490804
 40
0.475627960058556
 40
0.6866830973284891
 40
0.8457435502264751
 40
0.8967566214763124
 40
0.9909540928118028
 40
1.0
 40
1.0
 40
1.0
 40
1.0
 10
108.7136841135688
 20
72.13980250783702
 30
0.0
 10
108.7151215765078
 20
72.13979983149123
 30
0.0
 10
108.7735924344598
 20
72.13969096730439
 30
0.0
 10
108.858017612179
 20
72.13014495503501
 30
0.0
 10
108.9725966842015
 20
72.09278257178043
 30
0.0
 10
109.053967571398
 20
72.04791705704578
 30
0.0
 10
109.1069865633997
 20
71.99004075746888
 30
0.0
 10
109.1311884952438
 20
71.93936471749694
 30
0.0
 10
109.13737811591
 20
71.91067043797695
 30
0.0
 10
109.1375795113226
 20
71.89148360642143
 30
0.0
 10
109.1375971570471
 20
71.88980250783702
 30
0.0
  0
LINE
  5
24E
330
1F
100
AcDbEntity
  8
0
  6
Continuous
 62
     7
370
    25
100
AcDbLine
 10
108.9636841136
 20
71.8898025078
 30
0.0
 11
109.137597157
 21
71.8898025078
 31
0.0
  0
LINE
  5
24F
330
1F
100
AcDbEntity
  8
0
  6
Continuous
 62
     7
370
    25
100
AcDbLine
 10
105.7897710701
 20
71.8898025078
 30
0.0
 11
105.9636841136
 21
71.8898025078
 31
0.0
  0
SPLINE
  5
250
330
1F
100
AcDbEntity
  8
0
  6
Continuous
 62
     7
370
    25
100
AcDbSpline
210
0.0
220
0.0
230
1.0
 70
     8
 71
     3
 72
    15
 73
    11
 74
     0
 42
0.00000001
 43
0.00000001
 40
0.0
 40
0.0
 40
0.0
 40
0.0
 40
0.0090459071881971
 40
0.1032433785236874
 40
0.1542564497735246
 40
0.313316902671511
 40
0.5243720399414428
 40
0.6678060008509903
 40
0.9918332554187292
 40
1.0
 40
1.0
 40
1.0
 40
1.0
 10
105.7897710700905
 20
71.88980250783702
 30
0.0
 10
105.789788715815
 20
71.89148360642142
 30
0.0
 10
105.7899901112276
 20
71.91067043797698
 30
0.0
 10
105.7961797318937
 20
71.93936471749693
 30
0.0
 10
105.8203816637379
 20
71.9900407574689
 30
0.0
 10
105.8734006557396
 20
72.04791705704577
 30
0.0
 10
105.9547715429361
 20
72.09278257178045
 30
0.0
 10
106.0693506149586
 20
72.130144955035
 30
0.0
 10
106.1537757926781
 20
72.13969096730445
 30
0.0
 10
106.2122466506298
 20
72.13979983149123
 30
0.0
 10
106.2136841135688
 20
72.13980250783702
 30
0.0
  0
LINE
  5
251
330
1F
100
AcDbEntity
  8
0
  6
Continuous
 62
     7
370
    25
100
AcDbLine
 10
105.7897710701
 20
71.2898025078
 30
0.0
 11
105.7897710701
 21
71.8898025078
 31
0.0
  0
LINE
  5
252
330
1F
100
AcDbEntity
  8
0
  6
Continuous
 62
     7
370
    25
100
AcDbLine
 10
105.9636841136
 20
71.2898025078
 30
0.0
 11
105.7897710701
 21
71.2898025078
 31
0.0
  0
LINE
  5
253
330
1F
100
AcDbEntity
  8
0
  6
Continuous
 62
     7
370
    25
100
AcDbLine
 10
109.137597157
 20
71.8898025078
 30
0.0
 11
109.137597157
 21
71.2898025078
 31
0.0
  0
LINE
  5
254
330
1F
100
AcDbEntity
  8
0
  6
Continuous
 62
     7
370
    25
100
AcDbLine
 10
109.137597157
 20
71.2898025078
 30
0.0
 11
108.9636841136
 21
71.2898025078
 31
0.0
  0
LINE
  5
255
330
1F
100
AcDbEntity
  8
0
  6
Continuous
 62
     7
370
    25
100
AcDbLine
 10
108.7136841136
 20
72.1398025078
 30
0.0
 11
112.7136841136
 21
72.1398025078
 31
0.0
  0
LINE
  5
256
330
1F
100
AcDbEntity
  8
0
  6
Continuous
 62
     7
370
    25
100
AcDbLine
 10
102.2136841136
 20
72.1398025078
 30
0.0
 11
106.2136841136
 21
72.1398025078
 31
0.0
  0
LINE
  5
257
330
1F
100
AcDbEntity
  8
0
  6
Continuous
 62
     7
370
    25
100
AcDbLine
 10
109.137597157
 20
71.2898025078
 30
0.0
 11
112.9636841136
 21
71.2898025078
 31
0.0
  0
LINE
  5
258
330
1F
100
AcDbEntity
  8
0
  6
Continuous
 62
     7
370
    25
100
AcDbLine
 10
101.9636841136
 20
71.2898025078
 30
0.0
 11
105.7897710701
 21
71.2898025078
 31
0.0
  0
LINE
  5
259
330
1F
100
AcDbEntity
  8
0
  6
Continuous
 62
     7
370
    25
100
AcDbLine
 10
106.8636841136
 20
72.1398025078
 30
0.0
 11
106.8636841136
 21
72.1498025078
 31
0.0
  0
LINE
  5
25A
330
1F
100
AcDbEntity
  8
0
  6
Continuous
 62
     7
370
    25
100
AcDbLine
 10
108.0636841136
 20
72.1398025078
 30
0.0
 11
108.0636841136
 21
72.1498025078
 31
0.0
  0
LINE
  5
25B
330
1F
100
AcDbEntity
  8
0
  6
Continuous
 62
     7
370
    25
100
AcDbLine
 10
106.8636841136
 20
72.1498025078
 30
0.0
 11
108.0636841136
 21
72.1498025078
 31
0.0
  0
LINE
  5
25C
330
1F
100
AcDbEntity
  8
0
  6
Continuous
 62
     7
370
    25
100
AcDbLine
 10
100.4636841136
 20
55.2898025078
 30
0.0
 11
114.4636841136
 21
55.2898025078
 31
0.0
  0
LINE
  5
25D
330
1F
100
AcDbEntity
  8
0
  6
Continuous
 62
     7
370
    25
100
AcDbLine
 10
100.0136841136
 20
63.2898025078
 30
0.0
 11
114.9136841136
 21
63.2898025078
 31
0.0
  0
LINE
  5
25E
330
1F
100
AcDbEntity
  8
0
  6
Continuous
 62
     7
370
    25
100
AcDbLine
 10
103.9636841136
 20
73.2898025078
 30
0.0
 11
103.9636841136
 21
72.1398025078
 31
0.0
  0
LINE
  5
25F
330
1F
100
AcDbEntity
  8
0
  6
Continuous
 62
     7
370
    25
100
AcDbLine
 10
103.9636841136
 20
73.2898025078
 30
0.0
 11
104.1919848495
 21
73.2898025078
 31
0.0
  0
LINE
  5
260
330
1F
100
AcDbEntity
  8
0
  6
Continuous
 62
     7
370
    25
100
AcDbLine
 10
104.1919848495
 20
73.2898025078
 30
0.0
 11
104.1919848495
 21
72.1398025078
 31
0.0
  0
LINE
  5
261
330
1F
100
AcDbEntity
  8
0
  6
Continuous
 62
     7
370
    25
100
AcDbLine
 10
110.7353833776
 20
73.2898025078
 30
0.0
 11
110.7353833776
 21
72.1398025078
 31
0.0
  0
LINE
  5
262
330
1F
100
AcDbEntity
  8
0
  6
Continuous
 62
     7
370
    25
100
AcDbLine
 10
110.7353833776
 20
73.2898025078
 30
0.0
 11
110.9636841136
 21
73.2898025078
 31
0.0
  0
LINE
  5
263
330
1F
100
AcDbEntity
  8
0
  6
Continuous
 62
     7
370
    25
100
AcDbLine
 10
110.9636841136
 20
72.1398025078
 30
0.0
 11
110.9636841136
 21
73.2898025078
 31
0.0
  0
LINE
  5
264
330
1F
100
AcDbEntity
  8
0
  6
Continuous
 62
     7
370
    25
100
AcDbLine
 10
104.1919848495
 20
73.2898025078
 30
0.0
 11
110.7353833776
 21
73.2898025078
 31
0.0
  0
SPLINE
  5
265
330
1F
100
AcDbEntity
  8
0
  6
Continuous
 62
     7
370
    25
100
AcDbSpline
210
0.0
220
0.0
230
1.0
 70
     8
 71
     3
 72
    10
 73
     6
 74
     0
 42
0.00000001
 43
0.00000001
 40
0.0
 40
0.0
 40
0.0
 40
0.0
 40
0.5
 40
0.5
 40
1.0
 40
1.0
 40
1.0
 40
1.0
 10
98.96368411356879
 20
40.17100035432
 30
0.0
 10
98.96368411356879
 20
40.08511329251754
 30
0.0
 10
98.9864765628986
 20
39.99770608353741
 30
0.0
 10
99.07441926699167
 20
39.84506964094368
 30
0.0
 10
99.13927704066553
 20
39.7809465959981
 30
0.0
 10
99.21368411356879
 20
39.73798765242779
 30
0.0
  0
SPLINE
  5
266
330
1F
100
AcDbEntity
  8
0
  6
Continuous
 62
     7
370
    25
100
AcDbSpline
210
0.0
220
0.0
230
1.0
 70
    24
 71
     3
 72
    14
 73
    10
 74
     0
 42
0.00000001
 43
0.00000001
 40
0.0
 40
0.0
 40
0.0
 40
0.0
 40
0.25
 40
0.25
 40
0.5
 40
0.5
 40
0.75
 40
0.75
 40
1.0
 40
1.0
 40
1.0
 40
1.0
 10
98.96368411356879
 20
40.17100035431996
 30
0.0
 10
98.96368411356879
 20
40.92538041496994
 30
0.0
 10
98.96368411356879
 20
41.69482158243544
 30
0.0
 10
98.96368411356879
 20
43.2353329433766
 30
0.0
 10
98.96368411356879
 20
44.01018732338363
 30
0.0
 10
98.96368411356879
 20
45.57054827826918
 30
0.0
 10
98.96368411356879
 20
46.36100447105421
 30
0.0
 10
98.96368411356879
 20
47.90328413386268
 30
0.0
 10
98.96368411356879
 20
48.66067488706386
 30
0.0
 10
98.96368411356879
 20
49.40860466135402
 30
0.0
  0
SPLINE
  5
267
330
1F
100
AcDbEntity
  8
0
  6
Continuous
 62
     7
370
    25
100
AcDbSpline
210
0.0
220
0.0
230
1.0
 70
     8
 71
     3
 72
    10
 73
     6
 74
     0
 42
0.00000001
 43
0.00000001
 40
0.0
 40
0.0
 40
0.0
 40
0.0
 40
0.5
 40
0.5
 40
1.0
 40
1.0
 40
1.0
 40
1.0
 10
99.21368411356879
 20
49.84161736324624
 30
0.0
 10
99.13930373619147
 20
49.79867383234502
 30
0.0
 10
99.07500309740568
 20
49.73523138772089
 30
0.0
 10
98.98678741262276
 20
49.58275255060192
 30
0.0
 10
98.96368411356879
 20
49.49452254849464
 30
0.0
 10
98.96368411356879
 20
49.40860466135402
 30
0.0
  0
SPLINE
  5
268
330
1F
100
AcDbEntity
  8
0
  6
Continuous
 62
     7
370
    25
100
AcDbSpline
210
0.0
220
0.0
230
1.0
 70
    24
 71
     3
 72
    16
 73
    12
 74
     0
 42
0.00000001
 43
0.00000001
 40
0.0
 40
0.0
 40
0.0
 40
0.0
 40
0.2500000000000001
 40
0.2500000000000001
 40
0.5000000000000001
 40
0.5000000000000001
 40
0.6250000000000001
 40
0.6250000000000001
 40
0.7500000000000002
 40
0.7500000000000002
 40
1.0
 40
1.0
 40
1.0
 40
1.0
 10
107.2136841135688
 20
54.46041951676325
 30
0.0
 10
106.560167333528
 20
54.08311142788675
 30
0.0
 10
105.901946924438
 20
53.70308769751255
 30
0.0
 10
104.5723843410722
 20
52.93546438210185
 30
0.0
 10
103.9009603590017
 20
52.54781756531305
 30
0.0
 10
102.881959271995
 20
51.95949701342521
 30
0.0
 10
102.5406184896788
 20
51.76242382086956
 30
0.0
 10
101.8650199867083
 20
51.37236684331546
 30
0.0
 10
101.5293608367437
 20
51.17857394272743
 30
0.0
 10
100.528095200244
 20
50.60049295796399
 30
0.0
 10
99.86818754164085
 20
50.21949509362918
 30
0.0
 10
99.2136841135688
 20
49.84161736324624
 30
0.0
  0
SPLINE
  5
269
330
1F
100
AcDbEntity
  8
0
  6
Continuous
 62
     7
370
    25
100
AcDbSpline
210
0.0
220
0.0
230
1.0
 70
     8
 71
     3
 72
    10
 73
     6
 74
     0
 42
0.00000001
 43
0.00000001
 40
0.0
 40
0.0
 40
0.0
 40
0.0
 40
0.5
 40
0.5
 40
1.0
 40
1.0
 40
1.0
 40
1.0
 10
107.7136841135688
 20
54.46041951676325
 30
0.0
 10
107.6393037361915
 20
54.50336304766448
 30
0.0
 10
107.5522106480759
 20
54.52732781202046
 30
0.0
 10
107.3760522591999
 20
54.52748541749524
 30
0.0
 10
107.2880911864721
 20
54.50337846033356
 30
0.0
 10
107.2136841135688
 20
54.46041951676325
 30
0.0
  0
SPLINE
  5
26A
330
1F
100
AcDbEntity
  8
0
  6
Continuous
 62
     7
370
    25
100
AcDbSpline
210
0.0
220
0.0
230
1.0
 70
    24
 71
     3
 72
    16
 73
    12
 74
     0
 42
0.00000001
 43
0.00000001
 40
0.0
 40
0.0
 40
0.0
 40
0.0
 40
0.2499999999999997
 40
0.2499999999999997
 40
0.4999999999999993
 40
0.4999999999999993
 40
0.6249999999999993
 40
0.6249999999999993
 40
0.7499999999999996
 40
0.7499999999999996
 40
1.0
 40
1.0
 40
1.0
 40
1.0
 10
115.7136841135688
 20
49.84161736324624
 30
0.0
 10
115.060167333528
 20
50.21892545212274
 30
0.0
 10
114.401946924438
 20
50.59894918249694
 30
0.0
 10
113.0723843410722
 20
51.36657249790763
 30
0.0
 10
112.4009603590017
 20
51.75421931469644
 30
0.0
 10
111.381959271995
 20
52.34253986658428
 30
0.0
 10
111.0406184896788
 20
52.53961305913993
 30
0.0
 10
110.3650199867083
 20
52.92967003669403
 30
0.0
 10
110.0293608367437
 20
53.12346293728207
 30
0.0
 10
109.028095200244
 20
53.7015439220455
 30
0.0
 10
108.3681875416409
 20
54.08254178638032
 30
0.0
 10
107.7136841135688
 20
54.46041951676325
 30
0.0
  0
SPLINE
  5
26B
330
1F
100
AcDbEntity
  8
0
  6
Continuous
 62
     7
370
    25
100
AcDbSpline
210
0.0
220
0.0
230
1.0
 70
     8
 71
     3
 72
    10
 73
     6
 74
     0
 42
0.00000001
 43
0.00000001
 40
0.0
 40
0.0
 40
0.0
 40
0.0
 40
0.5
 40
0.5
 40
1.0
 40
1.0
 40
1.0
 40
1.0
 10
115.9636841135688
 20
49.40860466135402
 30
0.0
 10
115.9636841135688
 20
49.49449172315648
 30
0.0
 10
115.940891664239
 20
49.58189893213659
 30
0.0
 10
115.8529489601459
 20
49.73453537473034
 30
0.0
 10
115.7880911864721
 20
49.79865841967593
 30
0.0
 10
115.7136841135688
 20
49.84161736324624
 30
0.0
  0
SPLINE
  5
26C
330
1F
100
AcDbEntity
  8
0
  6
Continuous
 62
     7
370
    25
100
AcDbSpline
210
0.0
220
0.0
230
1.0
 70
    24
 71
     3
 72
    14
 73
    10
 74
     0
 42
0.00000001
 43
0.00000001
 40
0.0
 40
0.0
 40
0.0
 40
0.0
 40
0.25
 40
0.25
 40
0.5
 40
0.5
 40
0.75
 40
0.75
 40
1.0
 40
1.0
 40
1.0
 40
1.0
 10
115.9636841135688
 20
40.17100035431995
 30
0.0
 10
115.9636841135688
 20
40.92538041496993
 30
0.0
 10
115.9636841135688
 20
41.69482158243543
 30
0.0
 10
115.9636841135688
 20
43.23533294337659
 30
0.0
 10
115.9636841135688
 20
44.01018732338362
 30
0.0
 10
115.9636841135688
 20
45.57054827826917
 30
0.0
 10
115.9636841135688
 20
46.36100447105421
 30
0.0
 10
115.9636841135688
 20
47.90328413386268
 30
0.0
 10
115.9636841135688
 20
48.66067488706386
 30
0.0
 10
115.9636841135688
 20
49.40860466135402
 30
0.0
  0
SPLINE
  5
26D
330
1F
100
AcDbEntity
  8
0
  6
Continuous
 62
     7
370
    25
100
AcDbSpline
210
0.0
220
0.0
230
1.0
 70
     8
 71
     3
 72
    10
 73
     6
 74
     0
 42
0.00000001
 43
0.00000001
 40
0.0
 40
0.0
 40
0.0
 40
0.0
 40
0.5
 40
0.5
 40
1.0
 40
1.0
 40
1.0
 40
1.0
 10
115.7136841135688
 20
39.73798765242779
 30
0.0
 10
115.788064490946
 20
39.78093118332891
 30
0.0
 10
115.8523651297315
 20
39.84437362795259
 30
0.0
 10
115.9405808145147
 20
39.99685246507171
 30
0.0
 10
115.9636841135688
 20
40.08508246717919
 30
0.0
 10
115.9636841135688
 20
40.17100035431998
 30
0.0
  0
SPLINE
  5
26E
330
1F
100
AcDbEntity
  8
0
  6
Continuous
 62
     7
370
    25
100
AcDbSpline
210
0.0
220
0.0
230
1.0
 70
    24
 71
     3
 72
    16
 73
    12
 74
     0
 42
0.00000001
 43
0.00000001
 40
0.0
 40
0.0
 40
0.0
 40
0.0
 40
0.2500000000000002
 40
0.2500000000000002
 40
0.5000000000000004
 40
0.5000000000000004
 40
0.6250000000000003
 40
0.6250000000000003
 40
0.7500000000000002
 40
0.7500000000000002
 40
1.0
 40
1.0
 40
1.0
 40
1.0
 10
107.7136841135688
 20
35.11918549891078
 30
0.0
 10
108.3672008936096
 20
35.49649358778725
 30
0.0
 10
109.0254213026995
 20
35.87651731816143
 30
0.0
 10
110.3549838860652
 20
36.64414063357206
 30
0.0
 10
111.0264078681356
 20
37.03178745036083
 30
0.0
 10
112.0454089551423
 20
37.62010800224861
 30
0.0
 10
112.3867497374584
 20
37.81718119480426
 30
0.0
 10
113.0623482404289
 20
38.20723817235832
 30
0.0
 10
113.3980073903935
 20
38.40103107294635
 30
0.0
 10
114.3992730268931
 20
38.97911205770973
 30
0.0
 10
115.0591806854962
 20
39.36010992204453
 30
0.0
 10
115.7136841135682
 20
39.73798765242744
 30
0.0
  0
SPLINE
  5
26F
330
1F
100
AcDbEntity
  8
0
  6
Continuous
 62
     7
370
    25
100
AcDbSpline
210
0.0
220
0.0
230
1.0
 70
     8
 71
     3
 72
    10
 73
     6
 74
     0
 42
0.00000001
 43
0.00000001
 40
0.0
 40
0.0
 40
0.0
 40
0.0
 40
0.5
 40
0.5
 40
1.0
 40
1.0
 40
1.0
 40
1.0
 10
107.2136841135688
 20
35.11918549891078
 30
0.0
 10
107.2880644909461
 20
35.07624196800955
 30
0.0
 10
107.3751575790617
 20
35.05227720365357
 30
0.0
 10
107.5513159679377
 20
35.05211959817878
 30
0.0
 10
107.6392770406655
 20
35.07622655534047
 30
0.0
 10
107.7136841135688
 20
35.11918549891078
 30
0.0
  0
SPLINE
  5
270
330
1F
100
AcDbEntity
  8
0
  6
Continuous
 62
     7
370
    25
100
AcDbSpline
210
0.0
220
0.0
230
1.0
 70
    24
 71
     3
 72
    16
 73
    12
 74
     0
 42
0.00000001
 43
0.00000001
 40
0.0
 40
0.0
 40
0.0
 40
0.0
 40
0.2500000000000001
 40
0.2500000000000001
 40
0.5000000000000002
 40
0.5000000000000002
 40
0.6250000000000001
 40
0.6250000000000001
 40
0.7500000000000001
 40
0.7500000000000001
 40
1.0
 40
1.0
 40
1.0
 40
1.0
 10
99.21368411356879
 20
39.73798765242779
 30
0.0
 10
99.8672008936096
 20
39.36067956355129
 30
0.0
 10
100.5254213026996
 20
38.98065583317709
 30
0.0
 10
101.8549838860654
 20
38.21303251776639
 30
0.0
 10
102.5264078681359
 20
37.8253857009776
 30
0.0
 10
103.5454089551426
 20
37.23706514908974
 30
0.0
 10
103.8867497374588
 20
37.0399919565341
 30
0.0
 10
104.5623482404293
 20
36.64993497898
 30
0.0
 10
104.8980073903939
 20
36.45614207839196
 30
0.0
 10
105.8992730268936
 20
35.87806109362854
 30
0.0
 10
106.5591806854967
 20
35.49706322929371
 30
0.0
 10
107.2136841135688
 20
35.11918549891078
 30
0.0
  0
CIRCLE
  5
271
330
1F
100
AcDbEntity
  8
0
  6
Continuous
 62
     7
370
    25
100
AcDbCircle
 10
107.4636841136
 20
44.7898025078
 30
0.0
 40
8.25
  0
LINE
  5
272
330
1F
100
AcDbEntity
  8
0
  6
Continuous
 62
     7
370
    25
100
AcDbLine
 10
107.7136841136
 20
35.1191854989
 30
0.0
 11
107.7136841136
 21
34.2898025078
 31
0.0
  0
LINE
  5
273
330
1F
100
AcDbEntity
  8
0
  6
Continuous
 62
     7
370
    25
100
AcDbLine
 10
107.2136841136
 20
34.2898025078
 30
0.0
 11
107.2136841136
 21
35.1191854989
 31
0.0
  0
LINE
  5
274
330
1F
100
AcDbEntity
  8
0
  6
Continuous
 62
     7
370
    25
100
AcDbLine
 10
107.2136841136
 20
34.2898025078
 30
0.0
 11
107.7136841136
 21
34.2898025078
 31
0.0
  0
SPLINE
  5
275
330
1F
100
AcDbEntity
  8
0
  6
Continuous
 62
     7
370
    25
100
AcDbSpline
210
0.0
220
0.0
230
1.0
 70
     8
 71
     3
 72
    22
 73
    18
 74
     0
 42
0.00000001
 43
0.00000001
 40
0.0
 40
0.0
 40
0.0
 40
0.0
 40
0.2499999999999984
 40
0.2499999999999984
 40
0.3749999999999976
 40
0.3749999999999976
 40
0.4374999999999972
 40
0.4374999999999972
 40
0.4999999999999968
 40
0.4999999999999968
 40
0.5624999999999963
 40
0.5624999999999963
 40
0.624999999999996
 40
0.624999999999996
 40
0.7499999999999974
 40
0.7499999999999974
 40
1.0
 40
1.0
 40
1.0
 40
1.0
 10
112.2933423195335
 20
34.289802507837
 30
0.0
 10
112.2331809630207
 20
34.11529381020144
 30
0.0
 10
112.1663368762015
 20
33.94295535330158
 30
0.0
 10
112.0369025465864
 20
33.70521991999453
 30
0.0
 10
111.9885039871939
 20
33.62843735061249
 30
0.0
 10
111.8993404769063
 20
33.53208295410293
 30
0.0
 10
111.8666814012754
 20
33.50330935364084
 30
0.0
 10
111.794841833827
 20
33.46109578861186
 30
0.0
 10
111.7543488906818
 20
33.44772269064933
 30
0.0
 10
111.6722410041318
 20
33.44788308524589
 30
0.0
 10
111.6316784607108
 20
33.46138777736536
 30
0.0
 10
111.5592284910815
 20
33.50437922010281
 30
0.0
 10
111.5264629132681
 20
33.53356385627354
 30
0.0
 10
111.4376399336729
 20
33.63019650674021
 30
0.0
 10
111.3894606155746
 20
33.70685775223637
 30
0.0
 10
111.2601116220709
 20
33.9450681922702
 30
0.0
 10
111.1940562650949
 20
34.11567379612576
 30
0.0
 10
111.1340259076039
 20
34.28980250783687
 30
0.0
  0
SPLINE
  5
276
330
1F
100
AcDbEntity
  8
0
  6
Continuous
 62
     7
370
    25
100
AcDbSpline
210
0.0
220
0.0
230
1.0
 70
     8
 71
     3
 72
    12
 73
     8
 74
     0
 42
0.00000001
 43
0.00000001
 40
0.0
 40
0.0
 40
0.0
 40
0.0
 40
0.2499999999999999
 40
0.2499999999999999
 40
0.4999999999999998
 40
0.4999999999999998
 40
1.0
 40
1.0
 40
1.0
 40
1.0
 10
111.8381142063212
 20
37.50042632320215
 30
0.0
 10
112.1672491967143
 20
37.49671783734572
 30
0.0
 10
112.4967113496511
 20
37.47813533450804
 30
0.0
 10
113.1495849677087
 20
37.41326829754189
 30
0.0
 10
113.4740375595858
 20
37.36700274429163
 30
0.0
 10
114.4420980007779
 20
37.19127821398467
 30
0.0
 10
115.0804204850258
 20
37.02497480520791
 30
0.0
 10
115.7136841135688
 20
36.82340596798201
 30
0.0
  0
LINE
  5
277
330
1F
100
AcDbEntity
  8
0
  6
Continuous
 62
     7
370
    25
100
AcDbLine
 10
115.7136841136
 20
34.2898025078
 30
0.0
 11
115.7136841136
 21
36.823405968
 31
0.0
  0
LINE
  5
278
330
1F
100
AcDbEntity
  8
0
  6
Continuous
 62
     7
370
    25
100
AcDbLine
 10
115.7136841136
 20
34.2898025078
 30
0.0
 11
112.2933423195
 21
34.2898025078
 31
0.0
  0
LINE
  5
279
330
1F
100
AcDbEntity
  8
0
  6
Continuous
 62
     7
370
    25
100
AcDbLine
 10
111.1340259076
 20
34.2898025078
 30
0.0
 11
107.7136841136
 21
34.2898025078
 31
0.0
  0
SPLINE
  5
27A
330
1F
100
AcDbEntity
  8
0
  6
Continuous
 62
     7
370
    25
100
AcDbSpline
210
0.0
220
0.0
230
1.0
 70
     8
 71
     3
 72
    22
 73
    18
 74
     0
 42
0.00000001
 43
0.00000001
 40
0.0
 40
0.0
 40
0.0
 40
0.0
 40
0.2499999999999977
 40
0.2499999999999977
 40
0.3749999999999955
 40
0.3749999999999955
 40
0.4374999999999958
 40
0.4374999999999958
 40
0.4999999999999961
 40
0.4999999999999961
 40
0.5624999999999964
 40
0.5624999999999964
 40
0.6249999999999967
 40
0.6249999999999967
 40
0.7499999999999978
 40
0.7499999999999978
 40
1.0
 40
1.0
 40
1.0
 40
1.0
 10
103.7933423195335
 20
34.28980250783701
 30
0.0
 10
103.7331809630207
 20
34.11529381020139
 30
0.0
 10
103.6663368762015
 20
33.94295535330146
 30
0.0
 10
103.5369025465863
 20
33.70521991999436
 30
0.0
 10
103.4885039871938
 20
33.62843735061232
 30
0.0
 10
103.3993404769061
 20
33.53208295410275
 30
0.0
 10
103.3666814012752
 20
33.50330935364062
 30
0.0
 10
103.2948418338267
 20
33.46109578861166
 30
0.0
 10
103.2543488906816
 20
33.44772269064928
 30
0.0
 10
103.1722410041314
 20
33.44788308524596
 30
0.0
 10
103.1316784607105
 20
33.4613877773654
 30
0.0
 10
103.0592284910812
 20
33.50437922010291
 30
0.0
 10
103.0264629132679
 20
33.53356385627371
 30
0.0
 10
102.9376399336727
 20
33.63019650674038
 30
0.0
 10
102.8894606155744
 20
33.70685775223662
 30
0.0
 10
102.7601116220708
 20
33.94506819227033
 30
0.0
 10
102.6940562650949
 20
34.11567379612583
 30
0.0
 10
102.6340259076039
 20
34.28980250783687
 30
0.0
  0
LINE
  5
27B
330
1F
100
AcDbEntity
  8
0
  6
Continuous
 62
     7
370
    25
100
AcDbLine
 10
102.6340259076
 20
34.2898025078
 30
0.0
 11
99.2136841136
 21
34.2898025078
 31
0.0
  0
LINE
  5
27C
330
1F
100
AcDbEntity
  8
0
  6
Continuous
 62
     7
370
    25
100
AcDbLine
 10
99.2136841136
 20
36.823405968
 30
0.0
 11
99.2136841136
 21
34.2898025078
 31
0.0
  0
SPLINE
  5
27D
330
1F
100
AcDbEntity
  8
0
  6
Continuous
 62
     7
370
    25
100
AcDbSpline
210
0.0
220
0.0
230
1.0
 70
     8
 71
     3
 72
    10
 73
     6
 74
     0
 42
0.00000001
 43
0.00000001
 40
0.0
 40
0.0
 40
0.0
 40
0.0
 40
0.5
 40
0.5
 40
1.0
 40
1.0
 40
1.0
 40
1.0
 10
99.21368411356927
 20
36.82340596798216
 30
0.0
 10
99.84851181938292
 20
37.02547265353309
 30
0.0
 10
100.4877775219587
 20
37.19186542580373
 30
0.0
 10
101.7785924535486
 20
37.42591239967378
 30
0.0
 10
102.4302120890184
 20
37.49300065363261
 30
0.0
 10
103.0892540208385
 20
37.5004263232024
 30
0.0
  0
LINE
  5
27E
330
1F
100
AcDbEntity
  8
0
  6
Continuous
 62
     7
370
    25
100
AcDbLine
 10
107.2136841136
 20
34.2898025078
 30
0.0
 11
103.7933423195
 21
34.2898025078
 31
0.0
  0
LINE
  5
27F
330
1F
100
AcDbEntity
  8
0
  6
Continuous
 62
     7
370
    25
100
AcDbLine
 10
107.4636841136
 20
23.8694343338
 30
0.0
 11
115.6643601081
 21
23.8694343338
 31
0.0
  0
LINE
  5
280
330
1F
100
AcDbEntity
  8
0
  6
Continuous
 62
     7
370
    25
100
AcDbLine
 10
99.263008119
 20
23.8694343338
 30
0.0
 11
107.4636841136
 21
23.8694343338
 31
0.0
  0
SPLINE
  5
281
330
1F
100
AcDbEntity
  8
0
  6
Continuous
 62
     7
370
    25
100
AcDbSpline
210
0.0
220
0.0
230
1.0
 70
    24
 71
     3
 72
    12
 73
     8
 74
     0
 42
0.00000001
 43
0.00000001
 40
0.0
 40
0.0
 40
0.0
 40
0.0
 40
0.0165364037918481
 40
0.1104859110632526
 40
0.24055425389097
 40
0.5661611783666509
 40
1.0
 40
1.0
 40
1.0
 40
1.0
 10
115.9636841135688
 20
33.45080150972993
 30
0.0
 10
115.9636841135688
 20
33.44991938593443
 30
0.0
 10
115.9636841135688
 20
33.44402558626408
 30
0.0
 10
115.9636841135688
 20
33.47844780127597
 30
0.0
 10
115.9636841135688
 20
33.59707067405012
 30
0.0
 10
115.9636841135688
 20
33.88145585847632
 30
0.0
 10
115.9636841135688
 20
34.14134116511494
 30
0.0
 10
115.9636841135688
 20
34.28980250783702
 30
0.0
  0
SPLINE
  5
282
330
1F
100
AcDbEntity
  8
0
  6
Continuous
 62
     7
370
    25
100
AcDbSpline
210
0.0
220
0.0
230
1.0
 70
    24
 71
     3
 72
    12
 73
     8
 74
     0
 42
0.00000001
 43
0.00000001
 40
0.0
 40
0.0
 40
0.0
 40
0.0
 40
0.4338388216333491
 40
0.75944574610903
 40
0.8895140889367473
 40
0.9834635962081519
 40
1.0
 40
1.0
 40
1.0
 40
1.0
 10
98.96368411356879
 20
34.28980250783701
 30
0.0
 10
98.96368411356879
 20
34.14134116511494
 30
0.0
 10
98.96368411356879
 20
33.88145585847632
 30
0.0
 10
98.96368411356879
 20
33.59707067405012
 30
0.0
 10
98.96368411356879
 20
33.47844780127597
 30
0.0
 10
98.96368411356879
 20
33.44402558626407
 30
0.0
 10
98.96368411356879
 20
33.44991938593443
 30
0.0
 10
98.96368411356879
 20
33.45080150972993
 30
0.0
  0
LINE
  5
283
330
1F
100
AcDbEntity
  8
0
  6
Continuous
 62
     7
370
    25
100
AcDbLine
 10
114.4636841136
 20
21.7898025078
 30
0.0
 11
100.4636841136
 21
21.7898025078
 31
0.0
  0
SPLINE
  5
284
330
1F
100
AcDbEntity
  8
0
  6
Continuous
 62
     7
370
    25
100
AcDbSpline
210
0.0
220
0.0
230
1.0
 70
     8
 71
     3
 72
     8
 73
     4
 74
     0
 42
0.00000001
 43
0.00000001
 40
0.0
 40
0.0
 40
0.0
 40
0.0
 40
1.0
 40
1.0
 40
1.0
 40
1.0
 10
98.96368411356879
 20
36.98489129626303
 30
0.0
 10
99.48549026487062
 20
37.25748143193238
 30
0.0
 10
100.0091437337268
 20
37.52663393305377
 30
0.0
 10
100.5354808832933
 20
37.78980250783701
 30
0.0
  0
SPLINE
  5
285
330
1F
100
AcDbEntity
  8
0
  6
Continuous
 62
     7
370
    25
100
AcDbSpline
210
0.0
220
0.0
230
1.0
 70
     8
 71
     3
 72
    10
 73
     6
 74
     0
 42
0.00000001
 43
0.00000001
 40
0.0
 40
0.0
 40
0.0
 40
0.0
 40
0.5
 40
0.5
 40
1.0
 40
1.0
 40
1.0
 40
1.0
 10
98.96368411356879
 20
36.82340596798199
 30
0.0
 10
98.96368411356879
 20
36.79973057355758
 30
0.0
 10
98.98647656289863
 20
36.78663946367295
 30
0.0
 10
99.0744192669919
 20
36.78655314238473
 30
0.0
 10
99.13927704066606
 20
36.79972207632867
 30
0.0
 10
99.21368411356947
 20
36.82340596798223
 30
0.0
  0
SPLINE
  5
286
330
1F
100
AcDbEntity
  8
0
  6
Continuous
 62
     7
370
    25
100
AcDbSpline
210
0.0
220
0.0
230
1.0
 70
    24
 71
     3
 72
     8
 73
     4
 74
     0
 42
0.00000001
 43
0.00000001
 40
0.0
 40
0.0
 40
0.0
 40
0.0
 40
1.0
 40
1.0
 40
1.0
 40
1.0
 10
98.96368411356879
 20
36.98489129626303
 30
0.0
 10
98.96368411356879
 20
36.9339965065622
 30
0.0
 10
98.96368411356879
 20
36.88006265720077
 30
0.0
 10
98.96368411356879
 20
36.82340596798201
 30
0.0
  0
SPLINE
  5
287
330
1F
100
AcDbEntity
  8
0
  6
Continuous
 62
     7
370
    25
100
AcDbSpline
210
0.0
220
0.0
230
1.0
 70
     8
 71
     3
 72
     8
 73
     4
 74
     0
 42
0.00000001
 43
0.00000001
 40
0.0
 40
0.0
 40
0.0
 40
0.0
 40
1.0
 40
1.0
 40
1.0
 40
1.0
 10
114.3918873438443
 20
37.789802507837
 30
0.0
 10
114.9183082050535
 20
37.52659207723241
 30
0.0
 10
115.4418526617672
 20
37.2574946488457
 30
0.0
 10
115.9636841135688
 20
36.98489129626305
 30
0.0
  0
SPLINE
  5
288
330
1F
100
AcDbEntity
  8
0
  6
Continuous
 62
     7
370
    25
100
AcDbSpline
210
0.0
220
0.0
230
1.0
 70
     8
 71
     3
 72
    10
 73
     6
 74
     0
 42
0.00000001
 43
0.00000001
 40
0.0
 40
0.0
 40
0.0
 40
0.0
 40
0.5
 40
0.5
 40
1.0
 40
1.0
 40
1.0
 40
1.0
 10
115.7136841135688
 20
36.82340596798201
 30
0.0
 10
115.7880644909461
 20
36.79973057355762
 30
0.0
 10
115.8523651297319
 20
36.78663946367298
 30
0.0
 10
115.9405808145148
 20
36.7865531423847
 30
0.0
 10
115.9636841135688
 20
36.79972207632854
 30
0.0
 10
115.9636841135688
 20
36.823405967982
 30
0.0
  0
SPLINE
  5
289
330
1F
100
AcDbEntity
  8
0
  6
Continuous
 62
     7
370
    25
100
AcDbSpline
210
0.0
220
0.0
230
1.0
 70
    24
 71
     3
 72
     8
 73
     4
 74
     0
 42
0.00000001
 43
0.00000001
 40
0.0
 40
0.0
 40
0.0
 40
0.0
 40
1.0
 40
1.0
 40
1.0
 40
1.0
 10
115.9636841135688
 20
36.98489129626303
 30
0.0
 10
115.9636841135688
 20
36.9339965065622
 30
0.0
 10
115.9636841135688
 20
36.88006265720077
 30
0.0
 10
115.9636841135688
 20
36.82340596798201
 30
0.0
  0
LINE
  5
28A
330
1F
100
AcDbEntity
  8
0
  6
Continuous
 62
     7
370
    25
100
AcDbLine
 10
112.3393284606
 20
37.7898025078
 30
0.0
 11
114.9636841136
 21
37.7898025078
 31
0.0
  0
LINE
  5
28B
330
1F
100
AcDbEntity
  8
0
  6
Continuous
 62
     7
370
    25
100
AcDbLine
 10
114.9636841136
 20
39.3049749505
 30
0.0
 11
114.9636841136
 21
37.7898025078
 31
0.0
  0
LINE
  5
28C
330
1F
100
AcDbEntity
  8
0
  6
Continuous
 62
     7
370
    25
100
AcDbLine
 10
99.9636841136
 20
37.7898025078
 30
0.0
 11
99.9636841136
 21
39.3049749505
 31
0.0
  0
LINE
  5
28D
330
1F
100
AcDbEntity
  8
0
  6
Continuous
 62
     7
370
    25
100
AcDbLine
 10
99.9636841136
 20
37.7898025078
 30
0.0
 11
102.5880397666
 21
37.7898025078
 31
0.0
  0
LINE
  5
28E
330
1F
100
AcDbEntity
  8
0
  6
Continuous
 62
     7
370
    25
100
AcDbLine
 10
98.9636841136
 20
34.2898025078
 30
0.0
 11
99.2136841136
 21
34.2898025078
 31
0.0
  0
LINE
  5
28F
330
1F
100
AcDbEntity
  8
0
  6
Continuous
 62
     7
370
    25
100
AcDbLine
 10
98.9636841136
 20
34.2898025078
 30
0.0
 11
98.9636841136
 21
36.823405968
 31
0.0
  0
LINE
  5
290
330
1F
100
AcDbEntity
  8
0
  6
Continuous
 62
     7
370
    25
100
AcDbLine
 10
115.7136841136
 20
34.2898025078
 30
0.0
 11
115.9636841136
 21
34.2898025078
 31
0.0
  0
LINE
  5
291
330
1F
100
AcDbEntity
  8
0
  6
Continuous
 62
     7
370
    25
100
AcDbLine
 10
115.9636841136
 20
36.823405968
 30
0.0
 11
115.9636841136
 21
34.2898025078
 31
0.0
  0
LINE
  5
292
330
1F
100
AcDbEntity
  8
0
  6
Continuous
 62
     7
370
    25
100
AcDbLine
 10
98.9636841136
 20
36.9848912963
 30
0.0
 11
98.9636841136
 21
40.1278011781
 31
0.0
  0
LINE
  5
293
330
1F
100
AcDbEntity
  8
0
  6
Continuous
 62
     7
370
    25
100
AcDbLine
 10
115.9636841136
 20
36.9848912963
 30
0.0
 11
115.9636841136
 21
40.1278011781
 31
0.0
  0
LINE
  5
294
330
1F
100
AcDbEntity
  8
0
  6
Continuous
 62
     7
370
    25
100
AcDbLine
 10
112.9636841136
 20
71.8898025078
 30
0.0
 11
109.137597157
 21
71.8898025078
 31
0.0
  0
LINE
  5
295
330
1F
100
AcDbEntity
  8
0
  6
Continuous
 62
     7
370
    25
100
AcDbLine
 10
105.7897710701
 20
71.8898025078
 30
0.0
 11
101.9636841136
 21
71.8898025078
 31
0.0
  0
SPLINE
  5
296
330
1F
100
AcDbEntity
  8
0
  6
Continuous
 62
     7
370
    25
100
AcDbSpline
210
0.0
220
0.0
230
1.0
 70
     8
 71
     3
 72
    19
 73
    15
 74
     0
 42
0.00000001
 43
0.00000001
 40
0.0
 40
0.0
 40
0.0
 40
0.0
 40
0.0167859063299031
 40
0.095501746103283
 40
0.1743222277290431
 40
0.2799401577723763
 40
0.3857537192774199
 40
0.4988354141085999
 40
0.6118985943338152
 40
0.7070769673360484
 40
0.8021811401179278
 40
0.8927570581696251
 40
0.9832583317302495
 40
1.0
 40
1.0
 40
1.0
 40
1.0
 10
101.5713346081248
 20
51.32921483403593
 30
0.0
 10
101.5688067167167
 20
51.32607723856214
 30
0.0
 10
101.5544245297384
 20
51.30822620088664
 30
0.0
 10
101.6178698380388
 20
51.38728916852742
 30
0.0
 10
101.7729772275073
 20
51.57177589012729
 30
0.0
 10
102.0612742466217
 20
51.89175419304689
 30
0.0
 10
102.4937083190138
 20
52.31620265159696
 30
0.0
 10
103.0481410303646
 20
52.77886717592961
 30
0.0
 10
103.6910365965146
 20
53.21934718536777
 30
0.0
 10
104.3904735189112
 20
53.59740811572859
 30
0.0
 10
105.1124738395949
 20
53.90063164649736
 30
0.0
 10
105.890193228685
 20
54.11903076444972
 30
0.0
 10
106.4782417014848
 20
54.24043052427973
 30
0.0
 10
106.8078318799975
 20
54.25373035162701
 30
0.0
 10
106.8592841186199
 20
54.25580658427872
 30
0.0
  0
SPLINE
  5
297
330
1F
100
AcDbEntity
  8
0
  6
Continuous
 62
     7
370
    25
100
AcDbSpline
210
0.0
220
0.0
230
1.0
 70
     8
 71
     3
 72
    19
 73
    15
 74
     0
 42
0.00000001
 43
0.00000001
 40
0.0
 40
0.0
 40
0.0
 40
0.0
 40
0.0313541675907862
 40
0.0973968030253716
 40
0.1974103560838987
 40
0.2975361745171253
 40
0.4181237887005158
 40
0.5388078456268595
 40
0.6564389203038811
 40
0.7739036006050536
 40
0.8504381842348709
 40
0.9268720583664396
 40
0.9967389679972599
 40
1.0
 40
1.0
 40
1.0
 40
1.0
 10
108.0758813235099
 20
54.25130486010404
 30
0.0
 10
108.1717532451323
 20
54.24608482057178
 30
0.0
 10
108.4695643300188
 20
54.22986958664359
 30
0.0
 10
109.052449731977
 20
54.11549712176054
 30
0.0
 10
109.8016940704311
 20
53.90622461626886
 30
0.0
 10
110.622158796136
 20
53.56190272384708
 30
0.0
 10
111.3893054824923
 20
53.12630368245976
 30
0.0
 10
112.0705960765786
 20
52.63090478854052
 30
0.0
 10
112.6213061741528
 20
52.14050875222324
 30
0.0
 10
112.9900437227183
 20
51.75755273680738
 30
0.0
 10
113.2180690721939
 20
51.4968008130483
 30
0.0
 10
113.3291749727969
 20
51.36234399214043
 30
0.0
 10
113.3731511734364
 20
51.30844614852815
 30
0.0
 10
113.3622260175421
 20
51.32177977565247
 30
0.0
 10
113.3617388264328
 20
51.32237436896104
 30
0.0
  0
INSERT
  5
2A3
330
1F
100
AcDbEntity
  8
0
  6
Continuous
 62
     7
370
    18
100
AcDbBlockReference
  2
SW_CENTERMARKSYMBOL_1
 10
107.4636841136
 20
44.7898025078
 30
0.0
  0
LINE
  5
2A4
330
1F
100
AcDbEntity
  8
0
  6
Continuous
 62
     7
370
    18
100
AcDbLine
 10
99.6136841136
 20
33.7898025078
 30
0.0
 11
99.9615027499
 21
22.6596061443
 31
0.0
  0
LINE
  5
2A5
330
1F
100
AcDbEntity
  8
0
  6
Continuous
 62
     7
370
    18
100
AcDbLine
 10
114.9658654772
 20
22.6596061443
 30
0.0
 11
115.3136841136
 21
33.7898025078
 31
0.0
  0
LINE
  5
2A6
330
1F
100
AcDbEntity
  8
0
  6
Continuous
 62
     7
370
    25
100
AcDbLine
 10
103.5829418718
 20
33.7898025078
 30
0.0
 11
102.8444263554
 21
33.7898025078
 31
0.0
  0
LINE
  5
2A7
330
1F
100
AcDbEntity
  8
0
  6
Continuous
 62
     7
370
    25
100
AcDbLine
 10
112.0829418718
 20
33.7898025078
 30
0.0
 11
111.3444263554
 21
33.7898025078
 31
0.0
  0
ENDSEC
  0
SECTION
  2
OBJECTS
  0
DICTIONARY
  5
C
330
0
100
AcDbDictionary
281
     1
  3
ACAD_GROUP
350
D
  3
ACAD_LAYOUT
350
1A
  3
ACAD_MLINESTYLE
350
17
  3
ACAD_PLOTSETTINGS
350
19
  3
ACAD_PLOTSTYLENAME
350
E
  3
ACAD_SCALELIST
350
47
  3
DWGPROPS
350
2A8
  0
DICTIONARY
  5
D
102
{ACAD_REACTORS
330
C
102
}
330
C
100
AcDbDictionary
281
     1
  0
DICTIONARY
  5
1A
102
{ACAD_REACTORS
330
C
102
}
330
C
100
AcDbDictionary
281
     1
  3
Layout1
350
1E
  3
Layout2
350
26
  3
Model
350
22
  0
DICTIONARY
  5
17
102
{ACAD_REACTORS
330
C
102
}
330
C
100
AcDbDictionary
281
     1
  3
Standard
350
18
  0
DICTIONARY
  5
19
102
{ACAD_REACTORS
330
C
102
}
330
C
100
AcDbDictionary
281
     1
  0
ACDBDICTIONARYWDFLT
  5
E
102
{ACAD_REACTORS
330
C
102
}
330
C
100
AcDbDictionary
281
     1
  3
Normal
350
F
100
AcDbDictionaryWithDefault
340
F
  0
DICTIONARY
  5
47
102
{ACAD_REACTORS
330
C
102
}
330
C
100
AcDbDictionary
281
     1
  3
A0
350
48
  3
A1
350
49
  3
A2
350
4A
  3
A3
350
4B
  3
A4
350
4C
  3
A5
350
4D
  3
A6
350
4E
  3
A7
350
4F
  3
A8
350
50
  3
A9
350
51
  3
B0
350
52
  3
B1
350
53
  3
B2
350
54
  3
B3
350
55
  3
B4
350
56
  3
B5
350
57
  3
B6
350
58
  0
XRECORD
  5
2A8
102
{ACAD_REACTORS
330
C
102
}
330
C
100
AcDbXrecord
280
     1
  1
DWGPROPS COOKIE
  2

  3

  4

  6

  7

  8
user52
  9

300
=
301
=
302
=
303
=
304
=
305
=
306
=
307
=
308
=
309
=
 40
0.0
 41
2460339.183814873
 42
2460339.18381544
  1

 90
        0
  0
LAYOUT
  5
1E
102
{ACAD_REACTORS
330
1A
102
}
330
1A
100
AcDbPlotSettings
  1

  2
none_device
  4

  6

 40
0.0
 41
0.0
 42
0.0
 43
0.0
 44
0.0
 45
0.0
 46
0.0
 47
0.0
 48
0.0
 49
0.0
140
0.0
141
0.0
142
1.0
143
1.0
 70
   688
 72
     1
 73
     0
 74
     5
  7

 75
    16
147
1.0
148
0.0
149
0.0
100
AcDbLayout
  1
Layout1
 70
     1
 71
     1
 10
0.0
 20
0.0
 11
420.0
 21
297.0
 12
0.0
 22
0.0
 32
0.0
 14
1.0000000000E+20
 24
1.0000000000E+20
 34
1.0000000000E+20
 15
-1.0000000000E+20
 25
-1.0000000000E+20
 35
-1.0000000000E+20
146
0.0
 13
0.0
 23
0.0
 33
0.0
 16
1.0
 26
0.0
 36
0.0
 17
0.0
 27
1.0
 37
0.0
 76
     0
330
1B
  0
LAYOUT
  5
26
102
{ACAD_REACTORS
330
1A
102
}
330
1A
100
AcDbPlotSettings
  1

  2
none_device
  4

  6

 40
0.0
 41
0.0
 42
0.0
 43
0.0
 44
0.0
 45
0.0
 46
0.0
 47
0.0
 48
0.0
 49
0.0
140
0.0
141
0.0
142
1.0
143
1.0
 70
   688
 72
     1
 73
     0
 74
     5
  7

 75
    16
147
1.0
148
0.0
149
0.0
100
AcDbLayout
  1
Layout2
 70
     1
 71
     2
 10
0.0
 20
0.0
 11
0.0
 21
0.0
 12
0.0
 22
0.0
 32
0.0
 14
0.0
 24
0.0
 34
0.0
 15
0.0
 25
0.0
 35
0.0
146
0.0
 13
0.0
 23
0.0
 33
0.0
 16
1.0
 26
0.0
 36
0.0
 17
0.0
 27
1.0
 37
0.0
 76
     0
330
23
  0
LAYOUT
  5
22
102
{ACAD_REACTORS
330
1A
102
}
330
1A
100
AcDbPlotSettings
  1

  2
none_device
  4
Letter_(8.50_x_11.00_Inches)
  6

 40
6.35
 41
6.35
 42
6.35000508
 43
6.35000508
 44
215.9
 45
279.4
 46
0.0
 47
0.0
 48
0.0
 49
0.0
140
0.0
141
0.0
142
1.0
143
1.0
 70
  1712
 72
     1
 73
     0
 74
     0
  7

 75
     0
147
1.0
148
0.0
149
0.0
100
AcDbLayout
  1
Model
 70
     1
 71
     0
 10
0.0
 20
0.0
 11
431.8
 21
279.4
 12
0.0
 22
0.0
 32
0.0
 14
0.0
 24
0.0
 34
0.0
 15
431.8
 25
279.4
 35
0.0
146
0.0
 13
0.0
 23
0.0
 33
0.0
 16
1.0
 26
0.0
 36
0.0
 17
0.0
 27
1.0
 37
0.0
 76
     0
330
1F
331
29
  0
MLINESTYLE
  5
18
102
{ACAD_REACTORS
330
17
102
}
330
17
100
AcDbMlineStyle
  2
Standard
 70
     0
  3

 62
   256
 51
90.0
 52
90.0
 71
     2
 49
0.5
 62
   256
  6
BYLAYER
 49
-0.5
 62
   256
  6
BYLAYER
  0
ACDBPLACEHOLDER
  5
F
102
{ACAD_REACTORS
330
E
102
}
330
E
  0
SCALE
  5
48
102
{ACAD_REACTORS
330
47
102
}
330
47
100
AcDbScale
 70
     0
300
1:1
140
1.0
141
1.0
290
     1
  0
SCALE
  5
49
102
{ACAD_REACTORS
330
47
102
}
330
47
100
AcDbScale
 70
     0
300
1:2
140
1.0
141
2.0
290
     0
  0
SCALE
  5
4A
102
{ACAD_REACTORS
330
47
102
}
330
47
100
AcDbScale
 70
     0
300
1:4
140
1.0
141
4.0
290
     0
  0
SCALE
  5
4B
102
{ACAD_REACTORS
330
47
102
}
330
47
100
AcDbScale
 70
     0
300
1:5
140
1.0
141
5.0
290
     0
  0
SCALE
  5
4C
102
{ACAD_REACTORS
330
47
102
}
330
47
100
AcDbScale
 70
     0
300
1:8
140
1.0
141
8.0
290
     0
  0
SCALE
  5
4D
102
{ACAD_REACTORS
330
47
102
}
330
47
100
AcDbScale
 70
     0
300
1:10
140
1.0
141
10.0
290
     0
  0
SCALE
  5
4E
102
{ACAD_REACTORS
330
47
102
}
330
47
100
AcDbScale
 70
     0
300
1:16
140
1.0
141
16.0
290
     0
  0
SCALE
  5
4F
102
{ACAD_REACTORS
330
47
102
}
330
47
100
AcDbScale
 70
     0
300
1:20
140
1.0
141
20.0
290
     0
  0
SCALE
  5
50
102
{ACAD_REACTORS
330
47
102
}
330
47
100
AcDbScale
 70
     0
300
1:30
140
1.0
141
30.0
290
     0
  0
SCALE
  5
51
102
{ACAD_REACTORS
330
47
102
}
330
47
100
AcDbScale
 70
     0
300
1:40
140
1.0
141
40.0
290
     0
  0
SCALE
  5
52
102
{ACAD_REACTORS
330
47
102
}
330
47
100
AcDbScale
 70
     0
300
1:50
140
1.0
141
50.0
290
     0
  0
SCALE
  5
53
102
{ACAD_REACTORS
330
47
102
}
330
47
100
AcDbScale
 70
     0
300
1:100
140
1.0
141
100.0
290
     0
  0
SCALE
  5
54
102
{ACAD_REACTORS
330
47
102
}
330
47
100
AcDbScale
 70
     0
300
2:1
140
2.0
141
1.0
290
     0
  0
SCALE
  5
55
102
{ACAD_REACTORS
330
47
102
}
330
47
100
AcDbScale
 70
     0
300
4:1
140
4.0
141
1.0
290
     0
  0
SCALE
  5
56
102
{ACAD_REACTORS
330
47
102
}
330
47
100
AcDbScale
 70
     0
300
8:1
140
8.0
141
1.0
290
     0
  0
SCALE
  5
57
102
{ACAD_REACTORS
330
47
102
}
330
47
100
AcDbScale
 70
     0
300
10:1
140
10.0
141
1.0
290
     0
  0
SCALE
  5
58
102
{ACAD_REACTORS
330
47
102
}
330
47
100
AcDbScale
 70
     0
300
100:1
140
100.0
141
1.0
290
     0
  0
ENDSEC
  0
EOF
