  0
SECTION
  2
HEADER
  9
$ACADVER
  1
AC1015
  9
$ACADMAINTVER
 70
     6
  9
$DWGCODEPAGE
  3
DOS932
  9
$INSBASE
 10
0.0
 20
0.0
 30
0.0
  9
$EXTMIN
 10
0.0
 20
0.0
 30
0.0
  9
$EXTMAX
 10
431.8
 20
279.4
 30
0.0
  9
$LIMMIN
 10
0.0
 20
0.0
  9
$LIMMAX
 10
431.8
 20
279.4
  9
$ORTHOMODE
 70
     0
  9
$REGENMODE
 70
     1
  9
$FILLMODE
 70
     1
  9
$QTEXTMODE
 70
     0
  9
$MIRRTEXT
 70
     1
  9
$LTSCALE
 40
1.0
  9
$ATTMODE
 70
     1
  9
$TEXTSIZE
 40
3.5
  9
$TRACEWID
 40
1.0
  9
$TEXTSTYLE
  7
Standard
  9
$CLAYER
  8
0
  9
$CELTYPE
  6
ByLayer
  9
$CECOLOR
 62
   256
  9
$CELTSCALE
 40
1.0
  9
$DISPSILH
 70
     0
  9
$DIMSCALE
 40
1.0
  9
$DIMASZ
 40
3.556
  9
$DIMEXO
 40
1.0
  9
$DIMDLI
 40
3.75
  9
$DIMRND
 40
0.0
  9
$DIMDLE
 40
0.0
  9
$DIMEXE
 40
1.0
  9
$DIMTP
 40
0.0
  9
$DIMTM
 40
0.0
  9
$DIMTXT
 40
3.5
  9
$DIMCEN
 40
2.5
  9
$DIMTSZ
 40
0.0
  9
$DIMTOL
 70
     0
  9
$DIMLIM
 70
     0
  9
$DIMTIH
 70
     1
  9
$DIMTOH
 70
     1
  9
$DIMSE1
 70
     0
  9
$DIMSE2
 70
     0
  9
$DIMTAD
 70
     1
  9
$DIMZIN
 70
     0
  9
$DIMBLK
  1

  9
$DIMASO
 70
     1
  9
$DIMSHO
 70
     1
  9
$DIMPOST
  1

  9
$DIMAPOST
  1

  9
$DIMALT
 70
     0
  9
$DIMALTD
 70
     3
  9
$DIMALTF
 40
0.0393700787
  9
$DIMLFAC
 40
1.0
  9
$DIMTOFL
 70
     1
  9
$DIMTVP
 40
0.0
  9
$DIMTIX
 70
     0
  9
$DIMSOXD
 70
     0
  9
$DIMSAH
 70
     0
  9
$DIMBLK1
  1

  9
$DIMBLK2
  1

  9
$DIMSTYLE
  2
ISO-25
  9
$DIMCLRD
 70
     0
  9
$DIMCLRE
 70
     0
  9
$DIMCLRT
 70
     0
  9
$DIMTFAC
 40
1.0
  9
$DIMGAP
 40
1.524
  9
$DIMJUST
 70
     0
  9
$DIMSD1
 70
     0
  9
$DIMSD2
 70
     0
  9
$DIMTOLJ
 70
     0
  9
$DIMTZIN
 70
     0
  9
$DIMALTZ
 70
     0
  9
$DIMALTTZ
 70
     0
  9
$DIMUPT
 70
     0
  9
$DIMDEC
 70
     3
  9
$DIMTDEC
 70
     3
  9
$DIMALTU
 70
     2
  9
$DIMALTTD
 70
     3
  9
$DIMTXSTY
  7
Standard
  9
$DIMAUNIT
 70
     0
  9
$DIMADEC
 70
     2
  9
$DIMALTRND
 40
0.0
  9
$DIMAZIN
 70
     0
  9
$DIMDSEP
 70
    44
  9
$DIMATFIT
 70
     3
  9
$DIMFRAC
 70
     0
  9
$DIMLDRBLK
  1

  9
$DIMLUNIT
 70
     2
  9
$DIMLWD
 70
    -2
  9
$DIMLWE
 70
    -2
  9
$DIMTMOVE
 70
     0
  9
$LUNITS
 70
     2
  9
$LUPREC
 70
     3
  9
$SKETCHINC
 40
1.0
  9
$FILLETRAD
 40
0.0
  9
$AUNITS
 70
     0
  9
$AUPREC
 70
     2
  9
$MENU
  1
.
  9
$ELEVATION
 40
0.0
  9
$PELEVATION
 40
0.0
  9
$THICKNESS
 40
0.0
  9
$LIMCHECK
 70
     0
  9
$CHAMFERA
 40
0.0
  9
$CHAMFERB
 40
0.0
  9
$CHAMFERC
 40
0.0
  9
$CHAMFERD
 40
0.0
  9
$SKPOLY
 70
     0
  9
$TDCREATE
 40
2460339.554739595
  9
$TDUCREATE
 40
2460339.179739595
  9
$TDUPDATE
 40
2460339.554740046
  9
$TDUUPDATE
 40
2460339.179740046
  9
$TDINDWG
 40
0.0000000116
  9
$TDUSRTIMER
 40
0.0000000116
  9
$USRTIMER
 70
     1
  9
$ANGBASE
 50
0.0
  9
$ANGDIR
 70
     0
  9
$PDMODE
 70
     0
  9
$PDSIZE
 40
-1.0
  9
$PLINEWID
 40
0.0
  9
$SPLFRAME
 70
     0
  9
$SPLINETYPE
 70
     6
  9
$SPLINESEGS
 70
     8
  9
$HANDSEED
  5
286
  9
$SURFTAB1
 70
     6
  9
$SURFTAB2
 70
     6
  9
$SURFTYPE
 70
     6
  9
$SURFU
 70
     6
  9
$SURFV
 70
     6
  9
$UCSBASE
  2

  9
$UCSNAME
  2

  9
$UCSORG
 10
0.0
 20
0.0
 30
0.0
  9
$UCSXDIR
 10
1.0
 20
0.0
 30
0.0
  9
$UCSYDIR
 10
0.0
 20
1.0
 30
0.0
  9
$UCSORTHOREF
  2

  9
$UCSORTHOVIEW
 70
     0
  9
$UCSORGTOP
 10
0.0
 20
0.0
 30
0.0
  9
$UCSORGBOTTOM
 10
0.0
 20
0.0
 30
0.0
  9
$UCSORGLEFT
 10
0.0
 20
0.0
 30
0.0
  9
$UCSORGRIGHT
 10
0.0
 20
0.0
 30
0.0
  9
$UCSORGFRONT
 10
0.0
 20
0.0
 30
0.0
  9
$UCSORGBACK
 10
0.0
 20
0.0
 30
0.0
  9
$PUCSBASE
  2

  9
$PUCSNAME
  2

  9
$PUCSORG
 10
0.0
 20
0.0
 30
0.0
  9
$PUCSXDIR
 10
1.0
 20
0.0
 30
0.0
  9
$PUCSYDIR
 10
0.0
 20
1.0
 30
0.0
  9
$PUCSORTHOREF
  2

  9
$PUCSORTHOVIEW
 70
     0
  9
$PUCSORGTOP
 10
0.0
 20
0.0
 30
0.0
  9
$PUCSORGBOTTOM
 10
0.0
 20
0.0
 30
0.0
  9
$PUCSORGLEFT
 10
0.0
 20
0.0
 30
0.0
  9
$PUCSORGRIGHT
 10
0.0
 20
0.0
 30
0.0
  9
$PUCSORGFRONT
 10
0.0
 20
0.0
 30
0.0
  9
$PUCSORGBACK
 10
0.0
 20
0.0
 30
0.0
  9
$USERI1
 70
     0
  9
$USERI2
 70
     0
  9
$USERI3
 70
     0
  9
$USERI4
 70
     0
  9
$USERI5
 70
     0
  9
$USERR1
 40
0.0
  9
$USERR2
 40
0.0
  9
$USERR3
 40
0.0
  9
$USERR4
 40
0.0
  9
$USERR5
 40
0.0
  9
$WORLDVIEW
 70
     1
  9
$SHADEDGE
 70
     3
  9
$SHADEDIF
 70
    70
  9
$TILEMODE
 70
     1
  9
$MAXACTVP
 70
    64
  9
$PINSBASE
 10
0.0
 20
0.0
 30
0.0
  9
$PLIMCHECK
 70
     0
  9
$PEXTMIN
 10
1.0000000000E+20
 20
1.0000000000E+20
 30
1.0000000000E+20
  9
$PEXTMAX
 10
-1.0000000000E+20
 20
-1.0000000000E+20
 30
-1.0000000000E+20
  9
$PLIMMIN
 10
0.0
 20
0.0
  9
$PLIMMAX
 10
420.0
 20
297.0
  9
$UNITMODE
 70
     0
  9
$VISRETAIN
 70
     1
  9
$PLINEGEN
 70
     0
  9
$PSLTSCALE
 70
     1
  9
$TREEDEPTH
 70
  3020
  9
$CMLSTYLE
  2
Standard
  9
$CMLJUST
 70
     0
  9
$CMLSCALE
 40
20.0
  9
$PROXYGRAPHICS
 70
     1
  9
$MEASUREMENT
 70
     1
  9
$CELWEIGHT
370
    -1
  9
$ENDCAPS
280
     0
  9
$JOINSTYLE
280
     0
  9
$LWDISPLAY
290
     1
  9
$INSUNITS
 70
     4
  9
$HYPERLINKBASE
  1

  9
$STYLESHEET
  1

  9
$XEDIT
290
     1
  9
$CEPSNTYPE
380
     0
  9
$PSTYLEMODE
290
     1
  9
$FINGERPRINTGUID
  2
{e43b9857-36bf-4f3a-97e8-e85f7b4c0701}
  9
$VERSIONGUID
  2
{FAEB1C32-E019-11D5-929B-00C0DF256EC4}
  9
$EXTNAMES
290
     1
  9
$PSVPSCALE
 40
0.0
  9
$OLESTARTUP
290
     0
  0
ENDSEC
  0
SECTION
  2
CLASSES
  0
CLASS
  1
ACDBDICTIONARYWDFLT
  2
AcDbDictionaryWithDefault
  3
ObjectDBX Classes
 90
        0
280
     0
281
     0
  0
CLASS
  1
VISUALSTYLE
  2
AcDbVisualStyle
  3
ObjectDBX Classes
 90
     4095
280
     0
281
     0
  0
CLASS
  1
MATERIAL
  2
AcDbMaterial
  3
ObjectDBX Classes
 90
     1153
280
     0
281
     0
  0
CLASS
  1
SCALE
  2
AcDbScale
  3
ObjectDBX Classes
 90
     1153
280
     0
281
     0
  0
CLASS
  1
TABLESTYLE
  2
AcDbTableStyle
  3
ObjectDBX Classes
 90
     4095
280
     0
281
     0
  0
CLASS
  1
MLEADERSTYLE
  2
AcDbMLeaderStyle
  3
ACDB_MLEADERSTYLE_CLASS
 90
     4095
280
     0
281
     0
  0
CLASS
  1
SUN
  2
AcDbSun
  3
SCENEOE
 90
     1153
280
     0
281
     0
  0
CLASS
  1
ACDBPLACEHOLDER
  2
AcDbPlaceHolder
  3
ObjectDBX Classes
 90
        0
280
     0
281
     0
  0
CLASS
  1
LAYOUT
  2
AcDbLayout
  3
ObjectDBX Classes
 90
        0
280
     0
281
     0
  0
ENDSEC
  0
SECTION
  2
TABLES
  0
TABLE
  2
VPORT
  5
8
330
0
100
AcDbSymbolTable
 70
     1
  0
VPORT
  5
29
330
8
100
AcDbSymbolTableRecord
100
AcDbViewportTableRecord
  2
*Active
 70
     0
 10
0.0
 20
0.0
 11
1.0
 21
1.0
 12
215.9
 22
139.7
 13
0.0
 23
0.0
 14
10.0
 24
10.0
 15
10.0
 25
10.0
 16
0.0
 26
0.0
 36
1.0
 17
0.0
 27
0.0
 37
0.0
 40
279.4
 41
1.5454545455
 42
50.0
 43
0.0
 44
0.0
 50
0.0
 51
0.0
 71
     0
 72
  2000
 73
     1
 74
     3
 75
     0
 76
     0
 77
     0
 78
     0
281
     0
 65
     1
110
0.0
120
0.0
130
0.0
111
1.0
121
0.0
131
0.0
112
0.0
122
1.0
132
0.0
 79
     0
146
0.0
  0
ENDTAB
  0
TABLE
  2
LTYPE
  5
5
330
0
100
AcDbSymbolTable
 70
     6
  0
LTYPE
  5
14
330
5
100
AcDbSymbolTableRecord
100
AcDbLinetypeTableRecord
  2
ByBlock
 70
     0
  3

 72
    65
 73
     0
 40
0.0
  0
LTYPE
  5
15
330
5
100
AcDbSymbolTableRecord
100
AcDbLinetypeTableRecord
  2
ByLayer
 70
     0
  3

 72
    65
 73
     0
 40
0.0
  0
LTYPE
  5
16
330
5
100
AcDbSymbolTableRecord
100
AcDbLinetypeTableRecord
  2
Continuous
 70
     0
  3
Solid line
 72
    65
 73
     0
 40
0.0
  0
LTYPE
  5
5E
330
5
100
AcDbSymbolTableRecord
100
AcDbLinetypeTableRecord
  2
HIDDEN
 70
     0
  3
Hidden __ __ __ __ __ __ __ __ __ __ __ __ __ __
 72
    65
 73
     2
 40
1.905
 49
1.27
 74
     0
 49
-0.635
 74
     0
  0
LTYPE
  5
5F
330
5
100
AcDbSymbolTableRecord
100
AcDbLinetypeTableRecord
  2
PHANTOM
 70
     0
  3
Phantom ______  __  __  ______  __  __  ______
 72
    65
 73
     6
 40
12.7
 49
6.35
 74
     0
 49
-1.27
 74
     0
 49
1.27
 74
     0
 49
-1.27
 74
     0
 49
1.27
 74
     0
 49
-1.27
 74
     0
  0
LTYPE
  5
60
330
5
100
AcDbSymbolTableRecord
100
AcDbLinetypeTableRecord
  2
CENTER
 70
     0
  3
Center ____ _ ____ _ ____ _ ____ _ ____ _ ____
 72
    65
 73
     4
 40
10.16
 49
6.35
 74
     0
 49
-1.27
 74
     0
 49
1.27
 74
     0
 49
-1.27
 74
     0
  0
LTYPE
  5
61
330
5
100
AcDbSymbolTableRecord
100
AcDbLinetypeTableRecord
  2
CENTERX2
 70
     0
  3
Center (2x) ________  __  ________  __  _____
 72
    65
 73
     4
 40
20.32
 49
12.7
 74
     0
 49
-2.54
 74
     0
 49
2.54
 74
     0
 49
-2.54
 74
     0
  0
LTYPE
  5
62
330
5
100
AcDbSymbolTableRecord
100
AcDbLinetypeTableRecord
  2
DOT2
 70
     0
  3
Dot (.5x) ........................................
 72
    65
 73
     2
 40
0.635
 49
0.0
 74
     0
 49
-0.635
 74
     0
  0
ENDTAB
  0
TABLE
  2
LAYER
  5
2
330
0
100
AcDbSymbolTable
 70
     1
  0
LAYER
  5
10
330
2
100
AcDbSymbolTableRecord
100
AcDbLayerTableRecord
  2
0
 70
     0
 62
     7
  6
Continuous
370
    -3
390
F
  0
ENDTAB
  0
TABLE
  2
STYLE
  5
3
330
0
100
AcDbSymbolTable
 70
     2
  0
STYLE
  5
11
330
3
100
AcDbSymbolTableRecord
100
AcDbTextStyleTableRecord
  2
Standard
 70
     0
 40
0.0
 41
1.0
 50
0.0
 71
     0
 42
3.5
  3
txt
  4
bigfont
  0
STYLE
  5
63
330
3
100
AcDbSymbolTableRecord
100
AcDbTextStyleTableRecord
  2
SLDTEXTSTYLE0
 70
     0
 40
0.0
 41
0.75
 50
0.0
 71
     0
 42
3.5
  3
TXT
  4
bigfont
  0
ENDTAB
  0
TABLE
  2
VIEW
  5
6
330
0
100
AcDbSymbolTable
 70
     0
  0
ENDTAB
  0
TABLE
  2
UCS
  5
7
330
0
100
AcDbSymbolTable
 70
     0
  0
ENDTAB
  0
TABLE
  2
APPID
  5
9
330
0
100
AcDbSymbolTable
 70
     1
  0
APPID
  5
12
330
9
100
AcDbSymbolTableRecord
100
AcDbRegAppTableRecord
  2
ACAD
 70
     0
  0
ENDTAB
  0
TABLE
  2
DIMSTYLE
  5
A
330
0
100
AcDbSymbolTable
 70
     1
100
AcDbDimStyleTable
  0
DIMSTYLE
105
27
330
A
100
AcDbSymbolTableRecord
100
AcDbDimStyleTableRecord
  2
ISO-25
 70
     0
 41
2.5
 42
0.625
 43
3.75
 44
1.25
 73
     0
 74
     0
 77
     1
 78
     8
140
2.5
141
2.5
143
0.0393700787
147
0.625
171
     3
172
     1
178
     0
271
     2
272
     2
274
     3
278
    44
283
     0
284
     8
340
11
  0
ENDTAB
  0
TABLE
  2
BLOCK_RECORD
  5
1
330
0
100
AcDbSymbolTable
 70
     3
  0
BLOCK_RECORD
  5
1F
330
1
100
AcDbSymbolTableRecord
100
AcDbBlockTableRecord
  2
*Model_Space
340
22
  0
BLOCK_RECORD
  5
1B
330
1
100
AcDbSymbolTableRecord
100
AcDbBlockTableRecord
  2
*Paper_Space
340
1E
  0
BLOCK_RECORD
  5
23
330
1
100
AcDbSymbolTableRecord
100
AcDbBlockTableRecord
  2
*Paper_Space0
340
26
  0
BLOCK_RECORD
  5
1DD
330
1
100
AcDbSymbolTableRecord
100
AcDbBlockTableRecord
  2
SW_CENTERMARKSYMBOL_0
340
0
102
{BLKREFS
331
1E8
102
}
  0
BLOCK_RECORD
  5
279
330
1
100
AcDbSymbolTableRecord
100
AcDbBlockTableRecord
  2
SW_CENTERMARKSYMBOL_1
340
0
102
{BLKREFS
331
284
102
}
  0
ENDTAB
  0
ENDSEC
  0
SECTION
  2
BLOCKS
  0
BLOCK
  5
20
330
1F
100
AcDbEntity
  8
0
100
AcDbBlockBegin
  2
*Model_Space
 70
     0
 10
0.0
 20
0.0
 30
0.0
  3
*Model_Space
  1

  0
ENDBLK
  5
21
330
1F
100
AcDbEntity
  8
0
100
AcDbBlockEnd
  0
BLOCK
  5
1C
330
1B
100
AcDbEntity
 67
     1
  8
0
100
AcDbBlockBegin
  2
*Paper_Space
 70
     0
 10
0.0
 20
0.0
 30
0.0
  3
*Paper_Space
  1

  0
ENDBLK
  5
1D
330
1B
100
AcDbEntity
 67
     1
  8
0
100
AcDbBlockEnd
  0
BLOCK
  5
24
330
23
100
AcDbEntity
  8
0
100
AcDbBlockBegin
  2
*Paper_Space0
 70
     0
 10
0.0
 20
0.0
 30
0.0
  3
*Paper_Space0
  1

  0
ENDBLK
  5
25
330
23
100
AcDbEntity
  8
0
100
AcDbBlockEnd
  0
BLOCK
  5
1DE
330
1DD
100
AcDbEntity
  8
0
100
AcDbBlockBegin
  2
SW_CENTERMARKSYMBOL_0
 70
     0
 10
0.0
 20
0.0
 30
0.0
  3
SW_CENTERMARKSYMBOL_0
  1

  0
LINE
  5
1E0
330
1DD
100
AcDbEntity
  8
0
  6
Continuous
 62
     0
370
    18
100
AcDbLine
 10
0.0
 20
0.0
 30
0.0
 11
0.0
 21
2.5
 31
0.0
  0
LINE
  5
1E1
330
1DD
100
AcDbEntity
  8
0
  6
Continuous
 62
     0
370
    18
100
AcDbLine
 10
0.0
 20
0.0
 30
0.0
 11
-2.5
 21
0.0
 31
0.0
  0
LINE
  5
1E2
330
1DD
100
AcDbEntity
  8
0
  6
Continuous
 62
     0
370
    18
100
AcDbLine
 10
0.0
 20
0.0
 30
0.0
 11
0.0
 21
-2.5
 31
0.0
  0
LINE
  5
1E3
330
1DD
100
AcDbEntity
  8
0
  6
Continuous
 62
     0
370
    18
100
AcDbLine
 10
0.0
 20
0.0
 30
0.0
 11
2.5
 21
0.0
 31
0.0
  0
LINE
  5
1E4
330
1DD
100
AcDbEntity
  8
0
  6
Continuous
 62
     0
370
    18
100
AcDbLine
 10
0.0
 20
5.0
 30
0.0
 11
0.0
 21
31.8866458175
 31
0.0
  0
LINE
  5
1E5
330
1DD
100
AcDbEntity
  8
0
  6
Continuous
 62
     0
370
    18
100
AcDbLine
 10
-5.0
 20
0.0
 30
0.0
 11
-11.9598095363
 21
0.0
 31
0.0
  0
LINE
  5
1E6
330
1DD
100
AcDbEntity
  8
0
  6
Continuous
 62
     0
370
    18
100
AcDbLine
 10
0.0
 20
-5.0
 30
0.0
 11
0.0
 21
-26.4615699873
 31
0.0
  0
LINE
  5
1E7
330
1DD
100
AcDbEntity
  8
0
  6
Continuous
 62
     0
370
    18
100
AcDbLine
 10
5.0
 20
0.0
 30
0.0
 11
11.3840694777
 21
0.0
 31
0.0
  0
ENDBLK
  5
1DF
330
1DD
100
AcDbEntity
  8
0
100
AcDbBlockEnd
  0
BLOCK
  5
27A
330
279
100
AcDbEntity
  8
0
100
AcDbBlockBegin
  2
SW_CENTERMARKSYMBOL_1
 70
     0
 10
0.0
 20
0.0
 30
0.0
  3
SW_CENTERMARKSYMBOL_1
  1

  0
LINE
  5
27C
330
279
100
AcDbEntity
  8
0
  6
Continuous
 62
     0
370
    18
100
AcDbLine
 10
0.0
 20
0.0
 30
0.0
 11
0.0
 21
2.5
 31
0.0
  0
LINE
  5
27D
330
279
100
AcDbEntity
  8
0
  6
Continuous
 62
     0
370
    18
100
AcDbLine
 10
0.0
 20
0.0
 30
0.0
 11
-2.5
 21
0.0
 31
0.0
  0
LINE
  5
27E
330
279
100
AcDbEntity
  8
0
  6
Continuous
 62
     0
370
    18
100
AcDbLine
 10
0.0
 20
0.0
 30
0.0
 11
0.0
 21
-2.5
 31
0.0
  0
LINE
  5
27F
330
279
100
AcDbEntity
  8
0
  6
Continuous
 62
     0
370
    18
100
AcDbLine
 10
0.0
 20
0.0
 30
0.0
 11
2.5
 21
0.0
 31
0.0
  0
LINE
  5
280
330
279
100
AcDbEntity
  8
0
  6
Continuous
 62
     0
370
    18
100
AcDbLine
 10
0.0
 20
5.0
 30
0.0
 11
0.0
 21
9.95
 31
0.0
  0
LINE
  5
281
330
279
100
AcDbEntity
  8
0
  6
Continuous
 62
     0
370
    18
100
AcDbLine
 10
-5.0
 20
0.0
 30
0.0
 11
-43.586628973
 21
0.0
 31
0.0
  0
LINE
  5
282
330
279
100
AcDbEntity
  8
0
  6
Continuous
 62
     0
370
    18
100
AcDbLine
 10
0.0
 20
-5.0
 30
0.0
 11
0.0
 21
-9.95
 31
0.0
  0
LINE
  5
283
330
279
100
AcDbEntity
  8
0
  6
Continuous
 62
     0
370
    18
100
AcDbLine
 10
5.0
 20
0.0
 30
0.0
 11
16.1781612587
 21
0.0
 31
0.0
  0
ENDBLK
  5
27B
330
279
100
AcDbEntity
  8
0
100
AcDbBlockEnd
  0
ENDSEC
  0
SECTION
  2
ENTITIES
  0
MTEXT
  5
64
330
1F
100
AcDbEntity
  8
0
  6
Continuous
 62
     7
370
     0
100
AcDbMText
 10
51.3346940141
 20
85.5508015687
 30
0.0
 40
3.5
 41
0.0
 71
     1
 72
     1
  1
エースボール　アングル型
  7
SLDTEXTSTYLE0
 73
     1
 44
1.0
  0
MTEXT
  5
65
330
1F
100
AcDbEntity
  8
0
  6
Continuous
 62
     7
370
     0
100
AcDbMText
 10
51.3346940141
 20
81.0251070382
 30
0.0
 40
3.5
 41
0.0
 71
     1
 72
     1
  1
BR-3208
  7
SLDTEXTSTYLE0
 73
     1
 44
1.0
  0
LINE
  5
66
330
1F
100
AcDbEntity
  8
0
  6
Continuous
 62
     7
370
    25
100
AcDbLine
 10
33.9021453736
 20
31.7731551416
 30
0.0
 11
34.8056723194
 21
33.3381097179
 31
0.0
  0
LINE
  5
67
330
1F
100
AcDbEntity
  8
0
  6
Continuous
 62
     7
370
    25
100
AcDbLine
 10
34.8056723194
 20
49.8381097179
 30
0.0
 11
33.9021453736
 21
51.4030642941
 31
0.0
  0
LINE
  5
68
330
1F
100
AcDbEntity
  8
0
  6
Continuous
 62
     7
370
    25
100
AcDbLine
 10
22.7091992653
 20
51.4030642941
 30
0.0
 11
21.8056723194
 21
49.8381097179
 31
0.0
  0
LINE
  5
69
330
1F
100
AcDbEntity
  8
0
  6
Continuous
 62
     7
370
    25
100
AcDbLine
 10
21.8056723194
 20
33.3381097179
 30
0.0
 11
22.7091992653
 21
31.7731551416
 31
0.0
  0
LINE
  5
6A
330
1F
100
AcDbEntity
  8
0
  6
Continuous
 62
     7
370
    25
100
AcDbLine
 10
62.0040062696
 20
60.0881097179
 30
0.0
 11
60.0540062696
 21
68.0881097179
 31
0.0
  0
LINE
  5
6B
330
1F
100
AcDbEntity
  8
0
  6
Continuous
 62
     7
370
    25
100
AcDbLine
 10
61.5540062696
 20
52.0881097179
 30
0.0
 11
62.0040062696
 21
60.0881097179
 31
0.0
  0
LINE
  5
6C
330
1F
100
AcDbEntity
  8
0
  6
Continuous
 62
     7
370
    25
100
AcDbLine
 10
47.485260852
 20
53.3102504751
 30
0.0
 11
47.5540062696
 21
52.0881097179
 31
0.0
  0
LINE
  5
6D
330
1F
100
AcDbEntity
  8
0
  6
Continuous
 62
     7
370
    25
100
AcDbLine
 10
49.0540062696
 20
68.0881097179
 30
0.0
 11
48.8007747351
 21
67.0492111147
 31
0.0
  0
LINE
  5
6E
330
1F
100
AcDbEntity
  8
0
  6
Continuous
 62
     7
370
    25
100
AcDbLine
 10
40.2540062696
 20
33.0881097179
 30
0.0
 11
43.0540062696
 21
33.0881097179
 31
0.0
  0
LINE
  5
6F
330
1F
100
AcDbEntity
  8
0
  6
Continuous
 62
     7
370
    25
100
AcDbLine
 10
43.0540062696
 20
50.0881097179
 30
0.0
 11
40.2540062696
 21
50.0881097179
 31
0.0
  0
LINE
  5
70
330
1F
100
AcDbEntity
  8
0
  6
Continuous
 62
     7
370
    25
100
AcDbLine
 10
40.2540062696
 20
50.0881097179
 30
0.0
 11
40.0540062696
 21
49.8881097179
 31
0.0
  0
LINE
  5
71
330
1F
100
AcDbEntity
  8
0
  6
Continuous
 62
     7
370
    25
100
AcDbLine
 10
40.0540062696
 20
33.2881097179
 30
0.0
 11
40.2540062696
 21
33.0881097179
 31
0.0
  0
LINE
  5
72
330
1F
100
AcDbEntity
  8
0
  6
Continuous
 62
     7
370
    25
100
AcDbLine
 10
40.0540062696
 20
48.1666097179
 30
0.0
 11
34.8056723194
 21
48.1666097179
 31
0.0
  0
LINE
  5
73
330
1F
100
AcDbEntity
  8
0
  6
Continuous
 62
     7
370
    25
100
AcDbLine
 10
34.8056723194
 20
35.0096097179
 30
0.0
 11
40.0540062696
 21
35.0096097179
 31
0.0
  0
LINE
  5
74
330
1F
100
AcDbEntity
  8
0
  6
Continuous
 62
     7
370
    25
100
AcDbLine
 10
65.6951375225
 20
31.8505054108
 30
0.0
 11
66.5540062696
 21
33.3381097179
 31
0.0
  0
LINE
  5
75
330
1F
100
AcDbEntity
  8
0
  6
Continuous
 62
     7
370
    25
100
AcDbLine
 10
66.5540062696
 20
49.8381097179
 30
0.0
 11
65.6951375225
 21
51.3257140249
 31
0.0
  0
LINE
  5
76
330
1F
100
AcDbEntity
  8
0
  6
Continuous
 62
     7
370
    25
100
AcDbLine
 10
47.7958187696
 20
29.5881097179
 30
0.0
 11
48.089454211
 21
20.1917755917
 31
0.0
  0
LINE
  5
77
330
1F
100
AcDbEntity
  8
0
  6
Continuous
 62
     7
370
    25
100
AcDbLine
 10
61.0185583282
 20
20.1917755917
 30
0.0
 11
61.3121937696
 21
29.5881097179
 31
0.0
  0
SPLINE
  5
78
330
1F
100
AcDbEntity
  8
0
  6
Continuous
 62
     7
370
    25
100
AcDbSpline
210
0.0
220
0.0
230
1.0
 70
     8
 71
     3
 72
    11
 73
     7
 74
     0
 42
0.00000001
 43
0.00000001
 40
0.0
 40
0.0
 40
0.0
 40
0.0
 40
0.2344830704075805
 40
0.5838416028622436
 40
0.8876543405321657
 40
1.0
 40
1.0
 40
1.0
 40
1.0
 10
60.72315286411296
 20
50.37636967306653
 30
0.0
 10
60.68029276485854
 20
50.42097103960416
 30
0.0
 10
60.57357500052681
 20
50.53202440172499
 30
0.0
 10
60.47942389948055
 20
50.74936583883003
 30
0.0
 10
60.43227220077199
 20
50.9475332994333
 30
0.0
 10
60.43921846710725
 20
51.05671863843841
 30
0.0
 10
60.4410936734653
 20
51.08619419149493
 30
0.0
  0
SPLINE
  5
79
330
1F
100
AcDbEntity
  8
0
  6
Continuous
 62
     7
370
    25
100
AcDbSpline
210
0.0
220
0.0
230
1.0
 70
     8
 71
     3
 72
    11
 73
     7
 74
     0
 42
0.00000001
 43
0.00000001
 40
0.0
 40
0.0
 40
0.0
 40
0.0
 40
0.1641004845066527
 40
0.4911234926600922
 40
0.8284828837724697
 40
1.0
 40
1.0
 40
1.0
 40
1.0
 10
48.66115897296486
 20
51.0875831475518
 30
0.0
 10
48.66288255134506
 20
51.0445499969303
 30
0.0
 10
48.66804091414031
 20
50.91575944949871
 30
0.0
 10
48.60655455327354
 20
50.7048175252099
 30
0.0
 10
48.50912455088488
 20
50.50443982380148
 30
0.0
 10
48.41198194017438
 20
50.41260631570684
 30
0.0
 10
48.37923996798357
 20
50.38165377957232
 30
0.0
  0
LINE
  5
7A
330
1F
100
AcDbEntity
  8
0
  6
Continuous
 62
     7
370
    25
100
AcDbLine
 10
48.089454211
 20
20.1917755917
 30
0.0
 11
49.3040062696
 21
18.0881097179
 31
0.0
  0
LINE
  5
7B
330
1F
100
AcDbEntity
  8
0
  6
Continuous
 62
     7
370
    25
100
AcDbLine
 10
59.8040062696
 20
18.0881097179
 30
0.0
 11
61.0185583282
 21
20.1917755917
 31
0.0
  0
LINE
  5
7C
330
1F
100
AcDbEntity
  8
0
  6
Continuous
 62
     7
370
    25
100
AcDbLine
 10
60.4540062696
 20
51.0835788978
 30
0.0
 11
60.4540062696
 21
52.0881097179
 31
0.0
  0
LINE
  5
7D
330
1F
100
AcDbEntity
  8
0
  6
Continuous
 62
     7
370
    25
100
AcDbLine
 10
48.6540062696
 20
52.0881097179
 30
0.0
 11
48.6540062696
 21
51.0881097179
 31
0.0
  0
LINE
  5
7E
330
1F
100
AcDbEntity
  8
0
  6
Continuous
 62
     7
370
    25
100
AcDbLine
 10
48.3838393622
 20
50.3828474472
 30
0.0
 11
47.8394750898
 21
51.3257140249
 31
0.0
  0
LINE
  5
7F
330
1F
100
AcDbEntity
  8
0
  6
Continuous
 62
     7
370
    25
100
AcDbLine
 10
43.7685374494
 20
51.3257140249
 30
0.0
 11
43.0540062696
 21
50.0881097179
 31
0.0
  0
LINE
  5
80
330
1F
100
AcDbEntity
  8
0
  6
Continuous
 62
     7
370
    25
100
AcDbLine
 10
61.2685374494
 20
51.3257140249
 30
0.0
 11
60.7241731769
 21
50.3828474472
 31
0.0
  0
LINE
  5
81
330
1F
100
AcDbEntity
  8
0
  6
Continuous
 62
     7
370
    25
100
AcDbLine
 10
63.0540062696
 20
29.5881097179
 30
0.0
 11
64.2916105766
 21
30.3026408977
 31
0.0
  0
LINE
  5
82
330
1F
100
AcDbEntity
  8
0
  6
Continuous
 62
     7
370
    25
100
AcDbLine
 10
44.8164019626
 20
30.3026408977
 30
0.0
 11
46.0540062696
 21
29.5881097179
 31
0.0
  0
LINE
  5
83
330
1F
100
AcDbEntity
  8
0
  6
Continuous
 62
     7
370
    25
100
AcDbLine
 10
43.0540062696
 20
33.0881097179
 30
0.0
 11
43.7685374494
 21
31.8505054108
 31
0.0
  0
LINE
  5
84
330
1F
100
AcDbEntity
  8
0
  6
Continuous
 62
     7
370
    25
100
AcDbLine
 10
64.2916105766
 20
30.3000805164
 30
0.0
 11
64.2916105766
 21
31.8505054108
 31
0.0
  0
LINE
  5
85
330
1F
100
AcDbEntity
  8
0
  6
Continuous
 62
     7
370
    25
100
AcDbLine
 10
64.2916105766
 20
31.8505054108
 30
0.0
 11
65.6977055779
 21
31.8505054108
 31
0.0
  0
LINE
  5
86
330
1F
100
AcDbEntity
  8
0
  6
Continuous
 62
     7
370
    25
100
AcDbLine
 10
47.8420431452
 20
51.3257140249
 30
0.0
 11
43.7659770681
 21
51.3257140249
 31
0.0
  0
LINE
  5
87
330
1F
100
AcDbEntity
  8
0
  6
Continuous
 62
     7
370
    25
100
AcDbLine
 10
65.6977055779
 20
51.3257140249
 30
0.0
 11
61.2659693939
 21
51.3257140249
 31
0.0
  0
LINE
  5
88
330
1F
100
AcDbEntity
  8
0
  6
Continuous
 62
     7
370
    25
100
AcDbLine
 10
44.8164019626
 20
31.8505054108
 30
0.0
 11
44.8164019626
 21
30.3000805164
 31
0.0
  0
LINE
  5
89
330
1F
100
AcDbEntity
  8
0
  6
Continuous
 62
     7
370
    25
100
AcDbLine
 10
43.7659770681
 20
31.8505054108
 30
0.0
 11
44.8164019626
 21
31.8505054108
 31
0.0
  0
SPLINE
  5
8A
330
1F
100
AcDbEntity
  8
0
  6
Continuous
 62
     7
370
    25
100
AcDbSpline
210
0.0
220
0.0
230
1.0
 70
     8
 71
     3
 72
    14
 73
    10
 74
     0
 42
0.00000001
 43
0.00000001
 40
0.0
 40
0.0
 40
0.0
 40
0.0
 40
0.132317364830439
 40
0.2645973188387832
 40
0.3998364273285067
 40
0.5350511314348788
 40
0.6502525552916444
 40
0.7654719494863401
 40
1.0
 40
1.0
 40
1.0
 40
1.0
 10
33.90214537357973
 20
31.77315514164469
 30
0.0
 10
34.017713549777
 20
31.98517741763401
 30
0.0
 10
34.2488172269404
 20
32.40916202337918
 30
0.0
 10
34.49750698426772
 20
33.06206565252956
 30
0.0
 10
34.64691563597721
 20
33.72725680890579
 30
0.0
 10
34.67690163254715
 20
34.36842346027611
 30
0.0
 10
34.59887569531821
 20
34.97471867140688
 30
0.0
 10
34.39423051248765
 20
35.74091666404087
 30
0.0
 10
34.09966823609678
 20
36.30343073573974
 30
0.0
 10
33.90214537357973
 20
36.68063242975653
 30
0.0
  0
SPLINE
  5
8B
330
1F
100
AcDbEntity
  8
0
  6
Continuous
 62
     7
370
    25
100
AcDbSpline
210
0.0
220
0.0
230
1.0
 70
     8
 71
     3
 72
    14
 73
    10
 74
     0
 42
0.00000001
 43
0.00000001
 40
0.0
 40
0.0
 40
0.0
 40
0.0
 40
0.1885762799860082
 40
0.378895556583529
 40
0.5044823954484108
 40
0.6300701228213249
 40
0.7590052913537331
 40
0.887976329628691
 40
1.0
 40
1.0
 40
1.0
 40
1.0
 10
33.90214537357973
 20
36.68063242975653
 30
0.0
 10
34.0631944126691
 20
37.28617082229199
 30
0.0
 10
34.38678105520724
 20
38.50284455394816
 30
0.0
 10
34.62024077528005
 20
40.1669291053335
 30
0.0
 10
34.67847783045268
 20
41.63318163962188
 30
0.0
 10
34.62161208889522
 20
42.89582216001536
 30
0.0
 10
34.45652805772348
 20
44.15976077050092
 30
0.0
 10
34.21307927257578
 20
45.36505836042993
 30
0.0
 10
34.00081433440079
 20
46.13683523592535
 30
0.0
 10
33.90214537357974
 20
46.49558700598019
 30
0.0
  0
SPLINE
  5
8C
330
1F
100
AcDbEntity
  8
0
  6
Continuous
 62
     7
370
    25
100
AcDbSpline
210
0.0
220
0.0
230
1.0
 70
     8
 71
     3
 72
    14
 73
    10
 74
     0
 42
0.00000001
 43
0.00000001
 40
0.0
 40
0.0
 40
0.0
 40
0.0
 40
0.132317364830439
 40
0.2645973188387831
 40
0.3998364273285067
 40
0.5350511314348788
 40
0.6502525552916443
 40
0.76547194948634
 40
1.0
 40
1.0
 40
1.0
 40
1.0
 10
33.90214537357974
 20
46.49558700598019
 30
0.0
 10
34.01771354977701
 20
46.70760928196952
 30
0.0
 10
34.2488172269404
 20
47.13159388771469
 30
0.0
 10
34.49750698426772
 20
47.78449751686505
 30
0.0
 10
34.6469156359772
 20
48.44968867324128
 30
0.0
 10
34.67690163254716
 20
49.09085532461159
 30
0.0
 10
34.59887569531821
 20
49.69715053574235
 30
0.0
 10
34.39423051248765
 20
50.46334852837634
 30
0.0
 10
34.09966823609678
 20
51.02586260007519
 30
0.0
 10
33.90214537357973
 20
51.40306429409198
 30
0.0
  0
LINE
  5
8D
330
1F
100
AcDbEntity
  8
0
  6
Continuous
 62
     7
370
    25
100
AcDbLine
 10
34.8056723194
 20
33.3381097179
 30
0.0
 11
34.8056723194
 21
49.8381097179
 31
0.0
  0
SPLINE
  5
8E
330
1F
100
AcDbEntity
  8
0
  6
Continuous
 62
     7
370
    25
100
AcDbSpline
210
0.0
220
0.0
230
1.0
 70
     8
 71
     3
 72
    14
 73
    10
 74
     0
 42
0.00000001
 43
0.00000001
 40
0.0
 40
0.0
 40
0.0
 40
0.0
 40
0.132317364830439
 40
0.2645973188387831
 40
0.3998364273285068
 40
0.5350511314348788
 40
0.6502525552916444
 40
0.7654719494863401
 40
1.0
 40
1.0
 40
1.0
 40
1.0
 10
22.70919926528425
 20
46.49558700598019
 30
0.0
 10
22.59363108908697
 20
46.70760928196952
 30
0.0
 10
22.36252741192359
 20
47.13159388771468
 30
0.0
 10
22.11383765459625
 20
47.78449751686505
 30
0.0
 10
21.96442900288678
 20
48.44968867324128
 30
0.0
 10
21.93444300631682
 20
49.09085532461159
 30
0.0
 10
22.01246894354577
 20
49.69715053574235
 30
0.0
 10
22.21711412637633
 20
50.46334852837634
 30
0.0
 10
22.5116764027672
 20
51.02586260007519
 30
0.0
 10
22.70919926528425
 20
51.40306429409198
 30
0.0
  0
SPLINE
  5
8F
330
1F
100
AcDbEntity
  8
0
  6
Continuous
 62
     7
370
    25
100
AcDbSpline
210
0.0
220
0.0
230
1.0
 70
     8
 71
     3
 72
    14
 73
    10
 74
     0
 42
0.00000001
 43
0.00000001
 40
0.0
 40
0.0
 40
0.0
 40
0.0
 40
0.1885762799860082
 40
0.378895556583529
 40
0.5044823954484108
 40
0.6300701228213249
 40
0.759005291353733
 40
0.887976329628691
 40
1.0
 40
1.0
 40
1.0
 40
1.0
 10
22.70919926528425
 20
36.68063242975653
 30
0.0
 10
22.54815022619489
 20
37.28617082229199
 30
0.0
 10
22.22456358365673
 20
38.50284455394816
 30
0.0
 10
21.99110386358394
 20
40.1669291053335
 30
0.0
 10
21.9328668084113
 20
41.63318163962188
 30
0.0
 10
21.98973254996877
 20
42.89582216001536
 30
0.0
 10
22.1548165811405
 20
44.15976077050092
 30
0.0
 10
22.3982653662882
 20
45.36505836042993
 30
0.0
 10
22.61053030446318
 20
46.13683523592535
 30
0.0
 10
22.70919926528425
 20
46.49558700598019
 30
0.0
  0
SPLINE
  5
90
330
1F
100
AcDbEntity
  8
0
  6
Continuous
 62
     7
370
    25
100
AcDbSpline
210
0.0
220
0.0
230
1.0
 70
     8
 71
     3
 72
    14
 73
    10
 74
     0
 42
0.00000001
 43
0.00000001
 40
0.0
 40
0.0
 40
0.0
 40
0.0
 40
0.132317364830439
 40
0.2645973188387832
 40
0.3998364273285067
 40
0.5350511314348788
 40
0.6502525552916444
 40
0.7654719494863401
 40
1.0
 40
1.0
 40
1.0
 40
1.0
 10
22.70919926528425
 20
31.77315514164469
 30
0.0
 10
22.59363108908697
 20
31.98517741763401
 30
0.0
 10
22.36252741192358
 20
32.40916202337918
 30
0.0
 10
22.11383765459626
 20
33.06206565252956
 30
0.0
 10
21.96442900288678
 20
33.72725680890579
 30
0.0
 10
21.93444300631682
 20
34.36842346027611
 30
0.0
 10
22.01246894354579
 20
34.97471867140688
 30
0.0
 10
22.21711412637632
 20
35.74091666404087
 30
0.0
 10
22.5116764027672
 20
36.30343073573974
 30
0.0
 10
22.70919926528425
 20
36.68063242975653
 30
0.0
  0
LINE
  5
91
330
1F
100
AcDbEntity
  8
0
  6
Continuous
 62
     7
370
    25
100
AcDbLine
 10
21.8056723194
 20
33.3381097179
 30
0.0
 11
21.8056723194
 21
49.8381097179
 31
0.0
  0
LINE
  5
92
330
1F
100
AcDbEntity
  8
0
  6
Continuous
 62
     7
370
    25
100
AcDbLine
 10
22.7091992653
 20
36.6806324298
 30
0.0
 11
33.9021453736
 21
36.6806324298
 31
0.0
  0
LINE
  5
93
330
1F
100
AcDbEntity
  8
0
  6
Continuous
 62
     7
370
    25
100
AcDbLine
 10
22.7091992653
 20
31.7731551416
 30
0.0
 11
33.9021453736
 21
31.7731551416
 31
0.0
  0
LINE
  5
94
330
1F
100
AcDbEntity
  8
0
  6
Continuous
 62
     7
370
    25
100
AcDbLine
 10
22.7091992653
 20
46.495587006
 30
0.0
 11
33.9021453736
 21
46.495587006
 31
0.0
  0
LINE
  5
95
330
1F
100
AcDbEntity
  8
0
  6
Continuous
 62
     7
370
    25
100
AcDbLine
 10
22.7091992653
 20
51.4030642941
 30
0.0
 11
33.9021453736
 21
51.4030642941
 31
0.0
  0
SPLINE
  5
96
330
1F
100
AcDbEntity
  8
0
  6
Continuous
 62
     7
370
    25
100
AcDbSpline
210
0.0
220
0.0
230
1.0
 70
     8
 71
     3
 72
    15
 73
    11
 74
     0
 42
0.00000001
 43
0.00000001
 40
0.0
 40
0.0
 40
0.0
 40
0.0
 40
0.0081667445812695
 40
0.3321939991490083
 40
0.4756279600585602
 40
0.6866830973284899
 40
0.8457435502264811
 40
0.8967566214763185
 40
0.9909540928118029
 40
1.0
 40
1.0
 40
1.0
 40
1.0
 10
49.45498675599968
 20
68.93810971786833
 30
0.0
 10
49.45449922185679
 20
68.93810704152256
 30
0.0
 10
49.43466807432471
 20
68.93799817733566
 30
0.0
 10
49.40638729431546
 20
68.92845216506633
 30
0.0
 10
49.36855799582662
 20
68.89108978181177
 30
0.0
 10
49.34197409925913
 20
68.84622426707709
 30
0.0
 10
49.32480427550416
 20
68.78834796750019
 30
0.0
 10
49.31698727928769
 20
68.73767192752827
 30
0.0
 10
49.31499159285182
 20
68.70897764800826
 30
0.0
 10
49.31492662890102
 20
68.68979081645276
 30
0.0
 10
49.31492093693436
 20
68.68810971786833
 30
0.0
  0
LINE
  5
97
330
1F
100
AcDbEntity
  8
0
  6
Continuous
 62
     7
370
    25
100
AcDbLine
 10
49.454986756
 20
68.9381097179
 30
0.0
 11
59.6530257832
 21
68.9381097179
 31
0.0
  0
SPLINE
  5
98
330
1F
100
AcDbEntity
  8
0
  6
Continuous
 62
     7
370
    25
100
AcDbSpline
210
0.0
220
0.0
230
1.0
 70
     8
 71
     3
 72
    15
 73
    11
 74
     0
 42
0.00000001
 43
0.00000001
 40
0.0
 40
0.0
 40
0.0
 40
0.0
 40
0.0090459071881971
 40
0.1032433785236874
 40
0.1542564497735246
 40
0.313316902671511
 40
0.5243720399414428
 40
0.6678060008509903
 40
0.9918332554187292
 40
1.0
 40
1.0
 40
1.0
 40
1.0
 10
59.79309160225058
 20
68.68810971786833
 30
0.0
 10
59.79308591028391
 20
68.68979081645276
 30
0.0
 10
59.79302094633312
 20
68.70897764800829
 30
0.0
 10
59.79102525989722
 20
68.73767192752825
 30
0.0
 10
59.78320826368078
 20
68.78834796750021
 30
0.0
 10
59.7660384399258
 20
68.84622426707708
 30
0.0
 10
59.73945454335831
 20
68.89108978181177
 30
0.0
 10
59.70162524486948
 20
68.92845216506632
 30
0.0
 10
59.67334446486022
 20
68.93799817733577
 30
0.0
 10
59.65351331732814
 20
68.93810704152256
 30
0.0
 10
59.65302578318525
 20
68.93810971786833
 30
0.0
  0
LINE
  5
99
330
1F
100
AcDbEntity
  8
0
  6
Continuous
 62
     7
370
    25
100
AcDbLine
 10
59.7930916023
 20
68.6881097179
 30
0.0
 11
49.3149209369
 21
68.6881097179
 31
0.0
  0
LINE
  5
9A
330
1F
100
AcDbEntity
  8
0
  6
Continuous
 62
     7
370
    25
100
AcDbLine
 10
49.3149209369
 20
68.6881097179
 30
0.0
 11
49.3149209369
 21
68.0881097179
 31
0.0
  0
LINE
  5
9B
330
1F
100
AcDbEntity
  8
0
  6
Continuous
 62
     7
370
    25
100
AcDbLine
 10
59.7930916023
 20
68.0881097179
 30
0.0
 11
59.7930916023
 21
68.6881097179
 31
0.0
  0
LINE
  5
9C
330
1F
100
AcDbEntity
  8
0
  6
Continuous
 62
     7
370
    25
100
AcDbLine
 10
49.3149209369
 20
68.0881097179
 30
0.0
 11
59.7930916023
 21
68.0881097179
 31
0.0
  0
LINE
  5
9D
330
1F
100
AcDbEntity
  8
0
  6
Continuous
 62
     7
370
    25
100
AcDbLine
 10
49.0767806945
 20
68.6881097179
 30
0.0
 11
49.3149209369
 21
68.6881097179
 31
0.0
  0
SPLINE
  5
9E
330
1F
100
AcDbEntity
  8
0
  6
Continuous
 62
     7
370
    25
100
AcDbSpline
210
0.0
220
0.0
230
1.0
 70
     8
 71
     3
 72
    15
 73
    11
 74
     0
 42
0.00000001
 43
0.00000001
 40
0.0
 40
0.0
 40
0.0
 40
0.0
 40
0.0089557228015919
 40
0.0999003359608148
 40
0.153163246058169
 40
0.3125636920784848
 40
0.5249666935694999
 40
0.6689893599352451
 40
0.9919152533810159
 40
1.0
 40
1.0
 40
1.0
 40
1.0
 10
49.0767806945408
 20
68.68810971786833
 30
0.0
 10
49.0767964501194
 20
68.68979084344124
 30
0.0
 10
49.07697220227597
 20
68.70854365806566
 30
0.0
 10
49.08240121829549
 20
68.73730588717316
 30
0.0
 10
49.10393670200281
 20
68.78819296064151
 30
0.0
 10
49.15164213026763
 20
68.84632861077414
 30
0.0
 10
49.22403307525953
 20
68.89103648395756
 30
0.0
 10
49.32595218727732
 20
68.92831830741932
 30
0.0
 10
49.40130727873179
 20
68.93799746225687
 30
0.0
 10
49.45370692445554
 20
68.93810704145865
 30
0.0
 10
49.45498675599968
 20
68.93810971786833
 30
0.0
  0
LINE
  5
9F
330
1F
100
AcDbEntity
  8
0
  6
Continuous
 62
     7
370
    25
100
AcDbLine
 10
59.7930916023
 20
68.6881097179
 30
0.0
 11
60.0312318446
 21
68.6881097179
 31
0.0
  0
SPLINE
  5
A0
330
1F
100
AcDbEntity
  8
0
  6
Continuous
 62
     7
370
    25
100
AcDbSpline
210
0.0
220
0.0
230
1.0
 70
     8
 71
     3
 72
    15
 73
    11
 74
     0
 42
0.00000001
 43
0.00000001
 40
0.0
 40
0.0
 40
0.0
 40
0.0
 40
0.0080847466189818
 40
0.3310106400647567
 40
0.4750333064304972
 40
0.6874363079215137
 40
0.8468367539418253
 40
0.9000996640391794
 40
0.9910442771984082
 40
1.0
 40
1.0
 40
1.0
 40
1.0
 10
59.65302578318525
 20
68.93810971786833
 30
0.0
 10
59.65430561472939
 20
68.93810704145866
 30
0.0
 10
59.70670526045317
 20
68.9379974622568
 30
0.0
 10
59.7820603519076
 20
68.92831830741932
 30
0.0
 10
59.8839794639254
 20
68.89103648395756
 30
0.0
 10
59.95637040891729
 20
68.84632861077414
 30
0.0
 10
60.00407583718212
 20
68.78819296064148
 30
0.0
 10
60.02561132088943
 20
68.73730588717318
 30
0.0
 10
60.03104033690897
 20
68.7085436580657
 30
0.0
 10
60.03121608906552
 20
68.68979084344124
 30
0.0
 10
60.03123184464413
 20
68.68810971786833
 30
0.0
  0
LINE
  5
A1
330
1F
100
AcDbEntity
  8
0
  6
Continuous
 62
     7
370
    25
100
AcDbLine
 10
49.0767806945
 20
68.0881097179
 30
0.0
 11
49.0767806945
 21
68.6881097179
 31
0.0
  0
LINE
  5
A2
330
1F
100
AcDbEntity
  8
0
  6
Continuous
 62
     7
370
    25
100
AcDbLine
 10
49.3149209369
 20
68.0881097179
 30
0.0
 11
49.0767806945
 21
68.0881097179
 31
0.0
  0
LINE
  5
A3
330
1F
100
AcDbEntity
  8
0
  6
Continuous
 62
     7
370
    25
100
AcDbLine
 10
60.0312318446
 20
68.6881097179
 30
0.0
 11
60.0312318446
 21
68.0881097179
 31
0.0
  0
LINE
  5
A4
330
1F
100
AcDbEntity
  8
0
  6
Continuous
 62
     7
370
    25
100
AcDbLine
 10
60.0312318446
 20
68.0881097179
 30
0.0
 11
59.7930916023
 21
68.0881097179
 31
0.0
  0
LINE
  5
A5
330
1F
100
AcDbEntity
  8
0
  6
Continuous
 62
     7
370
    25
100
AcDbLine
 10
48.8040062696
 20
68.9381097179
 30
0.0
 11
48.8040062696
 21
68.6881097179
 31
0.0
  0
LINE
  5
A6
330
1F
100
AcDbEntity
  8
0
  6
Continuous
 62
     7
370
    25
100
AcDbLine
 10
49.0767806945
 20
68.6881097179
 30
0.0
 11
48.8040062696
 21
68.6881097179
 31
0.0
  0
LINE
  5
A7
330
1F
100
AcDbEntity
  8
0
  6
Continuous
 62
     7
370
    25
100
AcDbLine
 10
48.8040062696
 20
68.9381097179
 30
0.0
 11
49.454986756
 21
68.9381097179
 31
0.0
  0
LINE
  5
A8
330
1F
100
AcDbEntity
  8
0
  6
Continuous
 62
     7
370
    25
100
AcDbLine
 10
48.5540062696
 20
68.6881097179
 30
0.0
 11
48.8040062696
 21
68.6881097179
 31
0.0
  0
ARC
  5
A9
330
1F
100
AcDbEntity
  8
0
  6
Continuous
 62
     7
370
    25
100
AcDbCircle
 10
48.8040062696
 20
68.6881097179
 30
0.0
 40
0.25
100
AcDbArc
 50
90.0
 51
180.0
  0
LINE
  5
AA
330
1F
100
AcDbEntity
  8
0
  6
Continuous
 62
     7
370
    25
100
AcDbLine
 10
48.8040062696
 20
68.6881097179
 30
0.0
 11
48.8040062696
 21
68.0881097179
 31
0.0
  0
LINE
  5
AB
330
1F
100
AcDbEntity
  8
0
  6
Continuous
 62
     7
370
    25
100
AcDbLine
 10
49.0767806945
 20
68.0881097179
 30
0.0
 11
48.8040062696
 21
68.0881097179
 31
0.0
  0
LINE
  5
AC
330
1F
100
AcDbEntity
  8
0
  6
Continuous
 62
     7
370
    25
100
AcDbLine
 10
48.5540062696
 20
68.0881097179
 30
0.0
 11
48.5540062696
 21
68.6881097179
 31
0.0
  0
LINE
  5
AD
330
1F
100
AcDbEntity
  8
0
  6
Continuous
 62
     7
370
    25
100
AcDbLine
 10
48.8040062696
 20
68.0881097179
 30
0.0
 11
48.5540062696
 21
68.0881097179
 31
0.0
  0
LINE
  5
AE
330
1F
100
AcDbEntity
  8
0
  6
Continuous
 62
     7
370
    25
100
AcDbLine
 10
60.3040062696
 20
68.6881097179
 30
0.0
 11
60.3040062696
 21
68.9381097179
 31
0.0
  0
LINE
  5
AF
330
1F
100
AcDbEntity
  8
0
  6
Continuous
 62
     7
370
    25
100
AcDbLine
 10
60.3040062696
 20
68.6881097179
 30
0.0
 11
60.0312318446
 21
68.6881097179
 31
0.0
  0
LINE
  5
B0
330
1F
100
AcDbEntity
  8
0
  6
Continuous
 62
     7
370
    25
100
AcDbLine
 10
59.6530257832
 20
68.9381097179
 30
0.0
 11
60.3040062696
 21
68.9381097179
 31
0.0
  0
LINE
  5
B1
330
1F
100
AcDbEntity
  8
0
  6
Continuous
 62
     7
370
    25
100
AcDbLine
 10
60.3040062696
 20
68.0881097179
 30
0.0
 11
60.3040062696
 21
68.6881097179
 31
0.0
  0
LINE
  5
B2
330
1F
100
AcDbEntity
  8
0
  6
Continuous
 62
     7
370
    25
100
AcDbLine
 10
60.3040062696
 20
68.0881097179
 30
0.0
 11
60.0312318446
 21
68.0881097179
 31
0.0
  0
LINE
  5
B3
330
1F
100
AcDbEntity
  8
0
  6
Continuous
 62
     7
370
    25
100
AcDbLine
 10
60.3040062696
 20
68.6881097179
 30
0.0
 11
60.5540062696
 21
68.6881097179
 31
0.0
  0
LINE
  5
B4
330
1F
100
AcDbEntity
  8
0
  6
Continuous
 62
     7
370
    25
100
AcDbLine
 10
60.5540062696
 20
68.6881097179
 30
0.0
 11
60.5540062696
 21
68.0881097179
 31
0.0
  0
LINE
  5
B5
330
1F
100
AcDbEntity
  8
0
  6
Continuous
 62
     7
370
    25
100
AcDbLine
 10
60.5540062696
 20
68.0881097179
 30
0.0
 11
60.3040062696
 21
68.0881097179
 31
0.0
  0
ARC
  5
B6
330
1F
100
AcDbEntity
  8
0
  6
Continuous
 62
     7
370
    25
100
AcDbCircle
 10
60.3040062696
 20
68.6881097179
 30
0.0
 40
0.2500000000000071
100
AcDbArc
 50
0.0
 51
90.0
  0
LINE
  5
B7
330
1F
100
AcDbEntity
  8
0
  6
Continuous
 62
     7
370
    25
100
AcDbLine
 10
49.5540062696
 20
68.9481097179
 30
0.0
 11
59.5540062696
 21
68.9481097179
 31
0.0
  0
LINE
  5
B8
330
1F
100
AcDbEntity
  8
0
  6
Continuous
 62
     7
370
    25
100
AcDbLine
 10
59.5540062696
 20
68.9381097179
 30
0.0
 11
59.5540062696
 21
68.9481097179
 31
0.0
  0
LINE
  5
B9
330
1F
100
AcDbEntity
  8
0
  6
Continuous
 62
     7
370
    25
100
AcDbLine
 10
49.5540062696
 20
68.9381097179
 30
0.0
 11
49.5540062696
 21
68.9481097179
 31
0.0
  0
LINE
  5
BA
330
1F
100
AcDbEntity
  8
0
  6
Continuous
 62
     7
370
    25
100
AcDbLine
 10
50.0794593855
 20
60.0881097179
 30
0.0
 11
62.0040062696
 21
60.0881097178
 31
0.0
  0
LINE
  5
BB
330
1F
100
AcDbEntity
  8
0
  6
Continuous
 62
     7
370
    25
100
AcDbLine
 10
50.8396701413
 20
61.0828532958
 30
0.0
 11
50.0794593855
 21
60.0881097179
 31
0.0
  0
LINE
  5
BC
330
1F
100
AcDbEntity
  8
0
  6
Continuous
 62
     7
370
    25
100
AcDbLine
 10
49.3302040952
 20
68.0881097179
 30
0.0
 11
47.6020654313
 21
61.0828532958
 31
0.0
  0
LINE
  5
BD
330
1F
100
AcDbEntity
  8
0
  6
Continuous
 62
     7
370
    25
100
AcDbLine
 10
59.7930916023
 20
68.0881097178
 30
0.0
 11
49.3302040952
 21
68.0881097179
 31
0.0
  0
LINE
  5
BE
330
1F
100
AcDbEntity
  8
0
  6
Continuous
 62
     7
370
    25
100
AcDbLine
 10
52.5540062696
 20
52.0881097179
 30
0.0
 11
61.5540062696
 21
52.0881097179
 31
0.0
  0
LINE
  5
BF
330
1F
100
AcDbEntity
  8
0
  6
Continuous
 62
     7
370
    25
100
AcDbLine
 10
52.5540062696
 20
52.1259266417
 30
0.0
 11
52.5540062696
 21
52.0881097179
 31
0.0
  0
SPLINE
  5
C0
330
1F
100
AcDbEntity
  8
0
  6
Continuous
 62
     7
370
    25
100
AcDbSpline
210
0.0
220
0.0
230
1.0
 70
     8
 71
     3
 72
     9
 73
     5
 74
     0
 42
0.00000001
 43
0.00000001
 40
0.0
 40
0.0
 40
0.0
 40
0.0
 40
0.4875141023677128
 40
0.9999999999999999
 40
0.9999999999999999
 40
0.9999999999999999
 40
0.9999999999999999
 10
52.39806101916526
 20
52.0881097178684
 30
0.0
 10
52.42436759308785
 20
52.0898370638401
 30
0.0
 10
52.4783282350361
 20
52.09338023513158
 30
0.0
 10
52.52836376573085
 20
52.11489872108089
 30
0.0
 10
52.55400626959246
 20
52.12592664166831
 30
0.0
  0
SPLINE
  5
C1
330
1F
100
AcDbEntity
  8
0
  6
Continuous
 62
     7
370
    25
100
AcDbSpline
210
0.0
220
0.0
230
1.0
 70
     8
 71
     3
 72
    17
 73
    13
 74
     0
 42
0.00000001
 43
0.00000001
 40
0.0
 40
0.0
 40
0.0
 40
0.0
 40
0.3241697628029875
 40
0.542275846362072
 40
0.689509052693928
 40
0.7894036290694506
 40
0.8577090008137825
 40
0.9049823971474137
 40
0.9551712229700868
 40
0.9753097783197816
 40
0.9919572060138848
 40
1.0
 40
1.0
 40
1.0
 40
1.0
 10
50.0794593855103
 20
60.08810971786597
 30
0.0
 10
50.22217474552748
 20
59.17549621526029
 30
0.0
 10
50.46091105446946
 20
57.64886320899895
 30
0.0
 10
50.84049824892109
 20
55.72209030671797
 30
0.0
 10
51.14963245726818
 20
54.43445483578521
 30
0.0
 10
51.40574598546829
 20
53.57530286906346
 30
0.0
 10
51.62005698836329
 20
53.00183498068606
 30
0.0
 10
51.82329120939119
 20
52.5803028266561
 30
0.0
 10
52.0078364739338
 20
52.29981028386066
 30
0.0
 10
52.19390756030193
 20
52.14426161528001
 30
0.0
 10
52.30911815955785
 20
52.09365101608251
 30
0.0
 10
52.37620696503074
 20
52.08947126427788
 30
0.0
 10
52.39806101916526
 20
52.0881097178684
 30
0.0
  0
SPLINE
  5
C2
330
1F
100
AcDbEntity
  8
0
  6
Continuous
 62
     7
370
    25
100
AcDbSpline
210
0.0
220
0.0
230
1.0
 70
     8
 71
     3
 72
    14
 73
    10
 74
     0
 42
0.00000001
 43
0.00000001
 40
0.0
 40
0.0
 40
0.0
 40
0.0
 40
0.1576095309202821
 40
0.3152382602707094
 40
0.4726926441579496
 40
0.6301650083177253
 40
0.7907313191165902
 40
0.9513050385928076
 40
1.0
 40
1.0
 40
1.0
 40
1.0
 10
48.05400626959247
 20
52.08810971786833
 30
0.0
 10
47.98743525481044
 20
52.30161150634574
 30
0.0
 10
47.8542851162255
 20
52.72864108997125
 30
0.0
 10
47.5257181544748
 20
53.31388816882755
 30
0.0
 10
47.11232851374279
 20
53.83604270964999
 30
0.0
 10
46.61665359479814
 20
54.28502083706984
 30
0.0
 10
46.05036388951363
 20
54.64430256887623
 30
0.0
 10
45.57411323312061
 20
54.84886874797742
 30
0.0
 10
45.29391866492784
 20
54.92966329632871
 30
0.0
 10
45.22871988015481
 20
54.94846346937548
 30
0.0
  0
LINE
  5
C3
330
1F
100
AcDbEntity
  8
0
  6
Continuous
 62
     7
370
    25
100
AcDbLine
 10
45.2287198802
 20
54.9484634694
 30
0.0
 11
39.4489630303
 21
56.5170849099
 31
0.0
  0
SPLINE
  5
C4
330
1F
100
AcDbEntity
  8
0
  6
Continuous
 62
     7
370
    25
100
AcDbSpline
210
0.0
220
0.0
230
1.0
 70
     8
 71
     3
 72
    11
 73
     7
 74
     0
 42
0.00000001
 43
0.00000001
 40
0.0
 40
0.0
 40
0.0
 40
0.0
 40
0.248846635328936
 40
0.4976946020535205
 40
0.7488461225871278
 40
1.0
 40
1.0
 40
1.0
 40
1.0
 10
32.37856940805581
 20
57.84028541084388
 30
0.0
 10
32.97300545719207
 20
57.77076103435025
 30
0.0
 10
34.16188073585548
 20
57.63171190938908
 30
0.0
 10
35.93660540656452
 20
57.33138317126378
 30
0.0
 10
37.70318604830688
 20
56.96947355300865
 30
0.0
 10
38.86703554932657
 20
56.66788159594409
 30
0.0
 10
39.44896303029955
 20
56.51708490985836
 30
0.0
  0
LINE
  5
C5
330
1F
100
AcDbEntity
  8
0
  6
Continuous
 62
     7
370
    25
100
AcDbLine
 10
32.3785694081
 20
57.8402854108
 30
0.0
 11
32.3785694081
 21
61.0828532959
 31
0.0
  0
LINE
  5
C6
330
1F
100
AcDbEntity
  8
0
  6
Continuous
 62
     7
370
    25
100
AcDbLine
 10
32.3785694081
 20
61.0828532959
 30
0.0
 11
50.8396701413
 21
61.0828532958
 31
0.0
  0
LINE
  5
C7
330
1F
100
AcDbEntity
  8
0
  6
Continuous
 62
     7
370
    25
100
AcDbLine
 10
52.3980610192
 20
52.0881097179
 30
0.0
 11
48.0540062696
 21
52.0881097179
 31
0.0
  0
LINE
  5
C8
330
1F
100
AcDbEntity
  8
0
  6
Continuous
 62
     7
370
    25
100
AcDbLine
 10
52.5540062696
 20
52.1259266417
 30
0.0
 11
52.5472069117
 21
52.0881097179
 31
0.0
  0
LINE
  5
C9
330
1F
100
AcDbEntity
  8
0
  6
Continuous
 62
     7
370
    25
100
AcDbLine
 10
52.5540062696
 20
52.0881097179
 30
0.0
 11
52.5472069117
 21
52.0881097179
 31
0.0
  0
LINE
  5
CA
330
1F
100
AcDbEntity
  8
0
  6
Continuous
 62
     7
370
    25
100
AcDbLine
 10
52.5472069117
 20
52.0881097179
 30
0.0
 11
52.3980610192
 21
52.0881097179
 31
0.0
  0
LINE
  5
CB
330
1F
100
AcDbEntity
  8
0
  6
Continuous
 62
     7
370
    25
100
AcDbLine
 10
14.5540062696
 20
70.0881097179
 30
0.0
 11
32.3785694081
 21
70.0881097179
 31
0.0
  0
LINE
  5
CC
330
1F
100
AcDbEntity
  8
0
  6
Continuous
 62
     7
370
    25
100
AcDbLine
 10
32.3785694081
 20
70.0881097179
 30
0.0
 11
32.3785694081
 21
61.0828532959
 31
0.0
  0
LINE
  5
CD
330
1F
100
AcDbEntity
  8
0
  6
Continuous
 62
     7
370
    25
100
AcDbLine
 10
27.6623384118
 20
58.0881097179
 30
0.0
 11
19.5540062696
 21
58.0881097179
 31
0.0
  0
ARC
  5
CE
330
1F
100
AcDbEntity
  8
0
  6
Continuous
 62
     7
370
    25
100
AcDbCircle
 10
19.5540062696
 20
63.0881097179
 30
0.0
 40
4.999999999999998
100
AcDbArc
 50
180.0
 51
270.0
  0
LINE
  5
CF
330
1F
100
AcDbEntity
  8
0
  6
Continuous
 62
     7
370
    25
100
AcDbLine
 10
14.5540062696
 20
63.0881097179
 30
0.0
 11
14.5540062696
 21
70.0881097179
 31
0.0
  0
ARC
  5
D0
330
1F
100
AcDbEntity
  8
0
  6
Continuous
 62
     7
370
    25
100
AcDbCircle
 10
27.6623384118
 20
13.0879804637
 30
0.0
 40
45.00012925418374
100
AcDbArc
 50
83.9840777705
 51
90.0
  0
LINE
  5
D1
330
1F
100
AcDbEntity
  8
0
  6
Continuous
 62
     7
370
    25
100
AcDbLine
 10
32.3785694081
 20
70.0881097179
 30
0.0
 11
34.5540062696
 21
70.0881097179
 31
0.0
  0
LINE
  5
D2
330
1F
100
AcDbEntity
  8
0
  6
Continuous
 62
     7
370
    25
100
AcDbLine
 10
34.5540062696
 20
70.0881097179
 30
0.0
 11
34.5540062696
 21
68.1070652412
 31
0.0
  0
ARC
  5
D3
330
1F
100
AcDbEntity
  8
0
  6
Continuous
 62
     7
370
    25
100
AcDbCircle
 10
40.5540062696
 20
68.1070652412
 30
0.0
 40
6.000000000000003
100
AcDbArc
 50
180.0
 51
275.5801667845
  0
ARC
  5
D4
330
1F
100
AcDbEntity
  8
0
  6
Continuous
 62
     7
370
    25
100
AcDbCircle
 10
40.1650527053
 20
72.0881097179
 30
0.0
 40
10.00000000000847
100
AcDbArc
 50
275.5801667845
 51
336.4218215217
  0
LINE
  5
D5
330
1F
100
AcDbEntity
  8
0
  6
Continuous
 62
     7
370
    25
100
AcDbLine
 10
48.0540062696
 20
52.0881097179
 30
0.0
 11
47.5540062696
 21
52.0881097179
 31
0.0
  0
LINE
  5
D6
330
1F
100
AcDbEntity
  8
0
  6
Continuous
 62
     7
370
    25
100
AcDbLine
 10
49.3149209369
 20
68.0881097178
 30
0.0
 11
49.3302040952
 21
68.0881097179
 31
0.0
  0
LINE
  5
D7
330
1F
100
AcDbEntity
  8
0
  6
Continuous
 62
     7
370
    25
100
AcDbLine
 10
43.0540062696
 20
38.1531423326
 30
0.0
 11
43.0540062696
 21
33.0881097179
 31
0.0
  0
LINE
  5
D8
330
1F
100
AcDbEntity
  8
0
  6
Continuous
 62
     7
370
    25
100
AcDbLine
 10
43.0540062696
 20
50.0881097179
 30
0.0
 11
43.0540062696
 21
38.1531423326
 31
0.0
  0
LINE
  5
D9
330
1F
100
AcDbEntity
  8
0
  6
Continuous
 62
     7
370
    25
100
AcDbLine
 10
40.2540062696
 20
38.1531423326
 30
0.0
 11
40.2540062696
 21
33.0881097179
 31
0.0
  0
LINE
  5
DA
330
1F
100
AcDbEntity
  8
0
  6
Continuous
 62
     7
370
    25
100
AcDbLine
 10
40.2540062696
 20
50.0881097179
 30
0.0
 11
40.2540062696
 21
38.1531423326
 31
0.0
  0
LINE
  5
DB
330
1F
100
AcDbEntity
  8
0
  6
Continuous
 62
     7
370
    25
100
AcDbLine
 10
40.0540062696
 20
38.2339650946
 30
0.0
 11
40.0540062696
 21
49.8881097179
 31
0.0
  0
LINE
  5
DC
330
1F
100
AcDbEntity
  8
0
  6
Continuous
 62
     7
370
    25
100
AcDbLine
 10
40.0540062696
 20
33.2881097179
 30
0.0
 11
40.0540062696
 21
38.2339650946
 31
0.0
  0
SPLINE
  5
DD
330
1F
100
AcDbEntity
  8
0
  6
Continuous
 62
     7
370
    25
100
AcDbSpline
210
0.0
220
0.0
230
1.0
 70
     8
 71
     3
 72
    10
 73
     6
 74
     0
 42
0.00000001
 43
0.00000001
 40
0.0
 40
0.0
 40
0.0
 40
0.0
 40
0.5000000000000001
 40
0.5000000000000001
 40
1.0
 40
1.0
 40
1.0
 40
1.0
 10
49.93520411607545
 20
30.26583112312849
 30
0.0
 10
50.68588281557127
 20
30.0589010695958
 30
0.0
 10
51.45016375979392
 20
29.88709545922209
 30
0.0
 10
53.00473849388148
 20
29.65014495269072
 30
0.0
 10
53.78031346139761
 20
29.58810971786833
 30
0.0
 10
54.55400626959246
 20
29.58810971786833
 30
0.0
  0
LINE
  5
DE
330
1F
100
AcDbEntity
  8
0
  6
Continuous
 62
     7
370
    25
100
AcDbLine
 10
49.9352041161
 20
33.621713178
 30
0.0
 11
49.9352041161
 21
30.2658311231
 31
0.0
  0
SPLINE
  5
DF
330
1F
100
AcDbEntity
  8
0
  6
Continuous
 62
     7
370
    25
100
AcDbSpline
210
0.0
220
0.0
230
1.0
 70
     8
 71
     3
 72
     8
 73
     4
 74
     0
 42
0.00000001
 43
0.00000001
 40
0.0
 40
0.0
 40
0.0
 40
0.0
 40
1.0
 40
1.0
 40
1.0
 40
1.0
 10
49.93520411607544
 20
33.62171317801334
 30
0.0
 10
50.14038993861873
 20
33.67827414513756
 30
0.0
 10
50.34661313932604
 20
33.73221421655139
 30
0.0
 10
50.55400626959247
 20
33.78319850629435
 30
0.0
  0
LINE
  5
E0
330
1F
100
AcDbEntity
  8
0
  6
Continuous
 62
     7
370
    25
100
AcDbLine
 10
50.5540062696
 20
37.5881097179
 30
0.0
 11
48.0377701926
 21
37.5881097179
 31
0.0
  0
SPLINE
  5
E1
330
1F
100
AcDbEntity
  8
0
  6
Continuous
 62
     7
370
    25
100
AcDbSpline
210
0.0
220
0.0
230
1.0
 70
     8
 71
     3
 72
     8
 73
     4
 74
     0
 42
0.00000001
 43
0.00000001
 40
0.0
 40
0.0
 40
0.0
 40
0.0
 40
1.0
 40
1.0
 40
1.0
 40
1.0
 10
47.87628486433228
 20
36.9693075643513
 30
0.0
 10
47.93284823380051
 20
37.17450210186106
 30
0.0
 10
47.98678815662176
 20
37.38072575537822
 30
0.0
 10
48.03777019261329
 20
37.58810971786833
 30
0.0
  0
LINE
  5
E2
330
1F
100
AcDbEntity
  8
0
  6
Continuous
 62
     7
370
    25
100
AcDbLine
 10
43.7317276749
 20
36.9693075644
 30
0.0
 11
47.8762848643
 21
36.9693075644
 31
0.0
  0
SPLINE
  5
E3
330
1F
100
AcDbEntity
  8
0
  6
Continuous
 62
     7
370
    25
100
AcDbSpline
210
0.0
220
0.0
230
1.0
 70
     8
 71
     3
 72
    10
 73
     6
 74
     0
 42
0.00000001
 43
0.00000001
 40
0.0
 40
0.0
 40
0.0
 40
0.0
 40
0.5
 40
0.5
 40
1.0
 40
1.0
 40
1.0
 40
1.0
 10
43.73172767485265
 20
36.96930756435132
 30
0.0
 10
43.52365899862144
 20
37.72411683740061
 30
0.0
 10
43.3532599925969
 20
38.48486322463251
 30
0.0
 10
43.11810001289805
 20
40.02300560225577
 30
0.0
 10
43.05400626959246
 20
40.80050675478059
 30
0.0
 10
43.05400626959246
 20
41.58810971786833
 30
0.0
  0
SPLINE
  5
E4
330
1F
100
AcDbEntity
  8
0
  6
Continuous
 62
     7
370
    25
100
AcDbSpline
210
0.0
220
0.0
230
1.0
 70
     8
 71
     3
 72
    12
 73
     8
 74
     0
 42
0.00000001
 43
0.00000001
 40
0.0
 40
0.0
 40
0.0
 40
0.0
 40
0.2500000000000001
 40
0.2500000000000001
 40
0.5000000000000001
 40
0.5000000000000001
 40
1.0
 40
1.0
 40
1.0
 40
1.0
 10
43.05400626959246
 20
41.58810971786833
 30
0.0
 10
43.05400626959246
 20
41.98242779854017
 30
0.0
 10
43.07000507457354
 20
42.37608684249061
 30
0.0
 10
43.13177521288792
 20
43.15562284203595
 30
0.0
 10
43.17751733718953
 20
43.54257603016137
 30
0.0
 10
43.35418748453638
 20
44.69596259301537
 30
0.0
 10
43.52444255001667
 20
45.45494508222041
 30
0.0
 10
43.73172767485266
 20
46.20691187138534
 30
0.0
  0
LINE
  5
E5
330
1F
100
AcDbEntity
  8
0
  6
Continuous
 62
     7
370
    25
100
AcDbLine
 10
47.8762848643
 20
46.2069118714
 30
0.0
 11
43.7317276749
 21
46.2069118714
 31
0.0
  0
SPLINE
  5
E6
330
1F
100
AcDbEntity
  8
0
  6
Continuous
 62
     7
370
    25
100
AcDbSpline
210
0.0
220
0.0
230
1.0
 70
     8
 71
     3
 72
     8
 73
     4
 74
     0
 42
0.00000001
 43
0.00000001
 40
0.0
 40
0.0
 40
0.0
 40
0.0
 40
1.0
 40
1.0
 40
1.0
 40
1.0
 10
48.03777019261329
 20
45.58810971786833
 30
0.0
 10
47.98687147569077
 20
45.79515475629733
 30
0.0
 10
47.93293733944001
 20
46.00139408597396
 30
0.0
 10
47.87628486433227
 20
46.20691187138534
 30
0.0
  0
SPLINE
  5
E7
330
1F
100
AcDbEntity
  8
0
  6
Continuous
 62
     7
370
    25
100
AcDbSpline
210
0.0
220
0.0
230
1.0
 70
     8
 71
     3
 72
     8
 73
     4
 74
     0
 42
0.00000001
 43
0.00000001
 40
0.0
 40
0.0
 40
0.0
 40
0.0
 40
1.0
 40
1.0
 40
1.0
 40
1.0
 10
61.07024234657166
 20
45.5881097178684
 30
0.0
 10
61.12113857982673
 20
45.79514465327216
 30
0.0
 10
61.17507253479038
 20
46.00138441833715
 30
0.0
 10
61.23172767485266
 20
46.20691187138535
 30
0.0
  0
LINE
  5
E8
330
1F
100
AcDbEntity
  8
0
  6
Continuous
 62
     7
370
    25
100
AcDbLine
 10
65.731947297
 20
46.2069118714
 30
0.0
 11
61.2317276749
 21
46.2069118714
 31
0.0
  0
SPLINE
  5
E9
330
1F
100
AcDbEntity
  8
0
  6
Continuous
 62
     7
370
    25
100
AcDbSpline
210
0.0
220
0.0
230
1.0
 70
     8
 71
     3
 72
    14
 73
    10
 74
     0
 42
0.00000001
 43
0.00000001
 40
0.0
 40
0.0
 40
0.0
 40
0.0
 40
0.25
 40
0.25
 40
0.5
 40
0.5
 40
0.75
 40
0.75
 40
1.0
 40
1.0
 40
1.0
 40
1.0
 10
65.73194729703488
 20
36.96930756435128
 30
0.0
 10
65.93989765774064
 20
37.72368762500126
 30
0.0
 10
66.11211946642952
 20
38.49312879246676
 30
0.0
 10
66.34675458918042
 20
40.03364015340792
 30
0.0
 10
66.4096986478081
 20
40.80849453341494
 30
0.0
 10
66.40963873507663
 20
42.3688554883005
 30
0.0
 10
66.34502406878453
 20
43.15931168108553
 30
0.0
 10
66.1084647293833
 20
44.70159134389399
 30
0.0
 10
65.93811958930385
 20
45.45898209709518
 30
0.0
 10
65.73194729703486
 20
46.20691187138534
 30
0.0
  0
LINE
  5
EA
330
1F
100
AcDbEntity
  8
0
  6
Continuous
 62
     7
370
    25
100
AcDbLine
 10
61.2317276749
 20
36.9693075644
 30
0.0
 11
65.731947297
 21
36.9693075644
 31
0.0
  0
SPLINE
  5
EB
330
1F
100
AcDbEntity
  8
0
  6
Continuous
 62
     7
370
    25
100
AcDbSpline
210
0.0
220
0.0
230
1.0
 70
     8
 71
     3
 72
     8
 73
     4
 74
     0
 42
0.00000001
 43
0.00000001
 40
0.0
 40
0.0
 40
0.0
 40
0.0
 40
1.0
 40
1.0
 40
1.0
 40
1.0
 10
61.23172767485264
 20
36.9693075643513
 30
0.0
 10
61.1751658314157
 20
37.17449656588811
 30
0.0
 10
61.12122581415932
 20
37.38071993195281
 30
0.0
 10
61.07024234657165
 20
37.58810971786827
 30
0.0
  0
LINE
  5
EC
330
1F
100
AcDbEntity
  8
0
  6
Continuous
 62
     7
370
    25
100
AcDbLine
 10
61.0702423466
 20
37.5881097179
 30
0.0
 11
58.5540062696
 21
37.5881097179
 31
0.0
  0
LINE
  5
ED
330
1F
100
AcDbEntity
  8
0
  6
Continuous
 62
     7
370
    25
100
AcDbLine
 10
58.5540062696
 20
33.7831985063
 30
0.0
 11
58.5540062696
 21
37.5881097179
 31
0.0
  0
SPLINE
  5
EE
330
1F
100
AcDbEntity
  8
0
  6
Continuous
 62
     7
370
    25
100
AcDbSpline
210
0.0
220
0.0
230
1.0
 70
     8
 71
     3
 72
     8
 73
     4
 74
     0
 42
0.00000001
 43
0.00000001
 40
0.0
 40
0.0
 40
0.0
 40
0.0
 40
1.0
 40
1.0
 40
1.0
 40
1.0
 10
58.55400626959246
 20
33.78319850629435
 30
0.0
 10
58.76103533292785
 20
33.73230371659353
 30
0.0
 10
58.96727535019721
 20
33.67836986723209
 30
0.0
 10
59.17280842310947
 20
33.62171317801333
 30
0.0
  0
LINE
  5
EF
330
1F
100
AcDbEntity
  8
0
  6
Continuous
 62
     7
370
    25
100
AcDbLine
 10
59.1728084231
 20
30.2658311231
 30
0.0
 11
59.1728084231
 21
33.621713178
 31
0.0
  0
SPLINE
  5
F0
330
1F
100
AcDbEntity
  8
0
  6
Continuous
 62
     7
370
    25
100
AcDbSpline
210
0.0
220
0.0
230
1.0
 70
     8
 71
     3
 72
    10
 73
     6
 74
     0
 42
0.00000001
 43
0.00000001
 40
0.0
 40
0.0
 40
0.0
 40
0.0
 40
0.5
 40
0.5
 40
1.0
 40
1.0
 40
1.0
 40
1.0
 10
54.55400626959246
 20
29.58810971786833
 30
0.0
 10
55.32958620619943
 20
29.58810971786833
 30
0.0
 10
56.10327642492584
 20
29.65039407984685
 30
0.0
 10
57.64731096725873
 20
29.88524219785388
 30
0.0
 10
58.42061964341355
 20
30.05848480498507
 30
0.0
 10
59.17280842310947
 20
30.26583112312852
 30
0.0
  0
ARC
  5
F1
330
1F
100
AcDbEntity
  8
0
  6
Continuous
 62
     7
370
    25
100
AcDbCircle
 10
56.1047376253
 20
41.0111907246
 30
0.0
 40
0.8890000000000019
100
AcDbArc
 50
45.0
 51
315.0
  0
LINE
  5
F2
330
1F
100
AcDbEntity
  8
0
  6
Continuous
 62
     7
370
    25
100
AcDbLine
 10
56.7333555538
 20
41.639808653
 30
0.0
 11
57.1999659394
 21
42.1064190387
 31
0.0
  0
ARC
  5
F3
330
1F
100
AcDbEntity
  8
0
  6
Continuous
 62
     7
370
    25
100
AcDbCircle
 10
56.1047376253
 20
41.0111907246
 30
0.0
 40
1.548886735692399
100
AcDbArc
 50
45.0
 51
315.0
  0
LINE
  5
F4
330
1F
100
AcDbEntity
  8
0
  6
Continuous
 62
     7
370
    25
100
AcDbLine
 10
57.1999659394
 20
39.9159624105
 30
0.0
 11
56.7333555538
 21
40.3825727961
 31
0.0
  0
ARC
  5
F5
330
1F
100
AcDbEntity
  8
0
  6
Continuous
 62
     7
370
    25
100
AcDbCircle
 10
59.4468822217
 20
41.0111907246
 30
0.0
 40
0.8889999999999868
100
AcDbArc
 50
45.0
 51
159.0751675724
  0
LINE
  5
F6
330
1F
100
AcDbEntity
  8
0
  6
Continuous
 62
     7
370
    25
100
AcDbLine
 10
60.0755001501
 20
41.639808653
 30
0.0
 11
60.5421105358
 21
42.1064190387
 31
0.0
  0
ARC
  5
F7
330
1F
100
AcDbEntity
  8
0
  6
Continuous
 62
     7
370
    25
100
AcDbCircle
 10
59.4468822217
 20
41.0111907246
 30
0.0
 40
1.548886735692379
100
AcDbArc
 50
45.0
 51
315.0
  0
LINE
  5
F8
330
1F
100
AcDbEntity
  8
0
  6
Continuous
 62
     7
370
    25
100
AcDbLine
 10
60.5421105358
 20
39.9159624105
 30
0.0
 11
60.0755001501
 21
40.3825727961
 31
0.0
  0
ARC
  5
F9
330
1F
100
AcDbEntity
  8
0
  6
Continuous
 62
     7
370
    25
100
AcDbCircle
 10
59.4468822217
 20
41.0111907246
 30
0.0
 40
0.8890000000000073
100
AcDbArc
 50
200.9248324276
 51
315.0
  0
LINE
  5
FA
330
1F
100
AcDbEntity
  8
0
  6
Continuous
 62
     7
370
    25
100
AcDbLine
 10
58.6165119729
 20
40.6936907246
 30
0.0
 11
60.5421105358
 21
40.6936907246
 31
0.0
  0
LINE
  5
FB
330
1F
100
AcDbEntity
  8
0
  6
Continuous
 62
     7
370
    25
100
AcDbLine
 10
60.5421105358
 20
40.6936907246
 30
0.0
 11
60.5421105358
 21
41.3286907246
 31
0.0
  0
LINE
  5
FC
330
1F
100
AcDbEntity
  8
0
  6
Continuous
 62
     7
370
    25
100
AcDbLine
 10
60.5421105358
 20
41.3286907246
 30
0.0
 11
58.6165119729
 21
41.3286907246
 31
0.0
  0
LINE
  5
FD
330
1F
100
AcDbEntity
  8
0
  6
Continuous
 62
     7
370
    25
100
AcDbLine
 10
53.6522473556
 20
40.1657367003
 30
0.0
 11
53.6105970363
 21
40.1419317704
 31
0.0
  0
ELLIPSE
  5
FE
330
1F
100
AcDbEntity
  8
0
  6
Continuous
 62
     7
370
    25
100
AcDbEllipse
 10
53.2617538568
 20
40.6966142416
 30
0.0
 11
0.6784129479252599
 21
6.110667527536862E-13
 31
0.0
210
0.0
220
0.0
230
1.0
 40
0.9533039403
 41
3.470145824140275
 42
5.2524691805363
  0
LINE
  5
FF
330
1F
100
AcDbEntity
  8
0
  6
Continuous
 62
     7
370
    25
100
AcDbLine
 10
52.6196290898
 20
40.4879301267
 30
0.0
 11
51.3599748849
 21
44.0103745233
 31
0.0
  0
ELLIPSE
  5
100
330
1F
100
AcDbEntity
  8
0
  6
Continuous
 62
     7
370
    25
100
AcDbEllipse
 10
50.7689923269
 20
43.7480352873
 30
0.0
 11
0.6519124952381503
 21
6.110667527536862E-13
 31
0.0
210
0.0
220
0.0
230
1.0
 40
0.9533023292
 41
0.4357905044354821
 42
2.70580011636152
  0
LINE
  5
101
330
1F
100
AcDbEntity
  8
0
  6
Continuous
 62
     7
370
    25
100
AcDbLine
 10
50.1780103284
 20
44.0103756686
 30
0.0
 11
48.9186455268
 21
40.4887522669
 31
0.0
  0
ELLIPSE
  5
102
330
1F
100
AcDbEntity
  8
0
  6
Continuous
 62
     7
370
    25
100
AcDbEllipse
 10
48.2765243428
 20
40.6974351005
 30
0.0
 11
-0.6784085062757725
 21
3.268496584496461E-13
 31
0.0
210
0.0
220
0.0
230
1.0
 40
0.9533122623
 41
1.047193771187948
 42
2.813042320199945
  0
LINE
  5
103
330
1F
100
AcDbEntity
  8
0
  6
Continuous
 62
     7
370
    25
100
AcDbLine
 10
47.9373178688
 20
40.1373472553
 30
0.0
 11
47.8857372983
 21
40.1657367003
 31
0.0
  0
LINE
  5
104
330
1F
100
AcDbEntity
  8
0
  6
Continuous
 62
     7
370
    25
100
AcDbLine
 10
47.8857372983
 20
40.1657367003
 30
0.0
 11
48.6820059578
 21
38.6475645989
 31
0.0
  0
ELLIPSE
  5
105
330
1F
100
AcDbEntity
  8
0
  6
Continuous
 62
     7
370
    25
100
AcDbEllipse
 10
48.7578548312
 20
38.6837181138
 30
0.0
 11
0.08480161849065126
 21
-2.131628207280301E-14
 31
0.0
210
0.0
220
0.0
230
1.0
 40
0.9533039403
 41
3.605240262590831
 42
5.462183310215399
  0
ELLIPSE
  5
106
330
1F
100
AcDbEntity
  8
0
  6
Continuous
 62
     7
370
    25
100
AcDbEllipse
 10
50.7689923269
 20
36.6248694933
 30
0.0
 11
2.866293551216202
 21
-1.492139745096210E-12
 31
0.0
210
0.0
220
0.0
230
1.0
 40
0.9533046568
 41
0.8210016221243784
 42
2.320591031466444
  0
ELLIPSE
  5
107
330
1F
100
AcDbEntity
  8
0
  6
Continuous
 62
     7
370
    25
100
AcDbEllipse
 10
52.7801298227
 20
38.6837181138
 30
0.0
 11
0.08480161849060863
 21
-7.105427357601002E-15
 31
0.0
210
0.0
220
0.0
230
1.0
 40
0.9533039403
 41
3.962594650556593
 42
5.81953769817726
  0
LINE
  5
108
330
1F
100
AcDbEntity
  8
0
  6
Continuous
 62
     7
370
    25
100
AcDbLine
 10
52.8559786961
 20
38.6475645989
 30
0.0
 11
53.6522473556
 21
40.1657367003
 31
0.0
  0
LINE
  5
109
330
1F
100
AcDbEntity
  8
0
  6
Continuous
 62
     7
370
    25
100
AcDbLine
 10
50.5540062696
 20
33.7831985063
 30
0.0
 11
50.5540062696
 21
37.5881097179
 31
0.0
  0
LINE
  5
10A
330
1F
100
AcDbEntity
  8
0
  6
Continuous
 62
     7
370
    25
100
AcDbLine
 10
61.0702423466
 20
45.5881097179
 30
0.0
 11
48.0377701926
 21
45.5881097179
 31
0.0
  0
LINE
  5
10B
330
1F
100
AcDbEntity
  8
0
  6
Continuous
 62
     7
370
    25
100
AcDbLine
 10
48.5540062696
 20
48.94932565
 30
0.0
 11
48.5540062696
 21
45.5881097179
 31
0.0
  0
SPLINE
  5
10C
330
1F
100
AcDbEntity
  8
0
  6
Continuous
 62
     7
370
    25
100
AcDbSpline
210
0.0
220
0.0
230
1.0
 70
     8
 71
     3
 72
    10
 73
     6
 74
     0
 42
0.00000001
 43
0.00000001
 40
0.0
 40
0.0
 40
0.0
 40
0.0
 40
0.5
 40
0.5
 40
1.0
 40
1.0
 40
1.0
 40
1.0
 10
47.87628486433228
 20
46.63992457327756
 30
0.0
 10
47.85260946990789
 20
46.59698104237633
 30
0.0
 10
47.83951836002324
 20
46.53353859775221
 30
0.0
 10
47.83943203873496
 20
46.38105976063324
 30
0.0
 10
47.85260097267881
 20
46.29282975852597
 30
0.0
 10
47.87628486433227
 20
46.20691187138534
 30
0.0
  0
SPLINE
  5
10D
330
1F
100
AcDbEntity
  8
0
  6
Continuous
 62
     7
370
    25
100
AcDbSpline
210
0.0
220
0.0
230
1.0
 70
     8
 71
     3
 72
    12
 73
     8
 74
     0
 42
0.00000001
 43
0.00000001
 40
0.0
 40
0.0
 40
0.0
 40
0.0
 40
0.2500000000000001
 40
0.2500000000000001
 40
0.5000000000000002
 40
0.5000000000000002
 40
1.0
 40
1.0
 40
1.0
 40
1.0
 10
48.55400626959247
 20
48.94932565003606
 30
0.0
 10
48.55400626959247
 20
48.75358338715655
 30
0.0
 10
48.53816333350351
 20
48.55691677796599
 30
0.0
 10
48.47666047326584
 20
48.1676485506377
 30
0.0
 10
48.43105683222215
 20
47.97424451768479
 30
0.0
 10
48.25460581473294
 20
47.39731546642803
 30
0.0
 10
48.08420844748108
 20
47.01706603322502
 30
0.0
 10
47.87628486433228
 20
46.63992457327756
 30
0.0
  0
SPLINE
  5
10E
330
1F
100
AcDbEntity
  8
0
  6
Continuous
 62
     7
370
    25
100
AcDbSpline
210
0.0
220
0.0
230
1.0
 70
     8
 71
     3
 72
    10
 73
     6
 74
     0
 42
0.00000001
 43
0.00000001
 40
0.0
 40
0.0
 40
0.0
 40
0.0
 40
0.5
 40
0.5
 40
1.0
 40
1.0
 40
1.0
 40
1.0
 10
43.73172767485266
 20
46.63992457327756
 30
0.0
 10
43.75539991476422
 20
46.59698676417833
 30
0.0
 10
43.76849390469948
 20
46.53354617428612
 30
0.0
 10
43.76858077216092
 20
46.38105702877728
 30
0.0
 10
43.75541098240156
 20
46.29282763957397
 30
0.0
 10
43.73172767485266
 20
46.20691187138534
 30
0.0
  0
LINE
  5
10F
330
1F
100
AcDbEntity
  8
0
  6
Continuous
 62
     7
370
    25
100
AcDbLine
 10
43.7317276749
 20
46.6399245733
 30
0.0
 11
47.8762848643
 21
46.6399245733
 31
0.0
  0
SPLINE
  5
110
330
1F
100
AcDbEntity
  8
0
  6
Continuous
 62
     7
370
    25
100
AcDbSpline
210
0.0
220
0.0
230
1.0
 70
     8
 71
     3
 72
    10
 73
     6
 74
     0
 42
0.00000001
 43
0.00000001
 40
0.0
 40
0.0
 40
0.0
 40
0.0
 40
0.5
 40
0.5
 40
1.0
 40
1.0
 40
1.0
 40
1.0
 10
47.87628486433221
 20
36.96930756435133
 30
0.0
 10
47.85260946990783
 20
36.88342050254887
 30
0.0
 10
47.83951836002324
 20
36.79601329356874
 30
0.0
 10
47.83943203873497
 20
36.643376850975
 30
0.0
 10
47.85260097267881
 20
36.57925380602941
 30
0.0
 10
47.87628486433227
 20
36.53629486245911
 30
0.0
  0
LINE
  5
111
330
1F
100
AcDbEntity
  8
0
  6
Continuous
 62
     7
370
    25
100
AcDbLine
 10
47.8762848643
 20
36.5362948625
 30
0.0
 11
43.7317276749
 21
36.5362948625
 31
0.0
  0
SPLINE
  5
112
330
1F
100
AcDbEntity
  8
0
  6
Continuous
 62
     7
370
    25
100
AcDbSpline
210
0.0
220
0.0
230
1.0
 70
     8
 71
     3
 72
    10
 73
     6
 74
     0
 42
0.00000001
 43
0.00000001
 40
0.0
 40
0.0
 40
0.0
 40
0.0
 40
0.5
 40
0.5
 40
1.0
 40
1.0
 40
1.0
 40
1.0
 10
43.73172767485266
 20
36.96930756435132
 30
0.0
 10
43.75540157540861
 20
36.88342592184486
 30
0.0
 10
43.76849413258775
 20
36.79601671587943
 30
0.0
 10
43.76858054657003
 20
36.6433742308045
 30
0.0
 10
43.75541015497141
 20
36.57925124572213
 30
0.0
 10
43.73172767485266
 20
36.53629486245911
 30
0.0
  0
SPLINE
  5
113
330
1F
100
AcDbEntity
  8
0
  6
Continuous
 62
     7
370
    25
100
AcDbSpline
210
0.0
220
0.0
230
1.0
 70
     8
 71
     3
 72
    10
 73
     6
 74
     0
 42
0.00000001
 43
0.00000001
 40
0.0
 40
0.0
 40
0.0
 40
0.0
 40
0.5
 40
0.5
 40
1.0
 40
1.0
 40
1.0
 40
1.0
 10
59.17280842310947
 20
33.62171317801331
 30
0.0
 10
59.25869548491202
 20
33.5980377835889
 30
0.0
 10
59.34610269389223
 20
33.58494667370427
 30
0.0
 10
59.49873913648609
 20
33.58486035241605
 30
0.0
 10
59.56286218143185
 20
33.59802928636
 30
0.0
 10
59.60582112500208
 20
33.62171317801354
 30
0.0
  0
LINE
  5
114
330
1F
100
AcDbEntity
  8
0
  6
Continuous
 62
     7
370
    25
100
AcDbLine
 10
59.605821125
 20
33.621713178
 30
0.0
 11
59.605821125
 21
30.2658311231
 31
0.0
  0
SPLINE
  5
115
330
1F
100
AcDbEntity
  8
0
  6
Continuous
 62
     7
370
    25
100
AcDbSpline
210
0.0
220
0.0
230
1.0
 70
     8
 71
     3
 72
    10
 73
     6
 74
     0
 42
0.00000001
 43
0.00000001
 40
0.0
 40
0.0
 40
0.0
 40
0.0
 40
0.5
 40
0.5
 40
1.0
 40
1.0
 40
1.0
 40
1.0
 10
59.17280842310947
 20
30.26583112312852
 30
0.0
 10
59.25869006561592
 20
30.28950502368447
 30
0.0
 10
59.34609927158136
 20
30.30259758086362
 30
0.0
 10
59.49874175665629
 20
30.3026839948459
 30
0.0
 10
59.56286474173866
 20
30.28951360324727
 30
0.0
 10
59.60582112500169
 20
30.26583112312852
 30
0.0
  0
LINE
  5
116
330
1F
100
AcDbEntity
  8
0
  6
Continuous
 62
     7
370
    25
100
AcDbLine
 10
47.1927903374
 20
29.5881097179
 30
0.0
 11
54.5540062696
 21
29.5881097179
 31
0.0
  0
SPLINE
  5
117
330
1F
100
AcDbEntity
  8
0
  6
Continuous
 62
     7
370
    25
100
AcDbSpline
210
0.0
220
0.0
230
1.0
 70
     8
 71
     3
 72
    10
 73
     6
 74
     0
 42
0.00000001
 43
0.00000001
 40
0.0
 40
0.0
 40
0.0
 40
0.0
 40
0.5
 40
0.5
 40
1.0
 40
1.0
 40
1.0
 40
1.0
 10
49.50219141418327
 20
30.26583112312806
 30
0.0
 10
49.12344226679198
 20
30.0570211984618
 30
0.0
 10
48.74223699038068
 20
29.88648705871454
 30
0.0
 10
47.97300636919289
 20
29.65170125369562
 30
0.0
 10
47.58493866439458
 20
29.58810971786833
 30
0.0
 10
47.19279033742474
 20
29.58810971786833
 30
0.0
  0
SPLINE
  5
118
330
1F
100
AcDbEntity
  8
0
  6
Continuous
 62
     7
370
    25
100
AcDbSpline
210
0.0
220
0.0
230
1.0
 70
     8
 71
     3
 72
    10
 73
     6
 74
     0
 42
0.00000001
 43
0.00000001
 40
0.0
 40
0.0
 40
0.0
 40
0.0
 40
0.5
 40
0.5
 40
1.0
 40
1.0
 40
1.0
 40
1.0
 10
49.50219141418324
 20
30.26583112312852
 30
0.0
 10
49.54512922328247
 20
30.28950336304009
 30
0.0
 10
49.60856981317468
 20
30.30259735297534
 30
0.0
 10
49.76105895868351
 20
30.30268422043679
 30
0.0
 10
49.84928834788683
 20
30.28951443067743
 30
0.0
 10
49.93520411607546
 20
30.26583112312852
 30
0.0
  0
SPLINE
  5
119
330
1F
100
AcDbEntity
  8
0
  6
Continuous
 62
     7
370
    25
100
AcDbSpline
210
0.0
220
0.0
230
1.0
 70
     8
 71
     3
 72
     8
 73
     4
 74
     0
 42
0.00000001
 43
0.00000001
 40
0.0
 40
0.0
 40
0.0
 40
0.0
 40
1.0
 40
1.0
 40
1.0
 40
1.0
 10
60.89656822840633
 20
34.58810971786833
 30
0.0
 10
61.21904755525561
 20
34.49639543013387
 30
0.0
 10
61.53436531157958
 20
34.39973864106597
 30
0.0
 10
61.84338245422708
 20
34.29873353323372
 30
0.0
  0
SPLINE
  5
11A
330
1F
100
AcDbEntity
  8
0
  6
Continuous
 62
     7
370
    25
100
AcDbSpline
210
0.0
220
0.0
230
1.0
 70
     8
 71
     3
 72
    10
 73
     6
 74
     0
 42
0.00000001
 43
0.00000001
 40
0.0
 40
0.0
 40
0.0
 40
0.0
 40
0.5
 40
0.5
 40
1.0
 40
1.0
 40
1.0
 40
1.0
 10
59.60582112500197
 20
33.62171317801349
 30
0.0
 10
59.97233907184251
 20
33.8237798635644
 30
0.0
 10
60.34141929730833
 20
33.99017263583505
 30
0.0
 10
61.08667164553573
 20
34.22421960970511
 30
0.0
 10
61.46288441748349
 20
34.29130786366393
 30
0.0
 10
61.84338245422708
 20
34.29873353323372
 30
0.0
  0
LINE
  5
11B
330
1F
100
AcDbEntity
  8
0
  6
Continuous
 62
     7
370
    25
100
AcDbLine
 10
65.731947297
 20
36.5362948625
 30
0.0
 11
61.2317276749
 21
36.5362948625
 31
0.0
  0
SPLINE
  5
11C
330
1F
100
AcDbEntity
  8
0
  6
Continuous
 62
     7
370
    25
100
AcDbSpline
210
0.0
220
0.0
230
1.0
 70
     8
 71
     3
 72
    10
 73
     6
 74
     0
 42
0.00000001
 43
0.00000001
 40
0.0
 40
0.0
 40
0.0
 40
0.0
 40
0.5
 40
0.5
 40
1.0
 40
1.0
 40
1.0
 40
1.0
 10
61.23172767484939
 20
36.53629486245911
 30
0.0
 10
61.25540306927374
 20
36.57923839336026
 30
0.0
 10
61.26849417916165
 20
36.64268083798405
 30
0.0
 10
61.26858050045001
 20
36.79515967510314
 30
0.0
 10
61.25541156650616
 20
36.88338967721057
 30
0.0
 10
61.23172767485266
 20
36.96930756435132
 30
0.0
  0
SPLINE
  5
11D
330
1F
100
AcDbEntity
  8
0
  6
Continuous
 62
     7
370
    25
100
AcDbSpline
210
0.0
220
0.0
230
1.0
 70
     8
 71
     3
 72
    10
 73
     6
 74
     0
 42
0.00000001
 43
0.00000001
 40
0.0
 40
0.0
 40
0.0
 40
0.0
 40
0.5
 40
0.5
 40
1.0
 40
1.0
 40
1.0
 40
1.0
 10
65.73194729703474
 20
36.96930756435133
 30
0.0
 10
65.70827190261036
 20
36.88342050254887
 30
0.0
 10
65.69518079272584
 20
36.79601329356873
 30
0.0
 10
65.69509447143757
 20
36.643376850975
 30
0.0
 10
65.7082634053814
 20
36.57925380602941
 30
0.0
 10
65.73194729703486
 20
36.53629486245911
 30
0.0
  0
SPLINE
  5
11E
330
1F
100
AcDbEntity
  8
0
  6
Continuous
 62
     7
370
    25
100
AcDbSpline
210
0.0
220
0.0
230
1.0
 70
     8
 71
     3
 72
    10
 73
     6
 74
     0
 42
0.00000001
 43
0.00000001
 40
0.0
 40
0.0
 40
0.0
 40
0.0
 40
0.5
 40
0.5
 40
1.0
 40
1.0
 40
1.0
 40
1.0
 10
61.23172767485267
 20
46.20691187138534
 30
0.0
 10
61.25540306927706
 20
46.2927989331878
 30
0.0
 10
61.26849417916169
 20
46.3802061421679
 30
0.0
 10
61.26858050044997
 20
46.53284258476163
 30
0.0
 10
61.25541156650613
 20
46.59696562970721
 30
0.0
 10
61.23172767485267
 20
46.63992457327753
 30
0.0
  0
LINE
  5
11F
330
1F
100
AcDbEntity
  8
0
  6
Continuous
 62
     7
370
    25
100
AcDbLine
 10
61.2317276749
 20
46.6399245733
 30
0.0
 11
65.731947297
 21
46.6399245733
 31
0.0
  0
SPLINE
  5
120
330
1F
100
AcDbEntity
  8
0
  6
Continuous
 62
     7
370
    25
100
AcDbSpline
210
0.0
220
0.0
230
1.0
 70
     8
 71
     3
 72
    10
 73
     6
 74
     0
 42
0.00000001
 43
0.00000001
 40
0.0
 40
0.0
 40
0.0
 40
0.0
 40
0.5
 40
0.5
 40
1.0
 40
1.0
 40
1.0
 40
1.0
 10
65.73194729703486
 20
46.63992457327756
 30
0.0
 10
65.70827190261048
 20
46.59698104237633
 30
0.0
 10
65.69518079272584
 20
46.53353859775221
 30
0.0
 10
65.69509447143757
 20
46.38105976063324
 30
0.0
 10
65.7082634053814
 20
46.29282975852596
 30
0.0
 10
65.73194729703486
 20
46.20691187138534
 30
0.0
  0
SPLINE
  5
121
330
1F
100
AcDbEntity
  8
0
  6
Continuous
 62
     7
370
    25
100
AcDbSpline
210
0.0
220
0.0
230
1.0
 70
     8
 71
     3
 72
    12
 73
     8
 74
     0
 42
0.00000001
 43
0.00000001
 40
0.0
 40
0.0
 40
0.0
 40
0.0
 40
0.2499999999999999
 40
0.2499999999999999
 40
0.4999999999999998
 40
0.4999999999999998
 40
1.0
 40
1.0
 40
1.0
 40
1.0
 10
43.05400626959246
 20
34.2268937857006
 30
0.0
 10
43.05400626959246
 20
34.42189726570639
 30
0.0
 10
43.06975259961443
 20
34.61843192473081
 30
0.0
 10
43.13119762419986
 20
35.00785161233635
 30
0.0
 10
43.17678638345358
 20
35.20133630539662
 30
0.0
 10
43.35323738571018
 20
35.77851990415222
 30
0.0
 10
43.52369508767367
 20
36.15895568593518
 30
0.0
 10
43.73172767485251
 20
36.53629486245912
 30
0.0
  0
LINE
  5
122
330
1F
100
AcDbEntity
  8
0
  6
Continuous
 62
     7
370
    25
100
AcDbLine
 10
43.0540062696
 20
41.5881097179
 30
0.0
 11
43.0540062696
 21
34.2268937857
 31
0.0
  0
SPLINE
  5
123
330
1F
100
AcDbEntity
  8
0
  6
Continuous
 62
     7
370
    25
100
AcDbSpline
210
0.0
220
0.0
230
1.0
 70
     8
 71
     3
 72
    10
 73
     6
 74
     0
 42
0.00000001
 43
0.00000001
 40
0.0
 40
0.0
 40
0.0
 40
0.0
 40
0.5
 40
0.5
 40
1.0
 40
1.0
 40
1.0
 40
1.0
 10
43.73172767485219
 20
46.63992457327753
 30
0.0
 10
43.52291775018593
 20
47.01867372066882
 30
0.0
 10
43.35238361043868
 20
47.39987899708012
 30
0.0
 10
43.11759780541976
 20
48.1691096182679
 30
0.0
 10
43.05400626959246
 20
48.55717732306623
 30
0.0
 10
43.05400626959246
 20
48.94932565003606
 30
0.0
  0
LINE
  5
124
330
1F
100
AcDbEntity
  8
0
  6
Continuous
 62
     7
370
    25
100
AcDbLine
 10
43.0540062696
 20
41.5881097179
 30
0.0
 11
43.0540062696
 21
48.94932565
 31
0.0
  0
SPLINE
  5
125
330
1F
100
AcDbEntity
  8
0
  6
Continuous
 62
     7
370
    25
100
AcDbSpline
210
0.0
220
0.0
230
1.0
 70
     8
 71
     3
 72
     8
 73
     4
 74
     0
 42
0.00000001
 43
0.00000001
 40
0.0
 40
0.0
 40
0.0
 40
0.0
 40
1.0
 40
1.0
 40
1.0
 40
1.0
 10
60.67538976108862
 20
35.17798818454309
 30
0.0
 10
60.63427448544736
 20
35.31401857903263
 30
0.0
 10
60.59378550257951
 20
35.45072264367007
 30
0.0
 10
60.55400626959247
 20
35.58810971786833
 30
0.0
  0
LINE
  5
126
330
1F
100
AcDbEntity
  8
0
  6
Continuous
 62
     7
370
    25
100
AcDbLine
 10
60.5540062696
 20
37.5881097179
 30
0.0
 11
60.5540062696
 21
35.5881097179
 31
0.0
  0
SPLINE
  5
127
330
1F
100
AcDbEntity
  8
0
  6
Continuous
 62
     7
370
    25
100
AcDbSpline
210
0.0
220
0.0
230
1.0
 70
     8
 71
     3
 72
     8
 73
     4
 74
     0
 42
0.00000001
 43
0.00000001
 40
0.0
 40
0.0
 40
0.0
 40
0.0
 40
1.0
 40
1.0
 40
1.0
 40
1.0
 10
60.67538976108862
 20
35.17798818454309
 30
0.0
 10
60.79102237111768
 20
35.63653911660085
 30
0.0
 10
60.98491177593811
 20
36.0886087123591
 30
0.0
 10
61.23172767485251
 20
36.53629486245885
 30
0.0
  0
LINE
  5
128
330
1F
100
AcDbEntity
  8
0
  6
Continuous
 62
     7
370
    25
100
AcDbLine
 10
48.5540062696
 20
37.5881097179
 30
0.0
 11
48.5540062696
 21
35.5881097179
 31
0.0
  0
SPLINE
  5
129
330
1F
100
AcDbEntity
  8
0
  6
Continuous
 62
     7
370
    25
100
AcDbSpline
210
0.0
220
0.0
230
1.0
 70
     8
 71
     3
 72
     8
 73
     4
 74
     0
 42
0.00000001
 43
0.00000001
 40
0.0
 40
0.0
 40
0.0
 40
0.0
 40
1.0
 40
1.0
 40
1.0
 40
1.0
 10
48.55400626959246
 20
35.58810971786833
 30
0.0
 10
48.51422761140229
 20
35.45072462886822
 30
0.0
 10
48.47373864857406
 20
35.31402054705646
 30
0.0
 10
48.4326227780963
 20
35.17798818454308
 30
0.0
  0
SPLINE
  5
12A
330
1F
100
AcDbEntity
  8
0
  6
Continuous
 62
     7
370
    25
100
AcDbSpline
210
0.0
220
0.0
230
1.0
 70
     8
 71
     3
 72
     8
 73
     4
 74
     0
 42
0.00000001
 43
0.00000001
 40
0.0
 40
0.0
 40
0.0
 40
0.0
 40
1.0
 40
1.0
 40
1.0
 40
1.0
 10
47.87628486433227
 20
36.53629486245911
 30
0.0
 10
48.12345864521621
 20
36.08795956940778
 30
0.0
 10
48.31718031352019
 20
35.63578507866419
 30
0.0
 10
48.4326227780963
 20
35.17798818454308
 30
0.0
  0
LINE
  5
12B
330
1F
100
AcDbEntity
  8
0
  6
Continuous
 62
     7
370
    25
100
AcDbLine
 10
60.5540062696
 20
48.94932565
 30
0.0
 11
60.5540062696
 21
45.5881097179
 31
0.0
  0
SPLINE
  5
12C
330
1F
100
AcDbEntity
  8
0
  6
Continuous
 62
     7
370
    25
100
AcDbSpline
210
0.0
220
0.0
230
1.0
 70
     8
 71
     3
 72
    10
 73
     6
 74
     0
 42
0.00000001
 43
0.00000001
 40
0.0
 40
0.0
 40
0.0
 40
0.0
 40
0.5
 40
0.5
 40
1.0
 40
1.0
 40
1.0
 40
1.0
 10
61.23172767485267
 20
46.63992457327753
 30
0.0
 10
61.02330692203524
 20
47.01796782267969
 30
0.0
 10
60.85284308675782
 20
47.39873732747555
 30
0.0
 10
60.61786065181943
 20
48.16788585303309
 30
0.0
 10
60.55400626959247
 20
48.55631258120834
 30
0.0
 10
60.55400626959246
 20
48.94932565003606
 30
0.0
  0
SPLINE
  5
12D
330
1F
100
AcDbEntity
  8
0
  6
Continuous
 62
     7
370
    25
100
AcDbSpline
210
0.0
220
0.0
230
1.0
 70
     8
 71
     3
 72
    16
 73
    12
 74
     0
 42
0.00000001
 43
0.00000001
 40
0.0
 40
0.0
 40
0.0
 40
0.0
 40
0.2500000000000001
 40
0.2500000000000001
 40
0.5000000000000001
 40
0.5000000000000001
 40
0.6250000000000001
 40
0.6250000000000001
 40
0.7500000000000002
 40
0.7500000000000002
 40
1.0
 40
1.0
 40
1.0
 40
1.0
 10
65.73194729703486
 20
51.25872672679456
 30
0.0
 10
65.93996274514062
 20
50.88141863791807
 30
0.0
 10
66.1101690501136
 20
50.50139490754387
 30
0.0
 10
66.34510508168121
 20
49.73377159213317
 30
0.0
 10
66.40917721334485
 20
49.34612477534438
 30
0.0
 10
66.40991016226586
 20
48.75780422345653
 30
0.0
 10
66.39425068218283
 20
48.56073103090088
 30
0.0
 10
66.3329755555459
 20
48.17067405334678
 30
0.0
 10
66.28741928304677
 20
47.97688115275874
 30
0.0
 10
66.1109332502905
 20
47.39880016799532
 30
0.0
 10
65.94027679680481
 20
47.0178023036605
 30
0.0
 10
65.73194729703486
 20
46.63992457327756
 30
0.0
  0
SPLINE
  5
12E
330
1F
100
AcDbEntity
  8
0
  6
Continuous
 62
     7
370
    25
100
AcDbSpline
210
0.0
220
0.0
230
1.0
 70
     8
 71
     3
 72
    10
 73
     6
 74
     0
 42
0.00000001
 43
0.00000001
 40
0.0
 40
0.0
 40
0.0
 40
0.0
 40
0.1601790552921226
 40
0.7197651707803578
 40
1.0
 40
1.0
 40
1.0
 40
1.0
 10
65.69771786391796
 20
51.32100500554431
 30
0.0
 10
65.69695507382471
 20
51.32239723357068
 30
0.0
 10
65.69352747375098
 20
51.328653215299
 30
0.0
 10
65.70803493854926
 20
51.3021459505711
 30
0.0
 10
65.7259644916671
 20
51.26959009542593
 30
0.0
 10
65.73194729703486
 20
51.25872672679456
 30
0.0
  0
SPLINE
  5
12F
330
1F
100
AcDbEntity
  8
0
  6
Continuous
 62
     7
370
    25
100
AcDbSpline
210
0.0
220
0.0
230
1.0
 70
     8
 71
     3
 72
     9
 73
     5
 74
     0
 42
0.00000001
 43
0.00000001
 40
0.0
 40
0.0
 40
0.0
 40
0.0
 40
0.5797912171256352
 40
1.0
 40
1.0
 40
1.0
 40
1.0
 10
65.73194729703486
 20
31.9174927089421
 30
0.0
 10
65.71958869368841
 20
31.89501906070097
 30
0.0
 10
65.69827308389401
 20
31.85625743828015
 30
0.0
 10
65.69788214139122
 20
31.85552303352194
 30
0.0
 10
65.69771786391796
 20
31.85521443019235
 30
0.0
  0
SPLINE
  5
130
330
1F
100
AcDbEntity
  8
0
  6
Continuous
 62
     7
370
    25
100
AcDbSpline
210
0.0
220
0.0
230
1.0
 70
     8
 71
     3
 72
    16
 73
    12
 74
     0
 42
0.00000001
 43
0.00000001
 40
0.0
 40
0.0
 40
0.0
 40
0.0
 40
0.2500000000000001
 40
0.2500000000000001
 40
0.5000000000000002
 40
0.5000000000000002
 40
0.6250000000000001
 40
0.6250000000000001
 40
0.7500000000000001
 40
0.7500000000000001
 40
1.0
 40
1.0
 40
1.0
 40
1.0
 10
65.73194729703486
 20
36.53629486245911
 30
0.0
 10
65.93996274514062
 20
36.15898677358261
 30
0.0
 10
66.1101690501136
 20
35.77896304320841
 30
0.0
 10
66.34510508168121
 20
35.01133972779771
 30
0.0
 10
66.40917721334486
 20
34.62369291100892
 30
0.0
 10
66.40991016226587
 20
34.03537235912107
 30
0.0
 10
66.39425068218284
 20
33.83829916656541
 30
0.0
 10
66.3329755555459
 20
33.44824218901132
 30
0.0
 10
66.28741928304677
 20
33.25444928842328
 30
0.0
 10
66.11093325029049
 20
32.67636830365986
 30
0.0
 10
65.9402767968048
 20
32.29537043932503
 30
0.0
 10
65.73194729703486
 20
31.9174927089421
 30
0.0
  0
LINE
  5
131
330
1F
100
AcDbEntity
  8
0
  6
Continuous
 62
     7
370
    25
100
AcDbLine
 10
66.5540062696
 20
49.8381097179
 30
0.0
 11
66.5540062696
 21
33.3381097179
 31
0.0
  0
SPLINE
  5
132
330
1F
100
AcDbEntity
  8
0
  6
Continuous
 62
     7
370
    25
100
AcDbSpline
210
0.0
220
0.0
230
1.0
 70
     8
 71
     3
 72
     8
 73
     4
 74
     0
 42
0.00000001
 43
0.00000001
 40
0.0
 40
0.0
 40
0.0
 40
0.0
 40
1.0
 40
1.0
 40
1.0
 40
1.0
 10
47.26463008497584
 20
34.2987335332396
 30
0.0
 10
47.57364722761759
 20
34.39973864106972
 30
0.0
 10
47.88896498393558
 20
34.49639543013566
 30
0.0
 10
48.2114443107786
 20
34.58810971786833
 30
0.0
  0
SPLINE
  5
133
330
1F
100
AcDbEntity
  8
0
  6
Continuous
 62
     7
370
    25
100
AcDbSpline
210
0.0
220
0.0
230
1.0
 70
     8
 71
     3
 72
    10
 73
     6
 74
     0
 42
0.00000001
 43
0.00000001
 40
0.0
 40
0.0
 40
0.0
 40
0.0
 40
0.5
 40
0.5
 40
1.0
 40
1.0
 40
1.0
 40
1.0
 10
49.50219141418324
 20
33.62171317801333
 30
0.0
 10
49.54513494508446
 20
33.59803778358894
 30
0.0
 10
49.60857738970859
 20
33.5849466737043
 30
0.0
 10
49.76105622682756
 20
33.58486035241602
 30
0.0
 10
49.84928622893482
 20
33.59802928635986
 30
0.0
 10
49.93520411607545
 20
33.62171317801332
 30
0.0
  0
SPLINE
  5
134
330
1F
100
AcDbEntity
  8
0
  6
Continuous
 62
     7
370
    25
100
AcDbSpline
210
0.0
220
0.0
230
1.0
 70
     8
 71
     3
 72
    12
 73
     8
 74
     0
 42
0.00000001
 43
0.00000001
 40
0.0
 40
0.0
 40
0.0
 40
0.0
 40
0.2500000000000002
 40
0.2500000000000002
 40
0.5000000000000004
 40
0.5000000000000004
 40
1.0
 40
1.0
 40
1.0
 40
1.0
 10
47.2646300849706
 20
34.29873353323347
 30
0.0
 10
47.45465626027381
 20
34.29502504737704
 30
0.0
 10
47.64487132295964
 20
34.27644254453936
 30
0.0
 10
48.02180808209204
 20
34.21157550757322
 30
0.0
 10
48.20913087335153
 20
34.16530995432294
 30
0.0
 10
48.76804082966563
 20
33.98958542401598
 30
0.0
 10
49.13657648777595
 20
33.82328201523924
 30
0.0
 10
49.50219141418324
 20
33.62171317801333
 30
0.0
  0
LINE
  5
135
330
1F
100
AcDbEntity
  8
0
  6
Continuous
 62
     7
370
    25
100
AcDbLine
 10
50.5002452631
 20
41.0136778614
 30
0.0
 11
51.1075936219
 21
41.0136778614
 31
0.0
  0
ELLIPSE
  5
136
330
1F
100
AcDbEntity
  8
0
  6
Continuous
 62
     7
370
    25
100
AcDbEllipse
 10
50.8039194443
 20
41.9051021955
 30
0.0
 11
0.08480161849065837
 21
0.0
 31
0.0
210
0.0
220
0.0
230
1.0
 40
0.9533039403
 41
0.3430239404205823
 42
2.798568713169156
  0
LINE
  5
137
330
1F
100
AcDbEntity
  8
0
  6
Continuous
 62
     7
370
    25
100
AcDbLine
 10
51.1874548602
 20
41.1217095901
 30
0.0
 11
50.8837806826
 21
41.9322922073
 31
0.0
  0
ELLIPSE
  5
138
330
1F
100
AcDbEntity
  8
0
  6
Continuous
 62
     7
370
    25
100
AcDbEllipse
 10
50.5002452631
 20
41.0945195784
 30
0.0
 11
0.08480161849065126
 21
-7.105427357601002E-15
 31
0.0
210
0.0
220
0.0
230
1.0
 40
0.9533039403
 41
2.79856871130838
 42
4.712388980384699
  0
ELLIPSE
  5
139
330
1F
100
AcDbEntity
  8
0
  6
Continuous
 62
     7
370
    25
100
AcDbEllipse
 10
51.1075936219
 20
41.0945195784
 30
0.0
 11
-0.08480161849066548
 21
-4.973799150320701E-14
 31
0.0
210
0.0
220
0.0
230
1.0
 40
0.9533039403
 41
1.570796326794337
 42
3.484616592149223
  0
LINE
  5
13A
330
1F
100
AcDbEntity
  8
0
  6
Continuous
 62
     7
370
    25
100
AcDbLine
 10
50.724058206
 20
41.9322922073
 30
0.0
 11
50.4203840248
 21
41.1217095904
 31
0.0
  0
LINE
  5
13B
330
1F
100
AcDbEntity
  8
0
  6
Continuous
 62
     7
370
    25
100
AcDbLine
 10
49.5021914142
 20
30.2658311231
 30
0.0
 11
49.5021914142
 21
33.621713178
 31
0.0
  0
SPLINE
  5
13C
330
1F
100
AcDbEntity
  8
0
  6
Continuous
 62
     7
370
    25
100
AcDbSpline
210
0.0
220
0.0
230
1.0
 70
     8
 71
     3
 72
    12
 73
     8
 74
     0
 42
0.00000001
 43
0.00000001
 40
0.0
 40
0.0
 40
0.0
 40
0.0
 40
0.2499999999999998
 40
0.2499999999999998
 40
0.4999999999999996
 40
0.4999999999999996
 40
1.0
 40
1.0
 40
1.0
 40
1.0
 10
61.91522220176019
 20
29.58810971786833
 30
0.0
 10
61.7202187217544
 20
29.58810971786833
 30
0.0
 10
61.52368406272999
 20
29.60385604789029
 30
0.0
 10
61.13426437512444
 20
29.66530107247572
 30
0.0
 10
60.94077968206417
 20
29.71088983172945
 30
0.0
 10
60.36359608330858
 20
29.88734083398604
 30
0.0
 10
59.98316030152561
 20
30.05779853594954
 30
0.0
 10
59.60582112500168
 20
30.26583112312838
 30
0.0
  0
LINE
  5
13D
330
1F
100
AcDbEntity
  8
0
  6
Continuous
 62
     7
370
    25
100
AcDbLine
 10
54.5540062696
 20
29.5881097179
 30
0.0
 11
61.9152222018
 21
29.5881097179
 31
0.0
  0
SPLINE
  5
13E
330
1F
100
AcDbEntity
  8
0
  6
Continuous
 62
     7
370
    25
100
AcDbSpline
210
0.0
220
0.0
230
1.0
 70
     8
 71
     3
 72
    12
 73
     8
 74
     0
 42
0.00000001
 43
0.00000001
 40
0.0
 40
0.0
 40
0.0
 40
0.0
 40
0.2499999999999999
 40
0.2499999999999999
 40
0.4999999999999998
 40
0.4999999999999998
 40
1.0
 40
1.0
 40
1.0
 40
1.0
 10
60.55400626959246
 20
48.94932565003606
 30
0.0
 10
60.55400626959246
 20
49.14506791291558
 30
0.0
 10
60.56984920568142
 20
49.34173452210614
 30
0.0
 10
60.63135206591909
 20
49.73100274943442
 30
0.0
 10
60.67695570696278
 20
49.92440678238734
 30
0.0
 10
60.853406724452
 20
50.5013358336441
 30
0.0
 10
61.02380409170385
 20
50.8815852668471
 30
0.0
 10
61.23172767485266
 20
51.25872672679456
 30
0.0
  0
LINE
  5
13F
330
1F
100
AcDbEntity
  8
0
  6
Continuous
 62
     7
370
    25
100
AcDbLine
 10
65.731947297
 20
51.2587267268
 30
0.0
 11
61.2317276749
 21
51.2587267268
 31
0.0
  0
ELLIPSE
  5
140
330
1F
100
AcDbEntity
  8
0
  6
Continuous
 62
     7
370
    25
100
AcDbEllipse
 10
54.5540062696
 20
31.7731551416
 30
0.0
 11
8.500000000000007
 21
0.0
 31
0.0
210
0.0
220
0.0
230
1.0
 40
0.5773502692
 41
2.374833212873086
 42
2.530692279913059
  0
LINE
  5
141
330
1F
100
AcDbEntity
  8
0
  6
Continuous
 62
     7
370
    25
100
AcDbLine
 10
47.264630085
 20
34.2987335332
 30
0.0
 11
44.8833892607
 21
31.9174927089
 31
0.0
  0
LINE
  5
142
330
1F
100
AcDbEntity
  8
0
  6
Continuous
 62
     7
370
    25
100
AcDbLine
 10
43.7317276749
 20
31.9174927089
 30
0.0
 11
44.8833892607
 21
31.9174927089
 31
0.0
  0
SPLINE
  5
143
330
1F
100
AcDbEntity
  8
0
  6
Continuous
 62
     7
370
    25
100
AcDbSpline
210
0.0
220
0.0
230
1.0
 70
     8
 71
     3
 72
    10
 73
     6
 74
     0
 42
0.00000001
 43
0.00000001
 40
0.0
 40
0.0
 40
0.0
 40
0.0
 40
0.5
 40
0.5
 40
1.0
 40
1.0
 40
1.0
 40
1.0
 10
43.73172767485219
 20
31.91749270894206
 30
0.0
 10
43.52291775018593
 20
32.29624185633335
 30
0.0
 10
43.35238361043868
 20
32.67744713274466
 30
0.0
 10
43.11759780541976
 20
33.44667775393244
 30
0.0
 10
43.05400626959246
 20
33.83474545873076
 30
0.0
 10
43.05400626959246
 20
34.2268937857006
 30
0.0
  0
ELLIPSE
  5
144
330
1F
100
AcDbEntity
  8
0
  6
Continuous
 62
     7
370
    25
100
AcDbEllipse
 10
54.5540062696
 20
31.7731551416
 30
0.0
 11
8.500000000000007
 21
0.0
 31
0.0
210
0.0
220
0.0
230
1.0
 40
0.5773502692
 41
0.6109003736767339
 42
0.7667594407167081
  0
LINE
  5
145
330
1F
100
AcDbEntity
  8
0
  6
Continuous
 62
     7
370
    25
100
AcDbLine
 10
64.2246232785
 20
31.9174927089
 30
0.0
 11
65.731947297
 21
31.9174927089
 31
0.0
  0
LINE
  5
146
330
1F
100
AcDbEntity
  8
0
  6
Continuous
 62
     7
370
    25
100
AcDbLine
 10
64.2246232785
 20
31.9174927089
 30
0.0
 11
61.8433824542
 21
34.2987335332
 31
0.0
  0
SPLINE
  5
147
330
1F
100
AcDbEntity
  8
0
  6
Continuous
 62
     7
370
    25
100
AcDbSpline
210
0.0
220
0.0
230
1.0
 70
     8
 71
     3
 72
    12
 73
     8
 74
     0
 42
0.00000001
 43
0.00000001
 40
0.0
 40
0.0
 40
0.0
 40
0.0
 40
0.2499999999999999
 40
0.2499999999999999
 40
0.5
 40
0.5
 40
1.0
 40
1.0
 40
1.0
 40
1.0
 10
43.05400626959246
 20
48.94932565003606
 30
0.0
 10
43.05400626959246
 20
49.14432913004186
 30
0.0
 10
43.06975259961443
 20
49.34086378906627
 30
0.0
 10
43.13119762419986
 20
49.73028347667182
 30
0.0
 10
43.17678638345358
 20
49.92376816973208
 30
0.0
 10
43.35323738571017
 20
50.50095176848768
 30
0.0
 10
43.52369508767367
 20
50.88138755027065
 30
0.0
 10
43.73172767485251
 20
51.25872672679458
 30
0.0
  0
LINE
  5
148
330
1F
100
AcDbEntity
  8
0
  6
Continuous
 62
     7
370
    25
100
AcDbLine
 10
47.8762848643
 20
51.2587267268
 30
0.0
 11
43.7317276749
 21
51.2587267268
 31
0.0
  0
SPLINE
  5
149
330
1F
100
AcDbEntity
  8
0
  6
Continuous
 62
     7
370
    25
100
AcDbSpline
210
0.0
220
0.0
230
1.0
 70
     8
 71
     3
 72
    10
 73
     6
 74
     0
 42
0.00000001
 43
0.00000001
 40
0.0
 40
0.0
 40
0.0
 40
0.0
 40
0.5
 40
0.5
 40
1.0
 40
1.0
 40
1.0
 40
1.0
 10
47.87628486433226
 20
51.25872672679458
 30
0.0
 10
48.08470561714969
 20
50.88068347739242
 30
0.0
 10
48.25516945242712
 20
50.49991397259658
 30
0.0
 10
48.49015188736551
 20
49.73076544703903
 30
0.0
 10
48.55400626959247
 20
49.34233871886379
 30
0.0
 10
48.55400626959247
 20
48.94932565003606
 30
0.0
  0
SPLINE
  5
14A
330
1F
100
AcDbEntity
  8
0
  6
Continuous
 62
     7
370
    25
100
AcDbSpline
210
0.0
220
0.0
230
1.0
 70
     8
 71
     3
 72
    12
 73
     8
 74
     0
 42
0.00000001
 43
0.00000001
 40
0.0
 40
0.0
 40
0.0
 40
0.0
 40
0.2500000000000002
 40
0.2500000000000002
 40
0.5000000000000001
 40
0.5000000000000001
 40
1.0
 40
1.0
 40
1.0
 40
1.0
 10
47.19279033742474
 20
29.58810971786833
 30
0.0
 10
46.99778685741894
 20
29.58810971786833
 30
0.0
 10
46.80125219839453
 20
29.60385604789029
 30
0.0
 10
46.41183251078898
 20
29.66530107247572
 30
0.0
 10
46.21834781772873
 20
29.71088983172945
 30
0.0
 10
45.64116421897312
 20
29.88734083398604
 30
0.0
 10
45.26072843719016
 20
30.05779853594954
 30
0.0
 10
44.88338926066622
 20
30.26583112312838
 30
0.0
  0
LINE
  5
14B
330
1F
100
AcDbEntity
  8
0
  6
Continuous
 62
     7
370
    25
100
AcDbLine
 10
44.8833892607
 20
31.9174927089
 30
0.0
 11
44.8833892607
 21
30.2658311231
 31
0.0
  0
LINE
  5
14C
330
1F
100
AcDbEntity
  8
0
  6
Continuous
 62
     7
370
    25
100
AcDbLine
 10
64.2246232785
 20
30.2658311231
 30
0.0
 11
64.2246232785
 21
31.9174927089
 31
0.0
  0
SPLINE
  5
14D
330
1F
100
AcDbEntity
  8
0
  6
Continuous
 62
     7
370
    25
100
AcDbSpline
210
0.0
220
0.0
230
1.0
 70
     8
 71
     3
 72
    10
 73
     6
 74
     0
 42
0.00000001
 43
0.00000001
 40
0.0
 40
0.0
 40
0.0
 40
0.0
 40
0.5
 40
0.5
 40
1.0
 40
1.0
 40
1.0
 40
1.0
 10
64.22462327851873
 20
30.26583112312806
 30
0.0
 10
63.84587413112744
 20
30.0570211984618
 30
0.0
 10
63.46466885471613
 20
29.88648705871455
 30
0.0
 10
62.69543823352836
 20
29.65170125369562
 30
0.0
 10
62.30737052873003
 20
29.58810971786833
 30
0.0
 10
61.91522220176019
 20
29.58810971786833
 30
0.0
  0
LINE
  5
14E
330
1F
100
AcDbEntity
  8
0
  6
Continuous
 62
     7
370
    25
100
AcDbLine
 10
60.5540062696
 20
35.5881097179
 30
0.0
 11
58.5540062696
 21
37.5881097179
 31
0.0
  0
LINE
  5
14F
330
1F
100
AcDbEntity
  8
0
  6
Continuous
 62
     7
370
    25
100
AcDbLine
 10
58.5540062696
 20
34.5881097179
 30
0.0
 11
61.5166273422
 21
34.5881097179
 31
0.0
  0
LINE
  5
150
330
1F
100
AcDbEntity
  8
0
  6
Continuous
 62
     7
370
    25
100
AcDbLine
 10
50.5540062696
 20
37.5881097179
 30
0.0
 11
48.5540062696
 21
35.5881097179
 31
0.0
  0
LINE
  5
151
330
1F
100
AcDbEntity
  8
0
  6
Continuous
 62
     7
370
    25
100
AcDbLine
 10
47.5913851969
 20
34.5881097179
 30
0.0
 11
50.5540062696
 21
34.5881097179
 31
0.0
  0
LINE
  5
152
330
1F
100
AcDbEntity
  8
0
  6
Continuous
 62
     7
370
    25
100
AcDbLine
 10
48.5540062696
 20
49.5225641961
 30
0.0
 11
48.5540062696
 21
48.94932565
 31
0.0
  0
SPLINE
  5
153
330
1F
100
AcDbEntity
  8
0
  6
Continuous
 62
     7
370
    25
100
AcDbSpline
210
0.0
220
0.0
230
1.0
 70
     8
 71
     3
 72
    32
 73
    28
 74
     0
 42
0.00000001
 43
0.00000001
 40
0.0
 40
0.0
 40
0.0
 40
0.0
 40
0.0625000000000001
 40
0.0625000000000001
 40
0.1250000000000001
 40
0.1250000000000001
 40
0.1875000000000002
 40
0.1875000000000002
 40
0.2500000000000003
 40
0.2500000000000003
 40
0.3750000000000003
 40
0.3750000000000003
 40
0.4375000000000003
 40
0.4375000000000003
 40
0.5000000000000002
 40
0.5000000000000002
 40
0.5625000000000002
 40
0.5625000000000002
 40
0.6250000000000001
 40
0.6250000000000001
 40
0.7500000000000001
 40
0.7500000000000001
 40
0.8750000000000002
 40
0.8750000000000002
 40
0.9375000000000001
 40
0.9375000000000001
 40
1.0
 40
1.0
 40
1.0
 40
1.0
 10
60.55400626958399
 20
49.52256419608899
 30
0.0
 10
60.3971499336671
 20
49.42760721819329
 30
0.0
 10
60.22415149951146
 20
49.32485404356811
 30
0.0
 10
59.84744691288566
 20
49.10814284191984
 30
0.0
 10
59.64459413242897
 20
48.99472413142983
 30
0.0
 10
59.21861286962638
 20
48.76663399473166
 30
0.0
 10
58.99443490933835
 20
48.6513271122798
 30
0.0
 10
58.52308381576197
 20
48.42300400990503
 30
0.0
 10
58.27439830039688
 20
48.30935399377127
 30
0.0
 10
57.50382581570523
 20
47.98628996253723
 30
0.0
 10
56.95818840562306
 20
47.79339143837373
 30
0.0
 10
56.07540865712672
 20
47.58179751310003
 30
0.0
 10
55.77676955725387
 20
47.52615512698229
 30
0.0
 10
55.1702679565381
 20
47.45048705761845
 30
0.0
 10
54.86012071787219
 20
47.43051381184213
 30
0.0
 10
54.24003522918841
 20
47.43084757809538
 30
0.0
 10
53.93346419172038
 20
47.45084654341817
 30
0.0
 10
53.32680944441219
 20
47.52688532961463
 30
0.0
 10
53.02443637978688
 20
47.58353842974618
 30
0.0
 10
52.14780007703392
 20
47.79431697979203
 30
0.0
 10
51.59974594505701
 20
47.98786281036378
 30
0.0
 10
50.56924867781373
 20
48.42048210363958
 30
0.0
 10
50.10168864253427
 20
48.65295874833
 30
0.0
 10
49.46347503890633
 20
48.99469674924904
 30
0.0
 10
49.2602653007165
 20
49.10831426467743
 30
0.0
 10
48.88392837432207
 20
49.32481665703367
 30
0.0
 10
48.71094976583057
 20
49.42755445347806
 30
0.0
 10
48.55400626959247
 20
49.52256419609414
 30
0.0
  0
LINE
  5
154
330
1F
100
AcDbEntity
  8
0
  6
Continuous
 62
     7
370
    25
100
AcDbLine
 10
60.5540062696
 20
49.5225641961
 30
0.0
 11
60.5540062696
 21
48.94932565
 31
0.0
  0
LINE
  5
155
330
1F
100
AcDbEntity
  8
0
  6
Continuous
 62
     7
370
    25
100
AcDbLine
 10
48.089454211
 20
20.1917755917
 30
0.0
 11
61.0185583282
 21
20.1917755917
 31
0.0
  0
SPLINE
  5
156
330
1F
100
AcDbEntity
  8
0
  6
Continuous
 62
     7
370
    25
100
AcDbSpline
210
0.0
220
0.0
230
1.0
 70
     8
 71
     3
 72
    12
 73
     8
 74
     0
 42
0.00000001
 43
0.00000001
 40
0.0
 40
0.0
 40
0.0
 40
0.0
 40
0.0860276384484858
 40
0.3125921905364371
 40
0.5444262578673806
 40
0.772029644149985
 40
1.0
 40
1.0
 40
1.0
 40
1.0
 10
60.72735345705949
 20
50.38101131156945
 30
0.0
 10
60.72856370615135
 20
50.38504123521127
 30
0.0
 10
60.73296129768752
 20
50.39968446710287
 30
0.0
 10
60.70043890439626
 20
50.29210704082964
 30
0.0
 10
60.64441072821181
 20
50.08595822498892
 30
0.0
 10
60.57621790041616
 20
49.80271774757826
 30
0.0
 10
60.56141412140163
 20
49.61599884794721
 30
0.0
 10
60.55400626959247
 20
49.522564196087
 30
0.0
  0
SPLINE
  5
157
330
1F
100
AcDbEntity
  8
0
  6
Continuous
 62
     7
370
    25
100
AcDbSpline
210
0.0
220
0.0
230
1.0
 70
     8
 71
     3
 72
    11
 73
     7
 74
     0
 42
0.00000001
 43
0.00000001
 40
0.0
 40
0.0
 40
0.0
 40
0.0
 40
0.3176289974144747
 40
0.6359451124878563
 40
0.8656693170717192
 40
0.9999999999999999
 40
0.9999999999999999
 40
0.9999999999999999
 40
0.9999999999999999
 10
48.55400626959246
 20
49.52256419609405
 30
0.0
 10
48.54036753676174
 20
49.65382874358197
 30
0.0
 10
48.51306056682249
 20
49.91664179937155
 30
0.0
 10
48.42505558569227
 20
50.22828745947389
 30
0.0
 10
48.38049453597183
 20
50.3820362780467
 30
0.0
 10
48.38084359531415
 20
50.38052170877523
 30
0.0
 10
48.38097239287036
 20
50.37996285588915
 30
0.0
  0
LINE
  5
158
330
1F
100
AcDbEntity
  8
0
  6
Continuous
 62
     7
370
    25
100
AcDbLine
 10
60.4487874529
 20
51.0835788978
 30
0.0
 11
60.4514187632
 21
51.0858031735
 31
0.0
  0
LINE
  5
159
330
1F
100
AcDbEntity
  8
0
  6
Continuous
 62
     7
370
    25
100
AcDbLine
 10
59.8040062696
 20
18.0881097179
 30
0.0
 11
49.3040062696
 21
18.0881097179
 31
0.0
  0
SPLINE
  5
15A
330
1F
100
AcDbEntity
  8
0
  6
Continuous
 62
     7
370
    25
100
AcDbSpline
210
0.0
220
0.0
230
1.0
 70
     8
 71
     3
 72
    10
 73
     6
 74
     0
 42
0.00000001
 43
0.00000001
 40
0.0
 40
0.0
 40
0.0
 40
0.0
 40
0.1601790552921523
 40
0.7197651707804853
 40
1.0
 40
1.0
 40
1.0
 40
1.0
 10
47.84205543121536
 20
51.32100500554431
 30
0.0
 10
47.84129264112212
 20
51.32239723357068
 30
0.0
 10
47.83786504104838
 20
51.32865321529901
 30
0.0
 10
47.85237250584667
 20
51.3021459505711
 30
0.0
 10
47.8703020589645
 20
51.26959009542595
 30
0.0
 10
47.87628486433226
 20
51.25872672679458
 30
0.0
  0
SPLINE
  5
15B
330
1F
100
AcDbEntity
  8
0
  6
Continuous
 62
     7
370
    25
100
AcDbSpline
210
0.0
220
0.0
230
1.0
 70
     8
 71
     3
 72
    10
 73
     6
 74
     0
 42
0.00000001
 43
0.00000001
 40
0.0
 40
0.0
 40
0.0
 40
0.0
 40
0.1593935212994522
 40
0.7189934545690309
 40
1.0
 40
1.0
 40
1.0
 40
1.0
 10
43.76596466443011
 20
51.32101880626102
 30
0.0
 10
43.76672619142756
 20
51.32240872508764
 30
0.0
 10
43.77016129294348
 20
51.32867838103458
 30
0.0
 10
43.75566667047698
 20
51.30219443921078
 30
0.0
 10
43.73772529998427
 20
51.26961703516392
 30
0.0
 10
43.73172767485266
 20
51.25872672679456
 30
0.0
  0
LINE
  5
15C
330
1F
100
AcDbEntity
  8
0
  6
Continuous
 62
     7
370
    25
100
AcDbLine
 10
43.0540062696
 20
50.0881097179
 30
0.0
 11
43.0540062696
 21
48.94932565
 31
0.0
  0
SPLINE
  5
15D
330
1F
100
AcDbEntity
  8
0
  6
Continuous
 62
     7
370
    25
100
AcDbSpline
210
0.0
220
0.0
230
1.0
 70
     8
 71
     3
 72
     9
 73
     5
 74
     0
 42
0.00000001
 43
0.00000001
 40
0.0
 40
0.0
 40
0.0
 40
0.0
 40
0.5797912171256431
 40
1.0
 40
1.0
 40
1.0
 40
1.0
 10
61.23172767485266
 20
51.25872672679456
 30
0.0
 10
61.24408627819913
 20
51.2812003750357
 30
0.0
 10
61.26540188799353
 20
51.31996199745652
 30
0.0
 10
61.26579283049631
 20
51.32069640221474
 30
0.0
 10
61.26595710796958
 20
51.32100500554431
 30
0.0
  0
SPLINE
  5
15E
330
1F
100
AcDbEntity
  8
0
  6
Continuous
 62
     7
370
    25
100
AcDbSpline
210
0.0
220
0.0
230
1.0
 70
     8
 71
     3
 72
     9
 73
     5
 74
     0
 42
0.00000001
 43
0.00000001
 40
0.0
 40
0.0
 40
0.0
 40
0.0
 40
0.5789479223911498
 40
1.0
 40
1.0
 40
1.0
 40
1.0
 10
64.22462327851869
 20
30.26583112312852
 30
0.0
 10
64.24706464571133
 20
30.27817201344293
 30
0.0
 10
64.28582697013589
 20
30.29948807631685
 30
0.0
 10
64.28659287299499
 20
30.29989625023123
 30
0.0
 10
64.28691535798504
 20
30.30006811270591
 30
0.0
  0
LINE
  5
15F
330
1F
100
AcDbEntity
  8
0
  6
Continuous
 62
     7
370
    25
100
AcDbLine
 10
61.9152222018
 20
29.5881097179
 30
0.0
 11
63.0540062696
 21
29.5881097179
 31
0.0
  0
SPLINE
  5
160
330
1F
100
AcDbEntity
  8
0
  6
Continuous
 62
     7
370
    25
100
AcDbSpline
210
0.0
220
0.0
230
1.0
 70
     8
 71
     3
 72
    10
 73
     6
 74
     0
 42
0.00000001
 43
0.00000001
 40
0.0
 40
0.0
 40
0.0
 40
0.0
 40
0.1593935213061655
 40
0.7189934545756295
 40
1.0
 40
1.0
 40
1.0
 40
1.0
 10
44.82109718119989
 20
30.30006811270591
 30
0.0
 10
44.81970726237325
 20
30.30082963970337
 30
0.0
 10
44.81343760642643
 20
30.30426474121923
 30
0.0
 10
44.83992154825043
 20
30.28977011875263
 30
0.0
 10
44.87249895229711
 20
30.27182874826001
 30
0.0
 10
44.88338926066623
 20
30.26583112312852
 30
0.0
  0
LINE
  5
161
330
1F
100
AcDbEntity
  8
0
  6
Continuous
 62
     7
370
    25
100
AcDbLine
 10
46.0540062696
 20
29.5881097179
 30
0.0
 11
47.1927903374
 21
29.5881097179
 31
0.0
  0
SPLINE
  5
162
330
1F
100
AcDbEntity
  8
0
  6
Continuous
 62
     7
370
    25
100
AcDbSpline
210
0.0
220
0.0
230
1.0
 70
     8
 71
     3
 72
     9
 73
     5
 74
     0
 42
0.00000001
 43
0.00000001
 40
0.0
 40
0.0
 40
0.0
 40
0.0
 40
0.5789479223839474
 40
0.9999999999999999
 40
0.9999999999999999
 40
0.9999999999999999
 40
0.9999999999999999
 10
43.73172767485266
 20
31.91749270894209
 30
0.0
 10
43.74406856516692
 20
31.89505134174973
 30
0.0
 10
43.76538462804083
 20
31.85628901732517
 30
0.0
 10
43.76579280195536
 20
31.85552311446581
 30
0.0
 10
43.76596466443011
 20
31.85520062947563
 30
0.0
  0
LINE
  5
163
330
1F
100
AcDbEntity
  8
0
  6
Continuous
 62
     7
370
    25
100
AcDbLine
 10
43.0540062696
 20
34.2268937857
 30
0.0
 11
43.0540062696
 21
33.0881097179
 31
0.0
  0
LINE
  5
164
330
1F
100
AcDbEntity
  8
0
  6
Continuous
 62
     7
370
    25
100
AcDbLine
 10
64.2916105766
 20
31.8505054108
 30
0.0
 11
64.2246232785
 21
31.9174927089
 31
0.0
  0
LINE
  5
165
330
1F
100
AcDbEntity
  8
0
  6
Continuous
 62
     7
370
    25
100
AcDbLine
 10
44.8833892607
 20
31.9174927089
 30
0.0
 11
44.8164019626
 21
31.8505054108
 31
0.0
  0
SPLINE
  5
166
330
1F
100
AcDbEntity
  8
0
  6
Continuous
 62
     7
370
    25
100
AcDbSpline
210
0.0
220
0.0
230
1.0
 70
     8
 71
     3
 72
    30
 73
    26
 74
     0
 42
0.00000001
 43
0.00000001
 40
0.0
 40
0.0
 40
0.0
 40
0.0
 40
0.0110569947995957
 40
0.0534018586163523
 40
0.0957739243294413
 40
0.152560285963683
 40
0.2094465507836707
 40
0.2166929089147469
 40
0.2775705853057713
 40
0.3384474861342897
 40
0.3856607907517328
 40
0.4327791182719195
 40
0.4698641362073264
 40
0.5069103241819656
 40
0.5439143354842868
 40
0.5809675385159896
 40
0.6306181182252716
 40
0.6803606635267528
 40
0.7335199301453341
 40
0.786670493119384
 40
0.8314134775104652
 40
0.876121580665438
 40
0.9187009688159357
 40
0.961245266880381
 40
1.0
 40
1.0
 40
1.0
 40
1.0
 10
48.65400626959246
 20
51.08810971786833
 30
0.0
 10
48.65483031693871
 20
51.08741188597062
 30
0.0
 10
48.65881021027091
 20
51.08404157414404
 30
0.0
 10
48.72959191920012
 20
51.0236919305387
 30
0.0
 10
48.95088064929939
 20
50.83816183488076
 30
0.0
 10
49.34144366469592
 20
50.51761588993916
 30
0.0
 10
49.74468575078206
 20
50.20393898639875
 30
0.0
 10
50.21149998987107
 20
49.85754969850895
 30
0.0
 10
50.74712782394543
 20
49.47712475150239
 30
0.0
 10
51.56287820196313
 20
48.97910120125459
 30
0.0
 10
52.4044380076835
 20
48.56698332814346
 30
0.0
 10
53.1878449264538
 20
48.28998421204991
 30
0.0
 10
53.96082980312972
 20
48.13856705922519
 30
0.0
 10
54.69142010891628
 20
48.1004175899681
 30
0.0
 10
55.41614256572662
 20
48.17974948163027
 30
0.0
 10
56.18951217892999
 20
48.37225268475996
 30
0.0
 10
56.97990703013492
 20
48.6894121782297
 30
0.0
 10
57.77671146077437
 20
49.11469061785462
 30
0.0
 10
58.50407902873196
 20
49.57715171851811
 30
0.0
 10
59.11828321140665
 20
50.01756369516687
 30
0.0
 10
59.61174667875165
 20
50.39602731060523
 30
0.0
 10
59.98679649426104
 20
50.69778256181576
 30
0.0
 10
60.25705142350402
 20
50.92142792133382
 30
0.0
 10
60.42602622388073
 20
51.06435525087916
 30
0.0
 10
60.44143986692891
 20
51.07737328391254
 30
0.0
 10
60.44878745292143
 20
51.08357889778767
 30
0.0
  0
LINE
  5
167
330
1F
100
AcDbEntity
  8
0
  6
Continuous
 62
     7
370
    18
100
AcDbLine
 10
48.4877562696
 20
29.0881097179
 30
0.0
 11
48.8044679658
 21
18.9533354404
 31
0.0
  0
LINE
  5
168
330
1F
100
AcDbEntity
  8
0
  6
Continuous
 62
     7
370
    18
100
AcDbLine
 10
60.3035445734
 20
18.9533354404
 30
0.0
 11
60.6202562696
 21
29.0881097179
 31
0.0
  0
LINE
  5
169
330
1F
100
AcDbEntity
  8
0
  6
Continuous
 62
     7
370
    18
100
AcDbLine
 10
39.0540062696
 20
47.3106097179
 30
0.0
 11
34.8056723194
 21
47.3106097179
 31
0.0
  0
LINE
  5
16A
330
1F
100
AcDbEntity
  8
0
  6
Continuous
 62
     7
370
    18
100
AcDbLine
 10
34.8056723194
 20
35.8656097179
 30
0.0
 11
39.0540062696
 21
35.8656097179
 31
0.0
  0
LINE
  5
16B
330
1F
100
AcDbEntity
  8
0
  6
Continuous
 62
     7
370
    25
100
AcDbLine
 10
39.0540062696
 20
48.1666097179
 30
0.0
 11
39.0540062696
 21
48.1569617809
 31
0.0
  0
SPLINE
  5
16C
330
1F
100
AcDbEntity
  8
0
  6
Continuous
 62
     7
370
     0
100
AcDbSpline
210
0.0
220
0.0
230
1.0
 70
     8
 71
     3
 72
    36
 73
    32
 74
     0
 42
0.00000001
 43
0.00000001
 40
0.0
 40
0.0
 40
0.0
 40
0.0
 40
0.0350874935069092
 40
0.0701749869832488
 40
0.1052624804595885
 40
0.140349973935928
 40
0.1754374674122677
 40
0.2105249608886072
 40
0.2456124543649467
 40
0.2806999478412863
 40
0.3157874413176259
 40
0.3508749347939657
 40
0.3859624282703051
 40
0.4210499217466446
 40
0.4561374152229845
 40
0.491224908699324
 40
0.5263124021756637
 40
0.5613998956520032
 40
0.5964873891283429
 40
0.6315748826046825
 40
0.666662376081022
 40
0.7017498695573617
 40
0.7368373630337013
 40
0.7719248565100408
 40
0.8070123499863804
 40
0.84209984346272
 40
0.8771873369390597
 40
0.9122748304153993
 40
0.9473623238917389
 40
0.9824498173680786
 40
1.0
 40
1.0
 40
1.0
 40
1.0
 10
39.05397653579712
 20
48.15696178088795
 30
0.0
 10
39.05400626959246
 20
48.07994799640776
 30
0.0
 10
39.05400626959246
 20
47.92682334365604
 30
0.0
 10
39.05400626959246
 20
47.69938306918309
 30
0.0
 10
39.05400626959246
 20
47.40029370225648
 30
0.0
 10
39.05400626959246
 20
47.03306179224342
 30
0.0
 10
39.05400626959246
 20
46.60199279752547
 30
0.0
 10
39.05400626959246
 20
46.11214060793556
 30
0.0
 10
39.05400626959246
 20
45.56924829252049
 30
0.0
 10
39.05400626959246
 20
44.97968076730734
 30
0.0
 10
39.05400626959246
 20
44.3503501724825
 30
0.0
 10
39.05400626959246
 20
43.68863483386784
 30
0.0
 10
39.05400626959246
 20
43.00229275879651
 30
0.0
 10
39.05400626959246
 20
42.29937068057018
 30
0.0
 10
39.05400626959246
 20
41.58810971786829
 30
0.0
 10
39.05400626959246
 20
40.87684875516638
 30
0.0
 10
39.05400626959246
 20
40.17392667694006
 30
0.0
 10
39.05400626959246
 20
39.48758460186873
 30
0.0
 10
39.05400626959246
 20
38.82586926325408
 30
0.0
 10
39.05400626959246
 20
38.19653866842924
 30
0.0
 10
39.05400626959246
 20
37.60697114321609
 30
0.0
 10
39.05400626959246
 20
37.06407882780103
 30
0.0
 10
39.05400626959246
 20
36.57422663821113
 30
0.0
 10
39.05400626959246
 20
36.14315764349318
 30
0.0
 10
39.05400626959246
 20
35.77592573348013
 30
0.0
 10
39.05400626959246
 20
35.47683636655353
 30
0.0
 10
39.05400626959246
 20
35.24939609208059
 30
0.0
 10
39.05400626959246
 20
35.09627143932888
 30
0.0
 10
39.05400626959246
 20
35.0192576548487
 30
0.0
 10
39.05400626959246
 20
35.00960971786833
 30
0.0
 10
39.05400626959246
 20
35.01155699499675
 30
0.0
 10
39.05400626959246
 20
35.00960971786833
 30
0.0
  0
LINE
  5
16D
330
1F
100
AcDbEntity
  8
0
  6
CENTERX2
 62
     7
370
    18
100
AcDbLine
 10
54.5540062696
 20
15.5434398998
 30
0.0
 11
54.5540062696
 21
72.425891457
 31
0.0
  0
LINE
  5
16E
330
1F
100
AcDbEntity
  8
0
  6
CENTERX2
 62
     7
370
    18
100
AcDbLine
 10
69.4966289517
 20
41.5881097179
 30
0.0
 11
19.1161401758
 21
41.5881097179
 31
0.0
  0
ARC
  5
16F
330
1F
100
AcDbEntity
  8
0
  6
Continuous
 62
     7
370
    25
100
AcDbCircle
 10
100.7010334232
 20
68.6881097179
 30
0.0
 40
0.25
100
AcDbArc
 50
0.0
 51
90.0
  0
ARC
  5
170
330
1F
100
AcDbEntity
  8
0
  6
Continuous
 62
     7
370
    25
100
AcDbCircle
 10
90.2010334232
 20
68.6881097179
 30
0.0
 40
0.25
100
AcDbArc
 50
90.0
 51
180.0
  0
LINE
  5
171
330
1F
100
AcDbEntity
  8
0
  6
Continuous
 62
     7
370
    25
100
AcDbLine
 10
100.9510334232
 20
68.0881097179
 30
0.0
 11
100.9510334232
 21
68.6881097179
 31
0.0
  0
LINE
  5
172
330
1F
100
AcDbEntity
  8
0
  6
Continuous
 62
     7
370
    25
100
AcDbLine
 10
89.9510334232
 20
68.6881097179
 30
0.0
 11
89.9510334232
 21
68.0881097179
 31
0.0
  0
LINE
  5
173
330
1F
100
AcDbEntity
  8
0
  6
Continuous
 62
     7
370
    25
100
AcDbLine
 10
102.9010334232
 20
60.0881097179
 30
0.0
 11
100.9510334232
 21
68.0881097179
 31
0.0
  0
LINE
  5
174
330
1F
100
AcDbEntity
  8
0
  6
Continuous
 62
     7
370
    25
100
AcDbLine
 10
89.9510334232
 20
68.0881097179
 30
0.0
 11
88.0010334232
 21
60.0881097179
 31
0.0
  0
LINE
  5
175
330
1F
100
AcDbEntity
  8
0
  6
Continuous
 62
     7
370
    25
100
AcDbLine
 10
88.0010334232
 20
60.0881097179
 30
0.0
 11
88.4510334232
 21
52.0881097179
 31
0.0
  0
LINE
  5
176
330
1F
100
AcDbEntity
  8
0
  6
Continuous
 62
     7
370
    25
100
AcDbLine
 10
102.4510334232
 20
52.0881097179
 30
0.0
 11
102.9010334232
 21
60.0881097179
 31
0.0
  0
LINE
  5
177
330
1F
100
AcDbEntity
  8
0
  6
Continuous
 62
     7
370
    25
100
AcDbLine
 10
88.6928459232
 20
29.5881097179
 30
0.0
 11
88.9864813646
 21
20.1917755917
 31
0.0
  0
LINE
  5
178
330
1F
100
AcDbEntity
  8
0
  6
Continuous
 62
     7
370
    25
100
AcDbLine
 10
101.9155854817
 20
20.1917755917
 30
0.0
 11
102.2092209232
 21
29.5881097179
 31
0.0
  0
LINE
  5
179
330
1F
100
AcDbEntity
  8
0
  6
Continuous
 62
     7
370
    25
100
AcDbLine
 10
88.9864813646
 20
20.1917755917
 30
0.0
 11
90.2010334232
 21
18.0881097179
 31
0.0
  0
LINE
  5
17A
330
1F
100
AcDbEntity
  8
0
  6
Continuous
 62
     7
370
    25
100
AcDbLine
 10
100.7010334232
 20
18.0881097179
 30
0.0
 11
101.9155854817
 21
20.1917755917
 31
0.0
  0
SPLINE
  5
17B
330
1F
100
AcDbEntity
  8
0
  6
Continuous
 62
     7
370
    25
100
AcDbSpline
210
0.0
220
0.0
230
1.0
 70
     8
 71
     3
 72
     9
 73
     5
 74
     0
 42
0.00000001
 43
0.00000001
 40
0.0
 40
0.0
 40
0.0
 40
0.0
 40
0.0900496515760282
 40
1.0
 40
1.0
 40
1.0
 40
1.0
 10
89.5509940826967
 20
48.12676173579871
 30
0.0
 10
89.55142904611834
 20
48.12266454924326
 30
0.0
 10
89.55625930824637
 20
48.07716535536807
 30
0.0
 10
89.54772291687634
 20
48.03168582208772
 30
0.0
 10
89.53995522457488
 20
47.99030170493312
 30
0.0
  0
LINE
  5
17C
330
1F
100
AcDbEntity
  8
0
  6
Continuous
 62
     7
370
    25
100
AcDbLine
 10
101.3510334232
 20
48.1213359711
 30
0.0
 11
101.3510334232
 21
52.0881097179
 31
0.0
  0
LINE
  5
17D
330
1F
100
AcDbEntity
  8
0
  6
Continuous
 62
     7
370
    25
100
AcDbLine
 10
89.5510334232
 20
52.0881097179
 30
0.0
 11
89.5510334232
 21
48.1266383818
 31
0.0
  0
LINE
  5
17E
330
1F
100
AcDbEntity
  8
0
  6
Continuous
 62
     7
370
    25
100
AcDbLine
 10
86.9510334232
 20
46.29355652
 30
0.0
 11
86.9510334232
 21
46.495587006
 31
0.0
  0
LINE
  5
17F
330
1F
100
AcDbEntity
  8
0
  6
Continuous
 62
     7
370
    25
100
AcDbLine
 10
86.9510334232
 20
46.495587006
 30
0.0
 11
87.1259969564
 21
46.596602249
 31
0.0
  0
LINE
  5
180
330
1F
100
AcDbEntity
  8
0
  6
Continuous
 62
     7
370
    25
100
AcDbLine
 10
103.7760698899
 20
46.596602249
 30
0.0
 11
103.9510334232
 21
46.495587006
 31
0.0
  0
LINE
  5
181
330
1F
100
AcDbEntity
  8
0
  6
Continuous
 62
     7
370
    25
100
AcDbLine
 10
103.9510334232
 20
46.495587006
 30
0.0
 11
103.9510334232
 21
46.29355652
 31
0.0
  0
ARC
  5
182
330
1F
100
AcDbEntity
  8
0
  6
Continuous
 62
     7
370
    25
100
AcDbCircle
 10
94.2010334232
 20
68.6881097179
 30
0.0
 40
0.25
100
AcDbArc
 50
90.0
 51
180.0
  0
LINE
  5
183
330
1F
100
AcDbEntity
  8
0
  6
Continuous
 62
     7
370
    25
100
AcDbLine
 10
94.2010334232
 20
68.9381097179
 30
0.0
 11
94.2010334232
 21
68.6881097179
 31
0.0
  0
LINE
  5
184
330
1F
100
AcDbEntity
  8
0
  6
Continuous
 62
     7
370
    25
100
AcDbLine
 10
93.9510334232
 20
68.6881097179
 30
0.0
 11
94.2010334232
 21
68.6881097179
 31
0.0
  0
LINE
  5
185
330
1F
100
AcDbEntity
  8
0
  6
Continuous
 62
     7
370
    25
100
AcDbLine
 10
96.7010334232
 20
68.6881097179
 30
0.0
 11
96.7010334232
 21
68.9381097179
 31
0.0
  0
LINE
  5
186
330
1F
100
AcDbEntity
  8
0
  6
Continuous
 62
     7
370
    25
100
AcDbLine
 10
96.7010334232
 20
68.6881097179
 30
0.0
 11
94.2010334232
 21
68.6881097179
 31
0.0
  0
LINE
  5
187
330
1F
100
AcDbEntity
  8
0
  6
Continuous
 62
     7
370
    25
100
AcDbLine
 10
94.2010334232
 20
68.9381097179
 30
0.0
 11
96.7010334232
 21
68.9381097179
 31
0.0
  0
LINE
  5
188
330
1F
100
AcDbEntity
  8
0
  6
Continuous
 62
     7
370
    25
100
AcDbLine
 10
96.7010334232
 20
68.0881097179
 30
0.0
 11
96.7010334232
 21
68.6881097179
 31
0.0
  0
LINE
  5
189
330
1F
100
AcDbEntity
  8
0
  6
Continuous
 62
     7
370
    25
100
AcDbLine
 10
96.7010334232
 20
68.0881097179
 30
0.0
 11
94.2010334232
 21
68.0881097179
 31
0.0
  0
LINE
  5
18A
330
1F
100
AcDbEntity
  8
0
  6
Continuous
 62
     7
370
    25
100
AcDbLine
 10
94.2010334232
 20
68.6881097179
 30
0.0
 11
94.2010334232
 21
68.0881097179
 31
0.0
  0
ARC
  5
18B
330
1F
100
AcDbEntity
  8
0
  6
Continuous
 62
     7
370
    25
100
AcDbCircle
 10
96.7010334232
 20
68.6881097179
 30
0.0
 40
0.25
100
AcDbArc
 50
0.0
 51
90.0
  0
LINE
  5
18C
330
1F
100
AcDbEntity
  8
0
  6
Continuous
 62
     7
370
    25
100
AcDbLine
 10
96.7010334232
 20
68.6881097179
 30
0.0
 11
96.9510334232
 21
68.6881097179
 31
0.0
  0
LINE
  5
18D
330
1F
100
AcDbEntity
  8
0
  6
Continuous
 62
     7
370
    25
100
AcDbLine
 10
96.9510334232
 20
68.6881097179
 30
0.0
 11
96.9510334232
 21
68.0881097179
 31
0.0
  0
LINE
  5
18E
330
1F
100
AcDbEntity
  8
0
  6
Continuous
 62
     7
370
    25
100
AcDbLine
 10
96.9510334232
 20
68.0881097179
 30
0.0
 11
96.7010334232
 21
68.0881097179
 31
0.0
  0
LINE
  5
18F
330
1F
100
AcDbEntity
  8
0
  6
Continuous
 62
     7
370
    25
100
AcDbLine
 10
93.9510334232
 20
68.0881097179
 30
0.0
 11
93.9510334232
 21
68.6881097179
 31
0.0
  0
LINE
  5
190
330
1F
100
AcDbEntity
  8
0
  6
Continuous
 62
     7
370
    25
100
AcDbLine
 10
94.2010334232
 20
68.0881097179
 30
0.0
 11
93.9510334232
 21
68.0881097179
 31
0.0
  0
SPLINE
  5
191
330
1F
100
AcDbEntity
  8
0
  6
Continuous
 62
     7
370
    25
100
AcDbSpline
210
0.0
220
0.0
230
1.0
 70
     8
 71
     3
 72
    15
 73
    11
 74
     0
 42
0.00000001
 43
0.00000001
 40
0.0
 40
0.0
 40
0.0
 40
0.0
 40
0.0081667445812973
 40
0.3321939991490804
 40
0.475627960058556
 40
0.6866830973284891
 40
0.8457435502264751
 40
0.8967566214763124
 40
0.9909540928118028
 40
1.0
 40
1.0
 40
1.0
 40
1.0
 10
96.70103342316837
 20
68.93810971786833
 30
0.0
 10
96.70247088610739
 20
68.93810704152254
 30
0.0
 10
96.7609417440594
 20
68.93799817733577
 30
0.0
 10
96.84536692177855
 20
68.92845216506632
 30
0.0
 10
96.95994599380104
 20
68.89108978181177
 30
0.0
 10
97.04131688099761
 20
68.84622426707709
 30
0.0
 10
97.09433587299928
 20
68.78834796750019
 30
0.0
 10
97.11853780484343
 20
68.73767192752827
 30
0.0
 10
97.1247274255096
 20
68.70897764800826
 30
0.0
 10
97.12492882092216
 20
68.68979081645276
 30
0.0
 10
97.12494646664663
 20
68.68810971786834
 30
0.0
  0
LINE
  5
192
330
1F
100
AcDbEntity
  8
0
  6
Continuous
 62
     7
370
    25
100
AcDbLine
 10
96.9510334232
 20
68.6881097179
 30
0.0
 11
97.1249464666
 21
68.6881097179
 31
0.0
  0
LINE
  5
193
330
1F
100
AcDbEntity
  8
0
  6
Continuous
 62
     7
370
    25
100
AcDbLine
 10
93.7771203797
 20
68.6881097179
 30
0.0
 11
93.9510334232
 21
68.6881097179
 31
0.0
  0
SPLINE
  5
194
330
1F
100
AcDbEntity
  8
0
  6
Continuous
 62
     7
370
    25
100
AcDbSpline
210
0.0
220
0.0
230
1.0
 70
     8
 71
     3
 72
    15
 73
    11
 74
     0
 42
0.00000001
 43
0.00000001
 40
0.0
 40
0.0
 40
0.0
 40
0.0
 40
0.0090459071881971
 40
0.1032433785236874
 40
0.1542564497735246
 40
0.313316902671511
 40
0.5243720399414428
 40
0.6678060008509903
 40
0.9918332554187292
 40
1.0
 40
1.0
 40
1.0
 40
1.0
 10
93.7771203796901
 20
68.68810971786833
 30
0.0
 10
93.77713802541457
 20
68.68979081645276
 30
0.0
 10
93.77733942082712
 20
68.70897764800829
 30
0.0
 10
93.78352904149331
 20
68.73767192752825
 30
0.0
 10
93.80773097333746
 20
68.78834796750021
 30
0.0
 10
93.86074996533912
 20
68.84622426707708
 30
0.0
 10
93.94212085253571
 20
68.89108978181177
 30
0.0
 10
94.05669992455816
 20
68.92845216506632
 30
0.0
 10
94.14112510227764
 20
68.93799817733577
 30
0.0
 10
94.19959596022935
 20
68.93810704152256
 30
0.0
 10
94.20103342316837
 20
68.93810971786833
 30
0.0
  0
LINE
  5
195
330
1F
100
AcDbEntity
  8
0
  6
Continuous
 62
     7
370
    25
100
AcDbLine
 10
97.1249464666
 20
68.6881097179
 30
0.0
 11
97.1249464666
 21
68.0881097179
 31
0.0
  0
LINE
  5
196
330
1F
100
AcDbEntity
  8
0
  6
Continuous
 62
     7
370
    25
100
AcDbLine
 10
97.1249464666
 20
68.0881097179
 30
0.0
 11
96.9510334232
 21
68.0881097179
 31
0.0
  0
LINE
  5
197
330
1F
100
AcDbEntity
  8
0
  6
Continuous
 62
     7
370
    25
100
AcDbLine
 10
93.7771203797
 20
68.0881097179
 30
0.0
 11
93.7771203797
 21
68.6881097179
 31
0.0
  0
LINE
  5
198
330
1F
100
AcDbEntity
  8
0
  6
Continuous
 62
     7
370
    25
100
AcDbLine
 10
93.9510334232
 20
68.0881097179
 30
0.0
 11
93.7771203797
 21
68.0881097179
 31
0.0
  0
LINE
  5
199
330
1F
100
AcDbEntity
  8
0
  6
Continuous
 62
     7
370
    25
100
AcDbLine
 10
96.7010334232
 20
68.9381097179
 30
0.0
 11
100.7010334232
 21
68.9381097179
 31
0.0
  0
LINE
  5
19A
330
1F
100
AcDbEntity
  8
0
  6
Continuous
 62
     7
370
    25
100
AcDbLine
 10
90.2010334232
 20
68.9381097179
 30
0.0
 11
94.2010334232
 21
68.9381097179
 31
0.0
  0
LINE
  5
19B
330
1F
100
AcDbEntity
  8
0
  6
Continuous
 62
     7
370
    25
100
AcDbLine
 10
97.1249464666
 20
68.0881097179
 30
0.0
 11
100.9510334232
 21
68.0881097179
 31
0.0
  0
LINE
  5
19C
330
1F
100
AcDbEntity
  8
0
  6
Continuous
 62
     7
370
    25
100
AcDbLine
 10
89.9510334232
 20
68.0881097179
 30
0.0
 11
93.7771203797
 21
68.0881097179
 31
0.0
  0
LINE
  5
19D
330
1F
100
AcDbEntity
  8
0
  6
Continuous
 62
     7
370
    25
100
AcDbLine
 10
94.8510334232
 20
68.9481097179
 30
0.0
 11
96.0510334232
 21
68.9481097179
 31
0.0
  0
LINE
  5
19E
330
1F
100
AcDbEntity
  8
0
  6
Continuous
 62
     7
370
    25
100
AcDbLine
 10
94.8510334232
 20
68.9381097179
 30
0.0
 11
94.8510334232
 21
68.9481097179
 31
0.0
  0
LINE
  5
19F
330
1F
100
AcDbEntity
  8
0
  6
Continuous
 62
     7
370
    25
100
AcDbLine
 10
96.0510334232
 20
68.9381097179
 30
0.0
 11
96.0510334232
 21
68.9481097179
 31
0.0
  0
LINE
  5
1A0
330
1F
100
AcDbEntity
  8
0
  6
Continuous
 62
     7
370
    25
100
AcDbLine
 10
88.0010334232
 20
60.0881097178
 30
0.0
 11
102.9010334232
 21
60.0881097178
 31
0.0
  0
LINE
  5
1A1
330
1F
100
AcDbEntity
  8
0
  6
Continuous
 62
     7
370
    25
100
AcDbLine
 10
88.4510334232
 20
52.0881097179
 30
0.0
 11
102.4510334232
 21
52.0881097179
 31
0.0
  0
LINE
  5
1A2
330
1F
100
AcDbEntity
  8
0
  6
Continuous
 62
     7
370
    25
100
AcDbLine
 10
91.9510334232
 20
70.0881097179
 30
0.0
 11
91.9510334232
 21
68.9381097179
 31
0.0
  0
LINE
  5
1A3
330
1F
100
AcDbEntity
  8
0
  6
Continuous
 62
     7
370
    25
100
AcDbLine
 10
91.9510334232
 20
70.0881097179
 30
0.0
 11
92.1793341591
 21
70.0881097179
 31
0.0
  0
LINE
  5
1A4
330
1F
100
AcDbEntity
  8
0
  6
Continuous
 62
     7
370
    25
100
AcDbLine
 10
92.1793341591
 20
70.0881097179
 30
0.0
 11
92.1793341591
 21
68.9381097179
 31
0.0
  0
LINE
  5
1A5
330
1F
100
AcDbEntity
  8
0
  6
Continuous
 62
     7
370
    25
100
AcDbLine
 10
98.7227326872
 20
70.0881097179
 30
0.0
 11
98.7227326872
 21
68.9381097179
 31
0.0
  0
LINE
  5
1A6
330
1F
100
AcDbEntity
  8
0
  6
Continuous
 62
     7
370
    25
100
AcDbLine
 10
98.7227326872
 20
70.0881097179
 30
0.0
 11
98.9510334232
 21
70.0881097179
 31
0.0
  0
LINE
  5
1A7
330
1F
100
AcDbEntity
  8
0
  6
Continuous
 62
     7
370
    25
100
AcDbLine
 10
98.9510334232
 20
68.9381097179
 30
0.0
 11
98.9510334232
 21
70.0881097179
 31
0.0
  0
LINE
  5
1A8
330
1F
100
AcDbEntity
  8
0
  6
Continuous
 62
     7
370
    25
100
AcDbLine
 10
92.1793341591
 20
70.0881097179
 30
0.0
 11
98.7227326872
 21
70.0881097179
 31
0.0
  0
SPLINE
  5
1A9
330
1F
100
AcDbEntity
  8
0
  6
Continuous
 62
     7
370
    25
100
AcDbSpline
210
0.0
220
0.0
230
1.0
 70
     8
 71
     3
 72
    10
 73
     6
 74
     0
 42
0.00000001
 43
0.00000001
 40
0.0
 40
0.0
 40
0.0
 40
0.0
 40
0.5
 40
0.5
 40
1.0
 40
1.0
 40
1.0
 40
1.0
 10
86.95103342316837
 20
36.96930756435133
 30
0.0
 10
86.95103342316835
 20
36.88342050254887
 30
0.0
 10
86.97382587249818
 20
36.79601329356873
 30
0.0
 10
87.06176857659125
 20
36.643376850975
 30
0.0
 10
87.12662635026511
 20
36.57925380602941
 30
0.0
 10
87.20103342316835
 20
36.53629486245911
 30
0.0
  0
SPLINE
  5
1AA
330
1F
100
AcDbEntity
  8
0
  6
Continuous
 62
     7
370
    25
100
AcDbSpline
210
0.0
220
0.0
230
1.0
 70
    24
 71
     3
 72
    14
 73
    10
 74
     0
 42
0.00000001
 43
0.00000001
 40
0.0
 40
0.0
 40
0.0
 40
0.0
 40
0.25
 40
0.25
 40
0.5
 40
0.5
 40
0.75
 40
0.75
 40
1.0
 40
1.0
 40
1.0
 40
1.0
 10
86.95103342316837
 20
36.96930756435128
 30
0.0
 10
86.95103342316837
 20
37.72368762500126
 30
0.0
 10
86.95103342316837
 20
38.49312879246676
 30
0.0
 10
86.95103342316837
 20
40.03364015340792
 30
0.0
 10
86.95103342316837
 20
40.80849453341494
 30
0.0
 10
86.95103342316837
 20
42.3688554883005
 30
0.0
 10
86.95103342316837
 20
43.15931168108553
 30
0.0
 10
86.95103342316837
 20
44.70159134389399
 30
0.0
 10
86.95103342316837
 20
45.45898209709518
 30
0.0
 10
86.95103342316837
 20
46.20691187138534
 30
0.0
  0
SPLINE
  5
1AB
330
1F
100
AcDbEntity
  8
0
  6
Continuous
 62
     7
370
    25
100
AcDbSpline
210
0.0
220
0.0
230
1.0
 70
     8
 71
     3
 72
    10
 73
     6
 74
     0
 42
0.00000001
 43
0.00000001
 40
0.0
 40
0.0
 40
0.0
 40
0.0
 40
0.5
 40
0.5
 40
1.0
 40
1.0
 40
1.0
 40
1.0
 10
87.20103342316837
 20
46.63992457327756
 30
0.0
 10
87.12665304579103
 20
46.59698104237633
 30
0.0
 10
87.06235240700526
 20
46.53353859775221
 30
0.0
 10
86.97413672222233
 20
46.38105976063324
 30
0.0
 10
86.95103342316837
 20
46.29282975852596
 30
0.0
 10
86.95103342316837
 20
46.20691187138534
 30
0.0
  0
SPLINE
  5
1AC
330
1F
100
AcDbEntity
  8
0
  6
Continuous
 62
     7
370
    25
100
AcDbSpline
210
0.0
220
0.0
230
1.0
 70
    24
 71
     3
 72
    16
 73
    12
 74
     0
 42
0.00000001
 43
0.00000001
 40
0.0
 40
0.0
 40
0.0
 40
0.0
 40
0.2500000000000001
 40
0.2500000000000001
 40
0.5000000000000001
 40
0.5000000000000001
 40
0.6250000000000001
 40
0.6250000000000001
 40
0.7500000000000002
 40
0.7500000000000002
 40
1.0
 40
1.0
 40
1.0
 40
1.0
 10
95.20103342316837
 20
51.25872672679456
 30
0.0
 10
94.54751664312757
 20
50.88141863791807
 30
0.0
 10
93.88929623403759
 20
50.50139490754387
 30
0.0
 10
92.5597336506718
 20
49.73377159213317
 30
0.0
 10
91.88830966860125
 20
49.34612477534438
 30
0.0
 10
90.86930858159454
 20
48.75780422345653
 30
0.0
 10
90.52796779927836
 20
48.56073103090088
 30
0.0
 10
89.8523692963079
 20
48.17067405334678
 30
0.0
 10
89.51671014634327
 20
47.97688115275874
 30
0.0
 10
88.51544450984358
 20
47.39880016799532
 30
0.0
 10
87.85553685124043
 20
47.0178023036605
 30
0.0
 10
87.20103342316837
 20
46.63992457327756
 30
0.0
  0
SPLINE
  5
1AD
330
1F
100
AcDbEntity
  8
0
  6
Continuous
 62
     7
370
    25
100
AcDbSpline
210
0.0
220
0.0
230
1.0
 70
     8
 71
     3
 72
    10
 73
     6
 74
     0
 42
0.00000001
 43
0.00000001
 40
0.0
 40
0.0
 40
0.0
 40
0.0
 40
0.5
 40
0.5
 40
1.0
 40
1.0
 40
1.0
 40
1.0
 10
95.70103342316837
 20
51.25872672679456
 30
0.0
 10
95.62665304579103
 20
51.3016702576958
 30
0.0
 10
95.53955995767546
 20
51.32563502205178
 30
0.0
 10
95.36340156879946
 20
51.32579262752656
 30
0.0
 10
95.27544049607162
 20
51.30168567036488
 30
0.0
 10
95.20103342316837
 20
51.25872672679457
 30
0.0
  0
SPLINE
  5
1AE
330
1F
100
AcDbEntity
  8
0
  6
Continuous
 62
     7
370
    25
100
AcDbSpline
210
0.0
220
0.0
230
1.0
 70
    24
 71
     3
 72
    16
 73
    12
 74
     0
 42
0.00000001
 43
0.00000001
 40
0.0
 40
0.0
 40
0.0
 40
0.0
 40
0.2499999999999997
 40
0.2499999999999997
 40
0.4999999999999993
 40
0.4999999999999993
 40
0.6249999999999993
 40
0.6249999999999993
 40
0.7499999999999996
 40
0.7499999999999996
 40
1.0
 40
1.0
 40
1.0
 40
1.0
 10
103.7010334231684
 20
46.63992457327756
 30
0.0
 10
103.0475166431276
 20
47.01723266215406
 30
0.0
 10
102.3892962340376
 20
47.39725639252826
 30
0.0
 10
101.0597336506718
 20
48.16487970793895
 30
0.0
 10
100.3883096686013
 20
48.55252652472776
 30
0.0
 10
99.36930858159454
 20
49.14084707661561
 30
0.0
 10
99.02796779927836
 20
49.33792026917125
 30
0.0
 10
98.35236929630788
 20
49.72797724672535
 30
0.0
 10
98.01671014634327
 20
49.92177014731339
 30
0.0
 10
97.01544450984358
 20
50.49985113207682
 30
0.0
 10
96.35553685124042
 20
50.88084899641164
 30
0.0
 10
95.70103342316837
 20
51.25872672679456
 30
0.0
  0
SPLINE
  5
1AF
330
1F
100
AcDbEntity
  8
0
  6
Continuous
 62
     7
370
    25
100
AcDbSpline
210
0.0
220
0.0
230
1.0
 70
     8
 71
     3
 72
    10
 73
     6
 74
     0
 42
0.00000001
 43
0.00000001
 40
0.0
 40
0.0
 40
0.0
 40
0.0
 40
0.5
 40
0.5
 40
1.0
 40
1.0
 40
1.0
 40
1.0
 10
103.9510334231684
 20
46.20691187138534
 30
0.0
 10
103.9510334231684
 20
46.2927989331878
 30
0.0
 10
103.9282409738386
 20
46.38020614216791
 30
0.0
 10
103.8402982697455
 20
46.53284258476166
 30
0.0
 10
103.7754404960716
 20
46.59696562970725
 30
0.0
 10
103.7010334231684
 20
46.63992457327756
 30
0.0
  0
SPLINE
  5
1B0
330
1F
100
AcDbEntity
  8
0
  6
Continuous
 62
     7
370
    25
100
AcDbSpline
210
0.0
220
0.0
230
1.0
 70
    24
 71
     3
 72
    14
 73
    10
 74
     0
 42
0.00000001
 43
0.00000001
 40
0.0
 40
0.0
 40
0.0
 40
0.0
 40
0.25
 40
0.25
 40
0.5
 40
0.5
 40
0.75
 40
0.75
 40
1.0
 40
1.0
 40
1.0
 40
1.0
 10
103.9510334231684
 20
36.96930756435128
 30
0.0
 10
103.9510334231684
 20
37.72368762500125
 30
0.0
 10
103.9510334231684
 20
38.49312879246676
 30
0.0
 10
103.9510334231684
 20
40.03364015340792
 30
0.0
 10
103.9510334231684
 20
40.80849453341494
 30
0.0
 10
103.9510334231684
 20
42.3688554883005
 30
0.0
 10
103.9510334231684
 20
43.15931168108553
 30
0.0
 10
103.9510334231684
 20
44.70159134389399
 30
0.0
 10
103.9510334231684
 20
45.45898209709518
 30
0.0
 10
103.9510334231684
 20
46.20691187138534
 30
0.0
  0
SPLINE
  5
1B1
330
1F
100
AcDbEntity
  8
0
  6
Continuous
 62
     7
370
    25
100
AcDbSpline
210
0.0
220
0.0
230
1.0
 70
     8
 71
     3
 72
    10
 73
     6
 74
     0
 42
0.00000001
 43
0.00000001
 40
0.0
 40
0.0
 40
0.0
 40
0.0
 40
0.5
 40
0.5
 40
1.0
 40
1.0
 40
1.0
 40
1.0
 10
103.7010334231684
 20
36.53629486245911
 30
0.0
 10
103.7754138005455
 20
36.57923839336024
 30
0.0
 10
103.839714439331
 20
36.64268083798391
 30
0.0
 10
103.9279301241143
 20
36.79515967510303
 30
0.0
 10
103.9510334231684
 20
36.88338967721051
 30
0.0
 10
103.9510334231684
 20
36.9693075643513
 30
0.0
  0
SPLINE
  5
1B2
330
1F
100
AcDbEntity
  8
0
  6
Continuous
 62
     7
370
    25
100
AcDbSpline
210
0.0
220
0.0
230
1.0
 70
    24
 71
     3
 72
    16
 73
    12
 74
     0
 42
0.00000001
 43
0.00000001
 40
0.0
 40
0.0
 40
0.0
 40
0.0
 40
0.2500000000000002
 40
0.2500000000000002
 40
0.5000000000000004
 40
0.5000000000000004
 40
0.6250000000000003
 40
0.6250000000000003
 40
0.7500000000000002
 40
0.7500000000000002
 40
1.0
 40
1.0
 40
1.0
 40
1.0
 10
95.70103342316837
 20
31.9174927089421
 30
0.0
 10
96.35455020320913
 20
32.29480079781857
 30
0.0
 10
97.01277061229904
 20
32.67482452819274
 30
0.0
 10
98.34233319566474
 20
33.44244784360338
 30
0.0
 10
99.01375717773523
 20
33.83009466039215
 30
0.0
 10
100.0327582647419
 20
34.41841521227994
 30
0.0
 10
100.374099047058
 20
34.61548840483557
 30
0.0
 10
101.0496975500284
 20
35.00554538238965
 30
0.0
 10
101.385356699993
 20
35.19933828297767
 30
0.0
 10
102.3866223364927
 20
35.77741926774106
 30
0.0
 10
103.0465299950958
 20
36.15841713207585
 30
0.0
 10
103.7010334231678
 20
36.53629486245875
 30
0.0
  0
SPLINE
  5
1B3
330
1F
100
AcDbEntity
  8
0
  6
Continuous
 62
     7
370
    25
100
AcDbSpline
210
0.0
220
0.0
230
1.0
 70
     8
 71
     3
 72
    10
 73
     6
 74
     0
 42
0.00000001
 43
0.00000001
 40
0.0
 40
0.0
 40
0.0
 40
0.0
 40
0.5
 40
0.5
 40
1.0
 40
1.0
 40
1.0
 40
1.0
 10
95.20103342316837
 20
31.9174927089421
 30
0.0
 10
95.2754138005457
 20
31.87454917804087
 30
0.0
 10
95.36250688866127
 20
31.85058441368489
 30
0.0
 10
95.53866527753726
 20
31.85042680821011
 30
0.0
 10
95.6266263502651
 20
31.87453376537179
 30
0.0
 10
95.70103342316837
 20
31.9174927089421
 30
0.0
  0
SPLINE
  5
1B4
330
1F
100
AcDbEntity
  8
0
  6
Continuous
 62
     7
370
    25
100
AcDbSpline
210
0.0
220
0.0
230
1.0
 70
    24
 71
     3
 72
    16
 73
    12
 74
     0
 42
0.00000001
 43
0.00000001
 40
0.0
 40
0.0
 40
0.0
 40
0.0
 40
0.2500000000000001
 40
0.2500000000000001
 40
0.5000000000000002
 40
0.5000000000000002
 40
0.6250000000000001
 40
0.6250000000000001
 40
0.7500000000000001
 40
0.7500000000000001
 40
1.0
 40
1.0
 40
1.0
 40
1.0
 10
87.20103342316837
 20
36.53629486245911
 30
0.0
 10
87.85455020320917
 20
36.15898677358261
 30
0.0
 10
88.51277061229915
 20
35.77896304320841
 30
0.0
 10
89.84233319566493
 20
35.01133972779771
 30
0.0
 10
90.51375717773549
 20
34.62369291100892
 30
0.0
 10
91.5327582647422
 20
34.03537235912107
 30
0.0
 10
91.87409904705837
 20
33.83829916656541
 30
0.0
 10
92.54969755002884
 20
33.44824218901132
 30
0.0
 10
92.88535669999347
 20
33.25444928842328
 30
0.0
 10
93.88662233649318
 20
32.67636830365986
 30
0.0
 10
94.54652999509632
 20
32.29537043932503
 30
0.0
 10
95.20103342316837
 20
31.9174927089421
 30
0.0
  0
CIRCLE
  5
1B5
330
1F
100
AcDbEntity
  8
0
  6
Continuous
 62
     7
370
    25
100
AcDbCircle
 10
95.4510334232
 20
41.5881097179
 30
0.0
 40
8.25
  0
SPLINE
  5
1B6
330
1F
100
AcDbEntity
  8
0
  6
Continuous
 62
     7
370
    25
100
AcDbSpline
210
0.0
220
0.0
230
1.0
 70
     8
 71
     3
 72
    10
 73
     6
 74
     0
 42
0.00000001
 43
0.00000001
 40
0.0
 40
0.0
 40
0.0
 40
0.0
 40
0.5
 40
0.5
 40
1.0
 40
1.0
 40
1.0
 40
1.0
 10
95.20103342316837
 20
30.26583112312852
 30
0.0
 10
95.27540817715843
 20
30.28950472761965
 30
0.0
 10
95.36250190872434
 20
30.30259750341287
 30
0.0
 10
95.53866773726878
 20
30.30268407151383
 30
0.0
 10
95.62662876115907
 20
30.28951424739054
 30
0.0
 10
95.70103342316837
 20
30.26583112312852
 30
0.0
  0
SPLINE
  5
1B7
330
1F
100
AcDbEntity
  8
0
  6
Continuous
 62
     7
370
    25
100
AcDbSpline
210
0.0
220
0.0
230
1.0
 70
     8
 71
     3
 72
    12
 73
     8
 74
     0
 42
0.00000001
 43
0.00000001
 40
0.0
 40
0.0
 40
0.0
 40
0.0
 40
0.2500000000000003
 40
0.2500000000000003
 40
0.5000000000000002
 40
0.5000000000000002
 40
1.0
 40
1.0
 40
1.0
 40
1.0
 10
99.70103342316837
 20
29.58810971786833
 30
0.0
 10
99.3632774881456
 20
29.58810971786833
 30
0.0
 10
99.0228694732671
 20
29.60385604789029
 30
0.0
 10
98.34837478886668
 20
29.66530107247572
 30
0.0
 10
98.01324946999944
 20
29.71088983172945
 30
0.0
 10
97.01353815165929
 20
29.88734083398604
 30
0.0
 10
96.35460404859401
 20
30.05779853594954
 30
0.0
 10
95.70103342316835
 20
30.26583112312838
 30
0.0
  0
LINE
  5
1B8
330
1F
100
AcDbEntity
  8
0
  6
Continuous
 62
     7
370
    25
100
AcDbLine
 10
91.2010334232
 20
29.5881097179
 30
0.0
 11
99.7010334232
 21
29.5881097179
 31
0.0
  0
SPLINE
  5
1B9
330
1F
100
AcDbEntity
  8
0
  6
Continuous
 62
     7
370
    25
100
AcDbSpline
210
0.0
220
0.0
230
1.0
 70
     8
 71
     3
 72
    10
 73
     6
 74
     0
 42
0.00000001
 43
0.00000001
 40
0.0
 40
0.0
 40
0.0
 40
0.0
 40
0.5
 40
0.5
 40
1.0
 40
1.0
 40
1.0
 40
1.0
 10
95.20103342316843
 20
30.26583112312806
 30
0.0
 10
94.54502065656331
 20
30.0570211984618
 30
0.0
 10
93.88475374970561
 20
29.88648705871455
 30
0.0
 10
92.5524072310706
 20
29.65170125369562
 30
0.0
 10
91.88025424958326
 20
29.58810971786833
 30
0.0
 10
91.20103342316837
 20
29.58810971786833
 30
0.0
  0
LINE
  5
1BA
330
1F
100
AcDbEntity
  8
0
  6
Continuous
 62
     7
370
    25
100
AcDbLine
 10
95.7010334232
 20
31.9174927089
 30
0.0
 11
95.7010334232
 21
30.2658311231
 31
0.0
  0
LINE
  5
1BB
330
1F
100
AcDbEntity
  8
0
  6
Continuous
 62
     7
370
    25
100
AcDbLine
 10
95.2010334232
 20
30.2658311231
 30
0.0
 11
95.2010334232
 21
31.9174927089
 31
0.0
  0
SPLINE
  5
1BC
330
1F
100
AcDbEntity
  8
0
  6
Continuous
 62
     7
370
    25
100
AcDbSpline
210
0.0
220
0.0
230
1.0
 70
     8
 71
     3
 72
    12
 73
     8
 74
     0
 42
0.00000001
 43
0.00000001
 40
0.0
 40
0.0
 40
0.0
 40
0.0
 40
0.2499999999999998
 40
0.2499999999999998
 40
0.4999999999999996
 40
0.4999999999999996
 40
1.0
 40
1.0
 40
1.0
 40
1.0
 10
91.20103342316837
 20
29.58810971786833
 30
0.0
 10
90.86327748814558
 20
29.58810971786833
 30
0.0
 10
90.52286947326708
 20
29.60385604789029
 30
0.0
 10
89.84837478886668
 20
29.66530107247572
 30
0.0
 10
89.51324946999944
 20
29.71088983172945
 30
0.0
 10
88.51353815165929
 20
29.88734083398604
 30
0.0
 10
87.85460404859401
 20
30.05779853594954
 30
0.0
 10
87.20103342316834
 20
30.26583112312838
 30
0.0
  0
LINE
  5
1BD
330
1F
100
AcDbEntity
  8
0
  6
Continuous
 62
     7
370
    25
100
AcDbLine
 10
87.2010334232
 20
33.621713178
 30
0.0
 11
87.2010334232
 21
30.2658311231
 31
0.0
  0
SPLINE
  5
1BE
330
1F
100
AcDbEntity
  8
0
  6
Continuous
 62
     7
370
    25
100
AcDbSpline
210
0.0
220
0.0
230
1.0
 70
     8
 71
     3
 72
    10
 73
     6
 74
     0
 42
0.00000001
 43
0.00000001
 40
0.0
 40
0.0
 40
0.0
 40
0.0
 40
0.5
 40
0.5
 40
1.0
 40
1.0
 40
1.0
 40
1.0
 10
87.20103342316884
 20
33.62171317801349
 30
0.0
 10
87.83586112898249
 20
33.8237798635644
 30
0.0
 10
88.47512683155827
 20
33.99017263583505
 30
0.0
 10
89.76594176314816
 20
34.22421960970511
 30
0.0
 10
90.41756139861799
 20
34.29130786366393
 30
0.0
 10
91.0766033304381
 20
34.29873353323372
 30
0.0
  0
SPLINE
  5
1BF
330
1F
100
AcDbEntity
  8
0
  6
Continuous
 62
     7
370
    25
100
AcDbSpline
210
0.0
220
0.0
230
1.0
 70
     8
 71
     3
 72
    12
 73
     8
 74
     0
 42
0.00000001
 43
0.00000001
 40
0.0
 40
0.0
 40
0.0
 40
0.0
 40
0.2499999999999999
 40
0.2499999999999999
 40
0.4999999999999998
 40
0.4999999999999998
 40
1.0
 40
1.0
 40
1.0
 40
1.0
 10
99.82546351592073
 20
34.29873353323347
 30
0.0
 10
100.1545985063139
 20
34.29502504737704
 30
0.0
 10
100.4840606592506
 20
34.27644254453936
 30
0.0
 10
101.1369342773083
 20
34.21157550757322
 30
0.0
 10
101.4613868691854
 20
34.16530995432294
 30
0.0
 10
102.4294473103775
 20
33.98958542401598
 30
0.0
 10
103.0677697946254
 20
33.82328201523923
 30
0.0
 10
103.7010334231684
 20
33.62171317801333
 30
0.0
  0
LINE
  5
1C0
330
1F
100
AcDbEntity
  8
0
  6
Continuous
 62
     7
370
    25
100
AcDbLine
 10
103.7010334232
 20
30.2658311231
 30
0.0
 11
103.7010334232
 21
33.621713178
 31
0.0
  0
SPLINE
  5
1C1
330
1F
100
AcDbEntity
  8
0
  6
Continuous
 62
     7
370
    25
100
AcDbSpline
210
0.0
220
0.0
230
1.0
 70
     8
 71
     3
 72
    10
 73
     6
 74
     0
 42
0.00000001
 43
0.00000001
 40
0.0
 40
0.0
 40
0.0
 40
0.0
 40
0.5
 40
0.5
 40
1.0
 40
1.0
 40
1.0
 40
1.0
 10
103.7010334231684
 20
30.26583112312806
 30
0.0
 10
103.0450206565633
 20
30.0570211984618
 30
0.0
 10
102.3847537497056
 20
29.88648705871455
 30
0.0
 10
101.0524072310706
 20
29.65170125369562
 30
0.0
 10
100.3802542495833
 20
29.58810971786833
 30
0.0
 10
99.70103342316837
 20
29.58810971786833
 30
0.0
  0
SPLINE
  5
1C2
330
1F
100
AcDbEntity
  8
0
  6
Continuous
 62
     7
370
    25
100
AcDbSpline
210
0.0
220
0.0
230
1.0
 70
     8
 71
     3
 72
    10
 73
     6
 74
     0
 42
0.00000001
 43
0.00000001
 40
0.0
 40
0.0
 40
0.0
 40
0.0
 40
0.5
 40
0.5
 40
1.0
 40
1.0
 40
1.0
 40
1.0
 10
103.7010334231684
 20
30.26583112312852
 30
0.0
 10
103.7754038900939
 20
30.28950336304009
 30
0.0
 10
103.8397094863818
 20
30.30259735297534
 30
0.0
 10
103.9279322741876
 20
30.30268422043679
 30
0.0
 10
103.9510334231684
 20
30.28951443067743
 30
0.0
 10
103.9510334231684
 20
30.26583112312852
 30
0.0
  0
LINE
  5
1C3
330
1F
100
AcDbEntity
  8
0
  6
Continuous
 62
     7
370
    25
100
AcDbLine
 10
99.7010334232
 20
29.5881097179
 30
0.0
 11
103.9510334232
 21
29.5881097179
 31
0.0
  0
SPLINE
  5
1C4
330
1F
100
AcDbEntity
  8
0
  6
Continuous
 62
     7
370
    25
100
AcDbSpline
210
0.0
220
0.0
230
1.0
 70
    24
 71
     3
 72
    10
 73
     6
 74
     0
 42
0.00000001
 43
0.00000001
 40
0.0
 40
0.0
 40
0.0
 40
0.0
 40
0.4999999999999999
 40
0.4999999999999999
 40
1.0
 40
1.0
 40
1.0
 40
1.0
 10
103.9510334231684
 20
29.58810971786833
 30
0.0
 10
103.9510334231684
 20
29.58810971786833
 30
0.0
 10
103.9510334231684
 20
29.65039407984685
 30
0.0
 10
103.9510334231684
 20
29.88524219785388
 30
0.0
 10
103.9510334231684
 20
30.05848480498508
 30
0.0
 10
103.9510334231684
 20
30.26583112312852
 30
0.0
  0
SPLINE
  5
1C5
330
1F
100
AcDbEntity
  8
0
  6
Continuous
 62
     7
370
    25
100
AcDbSpline
210
0.0
220
0.0
230
1.0
 70
     8
 71
     3
 72
    10
 73
     6
 74
     0
 42
0.00000001
 43
0.00000001
 40
0.0
 40
0.0
 40
0.0
 40
0.0
 40
0.5
 40
0.5
 40
1.0
 40
1.0
 40
1.0
 40
1.0
 10
86.95103342316837
 20
30.26583112312852
 30
0.0
 10
86.95103342316837
 20
30.28950502368447
 30
0.0
 10
86.9738239948158
 20
30.30259758086362
 30
0.0
 10
87.06176999211462
 20
30.3026839948459
 30
0.0
 10
87.1266307848474
 20
30.28951360324727
 30
0.0
 10
87.20103342316837
 20
30.26583112312852
 30
0.0
  0
LINE
  5
1C6
330
1F
100
AcDbEntity
  8
0
  6
Continuous
 62
     7
370
    25
100
AcDbLine
 10
86.9510334232
 20
29.5881097179
 30
0.0
 11
91.2010334232
 21
29.5881097179
 31
0.0
  0
SPLINE
  5
1C7
330
1F
100
AcDbEntity
  8
0
  6
Continuous
 62
     7
370
    25
100
AcDbSpline
210
0.0
220
0.0
230
1.0
 70
    24
 71
     3
 72
    10
 73
     6
 74
     0
 42
0.00000001
 43
0.00000001
 40
0.0
 40
0.0
 40
0.0
 40
0.0
 40
0.5
 40
0.5
 40
1.0
 40
1.0
 40
1.0
 40
1.0
 10
86.95103342316837
 20
29.58810971786833
 30
0.0
 10
86.95103342316837
 20
29.58810971786833
 30
0.0
 10
86.95103342316837
 20
29.65039407984685
 30
0.0
 10
86.95103342316837
 20
29.88524219785388
 30
0.0
 10
86.95103342316837
 20
30.05848480498507
 30
0.0
 10
86.95103342316837
 20
30.26583112312852
 30
0.0
  0
SPLINE
  5
1C8
330
1F
100
AcDbEntity
  8
0
  6
Continuous
 62
     7
370
    25
100
AcDbSpline
210
0.0
220
0.0
230
1.0
 70
     8
 71
     3
 72
     8
 73
     4
 74
     0
 42
0.00000001
 43
0.00000001
 40
0.0
 40
0.0
 40
0.0
 40
0.0
 40
1.0
 40
1.0
 40
1.0
 40
1.0
 10
86.95103342316837
 20
33.78319850629435
 30
0.0
 10
87.47283957447019
 20
34.0557886419637
 30
0.0
 10
87.99649304332638
 20
34.3249411430851
 30
0.0
 10
88.52283019289287
 20
34.58810971786833
 30
0.0
  0
SPLINE
  5
1C9
330
1F
100
AcDbEntity
  8
0
  6
Continuous
 62
     7
370
    25
100
AcDbSpline
210
0.0
220
0.0
230
1.0
 70
     8
 71
     3
 72
    10
 73
     6
 74
     0
 42
0.00000001
 43
0.00000001
 40
0.0
 40
0.0
 40
0.0
 40
0.0
 40
0.5
 40
0.5
 40
1.0
 40
1.0
 40
1.0
 40
1.0
 10
86.95103342316837
 20
33.62171317801331
 30
0.0
 10
86.95103342316837
 20
33.5980377835889
 30
0.0
 10
86.97382587249821
 20
33.58494667370427
 30
0.0
 10
87.06176857659146
 20
33.58486035241605
 30
0.0
 10
87.12662635026564
 20
33.59802928636
 30
0.0
 10
87.20103342316904
 20
33.62171317801354
 30
0.0
  0
SPLINE
  5
1CA
330
1F
100
AcDbEntity
  8
0
  6
Continuous
 62
     7
370
    25
100
AcDbSpline
210
0.0
220
0.0
230
1.0
 70
    24
 71
     3
 72
     8
 73
     4
 74
     0
 42
0.00000001
 43
0.00000001
 40
0.0
 40
0.0
 40
0.0
 40
0.0
 40
1.0
 40
1.0
 40
1.0
 40
1.0
 10
86.95103342316837
 20
33.78319850629435
 30
0.0
 10
86.95103342316837
 20
33.73230371659353
 30
0.0
 10
86.95103342316837
 20
33.67836986723209
 30
0.0
 10
86.95103342316837
 20
33.62171317801333
 30
0.0
  0
SPLINE
  5
1CB
330
1F
100
AcDbEntity
  8
0
  6
Continuous
 62
     7
370
    25
100
AcDbSpline
210
0.0
220
0.0
230
1.0
 70
     8
 71
     3
 72
     8
 73
     4
 74
     0
 42
0.00000001
 43
0.00000001
 40
0.0
 40
0.0
 40
0.0
 40
0.0
 40
1.0
 40
1.0
 40
1.0
 40
1.0
 10
102.3792366534439
 20
34.58810971786833
 30
0.0
 10
102.9056575146531
 20
34.32489928726373
 30
0.0
 10
103.4292019713668
 20
34.05580185887702
 30
0.0
 10
103.9510334231684
 20
33.78319850629437
 30
0.0
  0
SPLINE
  5
1CC
330
1F
100
AcDbEntity
  8
0
  6
Continuous
 62
     7
370
    25
100
AcDbSpline
210
0.0
220
0.0
230
1.0
 70
     8
 71
     3
 72
    10
 73
     6
 74
     0
 42
0.00000001
 43
0.00000001
 40
0.0
 40
0.0
 40
0.0
 40
0.0
 40
0.5
 40
0.5
 40
1.0
 40
1.0
 40
1.0
 40
1.0
 10
103.7010334231684
 20
33.62171317801333
 30
0.0
 10
103.7754138005457
 20
33.59803778358894
 30
0.0
 10
103.8397144393315
 20
33.5849466737043
 30
0.0
 10
103.9279301241144
 20
33.58486035241602
 30
0.0
 10
103.9510334231684
 20
33.59802928635986
 30
0.0
 10
103.9510334231684
 20
33.62171317801332
 30
0.0
  0
SPLINE
  5
1CD
330
1F
100
AcDbEntity
  8
0
  6
Continuous
 62
     7
370
    25
100
AcDbSpline
210
0.0
220
0.0
230
1.0
 70
    24
 71
     3
 72
     8
 73
     4
 74
     0
 42
0.00000001
 43
0.00000001
 40
0.0
 40
0.0
 40
0.0
 40
0.0
 40
1.0
 40
1.0
 40
1.0
 40
1.0
 10
103.9510334231684
 20
33.78319850629435
 30
0.0
 10
103.9510334231684
 20
33.73230371659353
 30
0.0
 10
103.9510334231684
 20
33.67836986723209
 30
0.0
 10
103.9510334231684
 20
33.62171317801333
 30
0.0
  0
LINE
  5
1CE
330
1F
100
AcDbEntity
  8
0
  6
Continuous
 62
     7
370
    25
100
AcDbLine
 10
100.3266777702
 20
34.5881097179
 30
0.0
 11
102.9510334232
 21
34.5881097179
 31
0.0
  0
LINE
  5
1CF
330
1F
100
AcDbEntity
  8
0
  6
Continuous
 62
     7
370
    25
100
AcDbLine
 10
102.9510334232
 20
36.1032821606
 30
0.0
 11
102.9510334232
 21
34.5881097179
 31
0.0
  0
LINE
  5
1D0
330
1F
100
AcDbEntity
  8
0
  6
Continuous
 62
     7
370
    25
100
AcDbLine
 10
87.9510334232
 20
34.5881097179
 30
0.0
 11
90.5753890762
 21
34.5881097179
 31
0.0
  0
LINE
  5
1D1
330
1F
100
AcDbEntity
  8
0
  6
Continuous
 62
     7
370
    25
100
AcDbLine
 10
87.9510334232
 20
34.5881097179
 30
0.0
 11
87.9510334232
 21
36.1032821606
 31
0.0
  0
LINE
  5
1D2
330
1F
100
AcDbEntity
  8
0
  6
Continuous
 62
     7
370
    25
100
AcDbLine
 10
95.4510334232
 20
20.1917755917
 30
0.0
 11
101.9155854817
 21
20.1917755917
 31
0.0
  0
LINE
  5
1D3
330
1F
100
AcDbEntity
  8
0
  6
Continuous
 62
     7
370
    25
100
AcDbLine
 10
88.9864813646
 20
20.1917755917
 30
0.0
 11
95.4510334232
 21
20.1917755917
 31
0.0
  0
LINE
  5
1D4
330
1F
100
AcDbEntity
  8
0
  6
Continuous
 62
     7
370
    25
100
AcDbLine
 10
100.7010334232
 20
18.0881097179
 30
0.0
 11
90.2010334232
 21
18.0881097179
 31
0.0
  0
LINE
  5
1D5
330
1F
100
AcDbEntity
  8
0
  6
Continuous
 62
     7
370
    25
100
AcDbLine
 10
86.9510334232
 20
30.2658311231
 30
0.0
 11
86.9510334232
 21
33.621713178
 31
0.0
  0
LINE
  5
1D6
330
1F
100
AcDbEntity
  8
0
  6
Continuous
 62
     7
370
    25
100
AcDbLine
 10
103.9510334232
 20
33.621713178
 30
0.0
 11
103.9510334232
 21
30.2658311231
 31
0.0
  0
LINE
  5
1D7
330
1F
100
AcDbEntity
  8
0
  6
Continuous
 62
     7
370
    25
100
AcDbLine
 10
86.9510334232
 20
33.7831985063
 30
0.0
 11
86.9510334232
 21
36.9259752401
 31
0.0
  0
LINE
  5
1D8
330
1F
100
AcDbEntity
  8
0
  6
Continuous
 62
     7
370
    25
100
AcDbLine
 10
103.9510334232
 20
33.7831985063
 30
0.0
 11
103.9510334232
 21
36.9259752401
 31
0.0
  0
LINE
  5
1D9
330
1F
100
AcDbEntity
  8
0
  6
Continuous
 62
     7
370
    25
100
AcDbLine
 10
100.9510334232
 20
68.6881097179
 30
0.0
 11
97.1249464666
 21
68.6881097179
 31
0.0
  0
LINE
  5
1DA
330
1F
100
AcDbEntity
  8
0
  6
Continuous
 62
     7
370
    25
100
AcDbLine
 10
93.7771203797
 20
68.6881097179
 30
0.0
 11
89.9510334232
 21
68.6881097179
 31
0.0
  0
SPLINE
  5
1DB
330
1F
100
AcDbEntity
  8
0
  6
Continuous
 62
     7
370
    25
100
AcDbSpline
210
0.0
220
0.0
230
1.0
 70
     8
 71
     3
 72
    19
 73
    15
 74
     0
 42
0.00000001
 43
0.00000001
 40
0.0
 40
0.0
 40
0.0
 40
0.0
 40
0.0167710688585347
 40
0.0954880965156384
 40
0.1743097676042499
 40
0.2799292915049363
 40
0.3857444498195653
 40
0.4988278511421597
 40
0.6118927375793894
 40
0.707072546897877
 40
0.8021781548762714
 40
0.8927554397895702
 40
0.9832580790853522
 40
0.9999999999999999
 40
0.9999999999999999
 40
0.9999999999999999
 40
0.9999999999999999
 10
89.55867846478161
 20
48.12751528072148
 30
0.0
 10
89.55615321084703
 20
48.12438096013792
 30
0.0
 10
89.54177537402185
 20
48.10653532913385
 30
0.0
 10
89.60522072175552
 20
48.18559833787052
 30
0.0
 10
89.76032595291414
 20
48.3700823730109
 30
0.0
 10
90.0486237315224
 20
48.69006162127639
 30
0.0
 10
90.48105757797738
 20
49.11450979860134
 30
0.0
 10
91.0354903539888
 20
49.57717440341746
 30
0.0
 10
91.6783859030115
 20
50.01765439153724
 30
0.0
 10
92.37782282928171
 20
50.39571532671946
 30
0.0
 10
93.09982314899827
 20
50.69893885628446
 30
0.0
 10
93.87754253833818
 20
50.91733797454781
 30
0.0
 10
94.46559101108245
 20
51.03873773430867
 30
0.0
 10
94.7951811895968
 20
51.052037561658
 30
0.0
 10
94.84663342821949
 20
51.05411379431003
 30
0.0
  0
SPLINE
  5
1DC
330
1F
100
AcDbEntity
  8
0
  6
Continuous
 62
     7
370
    25
100
AcDbSpline
210
0.0
220
0.0
230
1.0
 70
     8
 71
     3
 72
    19
 73
    15
 74
     0
 42
0.00000001
 43
0.00000001
 40
0.0
 40
0.0
 40
0.0
 40
0.0
 40
0.0313541564553034
 40
0.0973967684347409
 40
0.1974102859732945
 40
0.2975360688466763
 40
0.4181236402031824
 40
0.53880765426839
 40
0.6564386871685469
 40
0.7739033257519501
 40
0.8504378822003874
 40
0.9268717291863433
 40
0.9967386140038187
 40
1.0
 40
1.0
 40
1.0
 40
1.0
 10
96.06323063310944
 20
51.04961207013537
 30
0.0
 10
96.15910255473186
 20
51.04439203060314
 30
0.0
 10
96.45691363961825
 20
51.02817679667505
 30
0.0
 10
97.03979904157788
 20
50.9138043317903
 30
0.0
 10
97.78904338002327
 20
50.70453182630923
 30
0.0
 10
98.60950810576516
 20
50.3602099338422
 30
0.0
 10
99.37665479195624
 20
49.92461089265706
 30
0.0
 10
100.0579453866763
 20
49.42921199796226
 30
0.0
 10
100.6086554819477
 20
48.93881596446322
 30
0.0
 10
100.977393038057
 20
48.55585993981474
 30
0.0
 10
101.2054183684899
 20
48.29510803936149
 30
0.0
 10
101.3165243308605
 20
48.16065114285791
 30
0.0
 10
101.3605004890494
 20
48.10675335101813
 30
0.0
 10
101.3495752302689
 20
48.12008710388068
 30
0.0
 10
101.3490879838785
 20
48.12068176466479
 30
0.0
  0
INSERT
  5
1E8
330
1F
100
AcDbEntity
  8
0
  6
Continuous
 62
     7
370
    18
100
AcDbBlockReference
  2
SW_CENTERMARKSYMBOL_0
 10
95.4510334232
 20
41.5881097179
 30
0.0
  0
LINE
  5
1E9
330
1F
100
AcDbEntity
  8
0
  6
Continuous
 62
     7
370
    18
100
AcDbLine
 10
89.3847834232
 20
29.0881097179
 30
0.0
 11
89.7014951193
 21
18.9533354404
 31
0.0
  0
LINE
  5
1EA
330
1F
100
AcDbEntity
  8
0
  6
Continuous
 62
     7
370
    18
100
AcDbLine
 10
101.200571727
 20
18.9533354404
 30
0.0
 11
101.5172834232
 21
29.0881097179
 31
0.0
  0
LINE
  5
1EB
330
1F
100
AcDbEntity
  8
0
  6
Continuous
 62
     7
370
    25
100
AcDbLine
 10
34.6613347521
 20
91.3309452429
 30
0.0
 11
34.8056723194
 21
91.5809452429
 31
0.0
  0
LINE
  5
1EC
330
1F
100
AcDbEntity
  8
0
  6
Continuous
 62
     7
370
    25
100
AcDbLine
 10
34.8056723194
 20
108.0809452429
 30
0.0
 11
34.6613347521
 21
108.3309452429
 31
0.0
  0
LINE
  5
1ED
330
1F
100
AcDbEntity
  8
0
  6
Continuous
 62
     7
370
    25
100
AcDbLine
 10
21.9500098867
 20
108.3309452429
 30
0.0
 11
21.8056723194
 21
108.0809452429
 31
0.0
  0
LINE
  5
1EE
330
1F
100
AcDbEntity
  8
0
  6
Continuous
 62
     7
370
    25
100
AcDbLine
 10
21.8056723194
 20
91.5809452429
 30
0.0
 11
21.9500098867
 21
91.3309452429
 31
0.0
  0
LINE
  5
1EF
330
1F
100
AcDbEntity
  8
0
  6
Continuous
 62
     7
370
    25
100
AcDbLine
 10
40.2540062696
 20
108.3309452429
 30
0.0
 11
40.0540062696
 21
108.1309452429
 31
0.0
  0
LINE
  5
1F0
330
1F
100
AcDbEntity
  8
0
  6
Continuous
 62
     7
370
    25
100
AcDbLine
 10
40.0540062696
 20
91.5309452429
 30
0.0
 11
40.2540062696
 21
91.3309452429
 31
0.0
  0
LINE
  5
1F1
330
1F
100
AcDbEntity
  8
0
  6
Continuous
 62
     7
370
    25
100
AcDbLine
 10
40.2540062696
 20
91.3309452429
 30
0.0
 11
43.0540062696
 21
91.3309452429
 31
0.0
  0
LINE
  5
1F2
330
1F
100
AcDbEntity
  8
0
  6
Continuous
 62
     7
370
    25
100
AcDbLine
 10
43.0540062696
 20
108.3309452429
 30
0.0
 11
40.2540062696
 21
108.3309452429
 31
0.0
  0
LINE
  5
1F3
330
1F
100
AcDbEntity
  8
0
  6
Continuous
 62
     7
370
    25
100
AcDbLine
 10
40.0540062696
 20
106.4094452429
 30
0.0
 11
34.8056723194
 21
106.4094452429
 31
0.0
  0
LINE
  5
1F4
330
1F
100
AcDbEntity
  8
0
  6
Continuous
 62
     7
370
    25
100
AcDbLine
 10
34.8056723194
 20
93.2524452429
 30
0.0
 11
40.0540062696
 21
93.2524452429
 31
0.0
  0
LINE
  5
1F5
330
1F
100
AcDbEntity
  8
0
  6
Continuous
 62
     7
370
    25
100
AcDbLine
 10
66.4096687023
 20
91.3309452429
 30
0.0
 11
66.5540062696
 21
91.5809452429
 31
0.0
  0
LINE
  5
1F6
330
1F
100
AcDbEntity
  8
0
  6
Continuous
 62
     7
370
    25
100
AcDbLine
 10
66.5540062696
 20
108.0809452429
 30
0.0
 11
66.4096687023
 21
108.3309452429
 31
0.0
  0
SPLINE
  5
1F7
330
1F
100
AcDbEntity
  8
0
  6
Continuous
 62
     7
370
    25
100
AcDbSpline
210
0.0
220
0.0
230
1.0
 70
    24
 71
     3
 72
    12
 73
     8
 74
     0
 42
0.00000001
 43
0.00000001
 40
0.0
 40
0.0
 40
0.0
 40
0.0
 40
0.0089632722500476
 40
0.2601391118931938
 40
0.5180098441144606
 40
0.7759523159307594
 40
1.0
 40
1.0
 40
1.0
 40
1.0
 10
34.65906847091725
 20
91.3309452428961
 30
0.0
 10
34.65966525462099
 20
91.3309452428961
 30
0.0
 10
34.6769855789794
 20
91.33094524289612
 30
0.0
 10
34.61388302621982
 20
91.3309452428961
 30
0.0
 10
34.45862247144019
 20
91.33094524289612
 30
0.0
 10
34.21263508165956
 20
91.33094524289612
 30
0.0
 10
34.00067337885928
 20
91.33094524289612
 30
0.0
 10
33.90214537357974
 20
91.33094524289612
 30
0.0
  0
SPLINE
  5
1F8
330
1F
100
AcDbEntity
  8
0
  6
Continuous
 62
     7
370
    25
100
AcDbSpline
210
0.0
220
0.0
230
1.0
 70
     8
 71
     3
 72
    12
 73
     8
 74
     0
 42
0.00000001
 43
0.00000001
 40
0.0
 40
0.0
 40
0.0
 40
0.0
 40
0.2291214594572905
 40
0.458178138134153
 40
0.6923589046010203
 40
0.9264974123066297
 40
1.0
 40
1.0
 40
1.0
 40
1.0
 10
33.90214537357974
 20
91.33094524289612
 30
0.0
 10
34.01762027165852
 20
91.69817421630144
 30
0.0
 10
34.24853741895799
 20
92.4325283344286
 30
0.0
 10
34.49863627564086
 20
93.56345677299538
 30
0.0
 10
34.6425751527973
 20
94.7153447565448
 30
0.0
 10
34.68273938384406
 20
95.61711986384684
 30
0.0
 10
34.64089650836073
 20
96.12687805405679
 30
0.0
 10
34.63089927564199
 20
96.24867110004021
 30
0.0
  0
SPLINE
  5
1F9
330
1F
100
AcDbEntity
  8
0
  6
Continuous
 62
     7
370
    25
100
AcDbSpline
210
0.0
220
0.0
230
1.0
 70
     8
 71
     3
 72
    11
 73
     7
 74
     0
 42
0.00000001
 43
0.00000001
 40
0.0
 40
0.0
 40
0.0
 40
0.0
 40
0.1954999725920645
 40
0.3948327485513209
 40
0.5941966185476528
 40
1.0
 40
1.0
 40
1.0
 40
1.0
 10
34.63204385118167
 20
103.4086167647442
 30
0.0
 10
34.64735610035132
 20
103.7335128611437
 30
0.0
 10
34.67828079740366
 20
104.3896746857934
 30
0.0
 10
34.59726600140037
 20
105.3762813627667
 30
0.0
 10
34.39514283980545
 20
106.703272712356
 30
0.0
 10
34.10003444407405
 20
107.6775978603961
 30
0.0
 10
33.90214537357973
 20
108.3309452428962
 30
0.0
  0
SPLINE
  5
1FA
330
1F
100
AcDbEntity
  8
0
  6
Continuous
 62
     7
370
    25
100
AcDbSpline
210
0.0
220
0.0
230
1.0
 70
    24
 71
     3
 72
    12
 73
     8
 74
     0
 42
0.00000001
 43
0.00000001
 40
0.0
 40
0.0
 40
0.0
 40
0.0
 40
0.2240473149391621
 40
0.4755449009153951
 40
0.726977420015982
 40
0.9845933777645792
 40
1.0
 40
1.0
 40
1.0
 40
1.0
 10
33.90214537357973
 20
108.3309452428962
 30
0.0
 10
34.00068401935528
 20
108.3309452428962
 30
0.0
 10
34.20983426315264
 20
108.3309452428961
 30
0.0
 10
34.45239609109582
 20
108.3309452428961
 30
0.0
 10
34.61034678438532
 20
108.3309452428961
 30
0.0
 10
34.67682112135133
 20
108.3309452428961
 30
0.0
 10
34.65874666578097
 20
108.3309452428961
 30
0.0
 10
34.65772672703049
 20
108.3309452428961
 30
0.0
  0
LINE
  5
1FB
330
1F
100
AcDbEntity
  8
0
  6
Continuous
 62
     7
370
    25
100
AcDbLine
 10
34.8056723194
 20
91.5809452429
 30
0.0
 11
34.8056723194
 21
96.2856153711
 31
0.0
  0
LINE
  5
1FC
330
1F
100
AcDbEntity
  8
0
  6
Continuous
 62
     7
370
    25
100
AcDbLine
 10
34.8056723194
 20
103.3762751147
 30
0.0
 11
34.8056723194
 21
108.0809452429
 31
0.0
  0
LINE
  5
1FD
330
1F
100
AcDbEntity
  8
0
  6
Continuous
 62
     7
370
    25
100
AcDbLine
 10
22.7091992653
 20
108.3309452429
 30
0.0
 11
33.9021453736
 21
108.3309452429
 31
0.0
  0
SPLINE
  5
1FE
330
1F
100
AcDbEntity
  8
0
  6
Continuous
 62
     7
370
    25
100
AcDbSpline
210
0.0
220
0.0
230
1.0
 70
     8
 71
     3
 72
    11
 73
     7
 74
     0
 42
0.00000001
 43
0.00000001
 40
0.0
 40
0.0
 40
0.0
 40
0.0
 40
0.2078428791078478
 40
0.4041174254395382
 40
0.6004225887532638
 40
1.0
 40
1.0
 40
1.0
 40
1.0
 10
21.98130578593805
 20
103.330945242896
 30
0.0
 10
21.96450437234859
 20
103.6817374615709
 30
0.0
 10
21.93183669553107
 20
104.3637971447489
 30
0.0
 10
22.01385029931472
 20
105.3762829247399
 30
0.0
 10
22.21633121442664
 20
106.7032718270754
 30
0.0
 10
22.51136214208917
 20
107.6775975050447
 30
0.0
 10
22.70919926528425
 20
108.3309452428962
 30
0.0
  0
SPLINE
  5
1FF
330
1F
100
AcDbEntity
  8
0
  6
Continuous
 62
     7
370
    25
100
AcDbSpline
210
0.0
220
0.0
230
1.0
 70
    24
 71
     3
 72
    12
 73
     8
 74
     0
 42
0.00000001
 43
0.00000001
 40
0.0
 40
0.0
 40
0.0
 40
0.0
 40
0.2240473149391622
 40
0.4755449009153952
 40
0.7269774200159821
 40
0.9845933777645792
 40
1.0
 40
1.0
 40
1.0
 40
1.0
 10
22.70919926528425
 20
108.3309452428962
 30
0.0
 10
22.6106606195087
 20
108.3309452428962
 30
0.0
 10
22.40151037571134
 20
108.3309452428961
 30
0.0
 10
22.15894854776814
 20
108.3309452428961
 30
0.0
 10
22.00099785447868
 20
108.3309452428961
 30
0.0
 10
21.93452351751263
 20
108.3309452428961
 30
0.0
 10
21.95259797308301
 20
108.3309452428961
 30
0.0
 10
21.9536179118335
 20
108.3309452428961
 30
0.0
  0
SPLINE
  5
200
330
1F
100
AcDbEntity
  8
0
  6
Continuous
 62
     7
370
    25
100
AcDbSpline
210
0.0
220
0.0
230
1.0
 70
     8
 71
     3
 72
    12
 73
     8
 74
     0
 42
0.00000001
 43
0.00000001
 40
0.0
 40
0.0
 40
0.0
 40
0.0
 40
0.2253923253478569
 40
0.450720924274046
 40
0.6810902123832187
 40
0.9114179295261062
 40
1.0
 40
1.0
 40
1.0
 40
1.0
 10
22.70919926528425
 20
91.33094524289612
 30
0.0
 10
22.59371217595028
 20
91.69817464264236
 30
0.0
 10
22.36277064958731
 20
92.43252961333083
 30
0.0
 10
22.11285595924609
 20
93.56345161140834
 30
0.0
 10
21.96820219398394
 20
94.71536459534126
 30
0.0
 10
21.92894431771744
 20
95.64460173381565
 30
0.0
 10
21.97388320353203
 20
96.18174538065698
 30
0.0
 10
21.98636566629994
 20
96.33094524289602
 30
0.0
  0
SPLINE
  5
201
330
1F
100
AcDbEntity
  8
0
  6
Continuous
 62
     7
370
    25
100
AcDbSpline
210
0.0
220
0.0
230
1.0
 70
    24
 71
     3
 72
    12
 73
     8
 74
     0
 42
0.00000001
 43
0.00000001
 40
0.0
 40
0.0
 40
0.0
 40
0.0
 40
0.0089632722500475
 40
0.2601391118931937
 40
0.5180098441144604
 40
0.7759523159307594
 40
1.0
 40
1.0
 40
1.0
 40
1.0
 10
21.95227616794674
 20
91.3309452428961
 30
0.0
 10
21.951679384243
 20
91.3309452428961
 30
0.0
 10
21.93435905988461
 20
91.33094524289609
 30
0.0
 10
21.99746161264416
 20
91.33094524289612
 30
0.0
 10
22.15272216742379
 20
91.33094524289612
 30
0.0
 10
22.39870955720445
 20
91.33094524289612
 30
0.0
 10
22.61067126000472
 20
91.33094524289612
 30
0.0
 10
22.70919926528425
 20
91.33094524289612
 30
0.0
  0
LINE
  5
202
330
1F
100
AcDbEntity
  8
0
  6
Continuous
 62
     7
370
    25
100
AcDbLine
 10
21.8056723194
 20
91.5809452429
 30
0.0
 11
21.8056723194
 21
96.3309452429
 31
0.0
  0
LINE
  5
203
330
1F
100
AcDbEntity
  8
0
  6
Continuous
 62
     7
370
    25
100
AcDbLine
 10
21.8056723194
 20
103.3309452429
 30
0.0
 11
21.8056723194
 21
108.0809452429
 31
0.0
  0
LINE
  5
204
330
1F
100
AcDbEntity
  8
0
  6
Continuous
 62
     7
370
    25
100
AcDbLine
 10
22.7091992653
 20
91.3309452429
 30
0.0
 11
33.9021453736
 21
91.3309452429
 31
0.0
  0
SPLINE
  5
205
330
1F
100
AcDbEntity
  8
0
  6
Continuous
 62
     7
370
    25
100
AcDbSpline
210
0.0
220
0.0
230
1.0
 70
     8
 71
     3
 72
    15
 73
    11
 74
     0
 42
0.00000001
 43
0.00000001
 40
0.0
 40
0.0
 40
0.0
 40
0.0
 40
0.0090459071881971
 40
0.1032433785236817
 40
0.1542564497735191
 40
0.3133169026715104
 40
0.5243720399414403
 40
0.667806000850918
 40
0.9918332554187028
 40
1.0
 40
1.0
 40
1.0
 40
1.0
 10
49.31492093693436
 20
101.5048582863744
 30
0.0
 10
49.31492662890102
 20
101.5048406406499
 30
0.0
 10
49.31499159285182
 20
101.5046392452374
 30
0.0
 10
49.31698727928769
 20
101.4984496245712
 30
0.0
 10
49.32480427550416
 20
101.474247692727
 30
0.0
 10
49.34197409925912
 20
101.4212287007254
 30
0.0
 10
49.36855799582666
 20
101.3398578135288
 30
0.0
 10
49.40638729431529
 20
101.2252787415063
 30
0.0
 10
49.43466807432552
 20
101.1408535637871
 30
0.0
 10
49.45449922185681
 20
101.0823827058351
 30
0.0
 10
49.45498675599968
 20
101.0809452428961
 30
0.0
  0
ARC
  5
206
330
1F
100
AcDbEntity
  8
0
  6
Continuous
 62
     7
370
    25
100
AcDbCircle
 10
54.5540062696
 20
99.8309452429
 30
0.0
 40
5.500000000000004
100
AcDbArc
 50
17.7189318734
 51
162.2810681266
  0
SPLINE
  5
207
330
1F
100
AcDbEntity
  8
0
  6
Continuous
 62
     7
370
    25
100
AcDbSpline
210
0.0
220
0.0
230
1.0
 70
     8
 71
     3
 72
    15
 73
    11
 74
     0
 42
0.00000001
 43
0.00000001
 40
0.0
 40
0.0
 40
0.0
 40
0.0
 40
0.0081667445812973
 40
0.3321939991490804
 40
0.475627960058556
 40
0.6866830973284891
 40
0.8457435502264751
 40
0.8967566214763124
 40
0.9909540928118028
 40
1.0
 40
1.0
 40
1.0
 40
1.0
 10
59.65302578318525
 20
101.0809452428961
 30
0.0
 10
59.65351331732812
 20
101.0823827058351
 30
0.0
 10
59.67334446485938
 20
101.1408535637871
 30
0.0
 10
59.70162524486964
 20
101.2252787415063
 30
0.0
 10
59.73945454335826
 20
101.3398578135288
 30
0.0
 10
59.76603843992581
 20
101.4212287007254
 30
0.0
 10
59.78320826368077
 20
101.474247692727
 30
0.0
 10
59.79102525989722
 20
101.4984496245712
 30
0.0
 10
59.79302094633311
 20
101.5046392452374
 30
0.0
 10
59.79308591028391
 20
101.5048406406499
 30
0.0
 10
59.79309160225058
 20
101.5048582863744
 30
0.0
  0
ARC
  5
208
330
1F
100
AcDbEntity
  8
0
  6
Continuous
 62
     7
370
    25
100
AcDbCircle
 10
54.5540062696
 20
99.8309452429
 30
0.0
 40
5.250000000000002
100
AcDbArc
 50
13.774146998
 51
166.225853002
  0
SPLINE
  5
209
330
1F
100
AcDbEntity
  8
0
  6
Continuous
 62
     7
370
    25
100
AcDbSpline
210
0.0
220
0.0
230
1.0
 70
     8
 71
     3
 72
    15
 73
    11
 74
     0
 42
0.00000001
 43
0.00000001
 40
0.0
 40
0.0
 40
0.0
 40
0.0
 40
0.0080847466189582
 40
0.3310106400648243
 40
0.4750333064304948
 40
0.6874363079215142
 40
0.8468367539418303
 40
0.9000996640391847
 40
0.9910442771984082
 40
1.0
 40
1.0
 40
1.0
 40
1.0
 10
49.45498675599968
 20
101.0809452428961
 30
0.0
 10
49.45370692445555
 20
101.0817611788844
 30
0.0
 10
49.40130727873232
 20
101.1151677290789
 30
0.0
 10
49.32595218727722
 20
101.1639812938127
 30
0.0
 10
49.22403307525956
 20
101.2313517660811
 30
0.0
 10
49.15164213026762
 20
101.2799358064245
 30
0.0
 10
49.10393670200281
 20
101.3123846678831
 30
0.0
 10
49.08240121829549
 20
101.3270957089493
 30
0.0
 10
49.07697220227597
 20
101.3308141598674
 30
0.0
 10
49.0767964501194
 20
101.330934458533
 30
0.0
 10
49.0767806945408
 20
101.3309452428961
 30
0.0
  0
ARC
  5
20A
330
1F
100
AcDbEntity
  8
0
  6
Continuous
 62
     7
370
    25
100
AcDbCircle
 10
49.0767806945
 20
101.5809452429
 30
0.0
 40
0.2500000000000034
100
AcDbArc
 50
270.0
 51
342.2810681266
  0
SPLINE
  5
20B
330
1F
100
AcDbEntity
  8
0
  6
Continuous
 62
     7
370
    25
100
AcDbSpline
210
0.0
220
0.0
230
1.0
 70
     8
 71
     3
 72
    15
 73
    11
 74
     0
 42
0.00000001
 43
0.00000001
 40
0.0
 40
0.0
 40
0.0
 40
0.0
 40
0.0089557228015919
 40
0.0999003359608209
 40
0.1531632460581751
 40
0.3125636920784904
 40
0.5249666935695061
 40
0.6689893599351777
 40
0.991915253381045
 40
1.0
 40
1.0
 40
1.0
 40
1.0
 10
60.03123184464413
 20
101.3309452428961
 30
0.0
 10
60.03121608906552
 20
101.330934458533
 30
0.0
 10
60.03104033690895
 20
101.3308141598674
 30
0.0
 10
60.02561132088944
 20
101.3270957089493
 30
0.0
 10
60.00407583718212
 20
101.3123846678831
 30
0.0
 10
59.95637040891729
 20
101.2799358064245
 30
0.0
 10
59.88397946392537
 20
101.2313517660811
 30
0.0
 10
59.78206035190771
 20
101.1639812938127
 30
0.0
 10
59.70670526045267
 20
101.1151677290788
 30
0.0
 10
59.65430561472937
 20
101.0817611788844
 30
0.0
 10
59.65302578318525
 20
101.0809452428961
 30
0.0
  0
ARC
  5
20C
330
1F
100
AcDbEntity
  8
0
  6
Continuous
 62
     7
370
    25
100
AcDbCircle
 10
60.0312318446
 20
101.5809452429
 30
0.0
 40
0.25
100
AcDbArc
 50
197.7189318734
 51
270.0
  0
SPLINE
  5
20D
330
1F
100
AcDbEntity
  8
0
  6
Continuous
 62
     7
370
    25
100
AcDbSpline
210
0.0
220
0.0
230
1.0
 70
     8
 71
     3
 72
    15
 73
    11
 74
     0
 42
0.00000001
 43
0.00000001
 40
0.0
 40
0.0
 40
0.0
 40
0.0
 40
0.0081667445812695
 40
0.3321939991490083
 40
0.4756279600585602
 40
0.6866830973284899
 40
0.8457435502264811
 40
0.8967566214763185
 40
0.9909540928118029
 40
1.0
 40
1.0
 40
1.0
 40
1.0
 10
49.45498675599968
 20
98.5809452428961
 30
0.0
 10
49.45449922185679
 20
98.5795077799571
 30
0.0
 10
49.43466807432471
 20
98.52103692200538
 30
0.0
 10
49.40638729431546
 20
98.43661174428588
 30
0.0
 10
49.36855799582662
 20
98.32203267226346
 30
0.0
 10
49.34197409925913
 20
98.24066178506685
 30
0.0
 10
49.32480427550416
 20
98.1876427930652
 30
0.0
 10
49.31698727928769
 20
98.16344086122105
 30
0.0
 10
49.31499159285182
 20
98.15725124055487
 30
0.0
 10
49.31492662890102
 20
98.15704984514231
 30
0.0
 10
49.31492093693436
 20
98.15703219941784
 30
0.0
  0
ARC
  5
20E
330
1F
100
AcDbEntity
  8
0
  6
Continuous
 62
     7
370
    25
100
AcDbCircle
 10
54.5540062696
 20
99.8309452429
 30
0.0
 40
5.250000000000002
100
AcDbArc
 50
193.774146998
 51
346.225853002
  0
SPLINE
  5
20F
330
1F
100
AcDbEntity
  8
0
  6
Continuous
 62
     7
370
    25
100
AcDbSpline
210
0.0
220
0.0
230
1.0
 70
     8
 71
     3
 72
    15
 73
    11
 74
     0
 42
0.00000001
 43
0.00000001
 40
0.0
 40
0.0
 40
0.0
 40
0.0
 40
0.0090459071881971
 40
0.1032433785236874
 40
0.1542564497735246
 40
0.313316902671511
 40
0.5243720399414428
 40
0.6678060008509903
 40
0.9918332554187292
 40
1.0
 40
1.0
 40
1.0
 40
1.0
 10
59.79309160225058
 20
98.15703219941784
 30
0.0
 10
59.79308591028391
 20
98.15704984514231
 30
0.0
 10
59.79302094633312
 20
98.15725124055486
 30
0.0
 10
59.79102525989722
 20
98.16344086122105
 30
0.0
 10
59.78320826368078
 20
98.1876427930652
 30
0.0
 10
59.7660384399258
 20
98.24066178506686
 30
0.0
 10
59.73945454335831
 20
98.32203267226346
 30
0.0
 10
59.70162524486948
 20
98.43661174428588
 30
0.0
 10
59.67334446486022
 20
98.52103692200538
 30
0.0
 10
59.65351331732814
 20
98.5795077799571
 30
0.0
 10
59.65302578318525
 20
98.5809452428961
 30
0.0
  0
ARC
  5
210
330
1F
100
AcDbEntity
  8
0
  6
Continuous
 62
     7
370
    25
100
AcDbCircle
 10
54.5540062696
 20
99.8309452429
 30
0.0
 40
5.500000000000004
100
AcDbArc
 50
197.7189318734
 51
342.2810681266
  0
ARC
  5
211
330
1F
100
AcDbEntity
  8
0
  6
Continuous
 62
     7
370
    25
100
AcDbCircle
 10
60.0312318446
 20
98.0809452429
 30
0.0
 40
0.25
100
AcDbArc
 50
90.0
 51
162.2810681266
  0
SPLINE
  5
212
330
1F
100
AcDbEntity
  8
0
  6
Continuous
 62
     7
370
    25
100
AcDbSpline
210
0.0
220
0.0
230
1.0
 70
     8
 71
     3
 72
    15
 73
    11
 74
     0
 42
0.00000001
 43
0.00000001
 40
0.0
 40
0.0
 40
0.0
 40
0.0
 40
0.0080847466189818
 40
0.3310106400647567
 40
0.4750333064304972
 40
0.6874363079215137
 40
0.8468367539418253
 40
0.9000996640391794
 40
0.9910442771984082
 40
1.0
 40
1.0
 40
1.0
 40
1.0
 10
59.65302578318525
 20
98.5809452428961
 30
0.0
 10
59.65430561472939
 20
98.58012930690784
 30
0.0
 10
59.70670526045317
 20
98.54672275671419
 30
0.0
 10
59.7820603519076
 20
98.49790919197932
 30
0.0
 10
59.8839794639254
 20
98.4305387197112
 30
0.0
 10
59.95637040891729
 20
98.3819546793677
 30
0.0
 10
60.00407583718212
 20
98.34950581790916
 30
0.0
 10
60.02561132088943
 20
98.33479477684288
 30
0.0
 10
60.03104033690897
 20
98.33107632592477
 30
0.0
 10
60.03121608906552
 20
98.33095602725926
 30
0.0
 10
60.03123184464413
 20
98.3309452428961
 30
0.0
  0
ARC
  5
213
330
1F
100
AcDbEntity
  8
0
  6
Continuous
 62
     7
370
    25
100
AcDbCircle
 10
49.0767806945
 20
98.0809452429
 30
0.0
 40
0.2500000000000034
100
AcDbArc
 50
17.7189318734
 51
90.0
  0
SPLINE
  5
214
330
1F
100
AcDbEntity
  8
0
  6
Continuous
 62
     7
370
    25
100
AcDbSpline
210
0.0
220
0.0
230
1.0
 70
     8
 71
     3
 72
    15
 73
    11
 74
     0
 42
0.00000001
 43
0.00000001
 40
0.0
 40
0.0
 40
0.0
 40
0.0
 40
0.0089557228015919
 40
0.0999003359608148
 40
0.153163246058169
 40
0.3125636920784848
 40
0.5249666935694999
 40
0.6689893599352451
 40
0.9919152533810159
 40
1.0
 40
1.0
 40
1.0
 40
1.0
 10
49.0767806945408
 20
98.3309452428961
 30
0.0
 10
49.0767964501194
 20
98.33095602725926
 30
0.0
 10
49.07697220227597
 20
98.33107632592477
 30
0.0
 10
49.08240121829549
 20
98.33479477684288
 30
0.0
 10
49.10393670200281
 20
98.34950581790916
 30
0.0
 10
49.15164213026763
 20
98.3819546793677
 30
0.0
 10
49.22403307525953
 20
98.43053871971118
 30
0.0
 10
49.32595218727732
 20
98.49790919197933
 30
0.0
 10
49.40130727873179
 20
98.54672275671412
 30
0.0
 10
49.45370692445554
 20
98.58012930690784
 30
0.0
 10
49.45498675599968
 20
98.5809452428961
 30
0.0
  0
LINE
  5
215
330
1F
100
AcDbEntity
  8
0
  6
Continuous
 62
     7
370
    25
100
AcDbLine
 10
49.5540062696
 20
99.2309452429
 30
0.0
 11
59.5540062696
 21
99.2309452429
 31
0.0
  0
LINE
  5
216
330
1F
100
AcDbEntity
  8
0
  6
Continuous
 62
     7
370
    25
100
AcDbLine
 10
59.5540062696
 20
99.2309452429
 30
0.0
 11
59.5540062696
 21
100.4309452429
 31
0.0
  0
LINE
  5
217
330
1F
100
AcDbEntity
  8
0
  6
Continuous
 62
     7
370
    25
100
AcDbLine
 10
59.5540062696
 20
100.4309452429
 30
0.0
 11
49.5540062696
 21
100.4309452429
 31
0.0
  0
LINE
  5
218
330
1F
100
AcDbEntity
  8
0
  6
Continuous
 62
     7
370
    25
100
AcDbLine
 10
49.5540062696
 20
100.4309452429
 30
0.0
 11
49.5540062696
 21
99.2309452429
 31
0.0
  0
LINE
  5
219
330
1F
100
AcDbEntity
  8
0
  6
Continuous
 62
     7
370
    25
100
AcDbLine
 10
48.8040062696
 20
98.5809452429
 30
0.0
 11
49.454986756
 21
98.5809452429
 31
0.0
  0
LINE
  5
21A
330
1F
100
AcDbEntity
  8
0
  6
Continuous
 62
     7
370
    25
100
AcDbLine
 10
48.8040062696
 20
101.0809452429
 30
0.0
 11
48.8040062696
 21
98.5809452429
 31
0.0
  0
LINE
  5
21B
330
1F
100
AcDbEntity
  8
0
  6
Continuous
 62
     7
370
    25
100
AcDbLine
 10
49.454986756
 20
101.0809452429
 30
0.0
 11
48.8040062696
 21
101.0809452429
 31
0.0
  0
LINE
  5
21C
330
1F
100
AcDbEntity
  8
0
  6
Continuous
 62
     7
370
    25
100
AcDbLine
 10
60.3040062696
 20
101.0809452429
 30
0.0
 11
59.6530257832
 21
101.0809452429
 31
0.0
  0
LINE
  5
21D
330
1F
100
AcDbEntity
  8
0
  6
Continuous
 62
     7
370
    25
100
AcDbLine
 10
60.3040062696
 20
98.5809452429
 30
0.0
 11
60.3040062696
 21
101.0809452429
 31
0.0
  0
LINE
  5
21E
330
1F
100
AcDbEntity
  8
0
  6
Continuous
 62
     7
370
    25
100
AcDbLine
 10
59.6530257832
 20
98.5809452429
 30
0.0
 11
60.3040062696
 21
98.5809452429
 31
0.0
  0
ARC
  5
21F
330
1F
100
AcDbEntity
  8
0
  6
Continuous
 62
     7
370
    25
100
AcDbCircle
 10
48.8040062696
 20
101.0809452429
 30
0.0
 40
0.25
100
AcDbArc
 50
90.0
 51
180.0
  0
LINE
  5
220
330
1F
100
AcDbEntity
  8
0
  6
Continuous
 62
     7
370
    25
100
AcDbLine
 10
48.8040062696
 20
101.3309452429
 30
0.0
 11
48.8040062696
 21
101.0809452429
 31
0.0
  0
LINE
  5
221
330
1F
100
AcDbEntity
  8
0
  6
Continuous
 62
     7
370
    25
100
AcDbLine
 10
48.8040062696
 20
101.0809452429
 30
0.0
 11
48.5540062696
 21
101.0809452429
 31
0.0
  0
LINE
  5
222
330
1F
100
AcDbEntity
  8
0
  6
Continuous
 62
     7
370
    25
100
AcDbLine
 10
48.8040062696
 20
101.3309452429
 30
0.0
 11
49.0767806945
 21
101.3309452429
 31
0.0
  0
LINE
  5
223
330
1F
100
AcDbEntity
  8
0
  6
Continuous
 62
     7
370
    25
100
AcDbLine
 10
60.5540062696
 20
101.0809452429
 30
0.0
 11
60.3040062696
 21
101.0809452429
 31
0.0
  0
LINE
  5
224
330
1F
100
AcDbEntity
  8
0
  6
Continuous
 62
     7
370
    25
100
AcDbLine
 10
60.3040062696
 20
101.0809452429
 30
0.0
 11
60.3040062696
 21
101.3309452429
 31
0.0
  0
ARC
  5
225
330
1F
100
AcDbEntity
  8
0
  6
Continuous
 62
     7
370
    25
100
AcDbCircle
 10
60.3040062696
 20
101.0809452429
 30
0.0
 40
0.2500000000000071
100
AcDbArc
 50
0.0
 51
90.0
  0
LINE
  5
226
330
1F
100
AcDbEntity
  8
0
  6
Continuous
 62
     7
370
    25
100
AcDbLine
 10
60.0312318446
 20
101.3309452429
 30
0.0
 11
60.3040062696
 21
101.3309452429
 31
0.0
  0
LINE
  5
227
330
1F
100
AcDbEntity
  8
0
  6
Continuous
 62
     7
370
    25
100
AcDbLine
 10
48.5540062696
 20
98.5809452429
 30
0.0
 11
48.8040062696
 21
98.5809452429
 31
0.0
  0
LINE
  5
228
330
1F
100
AcDbEntity
  8
0
  6
Continuous
 62
     7
370
    25
100
AcDbLine
 10
48.5540062696
 20
98.5809452429
 30
0.0
 11
48.5540062696
 21
101.0809452429
 31
0.0
  0
LINE
  5
229
330
1F
100
AcDbEntity
  8
0
  6
Continuous
 62
     7
370
    25
100
AcDbLine
 10
60.5540062696
 20
101.0809452429
 30
0.0
 11
60.5540062696
 21
98.5809452429
 31
0.0
  0
LINE
  5
22A
330
1F
100
AcDbEntity
  8
0
  6
Continuous
 62
     7
370
    25
100
AcDbLine
 10
60.3040062696
 20
98.5809452429
 30
0.0
 11
60.5540062696
 21
98.5809452429
 31
0.0
  0
LINE
  5
22B
330
1F
100
AcDbEntity
  8
0
  6
Continuous
 62
     7
370
    25
100
AcDbLine
 10
48.8040062696
 20
98.5809452429
 30
0.0
 11
48.8040062696
 21
98.3309452429
 31
0.0
  0
LINE
  5
22C
330
1F
100
AcDbEntity
  8
0
  6
Continuous
 62
     7
370
    25
100
AcDbLine
 10
49.0767806945
 20
98.3309452429
 30
0.0
 11
48.8040062696
 21
98.3309452429
 31
0.0
  0
ARC
  5
22D
330
1F
100
AcDbEntity
  8
0
  6
Continuous
 62
     7
370
    25
100
AcDbCircle
 10
48.8040062696
 20
98.5809452429
 30
0.0
 40
0.25
100
AcDbArc
 50
180.0
 51
270.0
  0
LINE
  5
22E
330
1F
100
AcDbEntity
  8
0
  6
Continuous
 62
     7
370
    25
100
AcDbLine
 10
60.3040062696
 20
98.3309452429
 30
0.0
 11
60.3040062696
 21
98.5809452429
 31
0.0
  0
LINE
  5
22F
330
1F
100
AcDbEntity
  8
0
  6
Continuous
 62
     7
370
    25
100
AcDbLine
 10
60.3040062696
 20
98.3309452429
 30
0.0
 11
60.0312318446
 21
98.3309452429
 31
0.0
  0
ARC
  5
230
330
1F
100
AcDbEntity
  8
0
  6
Continuous
 62
     7
370
    25
100
AcDbCircle
 10
60.3040062696
 20
98.5809452429
 30
0.0
 40
0.2500000000000071
100
AcDbArc
 50
270.0
 51
0.0
  0
LINE
  5
231
330
1F
100
AcDbEntity
  8
0
  6
Continuous
 62
     7
370
    25
100
AcDbLine
 10
34.5540062696
 20
103.102644507
 30
0.0
 11
32.3785694081
 21
103.3309452429
 31
0.0
  0
LINE
  5
232
330
1F
100
AcDbEntity
  8
0
  6
Continuous
 62
     7
370
    25
100
AcDbLine
 10
34.5540062696
 20
96.5592459788
 30
0.0
 11
34.5540062696
 21
103.102644507
 31
0.0
  0
LINE
  5
233
330
1F
100
AcDbEntity
  8
0
  6
Continuous
 62
     7
370
    25
100
AcDbLine
 10
32.3785694081
 20
96.3309452429
 30
0.0
 11
34.5540062696
 21
96.5592459788
 31
0.0
  0
LINE
  5
234
330
1F
100
AcDbEntity
  8
0
  6
Continuous
 62
     7
370
    25
100
AcDbLine
 10
14.5540062696
 20
96.3309452429
 30
0.0
 11
32.3785694081
 21
96.3309452429
 31
0.0
  0
LINE
  5
235
330
1F
100
AcDbEntity
  8
0
  6
Continuous
 62
     7
370
    25
100
AcDbLine
 10
14.5540062696
 20
103.3309452429
 30
0.0
 11
14.5540062696
 21
96.3309452429
 31
0.0
  0
LINE
  5
236
330
1F
100
AcDbEntity
  8
0
  6
Continuous
 62
     7
370
    25
100
AcDbLine
 10
32.3785694081
 20
103.3309452429
 30
0.0
 11
14.5540062696
 21
103.3309452429
 31
0.0
  0
LINE
  5
237
330
1F
100
AcDbEntity
  8
0
  6
Continuous
 62
     7
370
    25
100
AcDbLine
 10
49.3302040952
 20
101.5519597237
 30
0.0
 11
49.2336397779
 21
101.3925604035
 31
0.0
  0
LINE
  5
238
330
1F
100
AcDbEntity
  8
0
  6
Continuous
 62
     7
370
    25
100
AcDbLine
 10
49.2113623973
 20
98.2857275755
 30
0.0
 11
49.3302040952
 21
98.1099307621
 31
0.0
  0
LINE
  5
239
330
1F
100
AcDbEntity
  8
0
  6
Continuous
 62
     7
370
    25
100
AcDbLine
 10
41.137436616
 20
102.4117478785
 30
0.0
 11
41.137436616
 21
97.2501426073
 31
0.0
  0
LINE
  5
23A
330
1F
100
AcDbEntity
  8
0
  6
Continuous
 62
     7
370
    25
100
AcDbLine
 10
49.3302040952
 20
98.1099307621
 30
0.0
 11
41.137436616
 21
97.2501426073
 31
0.0
  0
LINE
  5
23B
330
1F
100
AcDbEntity
  8
0
  6
Continuous
 62
     7
370
    25
100
AcDbLine
 10
41.137436616
 20
102.4117478785
 30
0.0
 11
49.3302040952
 21
101.5519597237
 31
0.0
  0
LINE
  5
23C
330
1F
100
AcDbEntity
  8
0
  6
Continuous
 62
     7
370
    25
100
AcDbLine
 10
41.137436616
 20
97.2501426073
 30
0.0
 11
34.5540062696
 21
96.5592459788
 31
0.0
  0
LINE
  5
23D
330
1F
100
AcDbEntity
  8
0
  6
Continuous
 62
     7
370
    25
100
AcDbLine
 10
34.5540062696
 20
103.102644507
 30
0.0
 11
41.137436616
 21
102.4117478785
 31
0.0
  0
ARC
  5
23E
330
1F
100
AcDbEntity
  8
0
  6
Continuous
 62
     7
370
    25
100
AcDbCircle
 10
54.5540062696
 20
99.8309452429
 30
0.0
 40
7.450000000000649
100
AcDbArc
 50
233.0863788866
 51
126.9136211134
  0
ARC
  5
23F
330
1F
100
AcDbEntity
  8
0
  6
Continuous
 62
     7
370
    25
100
AcDbCircle
 10
54.5540062696
 20
99.8309452429
 30
0.0
 40
7.207531252870779
100
AcDbArc
 50
195.3041237151
 51
238.9797515565
  0
ARC
  5
240
330
1F
100
AcDbEntity
  8
0
  6
Continuous
 62
     7
370
    25
100
AcDbCircle
 10
54.5540062696
 20
99.8309452429
 30
0.0
 40
7.207531252872441
100
AcDbArc
 50
121.0202484435
 51
164.6958762849
  0
ARC
  5
241
330
1F
100
AcDbEntity
  8
0
  6
Continuous
 62
     7
370
    25
100
AcDbCircle
 10
32.3785694081
 20
168.3309452429
 30
0.0
 40
65.0
100
AcDbArc
 50
270.0
 51
286.5000949923
  0
ARC
  5
242
330
1F
100
AcDbEntity
  8
0
  6
Continuous
 62
     7
370
    25
100
AcDbCircle
 10
32.3785694081
 20
31.3309452429
 30
0.0
 40
65.0
100
AcDbArc
 50
73.4999050077
 51
90.0
  0
LINE
  5
243
330
1F
100
AcDbEntity
  8
0
  6
Continuous
 62
     7
370
    25
100
AcDbLine
 10
40.2540062696
 20
108.3309452429
 30
0.0
 11
40.2540062696
 21
103.809805341
 31
0.0
  0
LINE
  5
244
330
1F
100
AcDbEntity
  8
0
  6
Continuous
 62
     7
370
    25
100
AcDbLine
 10
40.2540062696
 20
95.8520851448
 30
0.0
 11
40.2540062696
 21
91.3309452429
 31
0.0
  0
LINE
  5
245
330
1F
100
AcDbEntity
  8
0
  6
Continuous
 62
     7
370
    25
100
AcDbLine
 10
40.0540062696
 20
91.5309452429
 30
0.0
 11
40.0540062696
 21
95.8761826271
 31
0.0
  0
LINE
  5
246
330
1F
100
AcDbEntity
  8
0
  6
Continuous
 62
     7
370
    25
100
AcDbLine
 10
40.0540062696
 20
103.7857078587
 30
0.0
 11
40.0540062696
 21
108.1309452429
 31
0.0
  0
LINE
  5
247
330
1F
100
AcDbEntity
  8
0
  6
Continuous
 62
     7
370
    25
100
AcDbLine
 10
43.0540062696
 20
108.3309452429
 30
0.0
 11
43.0540062696
 21
104.2135915248
 31
0.0
  0
LINE
  5
248
330
1F
100
AcDbEntity
  8
0
  6
Continuous
 62
     7
370
    25
100
AcDbLine
 10
43.0540062696
 20
95.448298961
 30
0.0
 11
43.0540062696
 21
91.3309452429
 31
0.0
  0
SPLINE
  5
249
330
1F
100
AcDbEntity
  8
0
  6
Continuous
 62
     7
370
    25
100
AcDbSpline
210
0.0
220
0.0
230
1.0
 70
    24
 71
     3
 72
    10
 73
     6
 74
     0
 42
0.00000001
 43
0.00000001
 40
0.0
 40
0.0
 40
0.0
 40
0.0
 40
0.3696206562435269
 40
0.742286886085692
 40
1.0
 40
1.0
 40
1.0
 40
1.0
 10
65.73194729703486
 20
91.3309452428961
 30
0.0
 10
65.87315005482495
 20
91.3309452428961
 30
0.0
 10
66.15671904269462
 20
91.3309452428961
 30
0.0
 10
66.37585752749733
 20
91.3309452428961
 30
0.0
 10
66.39824849494933
 20
91.3309452428961
 30
0.0
 10
66.40740242107772
 20
91.3309452428961
 30
0.0
  0
SPLINE
  5
24A
330
1F
100
AcDbEntity
  8
0
  6
Continuous
 62
     7
370
    25
100
AcDbSpline
210
0.0
220
0.0
230
1.0
 70
     8
 71
     3
 72
    10
 73
     6
 74
     0
 42
0.00000001
 43
0.00000001
 40
0.0
 40
0.0
 40
0.0
 40
0.0
 40
0.5
 40
0.5
 40
1.0
 40
1.0
 40
1.0
 40
1.0
 10
65.73194729703486
 20
91.5809452428961
 30
0.0
 10
65.70827190261048
 20
91.50656486551878
 30
0.0
 10
65.69518079272584
 20
91.442264226733
 30
0.0
 10
65.69509447143757
 20
91.35404854195006
 30
0.0
 10
65.7082634053814
 20
91.3309452428961
 30
0.0
 10
65.73194729703486
 20
91.3309452428961
 30
0.0
  0
SPLINE
  5
24B
330
1F
100
AcDbEntity
  8
0
  6
Continuous
 62
     7
370
    25
100
AcDbSpline
210
0.0
220
0.0
230
1.0
 70
     8
 71
     3
 72
    16
 73
    12
 74
     0
 42
0.00000001
 43
0.00000001
 40
0.0
 40
0.0
 40
0.0
 40
0.0
 40
0.2500000000000001
 40
0.2500000000000001
 40
0.5000000000000001
 40
0.5000000000000001
 40
0.6250000000000001
 40
0.6250000000000001
 40
0.7500000000000002
 40
0.7500000000000002
 40
1.0
 40
1.0
 40
1.0
 40
1.0
 10
65.73194729703486
 20
99.5809452428961
 30
0.0
 10
65.93996274514062
 20
98.92742846285529
 30
0.0
 10
66.1101690501136
 20
98.26920805376534
 30
0.0
 10
66.34510508168121
 20
96.93964547039953
 30
0.0
 10
66.40917721334485
 20
96.26822148832899
 30
0.0
 10
66.40991016226586
 20
95.24922040132228
 30
0.0
 10
66.39425068218283
 20
94.9078796190061
 30
0.0
 10
66.3329755555459
 20
94.23228111603564
 30
0.0
 10
66.28741928304677
 20
93.89662196607101
 30
0.0
 10
66.1109332502905
 20
92.89535632957131
 30
0.0
 10
65.94027679680481
 20
92.23544867096815
 30
0.0
 10
65.73194729703486
 20
91.5809452428961
 30
0.0
  0
SPLINE
  5
24C
330
1F
100
AcDbEntity
  8
0
  6
Continuous
 62
     7
370
    25
100
AcDbSpline
210
0.0
220
0.0
230
1.0
 70
     8
 71
     3
 72
    10
 73
     6
 74
     0
 42
0.00000001
 43
0.00000001
 40
0.0
 40
0.0
 40
0.0
 40
0.0
 40
0.5
 40
0.5
 40
1.0
 40
1.0
 40
1.0
 40
1.0
 10
65.73194729703486
 20
100.0809452428961
 30
0.0
 10
65.70827190261048
 20
100.0065648655188
 30
0.0
 10
65.69518079272584
 20
99.9194717774032
 30
0.0
 10
65.69509447143757
 20
99.74331338852721
 30
0.0
 10
65.7082634053814
 20
99.65535231579938
 30
0.0
 10
65.73194729703486
 20
99.5809452428961
 30
0.0
  0
SPLINE
  5
24D
330
1F
100
AcDbEntity
  8
0
  6
Continuous
 62
     7
370
    25
100
AcDbSpline
210
0.0
220
0.0
230
1.0
 70
     8
 71
     3
 72
    16
 73
    12
 74
     0
 42
0.00000001
 43
0.00000001
 40
0.0
 40
0.0
 40
0.0
 40
0.0
 40
0.2499999999999997
 40
0.2499999999999997
 40
0.4999999999999993
 40
0.4999999999999993
 40
0.6249999999999993
 40
0.6249999999999993
 40
0.7499999999999996
 40
0.7499999999999996
 40
1.0
 40
1.0
 40
1.0
 40
1.0
 10
65.73194729703486
 20
108.0809452428961
 30
0.0
 10
65.93996274514062
 20
107.4274284628553
 30
0.0
 10
66.1101690501136
 20
106.7692080537653
 30
0.0
 10
66.34510508168121
 20
105.4396454703995
 30
0.0
 10
66.40917721334485
 20
104.768221488329
 30
0.0
 10
66.40991016226586
 20
103.7492204013223
 30
0.0
 10
66.39425068218283
 20
103.4078796190061
 30
0.0
 10
66.3329755555459
 20
102.7322811160356
 30
0.0
 10
66.28741928304677
 20
102.396621966071
 30
0.0
 10
66.11093325029049
 20
101.3953563295713
 30
0.0
 10
65.94027679680481
 20
100.7354486709682
 30
0.0
 10
65.73194729703486
 20
100.0809452428961
 30
0.0
  0
SPLINE
  5
24E
330
1F
100
AcDbEntity
  8
0
  6
Continuous
 62
     7
370
    25
100
AcDbSpline
210
0.0
220
0.0
230
1.0
 70
     8
 71
     3
 72
    10
 73
     6
 74
     0
 42
0.00000001
 43
0.00000001
 40
0.0
 40
0.0
 40
0.0
 40
0.0
 40
0.5
 40
0.5
 40
1.0
 40
1.0
 40
1.0
 40
1.0
 10
65.73194729703486
 20
108.3309452428961
 30
0.0
 10
65.70827190261048
 20
108.3309452428961
 30
0.0
 10
65.69518079272584
 20
108.3081527935663
 30
0.0
 10
65.69509447143757
 20
108.2202100894732
 30
0.0
 10
65.7082634053814
 20
108.1553523157994
 30
0.0
 10
65.73194729703486
 20
108.0809452428961
 30
0.0
  0
SPLINE
  5
24F
330
1F
100
AcDbEntity
  8
0
  6
Continuous
 62
     7
370
    25
100
AcDbSpline
210
0.0
220
0.0
230
1.0
 70
    24
 71
     3
 72
    10
 73
     6
 74
     0
 42
0.00000001
 43
0.00000001
 40
0.0
 40
0.0
 40
0.0
 40
0.0
 40
0.2577093357281532
 40
0.627076922274529
 40
1.0
 40
1.0
 40
1.0
 40
1.0
 10
66.4060606771813
 20
108.3309452428961
 30
0.0
 10
66.39745717610577
 20
108.3309452428961
 30
0.0
 10
66.37652251745251
 20
108.3309452428961
 30
0.0
 10
66.15755336061021
 20
108.3309452428961
 30
0.0
 10
65.87426828641118
 20
108.3309452428961
 30
0.0
 10
65.73194729703486
 20
108.3309452428961
 30
0.0
  0
LINE
  5
250
330
1F
100
AcDbEntity
  8
0
  6
Continuous
 62
     7
370
    25
100
AcDbLine
 10
66.5540062696
 20
108.0809452429
 30
0.0
 11
66.5540062696
 21
91.5809452429
 31
0.0
  0
SPLINE
  5
251
330
1F
100
AcDbEntity
  8
0
  6
Continuous
 62
     7
370
    25
100
AcDbSpline
210
0.0
220
0.0
230
1.0
 70
     8
 71
     3
 72
    10
 73
     6
 74
     0
 42
0.00000001
 43
0.00000001
 40
0.0
 40
0.0
 40
0.0
 40
0.0
 40
0.0462732580395363
 40
0.519202226543763
 40
1.0
 40
1.0
 40
1.0
 40
1.0
 10
60.55565124827079
 20
104.2011977480106
 30
0.0
 10
60.55629898791124
 20
104.2618515203302
 30
0.0
 10
60.56356685444556
 20
104.9424081738017
 30
0.0
 10
60.70994710789356
 20
106.2541133107801
 30
0.0
 10
61.05684677729352
 20
107.4686610218872
 30
0.0
 10
61.23172767485266
 20
108.0809452428961
 30
0.0
  0
LINE
  5
252
330
1F
100
AcDbEntity
  8
0
  6
Continuous
 62
     7
370
    25
100
AcDbLine
 10
65.731947297
 20
108.0809452429
 30
0.0
 11
61.2317276749
 21
108.0809452429
 31
0.0
  0
SPLINE
  5
253
330
1F
100
AcDbEntity
  8
0
  6
Continuous
 62
     7
370
    25
100
AcDbSpline
210
0.0
220
0.0
230
1.0
 70
     8
 71
     3
 72
    10
 73
     6
 74
     0
 42
0.00000001
 43
0.00000001
 40
0.0
 40
0.0
 40
0.0
 40
0.0
 40
0.08411196135238
 40
0.5387435024664613
 40
1.0
 40
1.0
 40
1.0
 40
1.0
 10
43.05786532409768
 20
104.2523264789894
 30
0.0
 10
43.05969224503651
 20
104.3611500713628
 30
0.0
 10
43.07139381244126
 20
105.0581734478672
 30
0.0
 10
43.23551978985028
 20
106.3505644250773
 30
0.0
 10
43.56552935283818
 20
107.5013768864478
 30
0.0
 10
43.73172767485266
 20
108.0809452428961
 30
0.0
  0
LINE
  5
254
330
1F
100
AcDbEntity
  8
0
  6
Continuous
 62
     7
370
    25
100
AcDbLine
 10
47.8762848643
 20
108.0809452429
 30
0.0
 11
43.7317276749
 21
108.0809452429
 31
0.0
  0
SPLINE
  5
255
330
1F
100
AcDbEntity
  8
0
  6
Continuous
 62
     7
370
    25
100
AcDbSpline
210
0.0
220
0.0
230
1.0
 70
     8
 71
     3
 72
     9
 73
     5
 74
     0
 42
0.00000001
 43
0.00000001
 40
0.0
 40
0.0
 40
0.0
 40
0.0
 40
0.7349240254132872
 40
1.0
 40
1.0
 40
1.0
 40
1.0
 10
47.87628486433226
 20
108.0809452428961
 30
0.0
 10
48.06815363377738
 20
107.4305330662072
 30
0.0
 10
48.32922656487013
 20
106.5455270598745
 30
0.0
 10
48.43794250326995
 20
105.6385055291639
 30
0.0
 10
48.46676048659439
 20
105.3980759129397
 30
0.0
  0
SPLINE
  5
256
330
1F
100
AcDbEntity
  8
0
  6
Continuous
 62
     7
370
    25
100
AcDbSpline
210
0.0
220
0.0
230
1.0
 70
     8
 71
     3
 72
     9
 73
     5
 74
     0
 42
0.00000001
 43
0.00000001
 40
0.0
 40
0.0
 40
0.0
 40
0.0
 40
0.3107512651751116
 40
1.0
 40
1.0
 40
1.0
 40
1.0
 10
48.44066247226267
 20
94.27578620440993
 30
0.0
 10
48.41609100874876
 20
93.99202995154539
 30
0.0
 10
48.33701984712351
 20
93.07890011213948
 30
0.0
 10
48.06427435186701
 20
92.19214208866897
 30
0.0
 10
47.87628486433228
 20
91.5809452428961
 30
0.0
  0
LINE
  5
257
330
1F
100
AcDbEntity
  8
0
  6
Continuous
 62
     7
370
    25
100
AcDbLine
 10
43.7317276749
 20
91.5809452429
 30
0.0
 11
47.8762848643
 21
91.5809452429
 31
0.0
  0
SPLINE
  5
258
330
1F
100
AcDbEntity
  8
0
  6
Continuous
 62
     7
370
    25
100
AcDbSpline
210
0.0
220
0.0
230
1.0
 70
     8
 71
     3
 72
    10
 73
     6
 74
     0
 42
0.00000001
 43
0.00000001
 40
0.0
 40
0.0
 40
0.0
 40
0.0
 40
0.5170538349106951
 40
0.7801718035401463
 40
1.0
 40
1.0
 40
1.0
 40
1.0
 10
43.73172767485266
 20
91.5809452428961
 30
0.0
 10
43.54692409384168
 20
92.23195226696038
 30
0.0
 10
43.26807780480311
 20
93.21424325832156
 30
0.0
 10
43.08894869476364
 20
94.50280591783567
 30
0.0
 10
43.070283209514
 20
95.12830279441208
 30
0.0
 10
43.06178702452469
 20
95.41301744836038
 30
0.0
  0
LINE
  5
259
330
1F
100
AcDbEntity
  8
0
  6
Continuous
 62
     7
370
    25
100
AcDbLine
 10
61.2317276749
 20
91.5809452429
 30
0.0
 11
65.731947297
 21
91.5809452429
 31
0.0
  0
SPLINE
  5
25A
330
1F
100
AcDbEntity
  8
0
  6
Continuous
 62
     7
370
    25
100
AcDbSpline
210
0.0
220
0.0
230
1.0
 70
     8
 71
     3
 72
    10
 73
     6
 74
     0
 42
0.00000001
 43
0.00000001
 40
0.0
 40
0.0
 40
0.0
 40
0.0
 40
0.5071707199421701
 40
0.7652593764213717
 40
1.0
 40
1.0
 40
1.0
 40
1.0
 10
61.23172767485267
 20
91.58094524289606
 30
0.0
 10
61.04674672807781
 20
92.23194392605636
 30
0.0
 10
60.76763281551814
 20
93.21422233200056
 30
0.0
 10
60.58624638118073
 20
94.52795290392201
 30
0.0
 10
60.56730400701102
 20
95.17871082599409
 30
0.0
 10
60.55828152213727
 20
95.4886747964952
 30
0.0
  0
LINE
  5
25B
330
1F
100
AcDbEntity
  8
0
  6
Continuous
 62
     7
370
    25
100
AcDbLine
 10
60.5540062696
 20
95.4147817495
 30
0.0
 11
60.5540062696
 21
92.3309452429
 31
0.0
  0
LINE
  5
25C
330
1F
100
AcDbEntity
  8
0
  6
Continuous
 62
     7
370
    25
100
AcDbLine
 10
60.5540062696
 20
92.3309452429
 30
0.0
 11
48.5540062696
 21
92.3309452429
 31
0.0
  0
LINE
  5
25D
330
1F
100
AcDbEntity
  8
0
  6
Continuous
 62
     7
370
    25
100
AcDbLine
 10
48.5540062696
 20
94.2861296389
 30
0.0
 11
48.5540062696
 21
92.3309452429
 31
0.0
  0
LINE
  5
25E
330
1F
100
AcDbEntity
  8
0
  6
Continuous
 62
     7
370
    25
100
AcDbLine
 10
48.5540062696
 20
107.3309452429
 30
0.0
 11
48.5540062696
 21
105.3757608469
 31
0.0
  0
LINE
  5
25F
330
1F
100
AcDbEntity
  8
0
  6
Continuous
 62
     7
370
    25
100
AcDbLine
 10
48.5540062696
 20
107.3309452429
 30
0.0
 11
60.5540062696
 21
107.3309452429
 31
0.0
  0
LINE
  5
260
330
1F
100
AcDbEntity
  8
0
  6
Continuous
 62
     7
370
    25
100
AcDbLine
 10
60.5540062696
 20
107.3309452429
 30
0.0
 11
60.5540062696
 21
104.2471087363
 31
0.0
  0
SPLINE
  5
261
330
1F
100
AcDbEntity
  8
0
  6
Continuous
 62
     7
370
    25
100
AcDbSpline
210
0.0
220
0.0
230
1.0
 70
     8
 71
     3
 72
     8
 73
     4
 74
     0
 42
0.00000001
 43
0.00000001
 40
0.0
 40
0.0
 40
0.0
 40
0.0
 40
1.0
 40
1.0
 40
1.0
 40
1.0
 10
48.03777019261329
 20
108.3309452428961
 30
0.0
 10
48.21147326883306
 20
107.9984338207606
 30
0.0
 10
48.38377548789577
 20
107.6651067208617
 30
0.0
 10
48.55400626959247
 20
107.3309452428961
 30
0.0
  0
SPLINE
  5
262
330
1F
100
AcDbEntity
  8
0
  6
Continuous
 62
     7
370
    25
100
AcDbSpline
210
0.0
220
0.0
230
1.0
 70
     8
 71
     3
 72
    10
 73
     6
 74
     0
 42
0.00000001
 43
0.00000001
 40
0.0
 40
0.0
 40
0.0
 40
0.0
 40
0.5
 40
0.5
 40
1.0
 40
1.0
 40
1.0
 40
1.0
 10
47.87628486433793
 20
108.3309452428961
 30
0.0
 10
47.85260946991361
 20
108.3309452428961
 30
0.0
 10
47.83951836002331
 20
108.3081527935666
 30
0.0
 10
47.83943203873491
 20
108.2202100894736
 30
0.0
 10
47.85260097267874
 20
108.1553523157996
 30
0.0
 10
47.87628486433226
 20
108.0809452428962
 30
0.0
  0
SPLINE
  5
263
330
1F
100
AcDbEntity
  8
0
  6
Continuous
 62
     7
370
    25
100
AcDbSpline
210
0.0
220
0.0
230
1.0
 70
    24
 71
     3
 72
     8
 73
     4
 74
     0
 42
0.00000001
 43
0.00000001
 40
0.0
 40
0.0
 40
0.0
 40
0.0
 40
1.0
 40
1.0
 40
1.0
 40
1.0
 10
48.03777019261328
 20
108.3309452428961
 30
0.0
 10
47.98687147569088
 20
108.3309452428961
 30
0.0
 10
47.93293733944025
 20
108.3309452428961
 30
0.0
 10
47.87628486433266
 20
108.3309452428961
 30
0.0
  0
SPLINE
  5
264
330
1F
100
AcDbEntity
  8
0
  6
Continuous
 62
     7
370
    25
100
AcDbSpline
210
0.0
220
0.0
230
1.0
 70
     8
 71
     3
 72
     8
 73
     4
 74
     0
 42
0.00000001
 43
0.00000001
 40
0.0
 40
0.0
 40
0.0
 40
0.0
 40
1.0
 40
1.0
 40
1.0
 40
1.0
 10
60.55400626959247
 20
107.3309452428961
 30
0.0
 10
60.72428387693618
 20
107.6651986391814
 30
0.0
 10
60.89655562556186
 20
107.9984651287504
 30
0.0
 10
61.07024234657152
 20
108.3309452428959
 30
0.0
  0
SPLINE
  5
265
330
1F
100
AcDbEntity
  8
0
  6
Continuous
 62
     7
370
    25
100
AcDbSpline
210
0.0
220
0.0
230
1.0
 70
    24
 71
     3
 72
     8
 73
     4
 74
     0
 42
0.00000001
 43
0.00000001
 40
0.0
 40
0.0
 40
0.0
 40
0.0
 40
1.0
 40
1.0
 40
1.0
 40
1.0
 10
61.07024234657111
 20
108.3309452428961
 30
0.0
 10
61.12113857982634
 20
108.3309452428961
 30
0.0
 10
61.17507253479018
 20
108.3309452428961
 30
0.0
 10
61.23172767485266
 20
108.3309452428961
 30
0.0
  0
SPLINE
  5
266
330
1F
100
AcDbEntity
  8
0
  6
Continuous
 62
     7
370
    25
100
AcDbSpline
210
0.0
220
0.0
230
1.0
 70
     8
 71
     3
 72
    10
 73
     6
 74
     0
 42
0.00000001
 43
0.00000001
 40
0.0
 40
0.0
 40
0.0
 40
0.0
 40
0.5
 40
0.5
 40
1.0
 40
1.0
 40
1.0
 40
1.0
 10
61.23172767485266
 20
108.0809452428961
 30
0.0
 10
61.25540306927704
 20
108.1553256202734
 30
0.0
 10
61.26849417916169
 20
108.2196262590592
 30
0.0
 10
61.26858050044996
 20
108.3078419438421
 30
0.0
 10
61.25541156650613
 20
108.3309452428961
 30
0.0
 10
61.23172767485266
 20
108.3309452428961
 30
0.0
  0
SPLINE
  5
267
330
1F
100
AcDbEntity
  8
0
  6
Continuous
 62
     7
370
    25
100
AcDbSpline
210
0.0
220
0.0
230
1.0
 70
     8
 71
     3
 72
    10
 73
     6
 74
     0
 42
0.00000001
 43
0.00000001
 40
0.0
 40
0.0
 40
0.0
 40
0.0
 40
0.5
 40
0.5
 40
1.0
 40
1.0
 40
1.0
 40
1.0
 10
43.73172767485266
 20
108.3309452428961
 30
0.0
 10
43.75540157540861
 20
108.3309452428961
 30
0.0
 10
43.76849413258775
 20
108.3081546712487
 30
0.0
 10
43.76858054657003
 20
108.2202086739499
 30
0.0
 10
43.75541015497141
 20
108.1553478812171
 30
0.0
 10
43.73172767485266
 20
108.0809452428961
 30
0.0
  0
SPLINE
  5
268
330
1F
100
AcDbEntity
  8
0
  6
Continuous
 62
     7
370
    25
100
AcDbSpline
210
0.0
220
0.0
230
1.0
 70
    24
 71
     3
 72
    12
 73
     8
 74
     0
 42
0.00000001
 43
0.00000001
 40
0.0
 40
0.0
 40
0.0
 40
0.0
 40
0.2499999999999999
 40
0.2499999999999999
 40
0.4999999999999998
 40
0.4999999999999998
 40
1.0
 40
1.0
 40
1.0
 40
1.0
 10
43.05400626959246
 20
108.3309452428961
 30
0.0
 10
43.05400626959246
 20
108.3309452428961
 30
0.0
 10
43.07000507457354
 20
108.3309452428961
 30
0.0
 10
43.13177521288792
 20
108.3309452428961
 30
0.0
 10
43.17751733718953
 20
108.3309452428961
 30
0.0
 10
43.35418748453638
 20
108.3309452428961
 30
0.0
 10
43.52444255001667
 20
108.3309452428961
 30
0.0
 10
43.73172767485266
 20
108.3309452428961
 30
0.0
  0
SPLINE
  5
269
330
1F
100
AcDbEntity
  8
0
  6
Continuous
 62
     7
370
    25
100
AcDbSpline
210
0.0
220
0.0
230
1.0
 70
     8
 71
     3
 72
     8
 73
     4
 74
     0
 42
0.00000001
 43
0.00000001
 40
0.0
 40
0.0
 40
0.0
 40
0.0
 40
1.0
 40
1.0
 40
1.0
 40
1.0
 10
48.55400626959246
 20
92.3309452428961
 30
0.0
 10
48.38372866224871
 20
91.9966918466107
 30
0.0
 10
48.211456913623
 20
91.66342535704167
 30
0.0
 10
48.03777019261329
 20
91.3309452428961
 30
0.0
  0
SPLINE
  5
26A
330
1F
100
AcDbEntity
  8
0
  6
Continuous
 62
     7
370
    25
100
AcDbSpline
210
0.0
220
0.0
230
1.0
 70
    24
 71
     3
 72
     8
 73
     4
 74
     0
 42
0.00000001
 43
0.00000001
 40
0.0
 40
0.0
 40
0.0
 40
0.0
 40
1.0
 40
1.0
 40
1.0
 40
1.0
 10
48.03777019261329
 20
91.3309452428961
 30
0.0
 10
47.98687147569077
 20
91.3309452428961
 30
0.0
 10
47.93293733944001
 20
91.3309452428961
 30
0.0
 10
47.87628486433227
 20
91.3309452428961
 30
0.0
  0
SPLINE
  5
26B
330
1F
100
AcDbEntity
  8
0
  6
Continuous
 62
     7
370
    25
100
AcDbSpline
210
0.0
220
0.0
230
1.0
 70
     8
 71
     3
 72
    10
 73
     6
 74
     0
 42
0.00000001
 43
0.00000001
 40
0.0
 40
0.0
 40
0.0
 40
0.0
 40
0.5
 40
0.5
 40
1.0
 40
1.0
 40
1.0
 40
1.0
 10
47.87628486433228
 20
91.5809452428961
 30
0.0
 10
47.85260946990789
 20
91.50656486551878
 30
0.0
 10
47.83951836002324
 20
91.442264226733
 30
0.0
 10
47.83943203873496
 20
91.35404854195006
 30
0.0
 10
47.85260097267881
 20
91.3309452428961
 30
0.0
 10
47.87628486433227
 20
91.3309452428961
 30
0.0
  0
SPLINE
  5
26C
330
1F
100
AcDbEntity
  8
0
  6
Continuous
 62
     7
370
    25
100
AcDbSpline
210
0.0
220
0.0
230
1.0
 70
     8
 71
     3
 72
     8
 73
     4
 74
     0
 42
0.00000001
 43
0.00000001
 40
0.0
 40
0.0
 40
0.0
 40
0.0
 40
1.0
 40
1.0
 40
1.0
 40
1.0
 10
61.07024234657165
 20
91.3309452428961
 30
0.0
 10
60.89653927035187
 20
91.6634566650316
 30
0.0
 10
60.72423705128917
 20
91.99678376493048
 30
0.0
 10
60.55400626959247
 20
92.3309452428961
 30
0.0
  0
SPLINE
  5
26D
330
1F
100
AcDbEntity
  8
0
  6
Continuous
 62
     7
370
    25
100
AcDbSpline
210
0.0
220
0.0
230
1.0
 70
     8
 71
     3
 72
    10
 73
     6
 74
     0
 42
0.00000001
 43
0.00000001
 40
0.0
 40
0.0
 40
0.0
 40
0.0
 40
0.5
 40
0.5
 40
1.0
 40
1.0
 40
1.0
 40
1.0
 10
61.23172767485267
 20
91.3309452428961
 30
0.0
 10
61.25540306927706
 20
91.3309452428961
 30
0.0
 10
61.26849417916169
 20
91.35373769222589
 30
0.0
 10
61.26858050044997
 20
91.44168039631894
 30
0.0
 10
61.25541156650613
 20
91.5065381699928
 30
0.0
 10
61.23172767485267
 20
91.58094524289605
 30
0.0
  0
SPLINE
  5
26E
330
1F
100
AcDbEntity
  8
0
  6
Continuous
 62
     7
370
    25
100
AcDbSpline
210
0.0
220
0.0
230
1.0
 70
    24
 71
     3
 72
     8
 73
     4
 74
     0
 42
0.00000001
 43
0.00000001
 40
0.0
 40
0.0
 40
0.0
 40
0.0
 40
1.0
 40
1.0
 40
1.0
 40
1.0
 10
61.07024234657166
 20
91.3309452428961
 30
0.0
 10
61.12113857982673
 20
91.3309452428961
 30
0.0
 10
61.17507253479038
 20
91.3309452428961
 30
0.0
 10
61.23172767485266
 20
91.3309452428961
 30
0.0
  0
SPLINE
  5
26F
330
1F
100
AcDbEntity
  8
0
  6
Continuous
 62
     7
370
    25
100
AcDbSpline
210
0.0
220
0.0
230
1.0
 70
     8
 71
     3
 72
    10
 73
     6
 74
     0
 42
0.00000001
 43
0.00000001
 40
0.0
 40
0.0
 40
0.0
 40
0.0
 40
0.5
 40
0.5
 40
1.0
 40
1.0
 40
1.0
 40
1.0
 10
43.73172767485266
 20
91.5809452428961
 30
0.0
 10
43.75539991476422
 20
91.50657477597055
 30
0.0
 10
43.76849390469948
 20
91.44226917968268
 30
0.0
 10
43.76858077216092
 20
91.35404639187685
 30
0.0
 10
43.75541098240156
 20
91.3309452428961
 30
0.0
 10
43.73172767485266
 20
91.3309452428961
 30
0.0
  0
SPLINE
  5
270
330
1F
100
AcDbEntity
  8
0
  6
Continuous
 62
     7
370
    25
100
AcDbSpline
210
0.0
220
0.0
230
1.0
 70
    24
 71
     3
 72
    12
 73
     8
 74
     0
 42
0.00000001
 43
0.00000001
 40
0.0
 40
0.0
 40
0.0
 40
0.0
 40
0.2500000000000001
 40
0.2500000000000001
 40
0.5000000000000001
 40
0.5000000000000001
 40
1.0
 40
1.0
 40
1.0
 40
1.0
 10
43.05400626959246
 20
91.3309452428961
 30
0.0
 10
43.05400626959246
 20
91.3309452428961
 30
0.0
 10
43.07000507457354
 20
91.3309452428961
 30
0.0
 10
43.13177521288792
 20
91.3309452428961
 30
0.0
 10
43.17751733718953
 20
91.3309452428961
 30
0.0
 10
43.35418748453638
 20
91.3309452428961
 30
0.0
 10
43.52444255001667
 20
91.3309452428961
 30
0.0
 10
43.73172767485266
 20
91.3309452428961
 30
0.0
  0
LINE
  5
271
330
1F
100
AcDbEntity
  8
0
  6
Continuous
 62
     7
370
    25
100
AcDbLine
 10
61.2317276749
 20
108.3309452429
 30
0.0
 11
65.731947297
 21
108.3309452429
 31
0.0
  0
LINE
  5
272
330
1F
100
AcDbEntity
  8
0
  6
Continuous
 62
     7
370
    25
100
AcDbLine
 10
43.7317276749
 20
108.3309452429
 30
0.0
 11
47.8762848643
 21
108.3309452429
 31
0.0
  0
LINE
  5
273
330
1F
100
AcDbEntity
  8
0
  6
Continuous
 62
     7
370
    25
100
AcDbLine
 10
65.731947297
 20
91.3309452429
 30
0.0
 11
61.2317276749
 21
91.3309452429
 31
0.0
  0
LINE
  5
274
330
1F
100
AcDbEntity
  8
0
  6
Continuous
 62
     7
370
    25
100
AcDbLine
 10
47.8762848643
 20
91.3309452429
 30
0.0
 11
43.7317276749
 21
91.3309452429
 31
0.0
  0
LINE
  5
275
330
1F
100
AcDbEntity
  8
0
  6
Continuous
 62
     7
370
    25
100
AcDbLine
 10
61.0702423466
 20
108.3309452429
 30
0.0
 11
48.0377701926
 21
108.3309452429
 31
0.0
  0
LINE
  5
276
330
1F
100
AcDbEntity
  8
0
  6
Continuous
 62
     7
370
    25
100
AcDbLine
 10
61.0702423466
 20
91.3309452429
 30
0.0
 11
48.0377701926
 21
91.3309452429
 31
0.0
  0
LINE
  5
277
330
1F
100
AcDbEntity
  8
0
  6
Continuous
 62
     7
370
    25
100
AcDbLine
 10
65.731947297
 20
99.5809452429
 30
0.0
 11
61.9998104572
 21
99.5809452429
 31
0.0
  0
LINE
  5
278
330
1F
100
AcDbEntity
  8
0
  6
Continuous
 62
     7
370
    25
100
AcDbLine
 10
61.9998104572
 20
100.0809452429
 30
0.0
 11
65.731947297
 21
100.0809452429
 31
0.0
  0
INSERT
  5
284
330
1F
100
AcDbEntity
  8
0
  6
Continuous
 62
     7
370
    18
100
AcDbBlockReference
  2
SW_CENTERMARKSYMBOL_1
 10
54.5540062696
 20
99.8309452429
 30
0.0
  0
ENDSEC
  0
SECTION
  2
OBJECTS
  0
DICTIONARY
  5
C
330
0
100
AcDbDictionary
281
     1
  3
ACAD_GROUP
350
D
  3
ACAD_LAYOUT
350
1A
  3
ACAD_MLINESTYLE
350
17
  3
ACAD_PLOTSETTINGS
350
19
  3
ACAD_PLOTSTYLENAME
350
E
  3
ACAD_SCALELIST
350
47
  3
DWGPROPS
350
285
  0
DICTIONARY
  5
D
102
{ACAD_REACTORS
330
C
102
}
330
C
100
AcDbDictionary
281
     1
  0
DICTIONARY
  5
1A
102
{ACAD_REACTORS
330
C
102
}
330
C
100
AcDbDictionary
281
     1
  3
Layout1
350
1E
  3
Layout2
350
26
  3
Model
350
22
  0
DICTIONARY
  5
17
102
{ACAD_REACTORS
330
C
102
}
330
C
100
AcDbDictionary
281
     1
  3
Standard
350
18
  0
DICTIONARY
  5
19
102
{ACAD_REACTORS
330
C
102
}
330
C
100
AcDbDictionary
281
     1
  0
ACDBDICTIONARYWDFLT
  5
E
102
{ACAD_REACTORS
330
C
102
}
330
C
100
AcDbDictionary
281
     1
  3
Normal
350
F
100
AcDbDictionaryWithDefault
340
F
  0
DICTIONARY
  5
47
102
{ACAD_REACTORS
330
C
102
}
330
C
100
AcDbDictionary
281
     1
  3
A0
350
48
  3
A1
350
49
  3
A2
350
4A
  3
A3
350
4B
  3
A4
350
4C
  3
A5
350
4D
  3
A6
350
4E
  3
A7
350
4F
  3
A8
350
50
  3
A9
350
51
  3
B0
350
52
  3
B1
350
53
  3
B2
350
54
  3
B3
350
55
  3
B4
350
56
  3
B5
350
57
  3
B6
350
58
  0
XRECORD
  5
285
102
{ACAD_REACTORS
330
C
102
}
330
C
100
AcDbXrecord
280
     1
  1
DWGPROPS COOKIE
  2

  3

  4

  6

  7

  8
user52
  9

300
=
301
=
302
=
303
=
304
=
305
=
306
=
307
=
308
=
309
=
 40
0.0
 41
2460339.179739595
 42
2460339.179740046
  1

 90
        0
  0
LAYOUT
  5
1E
102
{ACAD_REACTORS
330
1A
102
}
330
1A
100
AcDbPlotSettings
  1

  2
none_device
  4

  6

 40
0.0
 41
0.0
 42
0.0
 43
0.0
 44
0.0
 45
0.0
 46
0.0
 47
0.0
 48
0.0
 49
0.0
140
0.0
141
0.0
142
1.0
143
1.0
 70
   688
 72
     1
 73
     0
 74
     5
  7

 75
    16
147
1.0
148
0.0
149
0.0
100
AcDbLayout
  1
Layout1
 70
     1
 71
     1
 10
0.0
 20
0.0
 11
420.0
 21
297.0
 12
0.0
 22
0.0
 32
0.0
 14
1.0000000000E+20
 24
1.0000000000E+20
 34
1.0000000000E+20
 15
-1.0000000000E+20
 25
-1.0000000000E+20
 35
-1.0000000000E+20
146
0.0
 13
0.0
 23
0.0
 33
0.0
 16
1.0
 26
0.0
 36
0.0
 17
0.0
 27
1.0
 37
0.0
 76
     0
330
1B
  0
LAYOUT
  5
26
102
{ACAD_REACTORS
330
1A
102
}
330
1A
100
AcDbPlotSettings
  1

  2
none_device
  4

  6

 40
0.0
 41
0.0
 42
0.0
 43
0.0
 44
0.0
 45
0.0
 46
0.0
 47
0.0
 48
0.0
 49
0.0
140
0.0
141
0.0
142
1.0
143
1.0
 70
   688
 72
     1
 73
     0
 74
     5
  7

 75
    16
147
1.0
148
0.0
149
0.0
100
AcDbLayout
  1
Layout2
 70
     1
 71
     2
 10
0.0
 20
0.0
 11
0.0
 21
0.0
 12
0.0
 22
0.0
 32
0.0
 14
0.0
 24
0.0
 34
0.0
 15
0.0
 25
0.0
 35
0.0
146
0.0
 13
0.0
 23
0.0
 33
0.0
 16
1.0
 26
0.0
 36
0.0
 17
0.0
 27
1.0
 37
0.0
 76
     0
330
23
  0
LAYOUT
  5
22
102
{ACAD_REACTORS
330
1A
102
}
330
1A
100
AcDbPlotSettings
  1

  2
none_device
  4
Letter_(8.50_x_11.00_Inches)
  6

 40
6.35
 41
6.35
 42
6.35000508
 43
6.35000508
 44
215.9
 45
279.4
 46
0.0
 47
0.0
 48
0.0
 49
0.0
140
0.0
141
0.0
142
1.0
143
1.0
 70
  1712
 72
     1
 73
     0
 74
     0
  7

 75
     0
147
1.0
148
0.0
149
0.0
100
AcDbLayout
  1
Model
 70
     1
 71
     0
 10
0.0
 20
0.0
 11
431.8
 21
279.4
 12
0.0
 22
0.0
 32
0.0
 14
0.0
 24
0.0
 34
0.0
 15
431.8
 25
279.4
 35
0.0
146
0.0
 13
0.0
 23
0.0
 33
0.0
 16
1.0
 26
0.0
 36
0.0
 17
0.0
 27
1.0
 37
0.0
 76
     0
330
1F
331
29
  0
MLINESTYLE
  5
18
102
{ACAD_REACTORS
330
17
102
}
330
17
100
AcDbMlineStyle
  2
Standard
 70
     0
  3

 62
   256
 51
90.0
 52
90.0
 71
     2
 49
0.5
 62
   256
  6
BYLAYER
 49
-0.5
 62
   256
  6
BYLAYER
  0
ACDBPLACEHOLDER
  5
F
102
{ACAD_REACTORS
330
E
102
}
330
E
  0
SCALE
  5
48
102
{ACAD_REACTORS
330
47
102
}
330
47
100
AcDbScale
 70
     0
300
1:1
140
1.0
141
1.0
290
     1
  0
SCALE
  5
49
102
{ACAD_REACTORS
330
47
102
}
330
47
100
AcDbScale
 70
     0
300
1:2
140
1.0
141
2.0
290
     0
  0
SCALE
  5
4A
102
{ACAD_REACTORS
330
47
102
}
330
47
100
AcDbScale
 70
     0
300
1:4
140
1.0
141
4.0
290
     0
  0
SCALE
  5
4B
102
{ACAD_REACTORS
330
47
102
}
330
47
100
AcDbScale
 70
     0
300
1:5
140
1.0
141
5.0
290
     0
  0
SCALE
  5
4C
102
{ACAD_REACTORS
330
47
102
}
330
47
100
AcDbScale
 70
     0
300
1:8
140
1.0
141
8.0
290
     0
  0
SCALE
  5
4D
102
{ACAD_REACTORS
330
47
102
}
330
47
100
AcDbScale
 70
     0
300
1:10
140
1.0
141
10.0
290
     0
  0
SCALE
  5
4E
102
{ACAD_REACTORS
330
47
102
}
330
47
100
AcDbScale
 70
     0
300
1:16
140
1.0
141
16.0
290
     0
  0
SCALE
  5
4F
102
{ACAD_REACTORS
330
47
102
}
330
47
100
AcDbScale
 70
     0
300
1:20
140
1.0
141
20.0
290
     0
  0
SCALE
  5
50
102
{ACAD_REACTORS
330
47
102
}
330
47
100
AcDbScale
 70
     0
300
1:30
140
1.0
141
30.0
290
     0
  0
SCALE
  5
51
102
{ACAD_REACTORS
330
47
102
}
330
47
100
AcDbScale
 70
     0
300
1:40
140
1.0
141
40.0
290
     0
  0
SCALE
  5
52
102
{ACAD_REACTORS
330
47
102
}
330
47
100
AcDbScale
 70
     0
300
1:50
140
1.0
141
50.0
290
     0
  0
SCALE
  5
53
102
{ACAD_REACTORS
330
47
102
}
330
47
100
AcDbScale
 70
     0
300
1:100
140
1.0
141
100.0
290
     0
  0
SCALE
  5
54
102
{ACAD_REACTORS
330
47
102
}
330
47
100
AcDbScale
 70
     0
300
2:1
140
2.0
141
1.0
290
     0
  0
SCALE
  5
55
102
{ACAD_REACTORS
330
47
102
}
330
47
100
AcDbScale
 70
     0
300
4:1
140
4.0
141
1.0
290
     0
  0
SCALE
  5
56
102
{ACAD_REACTORS
330
47
102
}
330
47
100
AcDbScale
 70
     0
300
8:1
140
8.0
141
1.0
290
     0
  0
SCALE
  5
57
102
{ACAD_REACTORS
330
47
102
}
330
47
100
AcDbScale
 70
     0
300
10:1
140
10.0
141
1.0
290
     0
  0
SCALE
  5
58
102
{ACAD_REACTORS
330
47
102
}
330
47
100
AcDbScale
 70
     0
300
100:1
140
100.0
141
1.0
290
     0
  0
ENDSEC
  0
EOF
