  0
SECTION
  2
HEADER
  9
$ACADVER
  1
AC1015
  9
$ACADMAINTVER
 70
     6
  9
$DWGCODEPAGE
  3
DOS932
  9
$INSBASE
 10
0.0
 20
0.0
 30
0.0
  9
$EXTMIN
 10
0.0
 20
0.0
 30
0.0
  9
$EXTMAX
 10
431.8
 20
279.4
 30
0.0
  9
$LIMMIN
 10
0.0
 20
0.0
  9
$LIMMAX
 10
431.8
 20
279.4
  9
$ORTHOMODE
 70
     0
  9
$REGENMODE
 70
     1
  9
$FILLMODE
 70
     1
  9
$QTEXTMODE
 70
     0
  9
$MIRRTEXT
 70
     1
  9
$LTSCALE
 40
1.0
  9
$ATTMODE
 70
     1
  9
$TEXTSIZE
 40
3.5
  9
$TRACEWID
 40
1.0
  9
$TEXTSTYLE
  7
Standard
  9
$CLAYER
  8
0
  9
$CELTYPE
  6
ByLayer
  9
$CECOLOR
 62
   256
  9
$CELTSCALE
 40
1.0
  9
$DISPSILH
 70
     0
  9
$DIMSCALE
 40
1.0
  9
$DIMASZ
 40
3.556
  9
$DIMEXO
 40
1.0
  9
$DIMDLI
 40
3.75
  9
$DIMRND
 40
0.0
  9
$DIMDLE
 40
0.0
  9
$DIMEXE
 40
1.0
  9
$DIMTP
 40
0.0
  9
$DIMTM
 40
0.0
  9
$DIMTXT
 40
3.5
  9
$DIMCEN
 40
2.5
  9
$DIMTSZ
 40
0.0
  9
$DIMTOL
 70
     0
  9
$DIMLIM
 70
     0
  9
$DIMTIH
 70
     1
  9
$DIMTOH
 70
     1
  9
$DIMSE1
 70
     0
  9
$DIMSE2
 70
     0
  9
$DIMTAD
 70
     1
  9
$DIMZIN
 70
     0
  9
$DIMBLK
  1

  9
$DIMASO
 70
     1
  9
$DIMSHO
 70
     1
  9
$DIMPOST
  1

  9
$DIMAPOST
  1

  9
$DIMALT
 70
     0
  9
$DIMALTD
 70
     3
  9
$DIMALTF
 40
0.0393700787
  9
$DIMLFAC
 40
1.0
  9
$DIMTOFL
 70
     1
  9
$DIMTVP
 40
0.0
  9
$DIMTIX
 70
     0
  9
$DIMSOXD
 70
     0
  9
$DIMSAH
 70
     0
  9
$DIMBLK1
  1

  9
$DIMBLK2
  1

  9
$DIMSTYLE
  2
ISO-25
  9
$DIMCLRD
 70
     0
  9
$DIMCLRE
 70
     0
  9
$DIMCLRT
 70
     0
  9
$DIMTFAC
 40
1.0
  9
$DIMGAP
 40
1.524
  9
$DIMJUST
 70
     0
  9
$DIMSD1
 70
     0
  9
$DIMSD2
 70
     0
  9
$DIMTOLJ
 70
     0
  9
$DIMTZIN
 70
     0
  9
$DIMALTZ
 70
     0
  9
$DIMALTTZ
 70
     0
  9
$DIMUPT
 70
     0
  9
$DIMDEC
 70
     3
  9
$DIMTDEC
 70
     3
  9
$DIMALTU
 70
     2
  9
$DIMALTTD
 70
     3
  9
$DIMTXSTY
  7
Standard
  9
$DIMAUNIT
 70
     0
  9
$DIMADEC
 70
     2
  9
$DIMALTRND
 40
0.0
  9
$DIMAZIN
 70
     0
  9
$DIMDSEP
 70
    44
  9
$DIMATFIT
 70
     3
  9
$DIMFRAC
 70
     0
  9
$DIMLDRBLK
  1

  9
$DIMLUNIT
 70
     2
  9
$DIMLWD
 70
    -2
  9
$DIMLWE
 70
    -2
  9
$DIMTMOVE
 70
     0
  9
$LUNITS
 70
     2
  9
$LUPREC
 70
     3
  9
$SKETCHINC
 40
1.0
  9
$FILLETRAD
 40
0.0
  9
$AUNITS
 70
     0
  9
$AUPREC
 70
     2
  9
$MENU
  1
.
  9
$ELEVATION
 40
0.0
  9
$PELEVATION
 40
0.0
  9
$THICKNESS
 40
0.0
  9
$LIMCHECK
 70
     0
  9
$CHAMFERA
 40
0.0
  9
$CHAMFERB
 40
0.0
  9
$CHAMFERC
 40
0.0
  9
$CHAMFERD
 40
0.0
  9
$SKPOLY
 70
     0
  9
$TDCREATE
 40
2460339.55160853
  9
$TDUCREATE
 40
2460339.17660853
  9
$TDUPDATE
 40
2460339.55160897
  9
$TDUUPDATE
 40
2460339.17660897
  9
$TDINDWG
 40
0.0000000116
  9
$TDUSRTIMER
 40
0.0000000116
  9
$USRTIMER
 70
     1
  9
$ANGBASE
 50
0.0
  9
$ANGDIR
 70
     0
  9
$PDMODE
 70
     0
  9
$PDSIZE
 40
-1.0
  9
$PLINEWID
 40
0.0
  9
$SPLFRAME
 70
     0
  9
$SPLINETYPE
 70
     6
  9
$SPLINESEGS
 70
     8
  9
$HANDSEED
  5
281
  9
$SURFTAB1
 70
     6
  9
$SURFTAB2
 70
     6
  9
$SURFTYPE
 70
     6
  9
$SURFU
 70
     6
  9
$SURFV
 70
     6
  9
$UCSBASE
  2

  9
$UCSNAME
  2

  9
$UCSORG
 10
0.0
 20
0.0
 30
0.0
  9
$UCSXDIR
 10
1.0
 20
0.0
 30
0.0
  9
$UCSYDIR
 10
0.0
 20
1.0
 30
0.0
  9
$UCSORTHOREF
  2

  9
$UCSORTHOVIEW
 70
     0
  9
$UCSORGTOP
 10
0.0
 20
0.0
 30
0.0
  9
$UCSORGBOTTOM
 10
0.0
 20
0.0
 30
0.0
  9
$UCSORGLEFT
 10
0.0
 20
0.0
 30
0.0
  9
$UCSORGRIGHT
 10
0.0
 20
0.0
 30
0.0
  9
$UCSORGFRONT
 10
0.0
 20
0.0
 30
0.0
  9
$UCSORGBACK
 10
0.0
 20
0.0
 30
0.0
  9
$PUCSBASE
  2

  9
$PUCSNAME
  2

  9
$PUCSORG
 10
0.0
 20
0.0
 30
0.0
  9
$PUCSXDIR
 10
1.0
 20
0.0
 30
0.0
  9
$PUCSYDIR
 10
0.0
 20
1.0
 30
0.0
  9
$PUCSORTHOREF
  2

  9
$PUCSORTHOVIEW
 70
     0
  9
$PUCSORGTOP
 10
0.0
 20
0.0
 30
0.0
  9
$PUCSORGBOTTOM
 10
0.0
 20
0.0
 30
0.0
  9
$PUCSORGLEFT
 10
0.0
 20
0.0
 30
0.0
  9
$PUCSORGRIGHT
 10
0.0
 20
0.0
 30
0.0
  9
$PUCSORGFRONT
 10
0.0
 20
0.0
 30
0.0
  9
$PUCSORGBACK
 10
0.0
 20
0.0
 30
0.0
  9
$USERI1
 70
     0
  9
$USERI2
 70
     0
  9
$USERI3
 70
     0
  9
$USERI4
 70
     0
  9
$USERI5
 70
     0
  9
$USERR1
 40
0.0
  9
$USERR2
 40
0.0
  9
$USERR3
 40
0.0
  9
$USERR4
 40
0.0
  9
$USERR5
 40
0.0
  9
$WORLDVIEW
 70
     1
  9
$SHADEDGE
 70
     3
  9
$SHADEDIF
 70
    70
  9
$TILEMODE
 70
     1
  9
$MAXACTVP
 70
    64
  9
$PINSBASE
 10
0.0
 20
0.0
 30
0.0
  9
$PLIMCHECK
 70
     0
  9
$PEXTMIN
 10
1.0000000000E+20
 20
1.0000000000E+20
 30
1.0000000000E+20
  9
$PEXTMAX
 10
-1.0000000000E+20
 20
-1.0000000000E+20
 30
-1.0000000000E+20
  9
$PLIMMIN
 10
0.0
 20
0.0
  9
$PLIMMAX
 10
420.0
 20
297.0
  9
$UNITMODE
 70
     0
  9
$VISRETAIN
 70
     1
  9
$PLINEGEN
 70
     0
  9
$PSLTSCALE
 70
     1
  9
$TREEDEPTH
 70
  3020
  9
$CMLSTYLE
  2
Standard
  9
$CMLJUST
 70
     0
  9
$CMLSCALE
 40
20.0
  9
$PROXYGRAPHICS
 70
     1
  9
$MEASUREMENT
 70
     1
  9
$CELWEIGHT
370
    -1
  9
$ENDCAPS
280
     0
  9
$JOINSTYLE
280
     0
  9
$LWDISPLAY
290
     1
  9
$INSUNITS
 70
     4
  9
$HYPERLINKBASE
  1

  9
$STYLESHEET
  1

  9
$XEDIT
290
     1
  9
$CEPSNTYPE
380
     0
  9
$PSTYLEMODE
290
     1
  9
$FINGERPRINTGUID
  2
{9d469f2b-a8b4-4a9a-90d5-3ae61290d3ba}
  9
$VERSIONGUID
  2
{FAEB1C32-E019-11D5-929B-00C0DF256EC4}
  9
$EXTNAMES
290
     1
  9
$PSVPSCALE
 40
0.0
  9
$OLESTARTUP
290
     0
  0
ENDSEC
  0
SECTION
  2
CLASSES
  0
CLASS
  1
ACDBDICTIONARYWDFLT
  2
AcDbDictionaryWithDefault
  3
ObjectDBX Classes
 90
        0
280
     0
281
     0
  0
CLASS
  1
VISUALSTYLE
  2
AcDbVisualStyle
  3
ObjectDBX Classes
 90
     4095
280
     0
281
     0
  0
CLASS
  1
MATERIAL
  2
AcDbMaterial
  3
ObjectDBX Classes
 90
     1153
280
     0
281
     0
  0
CLASS
  1
SCALE
  2
AcDbScale
  3
ObjectDBX Classes
 90
     1153
280
     0
281
     0
  0
CLASS
  1
TABLESTYLE
  2
AcDbTableStyle
  3
ObjectDBX Classes
 90
     4095
280
     0
281
     0
  0
CLASS
  1
MLEADERSTYLE
  2
AcDbMLeaderStyle
  3
ACDB_MLEADERSTYLE_CLASS
 90
     4095
280
     0
281
     0
  0
CLASS
  1
SUN
  2
AcDbSun
  3
SCENEOE
 90
     1153
280
     0
281
     0
  0
CLASS
  1
ACDBPLACEHOLDER
  2
AcDbPlaceHolder
  3
ObjectDBX Classes
 90
        0
280
     0
281
     0
  0
CLASS
  1
LAYOUT
  2
AcDbLayout
  3
ObjectDBX Classes
 90
        0
280
     0
281
     0
  0
ENDSEC
  0
SECTION
  2
TABLES
  0
TABLE
  2
VPORT
  5
8
330
0
100
AcDbSymbolTable
 70
     1
  0
VPORT
  5
29
330
8
100
AcDbSymbolTableRecord
100
AcDbViewportTableRecord
  2
*Active
 70
     0
 10
0.0
 20
0.0
 11
1.0
 21
1.0
 12
215.9
 22
139.7
 13
0.0
 23
0.0
 14
10.0
 24
10.0
 15
10.0
 25
10.0
 16
0.0
 26
0.0
 36
1.0
 17
0.0
 27
0.0
 37
0.0
 40
279.4
 41
1.5454545455
 42
50.0
 43
0.0
 44
0.0
 50
0.0
 51
0.0
 71
     0
 72
  2000
 73
     1
 74
     3
 75
     0
 76
     0
 77
     0
 78
     0
281
     0
 65
     1
110
0.0
120
0.0
130
0.0
111
1.0
121
0.0
131
0.0
112
0.0
122
1.0
132
0.0
 79
     0
146
0.0
  0
ENDTAB
  0
TABLE
  2
LTYPE
  5
5
330
0
100
AcDbSymbolTable
 70
     6
  0
LTYPE
  5
14
330
5
100
AcDbSymbolTableRecord
100
AcDbLinetypeTableRecord
  2
ByBlock
 70
     0
  3

 72
    65
 73
     0
 40
0.0
  0
LTYPE
  5
15
330
5
100
AcDbSymbolTableRecord
100
AcDbLinetypeTableRecord
  2
ByLayer
 70
     0
  3

 72
    65
 73
     0
 40
0.0
  0
LTYPE
  5
16
330
5
100
AcDbSymbolTableRecord
100
AcDbLinetypeTableRecord
  2
Continuous
 70
     0
  3
Solid line
 72
    65
 73
     0
 40
0.0
  0
LTYPE
  5
5E
330
5
100
AcDbSymbolTableRecord
100
AcDbLinetypeTableRecord
  2
HIDDEN
 70
     0
  3
Hidden __ __ __ __ __ __ __ __ __ __ __ __ __ __
 72
    65
 73
     2
 40
1.905
 49
1.27
 74
     0
 49
-0.635
 74
     0
  0
LTYPE
  5
5F
330
5
100
AcDbSymbolTableRecord
100
AcDbLinetypeTableRecord
  2
PHANTOM
 70
     0
  3
Phantom ______  __  __  ______  __  __  ______
 72
    65
 73
     6
 40
12.7
 49
6.35
 74
     0
 49
-1.27
 74
     0
 49
1.27
 74
     0
 49
-1.27
 74
     0
 49
1.27
 74
     0
 49
-1.27
 74
     0
  0
LTYPE
  5
60
330
5
100
AcDbSymbolTableRecord
100
AcDbLinetypeTableRecord
  2
CENTER
 70
     0
  3
Center ____ _ ____ _ ____ _ ____ _ ____ _ ____
 72
    65
 73
     4
 40
10.16
 49
6.35
 74
     0
 49
-1.27
 74
     0
 49
1.27
 74
     0
 49
-1.27
 74
     0
  0
LTYPE
  5
61
330
5
100
AcDbSymbolTableRecord
100
AcDbLinetypeTableRecord
  2
CENTERX2
 70
     0
  3
Center (2x) ________  __  ________  __  _____
 72
    65
 73
     4
 40
20.32
 49
12.7
 74
     0
 49
-2.54
 74
     0
 49
2.54
 74
     0
 49
-2.54
 74
     0
  0
LTYPE
  5
62
330
5
100
AcDbSymbolTableRecord
100
AcDbLinetypeTableRecord
  2
DOT2
 70
     0
  3
Dot (.5x) ........................................
 72
    65
 73
     2
 40
0.635
 49
0.0
 74
     0
 49
-0.635
 74
     0
  0
ENDTAB
  0
TABLE
  2
LAYER
  5
2
330
0
100
AcDbSymbolTable
 70
     1
  0
LAYER
  5
10
330
2
100
AcDbSymbolTableRecord
100
AcDbLayerTableRecord
  2
0
 70
     0
 62
     7
  6
Continuous
370
    -3
390
F
  0
ENDTAB
  0
TABLE
  2
STYLE
  5
3
330
0
100
AcDbSymbolTable
 70
     2
  0
STYLE
  5
11
330
3
100
AcDbSymbolTableRecord
100
AcDbTextStyleTableRecord
  2
Standard
 70
     0
 40
0.0
 41
1.0
 50
0.0
 71
     0
 42
3.5
  3
txt
  4
bigfont
  0
STYLE
  5
271
330
3
100
AcDbSymbolTableRecord
100
AcDbTextStyleTableRecord
  2
SLDTEXTSTYLE0
 70
     0
 40
0.0
 41
0.75
 50
0.0
 71
     0
 42
3.5
  3
TXT
  4
bigfont
  0
ENDTAB
  0
TABLE
  2
VIEW
  5
6
330
0
100
AcDbSymbolTable
 70
     0
  0
ENDTAB
  0
TABLE
  2
UCS
  5
7
330
0
100
AcDbSymbolTable
 70
     0
  0
ENDTAB
  0
TABLE
  2
APPID
  5
9
330
0
100
AcDbSymbolTable
 70
     1
  0
APPID
  5
12
330
9
100
AcDbSymbolTableRecord
100
AcDbRegAppTableRecord
  2
ACAD
 70
     0
  0
ENDTAB
  0
TABLE
  2
DIMSTYLE
  5
A
330
0
100
AcDbSymbolTable
 70
     1
100
AcDbDimStyleTable
  0
DIMSTYLE
105
27
330
A
100
AcDbSymbolTableRecord
100
AcDbDimStyleTableRecord
  2
ISO-25
 70
     0
 41
2.5
 42
0.625
 43
3.75
 44
1.25
 73
     0
 74
     0
 77
     1
 78
     8
140
2.5
141
2.5
143
0.0393700787
147
0.625
171
     3
172
     1
178
     0
271
     2
272
     2
274
     3
278
    44
283
     0
284
     8
340
11
  0
ENDTAB
  0
TABLE
  2
BLOCK_RECORD
  5
1
330
0
100
AcDbSymbolTable
 70
     3
  0
BLOCK_RECORD
  5
1F
330
1
100
AcDbSymbolTableRecord
100
AcDbBlockTableRecord
  2
*Model_Space
340
22
  0
BLOCK_RECORD
  5
1B
330
1
100
AcDbSymbolTableRecord
100
AcDbBlockTableRecord
  2
*Paper_Space
340
1E
  0
BLOCK_RECORD
  5
23
330
1
100
AcDbSymbolTableRecord
100
AcDbBlockTableRecord
  2
*Paper_Space0
340
26
  0
BLOCK_RECORD
  5
1D5
330
1
100
AcDbSymbolTableRecord
100
AcDbBlockTableRecord
  2
SW_CENTERMARKSYMBOL_0
340
0
102
{BLKREFS
331
1E0
102
}
  0
BLOCK_RECORD
  5
274
330
1
100
AcDbSymbolTableRecord
100
AcDbBlockTableRecord
  2
SW_CENTERMARKSYMBOL_1
340
0
102
{BLKREFS
331
27F
102
}
  0
ENDTAB
  0
ENDSEC
  0
SECTION
  2
BLOCKS
  0
BLOCK
  5
20
330
1F
100
AcDbEntity
  8
0
100
AcDbBlockBegin
  2
*Model_Space
 70
     0
 10
0.0
 20
0.0
 30
0.0
  3
*Model_Space
  1

  0
ENDBLK
  5
21
330
1F
100
AcDbEntity
  8
0
100
AcDbBlockEnd
  0
BLOCK
  5
1C
330
1B
100
AcDbEntity
 67
     1
  8
0
100
AcDbBlockBegin
  2
*Paper_Space
 70
     0
 10
0.0
 20
0.0
 30
0.0
  3
*Paper_Space
  1

  0
ENDBLK
  5
1D
330
1B
100
AcDbEntity
 67
     1
  8
0
100
AcDbBlockEnd
  0
BLOCK
  5
24
330
23
100
AcDbEntity
  8
0
100
AcDbBlockBegin
  2
*Paper_Space0
 70
     0
 10
0.0
 20
0.0
 30
0.0
  3
*Paper_Space0
  1

  0
ENDBLK
  5
25
330
23
100
AcDbEntity
  8
0
100
AcDbBlockEnd
  0
BLOCK
  5
1D6
330
1D5
100
AcDbEntity
  8
0
100
AcDbBlockBegin
  2
SW_CENTERMARKSYMBOL_0
 70
     0
 10
0.0
 20
0.0
 30
0.0
  3
SW_CENTERMARKSYMBOL_0
  1

  0
LINE
  5
1D8
330
1D5
100
AcDbEntity
  8
0
  6
Continuous
 62
     0
370
    18
100
AcDbLine
 10
0.0
 20
0.0
 30
0.0
 11
0.0
 21
2.5
 31
0.0
  0
LINE
  5
1D9
330
1D5
100
AcDbEntity
  8
0
  6
Continuous
 62
     0
370
    18
100
AcDbLine
 10
0.0
 20
0.0
 30
0.0
 11
-2.5
 21
0.0
 31
0.0
  0
LINE
  5
1DA
330
1D5
100
AcDbEntity
  8
0
  6
Continuous
 62
     0
370
    18
100
AcDbLine
 10
0.0
 20
0.0
 30
0.0
 11
0.0
 21
-2.5
 31
0.0
  0
LINE
  5
1DB
330
1D5
100
AcDbEntity
  8
0
  6
Continuous
 62
     0
370
    18
100
AcDbLine
 10
0.0
 20
0.0
 30
0.0
 11
2.5
 21
0.0
 31
0.0
  0
LINE
  5
1DC
330
1D5
100
AcDbEntity
  8
0
  6
Continuous
 62
     0
370
    18
100
AcDbLine
 10
0.0
 20
5.0
 30
0.0
 11
0.0
 21
32.257374626
 31
0.0
  0
LINE
  5
1DD
330
1D5
100
AcDbEntity
  8
0
  6
Continuous
 62
     0
370
    18
100
AcDbLine
 10
-5.0
 20
0.0
 30
0.0
 11
-14.0113899644
 21
0.0
 31
0.0
  0
LINE
  5
1DE
330
1D5
100
AcDbEntity
  8
0
  6
Continuous
 62
     0
370
    18
100
AcDbLine
 10
0.0
 20
-5.0
 30
0.0
 11
0.0
 21
-27.6622307249
 31
0.0
  0
LINE
  5
1DF
330
1D5
100
AcDbEntity
  8
0
  6
Continuous
 62
     0
370
    18
100
AcDbLine
 10
5.0
 20
0.0
 30
0.0
 11
14.0317923379
 21
0.0
 31
0.0
  0
ENDBLK
  5
1D7
330
1D5
100
AcDbEntity
  8
0
100
AcDbBlockEnd
  0
BLOCK
  5
275
330
274
100
AcDbEntity
  8
0
100
AcDbBlockBegin
  2
SW_CENTERMARKSYMBOL_1
 70
     0
 10
0.0
 20
0.0
 30
0.0
  3
SW_CENTERMARKSYMBOL_1
  1

  0
LINE
  5
277
330
274
100
AcDbEntity
  8
0
  6
Continuous
 62
     0
370
    18
100
AcDbLine
 10
0.0
 20
0.0
 30
0.0
 11
0.0
 21
2.5
 31
0.0
  0
LINE
  5
278
330
274
100
AcDbEntity
  8
0
  6
Continuous
 62
     0
370
    18
100
AcDbLine
 10
0.0
 20
0.0
 30
0.0
 11
-2.5
 21
0.0
 31
0.0
  0
LINE
  5
279
330
274
100
AcDbEntity
  8
0
  6
Continuous
 62
     0
370
    18
100
AcDbLine
 10
0.0
 20
0.0
 30
0.0
 11
0.0
 21
-2.5
 31
0.0
  0
LINE
  5
27A
330
274
100
AcDbEntity
  8
0
  6
Continuous
 62
     0
370
    18
100
AcDbLine
 10
0.0
 20
0.0
 30
0.0
 11
2.5
 21
0.0
 31
0.0
  0
LINE
  5
27B
330
274
100
AcDbEntity
  8
0
  6
Continuous
 62
     0
370
    18
100
AcDbLine
 10
0.0
 20
5.0
 30
0.0
 11
0.0
 21
12.5527982956
 31
0.0
  0
LINE
  5
27C
330
274
100
AcDbEntity
  8
0
  6
Continuous
 62
     0
370
    18
100
AcDbLine
 10
-5.0
 20
0.0
 30
0.0
 11
-44.4995369222
 21
0.0
 31
0.0
  0
LINE
  5
27D
330
274
100
AcDbEntity
  8
0
  6
Continuous
 62
     0
370
    18
100
AcDbLine
 10
0.0
 20
-5.0
 30
0.0
 11
0.0
 21
-12.4812150796
 31
0.0
  0
LINE
  5
27E
330
274
100
AcDbEntity
  8
0
  6
Continuous
 62
     0
370
    18
100
AcDbLine
 10
5.0
 20
0.0
 30
0.0
 11
16.5423039104
 21
0.0
 31
0.0
  0
ENDBLK
  5
276
330
274
100
AcDbEntity
  8
0
100
AcDbBlockEnd
  0
ENDSEC
  0
SECTION
  2
ENTITIES
  0
LINE
  5
63
330
1F
100
AcDbEntity
  8
0
  6
Continuous
 62
     7
370
    25
100
AcDbLine
 10
36.4864377254
 20
29.6626915501
 30
0.0
 11
37.3899646712
 21
31.2276461263
 31
0.0
  0
LINE
  5
64
330
1F
100
AcDbEntity
  8
0
  6
Continuous
 62
     7
370
    25
100
AcDbLine
 10
37.3899646712
 20
47.7276461263
 30
0.0
 11
36.4864377254
 21
49.2926007025
 31
0.0
  0
LINE
  5
65
330
1F
100
AcDbEntity
  8
0
  6
Continuous
 62
     7
370
    25
100
AcDbLine
 10
25.2934916171
 20
49.2926007025
 30
0.0
 11
24.3899646712
 21
47.7276461263
 31
0.0
  0
LINE
  5
66
330
1F
100
AcDbEntity
  8
0
  6
Continuous
 62
     7
370
    25
100
AcDbLine
 10
24.3899646712
 20
31.2276461263
 30
0.0
 11
25.2934916171
 21
29.6626915501
 31
0.0
  0
LINE
  5
67
330
1F
100
AcDbEntity
  8
0
  6
Continuous
 62
     7
370
    25
100
AcDbLine
 10
41.5784910003
 20
47.4776461263
 30
0.0
 11
41.3784910003
 21
47.2776461263
 31
0.0
  0
LINE
  5
68
330
1F
100
AcDbEntity
  8
0
  6
Continuous
 62
     7
370
    25
100
AcDbLine
 10
41.3784910003
 20
31.6776461263
 30
0.0
 11
41.5784910003
 21
31.4776461263
 31
0.0
  0
LINE
  5
69
330
1F
100
AcDbEntity
  8
0
  6
Continuous
 62
     7
370
    25
100
AcDbLine
 10
44.3284910003
 20
47.4776461263
 30
0.0
 11
41.5784910003
 21
47.4776461263
 31
0.0
  0
LINE
  5
6A
330
1F
100
AcDbEntity
  8
0
  6
Continuous
 62
     7
370
    25
100
AcDbLine
 10
41.5784910003
 20
31.4776461263
 30
0.0
 11
44.3284910003
 21
31.4776461263
 31
0.0
  0
LINE
  5
6B
330
1F
100
AcDbEntity
  8
0
  6
Continuous
 62
     7
370
    25
100
AcDbLine
 10
41.3784910003
 20
46.0561461263
 30
0.0
 11
37.3899646712
 21
46.0561461263
 31
0.0
  0
LINE
  5
6C
330
1F
100
AcDbEntity
  8
0
  6
Continuous
 62
     7
370
    25
100
AcDbLine
 10
37.3899646712
 20
32.8991461263
 30
0.0
 11
41.3784910003
 21
32.8991461263
 31
0.0
  0
LINE
  5
6D
330
1F
100
AcDbEntity
  8
0
  6
Continuous
 62
     7
370
    25
100
AcDbLine
 10
66.9696222531
 20
29.7400418193
 30
0.0
 11
67.8284910003
 21
31.2276461263
 31
0.0
  0
LINE
  5
6E
330
1F
100
AcDbEntity
  8
0
  6
Continuous
 62
     7
370
    25
100
AcDbLine
 10
67.8284910003
 20
47.7276461263
 30
0.0
 11
66.9696222531
 21
49.2152504333
 31
0.0
  0
LINE
  5
6F
330
1F
100
AcDbEntity
  8
0
  6
Continuous
 62
     7
370
    25
100
AcDbLine
 10
49.0703035003
 20
27.4776461263
 30
0.0
 11
49.3639389417
 21
18.0813120001
 31
0.0
  0
LINE
  5
70
330
1F
100
AcDbEntity
  8
0
  6
Continuous
 62
     7
370
    25
100
AcDbLine
 10
62.2930430588
 20
18.0813120001
 30
0.0
 11
62.5866785003
 21
27.4776461263
 31
0.0
  0
SPLINE
  5
71
330
1F
100
AcDbEntity
  8
0
  6
Continuous
 62
     7
370
    25
100
AcDbSpline
210
0.0
220
0.0
230
1.0
 70
     8
 71
     3
 72
    11
 73
     7
 74
     0
 42
0.00000001
 43
0.00000001
 40
0.0
 40
0.0
 40
0.0
 40
0.0
 40
0.1850447070640807
 40
0.5392979514617541
 40
0.8467577236976556
 40
0.9999999999999999
 40
0.9999999999999999
 40
0.9999999999999999
 40
0.9999999999999999
 10
61.99857764916425
 20
48.266527552039
 30
0.0
 10
61.96370850740167
 20
48.30060175982728
 30
0.0
 10
61.86208519150065
 20
48.39990830444269
 30
0.0
 10
61.76556038120609
 20
48.60496928742126
 30
0.0
 10
61.70956041986989
 20
48.81398234370278
 30
0.0
 10
61.71422308447072
 20
48.9351125766884
 30
0.0
 10
61.71577401600951
 20
48.97540385103945
 30
0.0
  0
SPLINE
  5
72
330
1F
100
AcDbEntity
  8
0
  6
Continuous
 62
     7
370
    25
100
AcDbSpline
210
0.0
220
0.0
230
1.0
 70
     8
 71
     3
 72
    11
 73
     7
 74
     0
 42
0.00000001
 43
0.00000001
 40
0.0
 40
0.0
 40
0.0
 40
0.0
 40
0.2683124867299675
 40
0.5980998021106244
 40
0.9345950655956381
 40
1.0
 40
1.0
 40
1.0
 40
1.0
 10
49.93922623297781
 20
48.97625398839193
 30
0.0
 10
49.93742256889614
 20
48.90572594117338
 30
0.0
 10
49.93340199145874
 20
48.74851070457085
 30
0.0
 10
49.84693941164046
 20
48.51778001274727
 30
0.0
 10
49.75001256188437
 20
48.34713092501082
 30
0.0
 10
49.66965048694404
 20
48.27927053093845
 30
0.0
 10
49.65657242361471
 20
48.26822698170342
 30
0.0
  0
LINE
  5
73
330
1F
100
AcDbEntity
  8
0
  6
Continuous
 62
     7
370
    25
100
AcDbLine
 10
49.3639389417
 20
18.0813120001
 30
0.0
 11
50.5784910003
 21
15.9776461263
 31
0.0
  0
LINE
  5
74
330
1F
100
AcDbEntity
  8
0
  6
Continuous
 62
     7
370
    25
100
AcDbLine
 10
61.0784910003
 20
15.9776461263
 30
0.0
 11
62.2930430588
 21
18.0813120001
 31
0.0
  0
LINE
  5
75
330
1F
100
AcDbEntity
  8
0
  6
Continuous
 62
     7
370
    25
100
AcDbLine
 10
61.7284910003
 20
48.9731153062
 30
0.0
 11
61.7284910003
 21
49.9776461263
 31
0.0
  0
LINE
  5
76
330
1F
100
AcDbEntity
  8
0
  6
Continuous
 62
     7
370
    25
100
AcDbLine
 10
49.9284910003
 20
49.9776461263
 30
0.0
 11
49.9284910003
 21
48.9776461263
 31
0.0
  0
LINE
  5
77
330
1F
100
AcDbEntity
  8
0
  6
Continuous
 62
     7
370
    25
100
AcDbLine
 10
49.6583240929
 20
48.2723838556
 30
0.0
 11
49.1139598204
 21
49.2152504333
 31
0.0
  0
LINE
  5
78
330
1F
100
AcDbEntity
  8
0
  6
Continuous
 62
     7
370
    25
100
AcDbLine
 10
45.0430221801
 20
49.2152504333
 30
0.0
 11
44.3284910003
 21
47.9776461263
 31
0.0
  0
LINE
  5
79
330
1F
100
AcDbEntity
  8
0
  6
Continuous
 62
     7
370
    25
100
AcDbLine
 10
62.5430221801
 20
49.2152504333
 30
0.0
 11
61.9986579076
 21
48.2723838556
 31
0.0
  0
LINE
  5
7A
330
1F
100
AcDbEntity
  8
0
  6
Continuous
 62
     7
370
    25
100
AcDbLine
 10
64.3284910003
 20
27.4776461263
 30
0.0
 11
65.5660953073
 21
28.1921773061
 31
0.0
  0
LINE
  5
7B
330
1F
100
AcDbEntity
  8
0
  6
Continuous
 62
     7
370
    25
100
AcDbLine
 10
46.0908866932
 20
28.1921773061
 30
0.0
 11
47.3284910003
 21
27.4776461263
 31
0.0
  0
LINE
  5
7C
330
1F
100
AcDbEntity
  8
0
  6
Continuous
 62
     7
370
    25
100
AcDbLine
 10
44.3284910003
 20
30.9776461263
 30
0.0
 11
45.0430221801
 21
29.7400418193
 31
0.0
  0
LINE
  5
7D
330
1F
100
AcDbEntity
  8
0
  6
Continuous
 62
     7
370
    25
100
AcDbLine
 10
65.5660953073
 20
28.1896169248
 30
0.0
 11
65.5660953073
 21
29.7400418193
 31
0.0
  0
LINE
  5
7E
330
1F
100
AcDbEntity
  8
0
  6
Continuous
 62
     7
370
    25
100
AcDbLine
 10
65.5660953073
 20
29.7400418193
 30
0.0
 11
66.9721903086
 21
29.7400418193
 31
0.0
  0
LINE
  5
7F
330
1F
100
AcDbEntity
  8
0
  6
Continuous
 62
     7
370
    25
100
AcDbLine
 10
49.1165278759
 20
49.2152504333
 30
0.0
 11
45.0404617988
 21
49.2152504333
 31
0.0
  0
LINE
  5
80
330
1F
100
AcDbEntity
  8
0
  6
Continuous
 62
     7
370
    25
100
AcDbLine
 10
66.9721903086
 20
49.2152504333
 30
0.0
 11
62.5404541246
 21
49.2152504333
 31
0.0
  0
LINE
  5
81
330
1F
100
AcDbEntity
  8
0
  6
Continuous
 62
     7
370
    25
100
AcDbLine
 10
46.0908866932
 20
29.7400418193
 30
0.0
 11
46.0908866932
 21
28.1896169248
 31
0.0
  0
LINE
  5
82
330
1F
100
AcDbEntity
  8
0
  6
Continuous
 62
     7
370
    25
100
AcDbLine
 10
45.0404617988
 20
29.7400418193
 30
0.0
 11
46.0908866932
 21
29.7400418193
 31
0.0
  0
LINE
  5
83
330
1F
100
AcDbEntity
  8
0
  6
Continuous
 62
     7
370
    25
100
AcDbLine
 10
63.2784910003
 20
57.9776461263
 30
0.0
 11
61.3284910002
 21
65.9776461263
 31
0.0
  0
LINE
  5
84
330
1F
100
AcDbEntity
  8
0
  6
Continuous
 62
     7
370
    25
100
AcDbLine
 10
62.8284910003
 20
49.9776461263
 30
0.0
 11
63.2784910003
 21
57.9776461263
 31
0.0
  0
LINE
  5
85
330
1F
100
AcDbEntity
  8
0
  6
Continuous
 62
     7
370
    25
100
AcDbLine
 10
48.7597455827
 20
51.1997868835
 30
0.0
 11
48.8284910003
 21
49.9776461263
 31
0.0
  0
LINE
  5
86
330
1F
100
AcDbEntity
  8
0
  6
Continuous
 62
     7
370
    25
100
AcDbLine
 10
50.3284910003
 20
65.9776461263
 30
0.0
 11
50.0752594657
 21
64.9387475231
 31
0.0
  0
SPLINE
  5
87
330
1F
100
AcDbEntity
  8
0
  6
Continuous
 62
     7
370
    25
100
AcDbSpline
210
0.0
220
0.0
230
1.0
 70
     8
 71
     3
 72
    14
 73
    10
 74
     0
 42
0.00000001
 43
0.00000001
 40
0.0
 40
0.0
 40
0.0
 40
0.0
 40
0.132317364830439
 40
0.2645973188387832
 40
0.3998364273285067
 40
0.5350511314348789
 40
0.6502525552916445
 40
0.7654719494863402
 40
1.0
 40
1.0
 40
1.0
 40
1.0
 10
36.48643772537854
 20
29.66269155006387
 30
0.0
 10
36.60200590157581
 20
29.8747138260532
 30
0.0
 10
36.83310957873921
 20
30.29869843179836
 30
0.0
 10
37.08179933606652
 20
30.95160206094874
 30
0.0
 10
37.23120798777602
 20
31.61679321732498
 30
0.0
 10
37.26119398434597
 20
32.25795986869529
 30
0.0
 10
37.18316804711701
 20
32.86425507982607
 30
0.0
 10
36.97852286428646
 20
33.63045307246006
 30
0.0
 10
36.6839605878956
 20
34.19296714415892
 30
0.0
 10
36.48643772537854
 20
34.57016883817571
 30
0.0
  0
SPLINE
  5
88
330
1F
100
AcDbEntity
  8
0
  6
Continuous
 62
     7
370
    25
100
AcDbSpline
210
0.0
220
0.0
230
1.0
 70
     8
 71
     3
 72
    14
 73
    10
 74
     0
 42
0.00000001
 43
0.00000001
 40
0.0
 40
0.0
 40
0.0
 40
0.0
 40
0.1885762799860081
 40
0.378895556583529
 40
0.5044823954484108
 40
0.6300701228213248
 40
0.759005291353733
 40
0.8879763296286909
 40
1.0
 40
1.0
 40
1.0
 40
1.0
 10
36.48643772537854
 20
34.57016883817571
 30
0.0
 10
36.6474867644679
 20
35.17570723071117
 30
0.0
 10
36.97107340700605
 20
36.39238096236735
 30
0.0
 10
37.20453312707886
 20
38.05646551375268
 30
0.0
 10
37.26277018225149
 20
39.52271804804106
 30
0.0
 10
37.20590444069403
 20
40.78535856843455
 30
0.0
 10
37.04082040952228
 20
42.04929717892011
 30
0.0
 10
36.79737162437459
 20
43.25459476884911
 30
0.0
 10
36.5851066861996
 20
44.02637164434454
 30
0.0
 10
36.48643772537854
 20
44.38512341439937
 30
0.0
  0
SPLINE
  5
89
330
1F
100
AcDbEntity
  8
0
  6
Continuous
 62
     7
370
    25
100
AcDbSpline
210
0.0
220
0.0
230
1.0
 70
     8
 71
     3
 72
    14
 73
    10
 74
     0
 42
0.00000001
 43
0.00000001
 40
0.0
 40
0.0
 40
0.0
 40
0.0
 40
0.132317364830439
 40
0.2645973188387831
 40
0.3998364273285067
 40
0.5350511314348788
 40
0.6502525552916443
 40
0.76547194948634
 40
1.0
 40
1.0
 40
1.0
 40
1.0
 10
36.48643772537854
 20
44.38512341439937
 30
0.0
 10
36.60200590157582
 20
44.5971456903887
 30
0.0
 10
36.83310957873921
 20
45.02113029613387
 30
0.0
 10
37.08179933606652
 20
45.67403392528423
 30
0.0
 10
37.23120798777602
 20
46.33922508166046
 30
0.0
 10
37.26119398434597
 20
46.98039173303077
 30
0.0
 10
37.18316804711701
 20
47.58668694416153
 30
0.0
 10
36.97852286428646
 20
48.35288493679552
 30
0.0
 10
36.6839605878956
 20
48.91539900849438
 30
0.0
 10
36.48643772537854
 20
49.29260070251116
 30
0.0
  0
LINE
  5
8A
330
1F
100
AcDbEntity
  8
0
  6
Continuous
 62
     7
370
    25
100
AcDbLine
 10
37.3899646712
 20
31.2276461263
 30
0.0
 11
37.3899646712
 21
47.7276461263
 31
0.0
  0
SPLINE
  5
8B
330
1F
100
AcDbEntity
  8
0
  6
Continuous
 62
     7
370
    25
100
AcDbSpline
210
0.0
220
0.0
230
1.0
 70
     8
 71
     3
 72
    14
 73
    10
 74
     0
 42
0.00000001
 43
0.00000001
 40
0.0
 40
0.0
 40
0.0
 40
0.0
 40
0.132317364830439
 40
0.2645973188387831
 40
0.3998364273285067
 40
0.5350511314348788
 40
0.6502525552916443
 40
0.76547194948634
 40
1.0
 40
1.0
 40
1.0
 40
1.0
 10
25.29349161708305
 20
44.38512341439937
 30
0.0
 10
25.17792344088579
 20
44.5971456903887
 30
0.0
 10
24.94681976372237
 20
45.02113029613387
 30
0.0
 10
24.69813000639508
 20
45.67403392528423
 30
0.0
 10
24.54872135468558
 20
46.33922508166046
 30
0.0
 10
24.51873535811563
 20
46.98039173303077
 30
0.0
 10
24.5967612953446
 20
47.58668694416153
 30
0.0
 10
24.80140647817512
 20
48.35288493679552
 30
0.0
 10
25.09596875456601
 20
48.91539900849438
 30
0.0
 10
25.29349161708306
 20
49.29260070251116
 30
0.0
  0
SPLINE
  5
8C
330
1F
100
AcDbEntity
  8
0
  6
Continuous
 62
     7
370
    25
100
AcDbSpline
210
0.0
220
0.0
230
1.0
 70
     8
 71
     3
 72
    14
 73
    10
 74
     0
 42
0.00000001
 43
0.00000001
 40
0.0
 40
0.0
 40
0.0
 40
0.0
 40
0.1885762799860081
 40
0.378895556583529
 40
0.5044823954484108
 40
0.6300701228213248
 40
0.759005291353733
 40
0.8879763296286909
 40
1.0
 40
1.0
 40
1.0
 40
1.0
 10
25.29349161708306
 20
34.57016883817571
 30
0.0
 10
25.13244257799369
 20
35.17570723071117
 30
0.0
 10
24.80885593545554
 20
36.39238096236735
 30
0.0
 10
24.57539621538275
 20
38.05646551375268
 30
0.0
 10
24.5171591602101
 20
39.52271804804106
 30
0.0
 10
24.57402490176757
 20
40.78535856843455
 30
0.0
 10
24.73910893293932
 20
42.04929717892011
 30
0.0
 10
24.982557718087
 20
43.25459476884911
 30
0.0
 10
25.19482265626199
 20
44.02637164434454
 30
0.0
 10
25.29349161708305
 20
44.38512341439937
 30
0.0
  0
SPLINE
  5
8D
330
1F
100
AcDbEntity
  8
0
  6
Continuous
 62
     7
370
    25
100
AcDbSpline
210
0.0
220
0.0
230
1.0
 70
     8
 71
     3
 72
    14
 73
    10
 74
     0
 42
0.00000001
 43
0.00000001
 40
0.0
 40
0.0
 40
0.0
 40
0.0
 40
0.132317364830439
 40
0.2645973188387832
 40
0.3998364273285067
 40
0.5350511314348789
 40
0.6502525552916445
 40
0.7654719494863402
 40
1.0
 40
1.0
 40
1.0
 40
1.0
 10
25.29349161708306
 20
29.66269155006387
 30
0.0
 10
25.17792344088578
 20
29.8747138260532
 30
0.0
 10
24.94681976372239
 20
30.29869843179836
 30
0.0
 10
24.69813000639506
 20
30.95160206094874
 30
0.0
 10
24.54872135468559
 20
31.61679321732498
 30
0.0
 10
24.51873535811562
 20
32.25795986869529
 30
0.0
 10
24.59676129534459
 20
32.86425507982607
 30
0.0
 10
24.80140647817512
 20
33.63045307246006
 30
0.0
 10
25.09596875456601
 20
34.19296714415892
 30
0.0
 10
25.29349161708306
 20
34.57016883817571
 30
0.0
  0
LINE
  5
8E
330
1F
100
AcDbEntity
  8
0
  6
Continuous
 62
     7
370
    25
100
AcDbLine
 10
24.3899646712
 20
31.2276461263
 30
0.0
 11
24.3899646712
 21
47.7276461263
 31
0.0
  0
LINE
  5
8F
330
1F
100
AcDbEntity
  8
0
  6
Continuous
 62
     7
370
    25
100
AcDbLine
 10
25.2934916171
 20
44.3851234144
 30
0.0
 11
36.4864377254
 21
44.3851234144
 31
0.0
  0
LINE
  5
90
330
1F
100
AcDbEntity
  8
0
  6
Continuous
 62
     7
370
    25
100
AcDbLine
 10
25.2934916171
 20
34.5701688382
 30
0.0
 11
36.4864377254
 21
34.5701688382
 31
0.0
  0
LINE
  5
91
330
1F
100
AcDbEntity
  8
0
  6
Continuous
 62
     7
370
    25
100
AcDbLine
 10
25.2934916171
 20
29.6626915501
 30
0.0
 11
36.4864377254
 21
29.6626915501
 31
0.0
  0
LINE
  5
92
330
1F
100
AcDbEntity
  8
0
  6
Continuous
 62
     7
370
    25
100
AcDbLine
 10
25.2934916171
 20
49.2926007025
 30
0.0
 11
36.4864377254
 21
49.2926007025
 31
0.0
  0
LINE
  5
93
330
1F
100
AcDbEntity
  8
0
  6
Continuous
 62
     7
370
    25
100
AcDbLine
 10
41.3784910003
 20
31.6776461263
 30
0.0
 11
41.3784910003
 21
47.2776461263
 31
0.0
  0
LINE
  5
94
330
1F
100
AcDbEntity
  8
0
  6
Continuous
 62
     7
370
    25
100
AcDbLine
 10
41.5784910003
 20
47.4776461263
 30
0.0
 11
41.5784910003
 21
31.4776461263
 31
0.0
  0
SPLINE
  5
95
330
1F
100
AcDbEntity
  8
0
  6
Continuous
 62
     7
370
    25
100
AcDbSpline
210
0.0
220
0.0
230
1.0
 70
     8
 71
     3
 72
    10
 73
     6
 74
     0
 42
0.00000001
 43
0.00000001
 40
0.0
 40
0.0
 40
0.0
 40
0.0
 40
0.5000000000000001
 40
0.5000000000000001
 40
1.0
 40
1.0
 40
1.0
 40
1.0
 10
51.20968884673891
 20
28.15536753154768
 30
0.0
 10
51.96036754623474
 20
27.94843747801498
 30
0.0
 10
52.72464849045739
 20
27.77663186764127
 30
0.0
 10
54.27922322454494
 20
27.5396813611099
 30
0.0
 10
55.05479819206108
 20
27.47764612628751
 30
0.0
 10
55.82849100025593
 20
27.47764612628752
 30
0.0
  0
LINE
  5
96
330
1F
100
AcDbEntity
  8
0
  6
Continuous
 62
     7
370
    25
100
AcDbLine
 10
51.2096888467
 20
31.5112495864
 30
0.0
 11
51.2096888467
 21
28.1553675315
 31
0.0
  0
SPLINE
  5
97
330
1F
100
AcDbEntity
  8
0
  6
Continuous
 62
     7
370
    25
100
AcDbSpline
210
0.0
220
0.0
230
1.0
 70
     8
 71
     3
 72
     8
 73
     4
 74
     0
 42
0.00000001
 43
0.00000001
 40
0.0
 40
0.0
 40
0.0
 40
0.0
 40
1.0
 40
1.0
 40
1.0
 40
1.0
 10
51.20968884673891
 20
31.51124958643252
 30
0.0
 10
51.4148746692822
 20
31.56781055355674
 30
0.0
 10
51.62109786998951
 20
31.62175062497057
 30
0.0
 10
51.82849100025594
 20
31.67273491471353
 30
0.0
  0
LINE
  5
98
330
1F
100
AcDbEntity
  8
0
  6
Continuous
 62
     7
370
    25
100
AcDbLine
 10
51.8284910003
 20
31.6727349147
 30
0.0
 11
51.8284910003
 21
35.4776461263
 31
0.0
  0
SPLINE
  5
99
330
1F
100
AcDbEntity
  8
0
  6
Continuous
 62
     7
370
    25
100
AcDbSpline
210
0.0
220
0.0
230
1.0
 70
     8
 71
     3
 72
     8
 73
     4
 74
     0
 42
0.00000001
 43
0.00000001
 40
0.0
 40
0.0
 40
0.0
 40
0.0
 40
1.0
 40
1.0
 40
1.0
 40
1.0
 10
49.15076959499575
 20
34.85884397277047
 30
0.0
 10
49.20733296446398
 20
35.06403851028024
 30
0.0
 10
49.26127288728523
 20
35.2702621637974
 30
0.0
 10
49.31225492327676
 20
35.47764612628751
 30
0.0
  0
LINE
  5
9A
330
1F
100
AcDbEntity
  8
0
  6
Continuous
 62
     7
370
    25
100
AcDbLine
 10
45.0062124055
 20
34.8588439728
 30
0.0
 11
49.150769595
 21
34.8588439728
 31
0.0
  0
SPLINE
  5
9B
330
1F
100
AcDbEntity
  8
0
  6
Continuous
 62
     7
370
    25
100
AcDbSpline
210
0.0
220
0.0
230
1.0
 70
     8
 71
     3
 72
    10
 73
     6
 74
     0
 42
0.00000001
 43
0.00000001
 40
0.0
 40
0.0
 40
0.0
 40
0.0
 40
0.5
 40
0.5
 40
1.0
 40
1.0
 40
1.0
 40
1.0
 10
45.00621240551612
 20
34.85884397277049
 30
0.0
 10
44.7981437292849
 20
35.61365324581979
 30
0.0
 10
44.62774472326037
 20
36.37439963305169
 30
0.0
 10
44.39258474356152
 20
37.91254201067495
 30
0.0
 10
44.32849100025593
 20
38.69004316319977
 30
0.0
 10
44.32849100025593
 20
39.47764612628751
 30
0.0
  0
SPLINE
  5
9C
330
1F
100
AcDbEntity
  8
0
  6
Continuous
 62
     7
370
    25
100
AcDbSpline
210
0.0
220
0.0
230
1.0
 70
     8
 71
     3
 72
    12
 73
     8
 74
     0
 42
0.00000001
 43
0.00000001
 40
0.0
 40
0.0
 40
0.0
 40
0.0
 40
0.2500000000000001
 40
0.2500000000000001
 40
0.5000000000000001
 40
0.5000000000000001
 40
1.0
 40
1.0
 40
1.0
 40
1.0
 10
44.32849100025593
 20
39.47764612628751
 30
0.0
 10
44.32849100025593
 20
39.87196420695935
 30
0.0
 10
44.344489805237
 20
40.26562325090978
 30
0.0
 10
44.40625994355139
 20
41.04515925045513
 30
0.0
 10
44.45200206785299
 20
41.43211243858055
 30
0.0
 10
44.62867221519984
 20
42.58549900143456
 30
0.0
 10
44.79892728068013
 20
43.34448149063959
 30
0.0
 10
45.00621240551612
 20
44.09644827980452
 30
0.0
  0
LINE
  5
9D
330
1F
100
AcDbEntity
  8
0
  6
Continuous
 62
     7
370
    25
100
AcDbLine
 10
49.150769595
 20
44.0964482798
 30
0.0
 11
45.0062124055
 21
44.0964482798
 31
0.0
  0
SPLINE
  5
9E
330
1F
100
AcDbEntity
  8
0
  6
Continuous
 62
     7
370
    25
100
AcDbSpline
210
0.0
220
0.0
230
1.0
 70
     8
 71
     3
 72
     8
 73
     4
 74
     0
 42
0.00000001
 43
0.00000001
 40
0.0
 40
0.0
 40
0.0
 40
0.0
 40
1.0
 40
1.0
 40
1.0
 40
1.0
 10
49.31225492327676
 20
43.47764612628752
 30
0.0
 10
49.26135620635424
 20
43.68469116471651
 30
0.0
 10
49.20742207010348
 20
43.89093049439315
 30
0.0
 10
49.15076959499574
 20
44.09644827980452
 30
0.0
  0
SPLINE
  5
9F
330
1F
100
AcDbEntity
  8
0
  6
Continuous
 62
     7
370
    25
100
AcDbSpline
210
0.0
220
0.0
230
1.0
 70
     8
 71
     3
 72
     8
 73
     4
 74
     0
 42
0.00000001
 43
0.00000001
 40
0.0
 40
0.0
 40
0.0
 40
0.0
 40
1.0
 40
1.0
 40
1.0
 40
1.0
 10
62.34472707723512
 20
43.47764612628758
 30
0.0
 10
62.3956233104902
 20
43.68468106169134
 30
0.0
 10
62.44955726545385
 20
43.89092082675634
 30
0.0
 10
62.50621240551612
 20
44.09644827980453
 30
0.0
  0
LINE
  5
A0
330
1F
100
AcDbEntity
  8
0
  6
Continuous
 62
     7
370
    25
100
AcDbLine
 10
67.0064320277
 20
44.0964482798
 30
0.0
 11
62.5062124055
 21
44.0964482798
 31
0.0
  0
SPLINE
  5
A1
330
1F
100
AcDbEntity
  8
0
  6
Continuous
 62
     7
370
    25
100
AcDbSpline
210
0.0
220
0.0
230
1.0
 70
     8
 71
     3
 72
    14
 73
    10
 74
     0
 42
0.00000001
 43
0.00000001
 40
0.0
 40
0.0
 40
0.0
 40
0.0
 40
0.25
 40
0.25
 40
0.5
 40
0.5
 40
0.75
 40
0.75
 40
1.0
 40
1.0
 40
1.0
 40
1.0
 10
67.00643202769835
 20
34.85884397277047
 30
0.0
 10
67.21438238840412
 20
35.61322403342044
 30
0.0
 10
67.38660419709298
 20
36.38266520088594
 30
0.0
 10
67.62123931984388
 20
37.9231765618271
 30
0.0
 10
67.68418337847157
 20
38.69803094183413
 30
0.0
 10
67.6841234657401
 20
40.25839189671968
 30
0.0
 10
67.61950879944798
 20
41.04884808950471
 30
0.0
 10
67.38294946004676
 20
42.59112775231318
 30
0.0
 10
67.21260431996733
 20
43.34851850551436
 30
0.0
 10
67.00643202769834
 20
44.09644827980452
 30
0.0
  0
LINE
  5
A2
330
1F
100
AcDbEntity
  8
0
  6
Continuous
 62
     7
370
    25
100
AcDbLine
 10
62.5062124055
 20
34.8588439728
 30
0.0
 11
67.0064320277
 21
34.8588439728
 31
0.0
  0
SPLINE
  5
A3
330
1F
100
AcDbEntity
  8
0
  6
Continuous
 62
     7
370
    25
100
AcDbSpline
210
0.0
220
0.0
230
1.0
 70
     8
 71
     3
 72
     8
 73
     4
 74
     0
 42
0.00000001
 43
0.00000001
 40
0.0
 40
0.0
 40
0.0
 40
0.0
 40
1.0
 40
1.0
 40
1.0
 40
1.0
 10
62.50621240551611
 20
34.85884397277048
 30
0.0
 10
62.44965056207917
 20
35.0640329743073
 30
0.0
 10
62.39571054482279
 20
35.27025634037199
 30
0.0
 10
62.34472707723511
 20
35.47764612628745
 30
0.0
  0
SPLINE
  5
A4
330
1F
100
AcDbEntity
  8
0
  6
Continuous
 62
     7
370
    25
100
AcDbSpline
210
0.0
220
0.0
230
1.0
 70
     8
 71
     3
 72
     8
 73
     4
 74
     0
 42
0.00000001
 43
0.00000001
 40
0.0
 40
0.0
 40
0.0
 40
0.0
 40
1.0
 40
1.0
 40
1.0
 40
1.0
 10
59.82849100025593
 20
31.67273491471353
 30
0.0
 10
60.03552006359132
 20
31.62184012501271
 30
0.0
 10
60.24176008086067
 20
31.56790627565126
 30
0.0
 10
60.44729315377294
 20
31.51124958643251
 30
0.0
  0
LINE
  5
A5
330
1F
100
AcDbEntity
  8
0
  6
Continuous
 62
     7
370
    25
100
AcDbLine
 10
60.4472931538
 20
28.1553675315
 30
0.0
 11
60.4472931538
 21
31.5112495864
 31
0.0
  0
SPLINE
  5
A6
330
1F
100
AcDbEntity
  8
0
  6
Continuous
 62
     7
370
    25
100
AcDbSpline
210
0.0
220
0.0
230
1.0
 70
     8
 71
     3
 72
    10
 73
     6
 74
     0
 42
0.00000001
 43
0.00000001
 40
0.0
 40
0.0
 40
0.0
 40
0.0
 40
0.5
 40
0.5
 40
1.0
 40
1.0
 40
1.0
 40
1.0
 10
55.82849100025593
 20
27.47764612628752
 30
0.0
 10
56.6040709368629
 20
27.47764612628752
 30
0.0
 10
57.37776115558931
 20
27.53993048826604
 30
0.0
 10
58.9217956979222
 20
27.77477860627306
 30
0.0
 10
59.69510437407702
 20
27.94802121340426
 30
0.0
 10
60.44729315377294
 20
28.1553675315477
 30
0.0
  0
ARC
  5
A7
330
1F
100
AcDbEntity
  8
0
  6
Continuous
 62
     7
370
    25
100
AcDbCircle
 10
57.379222356
 20
38.900727133
 30
0.0
 40
0.889000000000007
100
AcDbArc
 50
45.0
 51
315.0
  0
LINE
  5
A8
330
1F
100
AcDbEntity
  8
0
  6
Continuous
 62
     7
370
    25
100
AcDbLine
 10
58.0078402845
 20
39.5293450615
 30
0.0
 11
58.4744506701
 21
39.9959554471
 31
0.0
  0
ARC
  5
A9
330
1F
100
AcDbEntity
  8
0
  6
Continuous
 62
     7
370
    25
100
AcDbCircle
 10
57.379222356
 20
38.900727133
 30
0.0
 40
1.548886735692404
100
AcDbArc
 50
45.0
 51
315.0
  0
LINE
  5
AA
330
1F
100
AcDbEntity
  8
0
  6
Continuous
 62
     7
370
    25
100
AcDbLine
 10
58.4744506701
 20
37.8054988189
 30
0.0
 11
58.0078402845
 21
38.2721092045
 31
0.0
  0
ARC
  5
AB
330
1F
100
AcDbEntity
  8
0
  6
Continuous
 62
     7
370
    25
100
AcDbCircle
 10
60.7213669523
 20
38.900727133
 30
0.0
 40
0.8889999999999868
100
AcDbArc
 50
45.0
 51
159.0751675724
  0
LINE
  5
AC
330
1F
100
AcDbEntity
  8
0
  6
Continuous
 62
     7
370
    25
100
AcDbLine
 10
61.3499848808
 20
39.5293450615
 30
0.0
 11
61.8165952664
 21
39.9959554471
 31
0.0
  0
ARC
  5
AD
330
1F
100
AcDbEntity
  8
0
  6
Continuous
 62
     7
370
    25
100
AcDbCircle
 10
60.7213669523
 20
38.900727133
 30
0.0
 40
1.548886735692379
100
AcDbArc
 50
45.0
 51
315.0
  0
LINE
  5
AE
330
1F
100
AcDbEntity
  8
0
  6
Continuous
 62
     7
370
    25
100
AcDbLine
 10
61.8165952664
 20
37.8054988189
 30
0.0
 11
61.3499848808
 21
38.2721092045
 31
0.0
  0
ARC
  5
AF
330
1F
100
AcDbEntity
  8
0
  6
Continuous
 62
     7
370
    25
100
AcDbCircle
 10
60.7213669523
 20
38.900727133
 30
0.0
 40
0.8890000000000099
100
AcDbArc
 50
200.9248324276
 51
315.0
  0
LINE
  5
B0
330
1F
100
AcDbEntity
  8
0
  6
Continuous
 62
     7
370
    25
100
AcDbLine
 10
59.8909967036
 20
38.583227133
 30
0.0
 11
61.8165952664
 21
38.583227133
 31
0.0
  0
LINE
  5
B1
330
1F
100
AcDbEntity
  8
0
  6
Continuous
 62
     7
370
    25
100
AcDbLine
 10
61.8165952664
 20
38.583227133
 30
0.0
 11
61.8165952664
 21
39.218227133
 31
0.0
  0
LINE
  5
B2
330
1F
100
AcDbEntity
  8
0
  6
Continuous
 62
     7
370
    25
100
AcDbLine
 10
61.8165952664
 20
39.218227133
 30
0.0
 11
59.8909967036
 21
39.218227133
 31
0.0
  0
LINE
  5
B3
330
1F
100
AcDbEntity
  8
0
  6
Continuous
 62
     7
370
    25
100
AcDbLine
 10
54.9267320863
 20
38.0552731087
 30
0.0
 11
54.885081767
 21
38.0314681789
 31
0.0
  0
ELLIPSE
  5
B4
330
1F
100
AcDbEntity
  8
0
  6
Continuous
 62
     7
370
    25
100
AcDbEllipse
 10
54.5362385875
 20
38.5861506501
 30
0.0
 11
0.6784129479252599
 21
6.110667527536862E-13
 31
0.0
210
0.0
220
0.0
230
1.0
 40
0.9533039403
 41
3.470145824140272
 42
5.252469180536298
  0
LINE
  5
B5
330
1F
100
AcDbEntity
  8
0
  6
Continuous
 62
     7
370
    25
100
AcDbLine
 10
53.8941138205
 20
38.3774665351
 30
0.0
 11
52.6344596155
 21
41.8999109317
 31
0.0
  0
ELLIPSE
  5
B6
330
1F
100
AcDbEntity
  8
0
  6
Continuous
 62
     7
370
    25
100
AcDbEllipse
 10
52.0434770576
 20
41.6375716957
 30
0.0
 11
0.6519124952381503
 21
6.110667527536862E-13
 31
0.0
210
0.0
220
0.0
230
1.0
 40
0.9533023292
 41
0.4357905044354821
 42
2.705800116361509
  0
LINE
  5
B7
330
1F
100
AcDbEntity
  8
0
  6
Continuous
 62
     7
370
    25
100
AcDbLine
 10
51.4524950591
 20
41.899912077
 30
0.0
 11
50.1931302574
 21
38.3782886753
 31
0.0
  0
ELLIPSE
  5
B8
330
1F
100
AcDbEntity
  8
0
  6
Continuous
 62
     7
370
    25
100
AcDbEllipse
 10
49.5510090734
 20
38.5869715089
 30
0.0
 11
-0.6784085062757725
 21
3.268496584496461E-13
 31
0.0
210
0.0
220
0.0
230
1.0
 40
0.9533122623
 41
1.047193771187948
 42
2.813042320199945
  0
LINE
  5
B9
330
1F
100
AcDbEntity
  8
0
  6
Continuous
 62
     7
370
    25
100
AcDbLine
 10
49.2118025995
 20
38.0268836637
 30
0.0
 11
49.1602220289
 21
38.0552731087
 31
0.0
  0
LINE
  5
BA
330
1F
100
AcDbEntity
  8
0
  6
Continuous
 62
     7
370
    25
100
AcDbLine
 10
49.1602220289
 20
38.0552731087
 30
0.0
 11
49.9564906885
 21
36.5371010073
 31
0.0
  0
ELLIPSE
  5
BB
330
1F
100
AcDbEntity
  8
0
  6
Continuous
 62
     7
370
    25
100
AcDbEllipse
 10
50.0323395619
 20
36.5732545222
 30
0.0
 11
0.08480161849065126
 21
-2.131628207280301E-14
 31
0.0
210
0.0
220
0.0
230
1.0
 40
0.9533039403
 41
3.605240262590831
 42
5.462183310215399
  0
ELLIPSE
  5
BC
330
1F
100
AcDbEntity
  8
0
  6
Continuous
 62
     7
370
    25
100
AcDbEllipse
 10
52.0434770576
 20
34.5144059017
 30
0.0
 11
2.866293551216202
 21
-1.492139745096210E-12
 31
0.0
210
0.0
220
0.0
230
1.0
 40
0.9533046568
 41
0.8210016221243798
 42
2.32059103146644
  0
ELLIPSE
  5
BD
330
1F
100
AcDbEntity
  8
0
  6
Continuous
 62
     7
370
    25
100
AcDbEllipse
 10
54.0546145533
 20
36.5732545222
 30
0.0
 11
0.08480161849060863
 21
-7.105427357601002E-15
 31
0.0
210
0.0
220
0.0
230
1.0
 40
0.9533039403
 41
3.962594650556653
 42
5.81953769817726
  0
LINE
  5
BE
330
1F
100
AcDbEntity
  8
0
  6
Continuous
 62
     7
370
    25
100
AcDbLine
 10
54.1304634267
 20
36.5371010073
 30
0.0
 11
54.9267320863
 21
38.0552731087
 31
0.0
  0
LINE
  5
BF
330
1F
100
AcDbEntity
  8
0
  6
Continuous
 62
     7
370
    25
100
AcDbLine
 10
59.8284910003
 20
31.6727349147
 30
0.0
 11
59.8284910003
 21
35.4776461263
 31
0.0
  0
LINE
  5
C0
330
1F
100
AcDbEntity
  8
0
  6
Continuous
 62
     7
370
    25
100
AcDbLine
 10
62.3447270772
 20
43.4776461263
 30
0.0
 11
49.3122549233
 21
43.4776461263
 31
0.0
  0
LINE
  5
C1
330
1F
100
AcDbEntity
  8
0
  6
Continuous
 62
     7
370
    25
100
AcDbLine
 10
62.3447270772
 20
35.4776461263
 30
0.0
 11
59.8284910003
 21
35.4776461263
 31
0.0
  0
LINE
  5
C2
330
1F
100
AcDbEntity
  8
0
  6
Continuous
 62
     7
370
    25
100
AcDbLine
 10
51.8284910003
 20
35.4776461263
 30
0.0
 11
49.3122549233
 21
35.4776461263
 31
0.0
  0
LINE
  5
C3
330
1F
100
AcDbEntity
  8
0
  6
Continuous
 62
     7
370
    25
100
AcDbLine
 10
49.8284910003
 20
46.8388620585
 30
0.0
 11
49.8284910003
 21
43.4776461263
 31
0.0
  0
SPLINE
  5
C4
330
1F
100
AcDbEntity
  8
0
  6
Continuous
 62
     7
370
    25
100
AcDbSpline
210
0.0
220
0.0
230
1.0
 70
     8
 71
     3
 72
    10
 73
     6
 74
     0
 42
0.00000001
 43
0.00000001
 40
0.0
 40
0.0
 40
0.0
 40
0.0
 40
0.5
 40
0.5
 40
1.0
 40
1.0
 40
1.0
 40
1.0
 10
49.15076959499574
 20
44.52946098169674
 30
0.0
 10
49.12709420057136
 20
44.48651745079552
 30
0.0
 10
49.11400309068671
 20
44.42307500617139
 30
0.0
 10
49.11391676939843
 20
44.27059616905242
 30
0.0
 10
49.12708570334227
 20
44.18236616694515
 30
0.0
 10
49.15076959499574
 20
44.09644827980452
 30
0.0
  0
SPLINE
  5
C5
330
1F
100
AcDbEntity
  8
0
  6
Continuous
 62
     7
370
    25
100
AcDbSpline
210
0.0
220
0.0
230
1.0
 70
     8
 71
     3
 72
    12
 73
     8
 74
     0
 42
0.00000001
 43
0.00000001
 40
0.0
 40
0.0
 40
0.0
 40
0.0
 40
0.2500000000000001
 40
0.2500000000000001
 40
0.5000000000000002
 40
0.5000000000000002
 40
1.0
 40
1.0
 40
1.0
 40
1.0
 10
49.82849100025594
 20
46.83886205845524
 30
0.0
 10
49.82849100025594
 20
46.64311979557574
 30
0.0
 10
49.81264806416698
 20
46.44645318638517
 30
0.0
 10
49.7511452039293
 20
46.05718495905688
 30
0.0
 10
49.70554156288562
 20
45.86378092610397
 30
0.0
 10
49.52909054539641
 20
45.28685187484721
 30
0.0
 10
49.35869317814455
 20
44.9066024416442
 30
0.0
 10
49.15076959499574
 20
44.52946098169674
 30
0.0
  0
SPLINE
  5
C6
330
1F
100
AcDbEntity
  8
0
  6
Continuous
 62
     7
370
    25
100
AcDbSpline
210
0.0
220
0.0
230
1.0
 70
     8
 71
     3
 72
    10
 73
     6
 74
     0
 42
0.00000001
 43
0.00000001
 40
0.0
 40
0.0
 40
0.0
 40
0.0
 40
0.5
 40
0.5
 40
1.0
 40
1.0
 40
1.0
 40
1.0
 10
49.15076959499568
 20
34.8588439727705
 30
0.0
 10
49.1270942005713
 20
34.77295691096805
 30
0.0
 10
49.11400309068671
 20
34.68554970198792
 30
0.0
 10
49.11391676939844
 20
34.53291325939418
 30
0.0
 10
49.12708570334227
 20
34.4687902144486
 30
0.0
 10
49.15076959499574
 20
34.42583127087829
 30
0.0
  0
LINE
  5
C7
330
1F
100
AcDbEntity
  8
0
  6
Continuous
 62
     7
370
    25
100
AcDbLine
 10
49.150769595
 20
34.4258312709
 30
0.0
 11
45.0062124055
 21
34.4258312709
 31
0.0
  0
SPLINE
  5
C8
330
1F
100
AcDbEntity
  8
0
  6
Continuous
 62
     7
370
    25
100
AcDbSpline
210
0.0
220
0.0
230
1.0
 70
     8
 71
     3
 72
    10
 73
     6
 74
     0
 42
0.00000001
 43
0.00000001
 40
0.0
 40
0.0
 40
0.0
 40
0.0
 40
0.5
 40
0.5
 40
1.0
 40
1.0
 40
1.0
 40
1.0
 10
45.00621240551612
 20
34.85884397277049
 30
0.0
 10
45.02988630607207
 20
34.77296233026404
 30
0.0
 10
45.04297886325122
 20
34.68555312429861
 30
0.0
 10
45.0430652772335
 20
34.53291063922368
 30
0.0
 10
45.02989488563487
 20
34.46878765414131
 30
0.0
 10
45.00621240551612
 20
34.42583127087829
 30
0.0
  0
LINE
  5
C9
330
1F
100
AcDbEntity
  8
0
  6
Continuous
 62
     7
370
    25
100
AcDbLine
 10
49.8284910003
 20
35.4776461263
 30
0.0
 11
49.8284910003
 21
33.4776461263
 31
0.0
  0
SPLINE
  5
CA
330
1F
100
AcDbEntity
  8
0
  6
Continuous
 62
     7
370
    25
100
AcDbSpline
210
0.0
220
0.0
230
1.0
 70
     8
 71
     3
 72
     8
 73
     4
 74
     0
 42
0.00000001
 43
0.00000001
 40
0.0
 40
0.0
 40
0.0
 40
0.0
 40
1.0
 40
1.0
 40
1.0
 40
1.0
 10
49.82849100025593
 20
33.47764612628751
 30
0.0
 10
49.78871234206576
 20
33.34026103728741
 30
0.0
 10
49.74822337923752
 20
33.20355695547564
 30
0.0
 10
49.70710750875977
 20
33.06752459296226
 30
0.0
  0
SPLINE
  5
CB
330
1F
100
AcDbEntity
  8
0
  6
Continuous
 62
     7
370
    25
100
AcDbSpline
210
0.0
220
0.0
230
1.0
 70
     8
 71
     3
 72
     8
 73
     4
 74
     0
 42
0.00000001
 43
0.00000001
 40
0.0
 40
0.0
 40
0.0
 40
0.0
 40
1.0
 40
1.0
 40
1.0
 40
1.0
 10
49.15076959499574
 20
34.42583127087829
 30
0.0
 10
49.39794337587968
 20
33.97749597782696
 30
0.0
 10
49.59166504418366
 20
33.52532148708337
 30
0.0
 10
49.70710750875977
 20
33.06752459296226
 30
0.0
  0
SPLINE
  5
CC
330
1F
100
AcDbEntity
  8
0
  6
Continuous
 62
     7
370
    25
100
AcDbSpline
210
0.0
220
0.0
230
1.0
 70
     8
 71
     3
 72
    10
 73
     6
 74
     0
 42
0.00000001
 43
0.00000001
 40
0.0
 40
0.0
 40
0.0
 40
0.0
 40
0.5
 40
0.5
 40
1.0
 40
1.0
 40
1.0
 40
1.0
 10
62.50621240551614
 20
44.09644827980452
 30
0.0
 10
62.52988779994052
 20
44.18233534160697
 30
0.0
 10
62.54297890982516
 20
44.26974255058708
 30
0.0
 10
62.54306523111345
 20
44.42237899318081
 30
0.0
 10
62.52989629716959
 20
44.4865020381264
 30
0.0
 10
62.50621240551614
 20
44.52946098169671
 30
0.0
  0
LINE
  5
CD
330
1F
100
AcDbEntity
  8
0
  6
Continuous
 62
     7
370
    25
100
AcDbLine
 10
62.5062124055
 20
44.5294609817
 30
0.0
 11
67.0064320277
 21
44.5294609817
 31
0.0
  0
SPLINE
  5
CE
330
1F
100
AcDbEntity
  8
0
  6
Continuous
 62
     7
370
    25
100
AcDbSpline
210
0.0
220
0.0
230
1.0
 70
     8
 71
     3
 72
    10
 73
     6
 74
     0
 42
0.00000001
 43
0.00000001
 40
0.0
 40
0.0
 40
0.0
 40
0.0
 40
0.5
 40
0.5
 40
1.0
 40
1.0
 40
1.0
 40
1.0
 10
67.00643202769834
 20
44.52946098169674
 30
0.0
 10
66.98275663327394
 20
44.48651745079552
 30
0.0
 10
66.9696655233893
 20
44.42307500617139
 30
0.0
 10
66.96957920210103
 20
44.27059616905242
 30
0.0
 10
66.98274813604486
 20
44.18236616694514
 30
0.0
 10
67.00643202769834
 20
44.09644827980452
 30
0.0
  0
LINE
  5
CF
330
1F
100
AcDbEntity
  8
0
  6
Continuous
 62
     7
370
    25
100
AcDbLine
 10
44.3284910003
 20
39.4776461263
 30
0.0
 11
44.3284910003
 21
32.1164301941
 31
0.0
  0
SPLINE
  5
D0
330
1F
100
AcDbEntity
  8
0
  6
Continuous
 62
     7
370
    25
100
AcDbSpline
210
0.0
220
0.0
230
1.0
 70
     8
 71
     3
 72
    12
 73
     8
 74
     0
 42
0.00000001
 43
0.00000001
 40
0.0
 40
0.0
 40
0.0
 40
0.0
 40
0.2499999999999999
 40
0.2499999999999999
 40
0.4999999999999998
 40
0.4999999999999998
 40
1.0
 40
1.0
 40
1.0
 40
1.0
 10
44.32849100025593
 20
32.11643019411978
 30
0.0
 10
44.32849100025593
 20
32.31143367412557
 30
0.0
 10
44.34423733027789
 20
32.50796833314998
 30
0.0
 10
44.40568235486332
 20
32.89738802075554
 30
0.0
 10
44.45127111411705
 20
33.0908727138158
 30
0.0
 10
44.62772211637365
 20
33.6680563125714
 30
0.0
 10
44.79817981833713
 20
34.04849209435436
 30
0.0
 10
45.00621240551598
 20
34.42583127087831
 30
0.0
  0
SPLINE
  5
D1
330
1F
100
AcDbEntity
  8
0
  6
Continuous
 62
     7
370
    25
100
AcDbSpline
210
0.0
220
0.0
230
1.0
 70
     8
 71
     3
 72
    10
 73
     6
 74
     0
 42
0.00000001
 43
0.00000001
 40
0.0
 40
0.0
 40
0.0
 40
0.0
 40
0.5
 40
0.5
 40
1.0
 40
1.0
 40
1.0
 40
1.0
 10
45.00621240551612
 20
44.52946098169674
 30
0.0
 10
45.02988464542769
 20
44.48652317259751
 30
0.0
 10
45.04297863536294
 20
44.42308258270531
 30
0.0
 10
45.04306550282438
 20
44.27059343719646
 30
0.0
 10
45.02989571306503
 20
44.18236404799315
 30
0.0
 10
45.00621240551612
 20
44.09644827980452
 30
0.0
  0
LINE
  5
D2
330
1F
100
AcDbEntity
  8
0
  6
Continuous
 62
     7
370
    25
100
AcDbLine
 10
45.0062124055
 20
44.5294609817
 30
0.0
 11
49.150769595
 21
44.5294609817
 31
0.0
  0
SPLINE
  5
D3
330
1F
100
AcDbEntity
  8
0
  6
Continuous
 62
     7
370
    25
100
AcDbSpline
210
0.0
220
0.0
230
1.0
 70
     8
 71
     3
 72
    10
 73
     6
 74
     0
 42
0.00000001
 43
0.00000001
 40
0.0
 40
0.0
 40
0.0
 40
0.0
 40
0.5
 40
0.5
 40
1.0
 40
1.0
 40
1.0
 40
1.0
 10
50.77667614484671
 20
31.51124958643251
 30
0.0
 10
50.81961967574793
 20
31.48757419200812
 30
0.0
 10
50.88306212037206
 20
31.47448308212349
 30
0.0
 10
51.03554095749102
 20
31.4743967608352
 30
0.0
 10
51.12377095959829
 20
31.48756569477904
 30
0.0
 10
51.20968884673892
 20
31.51124958643251
 30
0.0
  0
SPLINE
  5
D4
330
1F
100
AcDbEntity
  8
0
  6
Continuous
 62
     7
370
    25
100
AcDbSpline
210
0.0
220
0.0
230
1.0
 70
     8
 71
     3
 72
    10
 73
     6
 74
     0
 42
0.00000001
 43
0.00000001
 40
0.0
 40
0.0
 40
0.0
 40
0.0
 40
0.5
 40
0.5
 40
1.0
 40
1.0
 40
1.0
 40
1.0
 10
50.77667614484671
 20
28.1553675315477
 30
0.0
 10
50.81961395394594
 20
28.17903977145927
 30
0.0
 10
50.88305454383814
 20
28.19213376139453
 30
0.0
 10
51.03554368934698
 20
28.19222062885597
 30
0.0
 10
51.12377307855029
 20
28.17905083909661
 30
0.0
 10
51.20968884673893
 20
28.1553675315477
 30
0.0
  0
LINE
  5
D5
330
1F
100
AcDbEntity
  8
0
  6
Continuous
 62
     7
370
    25
100
AcDbLine
 10
50.7766761448
 20
28.1553675315
 30
0.0
 11
50.7766761448
 21
31.5112495864
 31
0.0
  0
SPLINE
  5
D6
330
1F
100
AcDbEntity
  8
0
  6
Continuous
 62
     7
370
    25
100
AcDbSpline
210
0.0
220
0.0
230
1.0
 70
     8
 71
     3
 72
     8
 73
     4
 74
     0
 42
0.00000001
 43
0.00000001
 40
0.0
 40
0.0
 40
0.0
 40
0.0
 40
1.0
 40
1.0
 40
1.0
 40
1.0
 10
61.94987449175209
 20
33.06752459296227
 30
0.0
 10
61.90875921611083
 20
33.20355498745182
 30
0.0
 10
61.86827023324297
 20
33.34025905208925
 30
0.0
 10
61.82849100025593
 20
33.47764612628751
 30
0.0
  0
LINE
  5
D7
330
1F
100
AcDbEntity
  8
0
  6
Continuous
 62
     7
370
    25
100
AcDbLine
 10
61.8284910003
 20
35.4776461263
 30
0.0
 11
61.8284910003
 21
33.4776461263
 31
0.0
  0
SPLINE
  5
D8
330
1F
100
AcDbEntity
  8
0
  6
Continuous
 62
     7
370
    25
100
AcDbSpline
210
0.0
220
0.0
230
1.0
 70
     8
 71
     3
 72
    10
 73
     6
 74
     0
 42
0.00000001
 43
0.00000001
 40
0.0
 40
0.0
 40
0.0
 40
0.0
 40
0.5
 40
0.5
 40
1.0
 40
1.0
 40
1.0
 40
1.0
 10
62.50621240551285
 20
34.42583127087829
 30
0.0
 10
62.52988779993721
 20
34.46877480177944
 30
0.0
 10
62.54297890982512
 20
34.53221724640323
 30
0.0
 10
62.54306523111347
 20
34.68469608352232
 30
0.0
 10
62.52989629716962
 20
34.77292608562975
 30
0.0
 10
62.50621240551612
 20
34.85884397277049
 30
0.0
  0
SPLINE
  5
D9
330
1F
100
AcDbEntity
  8
0
  6
Continuous
 62
     7
370
    25
100
AcDbSpline
210
0.0
220
0.0
230
1.0
 70
     8
 71
     3
 72
     8
 73
     4
 74
     0
 42
0.00000001
 43
0.00000001
 40
0.0
 40
0.0
 40
0.0
 40
0.0
 40
1.0
 40
1.0
 40
1.0
 40
1.0
 10
61.94987449175209
 20
33.06752459296227
 30
0.0
 10
62.06550710178115
 20
33.52607552502003
 30
0.0
 10
62.25939650660158
 20
33.97814512077828
 30
0.0
 10
62.50621240551599
 20
34.42583127087804
 30
0.0
  0
SPLINE
  5
DA
330
1F
100
AcDbEntity
  8
0
  6
Continuous
 62
     7
370
    25
100
AcDbSpline
210
0.0
220
0.0
230
1.0
 70
     8
 71
     3
 72
    10
 73
     6
 74
     0
 42
0.00000001
 43
0.00000001
 40
0.0
 40
0.0
 40
0.0
 40
0.0
 40
0.5
 40
0.5
 40
1.0
 40
1.0
 40
1.0
 40
1.0
 10
60.44729315377294
 20
31.51124958643249
 30
0.0
 10
60.53318021557548
 20
31.48757419200808
 30
0.0
 10
60.62058742455569
 20
31.47448308212345
 30
0.0
 10
60.77322386714956
 20
31.47439676083523
 30
0.0
 10
60.83734691209531
 20
31.48756569477917
 30
0.0
 10
60.88030585566555
 20
31.51124958643273
 30
0.0
  0
LINE
  5
DB
330
1F
100
AcDbEntity
  8
0
  6
Continuous
 62
     7
370
    25
100
AcDbLine
 10
60.8803058557
 20
31.5112495864
 30
0.0
 11
60.8803058557
 21
28.1553675315
 31
0.0
  0
SPLINE
  5
DC
330
1F
100
AcDbEntity
  8
0
  6
Continuous
 62
     7
370
    25
100
AcDbSpline
210
0.0
220
0.0
230
1.0
 70
     8
 71
     3
 72
    10
 73
     6
 74
     0
 42
0.00000001
 43
0.00000001
 40
0.0
 40
0.0
 40
0.0
 40
0.0
 40
0.5
 40
0.5
 40
1.0
 40
1.0
 40
1.0
 40
1.0
 10
60.44729315377294
 20
28.1553675315477
 30
0.0
 10
60.53317479627939
 20
28.17904143210365
 30
0.0
 10
60.62058400224483
 20
28.19213398928279
 30
0.0
 10
60.77322648731976
 20
28.19222040326508
 30
0.0
 10
60.83734947240213
 20
28.17905001166645
 30
0.0
 10
60.88030585566516
 20
28.1553675315477
 30
0.0
  0
SPLINE
  5
DD
330
1F
100
AcDbEntity
  8
0
  6
Continuous
 62
     7
370
    25
100
AcDbSpline
210
0.0
220
0.0
230
1.0
 70
     8
 71
     3
 72
     8
 73
     4
 74
     0
 42
0.00000001
 43
0.00000001
 40
0.0
 40
0.0
 40
0.0
 40
0.0
 40
1.0
 40
1.0
 40
1.0
 40
1.0
 10
62.1710529590698
 20
32.47764612628752
 30
0.0
 10
62.49353228591908
 20
32.38593183855306
 30
0.0
 10
62.80885004224304
 20
32.28927504948515
 30
0.0
 10
63.11786718489054
 20
32.1882699416529
 30
0.0
  0
SPLINE
  5
DE
330
1F
100
AcDbEntity
  8
0
  6
Continuous
 62
     7
370
    25
100
AcDbSpline
210
0.0
220
0.0
230
1.0
 70
     8
 71
     3
 72
    10
 73
     6
 74
     0
 42
0.00000001
 43
0.00000001
 40
0.0
 40
0.0
 40
0.0
 40
0.0
 40
0.5
 40
0.5
 40
1.0
 40
1.0
 40
1.0
 40
1.0
 10
60.88030585566543
 20
31.51124958643267
 30
0.0
 10
61.24682380250597
 20
31.71331627198359
 30
0.0
 10
61.61590402797179
 20
31.87970904425423
 30
0.0
 10
62.3611563761992
 20
32.11375601812428
 30
0.0
 10
62.73736914814695
 20
32.18084427208311
 30
0.0
 10
63.11786718489054
 20
32.1882699416529
 30
0.0
  0
LINE
  5
DF
330
1F
100
AcDbEntity
  8
0
  6
Continuous
 62
     7
370
    25
100
AcDbLine
 10
67.0064320277
 20
34.4258312709
 30
0.0
 11
62.5062124055
 21
34.4258312709
 31
0.0
  0
SPLINE
  5
E0
330
1F
100
AcDbEntity
  8
0
  6
Continuous
 62
     7
370
    25
100
AcDbSpline
210
0.0
220
0.0
230
1.0
 70
     8
 71
     3
 72
    10
 73
     6
 74
     0
 42
0.00000001
 43
0.00000001
 40
0.0
 40
0.0
 40
0.0
 40
0.0
 40
0.5
 40
0.5
 40
1.0
 40
1.0
 40
1.0
 40
1.0
 10
67.00643202769821
 20
34.8588439727705
 30
0.0
 10
66.98275663327382
 20
34.77295691096805
 30
0.0
 10
66.9696655233893
 20
34.68554970198791
 30
0.0
 10
66.96957920210103
 20
34.53291325939418
 30
0.0
 10
66.98274813604486
 20
34.4687902144486
 30
0.0
 10
67.00643202769834
 20
34.42583127087829
 30
0.0
  0
SPLINE
  5
E1
330
1F
100
AcDbEntity
  8
0
  6
Continuous
 62
     7
370
    25
100
AcDbSpline
210
0.0
220
0.0
230
1.0
 70
     8
 71
     3
 72
    16
 73
    12
 74
     0
 42
0.00000001
 43
0.00000001
 40
0.0
 40
0.0
 40
0.0
 40
0.0
 40
0.2500000000000001
 40
0.2500000000000001
 40
0.5000000000000001
 40
0.5000000000000001
 40
0.6250000000000001
 40
0.6250000000000001
 40
0.7500000000000002
 40
0.7500000000000002
 40
1.0
 40
1.0
 40
1.0
 40
1.0
 10
67.00643202769834
 20
49.14826313521375
 30
0.0
 10
67.21444747580409
 20
48.77095504633725
 30
0.0
 10
67.38465378077707
 20
48.39093131596305
 30
0.0
 10
67.61958981234467
 20
47.62330800055236
 30
0.0
 10
67.6836619440083
 20
47.23566118376356
 30
0.0
 10
67.68439489292932
 20
46.64734063187571
 30
0.0
 10
67.66873541284629
 20
46.45026743932006
 30
0.0
 10
67.60746028620937
 20
46.06021046176596
 30
0.0
 10
67.56190401371023
 20
45.86641756117793
 30
0.0
 10
67.38541798095397
 20
45.2883365764145
 30
0.0
 10
67.21476152746827
 20
44.90733871207968
 30
0.0
 10
67.00643202769834
 20
44.52946098169674
 30
0.0
  0
SPLINE
  5
E2
330
1F
100
AcDbEntity
  8
0
  6
Continuous
 62
     7
370
    25
100
AcDbSpline
210
0.0
220
0.0
230
1.0
 70
     8
 71
     3
 72
    10
 73
     6
 74
     0
 42
0.00000001
 43
0.00000001
 40
0.0
 40
0.0
 40
0.0
 40
0.0
 40
0.1601790552921226
 40
0.7197651707803578
 40
1.0
 40
1.0
 40
1.0
 40
1.0
 10
66.97220259458142
 20
49.21054141396349
 30
0.0
 10
66.97143980448818
 20
49.21193364198987
 30
0.0
 10
66.96801220441444
 20
49.21818962371818
 30
0.0
 10
66.98251966921273
 20
49.19168235899028
 30
0.0
 10
67.00044922233056
 20
49.15912650384512
 30
0.0
 10
67.00643202769834
 20
49.14826313521375
 30
0.0
  0
SPLINE
  5
E3
330
1F
100
AcDbEntity
  8
0
  6
Continuous
 62
     7
370
    25
100
AcDbSpline
210
0.0
220
0.0
230
1.0
 70
     8
 71
     3
 72
     9
 73
     5
 74
     0
 42
0.00000001
 43
0.00000001
 40
0.0
 40
0.0
 40
0.0
 40
0.0
 40
0.5797912171256352
 40
1.0
 40
1.0
 40
1.0
 40
1.0
 10
67.00643202769834
 20
29.80702911736128
 30
0.0
 10
66.99407342435187
 20
29.78455546912015
 30
0.0
 10
66.97275781455747
 20
29.74579384669932
 30
0.0
 10
66.97236687205468
 20
29.74505944194112
 30
0.0
 10
66.97220259458142
 20
29.74475083861153
 30
0.0
  0
SPLINE
  5
E4
330
1F
100
AcDbEntity
  8
0
  6
Continuous
 62
     7
370
    25
100
AcDbSpline
210
0.0
220
0.0
230
1.0
 70
     8
 71
     3
 72
    16
 73
    12
 74
     0
 42
0.00000001
 43
0.00000001
 40
0.0
 40
0.0
 40
0.0
 40
0.0
 40
0.2500000000000001
 40
0.2500000000000001
 40
0.5000000000000002
 40
0.5000000000000002
 40
0.6250000000000001
 40
0.6250000000000001
 40
0.7500000000000001
 40
0.7500000000000001
 40
1.0
 40
1.0
 40
1.0
 40
1.0
 10
67.00643202769834
 20
34.42583127087829
 30
0.0
 10
67.21444747580409
 20
34.04852318200179
 30
0.0
 10
67.38465378077707
 20
33.66849945162759
 30
0.0
 10
67.61958981234467
 20
32.90087613621689
 30
0.0
 10
67.68366194400832
 20
32.5132293194281
 30
0.0
 10
67.68439489292933
 20
31.92490876754025
 30
0.0
 10
67.6687354128463
 20
31.7278355749846
 30
0.0
 10
67.60746028620937
 20
31.3377785974305
 30
0.0
 10
67.56190401371023
 20
31.14398569684246
 30
0.0
 10
67.38541798095396
 20
30.56590471207904
 30
0.0
 10
67.21476152746826
 20
30.18490684774421
 30
0.0
 10
67.00643202769834
 20
29.80702911736128
 30
0.0
  0
LINE
  5
E5
330
1F
100
AcDbEntity
  8
0
  6
Continuous
 62
     7
370
    25
100
AcDbLine
 10
67.8284910003
 20
47.7276461263
 30
0.0
 11
67.8284910003
 21
31.2276461263
 31
0.0
  0
SPLINE
  5
E6
330
1F
100
AcDbEntity
  8
0
  6
Continuous
 62
     7
370
    25
100
AcDbSpline
210
0.0
220
0.0
230
1.0
 70
     8
 71
     3
 72
    10
 73
     6
 74
     0
 42
0.00000001
 43
0.00000001
 40
0.0
 40
0.0
 40
0.0
 40
0.0
 40
0.5
 40
0.5
 40
1.0
 40
1.0
 40
1.0
 40
1.0
 10
45.00621240551565
 20
44.52946098169671
 30
0.0
 10
44.7974024808494
 20
44.908210129088
 30
0.0
 10
44.62686834110215
 20
45.2894154054993
 30
0.0
 10
44.39208253608322
 20
46.05864602668709
 30
0.0
 10
44.32849100025593
 20
46.44671373148541
 30
0.0
 10
44.32849100025593
 20
46.83886205845524
 30
0.0
  0
LINE
  5
E7
330
1F
100
AcDbEntity
  8
0
  6
Continuous
 62
     7
370
    25
100
AcDbLine
 10
44.3284910003
 20
39.4776461263
 30
0.0
 11
44.3284910003
 21
46.8388620585
 31
0.0
  0
SPLINE
  5
E8
330
1F
100
AcDbEntity
  8
0
  6
Continuous
 62
     7
370
    25
100
AcDbSpline
210
0.0
220
0.0
230
1.0
 70
     8
 71
     3
 72
     8
 73
     4
 74
     0
 42
0.00000001
 43
0.00000001
 40
0.0
 40
0.0
 40
0.0
 40
0.0
 40
1.0
 40
1.0
 40
1.0
 40
1.0
 10
48.53911481563931
 20
32.18826994165877
 30
0.0
 10
48.84813195828106
 20
32.28927504948891
 30
0.0
 10
49.16344971459905
 20
32.38593183855484
 30
0.0
 10
49.48592904144207
 20
32.47764612628752
 30
0.0
  0
SPLINE
  5
E9
330
1F
100
AcDbEntity
  8
0
  6
Continuous
 62
     7
370
    25
100
AcDbSpline
210
0.0
220
0.0
230
1.0
 70
     8
 71
     3
 72
    12
 73
     8
 74
     0
 42
0.00000001
 43
0.00000001
 40
0.0
 40
0.0
 40
0.0
 40
0.0
 40
0.2500000000000002
 40
0.2500000000000002
 40
0.5000000000000004
 40
0.5000000000000004
 40
1.0
 40
1.0
 40
1.0
 40
1.0
 10
48.53911481563406
 20
32.18826994165265
 30
0.0
 10
48.72914099093728
 20
32.18456145579622
 30
0.0
 10
48.9193560536231
 20
32.16597895295855
 30
0.0
 10
49.2962928127555
 20
32.1011119159924
 30
0.0
 10
49.483615604015
 20
32.05484636274213
 30
0.0
 10
50.0425255603291
 20
31.87912183243517
 30
0.0
 10
50.41106121843942
 20
31.71281842365842
 30
0.0
 10
50.77667614484671
 20
31.51124958643251
 30
0.0
  0
SPLINE
  5
EA
330
1F
100
AcDbEntity
  8
0
  6
Continuous
 62
     7
370
    25
100
AcDbSpline
210
0.0
220
0.0
230
1.0
 70
     8
 71
     3
 72
    12
 73
     8
 74
     0
 42
0.00000001
 43
0.00000001
 40
0.0
 40
0.0
 40
0.0
 40
0.0
 40
0.2499999999999998
 40
0.2499999999999998
 40
0.4999999999999996
 40
0.4999999999999996
 40
1.0
 40
1.0
 40
1.0
 40
1.0
 10
63.18970693242365
 20
27.47764612628751
 30
0.0
 10
62.99470345241787
 20
27.47764612628751
 30
0.0
 10
62.79816879339345
 20
27.49339245630947
 30
0.0
 10
62.4087491057879
 20
27.5548374808949
 30
0.0
 10
62.21526441272764
 20
27.60042624014863
 30
0.0
 10
61.63808081397205
 20
27.77687724240523
 30
0.0
 10
61.25764503218908
 20
27.94733494436872
 30
0.0
 10
60.88030585566514
 20
28.15536753154756
 30
0.0
  0
LINE
  5
EB
330
1F
100
AcDbEntity
  8
0
  6
Continuous
 62
     7
370
    25
100
AcDbLine
 10
55.8284910003
 20
27.4776461263
 30
0.0
 11
63.1897069324
 21
27.4776461263
 31
0.0
  0
LINE
  5
EC
330
1F
100
AcDbEntity
  8
0
  6
Continuous
 62
     7
370
    25
100
AcDbLine
 10
48.4672750681
 20
27.4776461263
 30
0.0
 11
55.8284910003
 21
27.4776461263
 31
0.0
  0
SPLINE
  5
ED
330
1F
100
AcDbEntity
  8
0
  6
Continuous
 62
     7
370
    25
100
AcDbSpline
210
0.0
220
0.0
230
1.0
 70
     8
 71
     3
 72
    10
 73
     6
 74
     0
 42
0.00000001
 43
0.00000001
 40
0.0
 40
0.0
 40
0.0
 40
0.0
 40
0.5
 40
0.5
 40
1.0
 40
1.0
 40
1.0
 40
1.0
 10
50.77667614484674
 20
28.15536753154724
 30
0.0
 10
50.39792699745545
 20
27.94655760688098
 30
0.0
 10
50.01672172104414
 20
27.77602346713373
 30
0.0
 10
49.24749109985636
 20
27.5412376621148
 30
0.0
 10
48.85942339505804
 20
27.47764612628751
 30
0.0
 10
48.46727506808821
 20
27.47764612628751
 30
0.0
  0
LINE
  5
EE
330
1F
100
AcDbEntity
  8
0
  6
Continuous
 62
     7
370
    25
100
AcDbLine
 10
61.8284910003
 20
46.8388620585
 30
0.0
 11
61.8284910003
 21
43.4776461263
 31
0.0
  0
SPLINE
  5
EF
330
1F
100
AcDbEntity
  8
0
  6
Continuous
 62
     7
370
    25
100
AcDbSpline
210
0.0
220
0.0
230
1.0
 70
     8
 71
     3
 72
    10
 73
     6
 74
     0
 42
0.00000001
 43
0.00000001
 40
0.0
 40
0.0
 40
0.0
 40
0.0
 40
0.5
 40
0.5
 40
1.0
 40
1.0
 40
1.0
 40
1.0
 10
62.50621240551614
 20
44.52946098169672
 30
0.0
 10
62.29779165269871
 20
44.90750423109888
 30
0.0
 10
62.12732781742128
 20
45.28827373589473
 30
0.0
 10
61.89234538248289
 20
46.05742226145227
 30
0.0
 10
61.82849100025593
 20
46.44584898962751
 30
0.0
 10
61.82849100025593
 20
46.83886205845524
 30
0.0
  0
LINE
  5
F0
330
1F
100
AcDbEntity
  8
0
  6
Continuous
 62
     7
370
    25
100
AcDbLine
 10
51.7747299937
 20
38.9032142698
 30
0.0
 11
52.3820783525
 21
38.9032142698
 31
0.0
  0
ELLIPSE
  5
F1
330
1F
100
AcDbEntity
  8
0
  6
Continuous
 62
     7
370
    25
100
AcDbEllipse
 10
52.3820783525
 20
38.9840559869
 30
0.0
 11
-0.08480161849066548
 21
-4.973799150320701E-14
 31
0.0
210
0.0
220
0.0
230
1.0
 40
0.9533039403
 41
1.570796326794337
 42
3.484616592149223
  0
LINE
  5
F2
330
1F
100
AcDbEntity
  8
0
  6
Continuous
 62
     7
370
    25
100
AcDbLine
 10
52.4619395909
 20
39.0112459986
 30
0.0
 11
52.1582654132
 21
39.8218286157
 31
0.0
  0
ELLIPSE
  5
F3
330
1F
100
AcDbEntity
  8
0
  6
Continuous
 62
     7
370
    25
100
AcDbEllipse
 10
51.7747299937
 20
38.9840559869
 30
0.0
 11
0.08480161849065126
 21
-7.105427357601002E-15
 31
0.0
210
0.0
220
0.0
230
1.0
 40
0.9533039403
 41
2.79856871130838
 42
4.712388980384699
  0
LINE
  5
F4
330
1F
100
AcDbEntity
  8
0
  6
Continuous
 62
     7
370
    25
100
AcDbLine
 10
51.9985429366
 20
39.8218286157
 30
0.0
 11
51.6948687555
 21
39.0112459988
 31
0.0
  0
ELLIPSE
  5
F5
330
1F
100
AcDbEntity
  8
0
  6
Continuous
 62
     7
370
    25
100
AcDbEllipse
 10
52.0784041749
 20
39.7946386039
 30
0.0
 11
0.08480161849065837
 21
0.0
 31
0.0
210
0.0
220
0.0
230
1.0
 40
0.9533039403
 41
0.3430239404205823
 42
2.798568713169156
  0
SPLINE
  5
F6
330
1F
100
AcDbEntity
  8
0
  6
Continuous
 62
     7
370
    25
100
AcDbSpline
210
0.0
220
0.0
230
1.0
 70
     8
 71
     3
 72
    12
 73
     8
 74
     0
 42
0.00000001
 43
0.00000001
 40
0.0
 40
0.0
 40
0.0
 40
0.0
 40
0.2499999999999999
 40
0.2499999999999999
 40
0.4999999999999998
 40
0.4999999999999998
 40
1.0
 40
1.0
 40
1.0
 40
1.0
 10
61.82849100025593
 20
46.83886205845524
 30
0.0
 10
61.82849100025593
 20
47.03460432133476
 30
0.0
 10
61.84433393634488
 20
47.23127093052531
 30
0.0
 10
61.90583679658256
 20
47.6205391578536
 30
0.0
 10
61.95144043762625
 20
47.81394319080652
 30
0.0
 10
62.12789145511547
 20
48.39087224206328
 30
0.0
 10
62.29828882236732
 20
48.77112167526629
 30
0.0
 10
62.50621240551612
 20
49.14826313521375
 30
0.0
  0
LINE
  5
F7
330
1F
100
AcDbEntity
  8
0
  6
Continuous
 62
     7
370
    25
100
AcDbLine
 10
67.0064320277
 20
49.1482631352
 30
0.0
 11
62.5062124055
 21
49.1482631352
 31
0.0
  0
ELLIPSE
  5
F8
330
1F
100
AcDbEntity
  8
0
  6
Continuous
 62
     7
370
    25
100
AcDbEllipse
 10
55.8284910003
 20
29.6626915501
 30
0.0
 11
8.500000000000007
 21
0.0
 31
0.0
210
0.0
220
0.0
230
1.0
 40
0.5773502692
 41
2.374833212873086
 42
2.530692279913059
  0
LINE
  5
F9
330
1F
100
AcDbEntity
  8
0
  6
Continuous
 62
     7
370
    25
100
AcDbLine
 10
48.5391148156
 20
32.1882699417
 30
0.0
 11
46.1578739913
 21
29.8070291174
 31
0.0
  0
LINE
  5
FA
330
1F
100
AcDbEntity
  8
0
  6
Continuous
 62
     7
370
    25
100
AcDbLine
 10
45.0062124055
 20
29.8070291174
 30
0.0
 11
46.1578739913
 21
29.8070291174
 31
0.0
  0
SPLINE
  5
FB
330
1F
100
AcDbEntity
  8
0
  6
Continuous
 62
     7
370
    25
100
AcDbSpline
210
0.0
220
0.0
230
1.0
 70
     8
 71
     3
 72
    10
 73
     6
 74
     0
 42
0.00000001
 43
0.00000001
 40
0.0
 40
0.0
 40
0.0
 40
0.0
 40
0.5
 40
0.5
 40
1.0
 40
1.0
 40
1.0
 40
1.0
 10
45.00621240551565
 20
29.80702911736125
 30
0.0
 10
44.79740248084939
 20
30.18577826475254
 30
0.0
 10
44.62686834110215
 20
30.56698354116384
 30
0.0
 10
44.39208253608322
 20
31.33621416235162
 30
0.0
 10
44.32849100025593
 20
31.72428186714994
 30
0.0
 10
44.32849100025593
 20
32.11643019411978
 30
0.0
  0
ELLIPSE
  5
FC
330
1F
100
AcDbEntity
  8
0
  6
Continuous
 62
     7
370
    25
100
AcDbEllipse
 10
55.8284910003
 20
29.6626915501
 30
0.0
 11
8.500000000000007
 21
0.0
 31
0.0
210
0.0
220
0.0
230
1.0
 40
0.5773502692
 41
0.6109003736767343
 42
0.7667594407167081
  0
LINE
  5
FD
330
1F
100
AcDbEntity
  8
0
  6
Continuous
 62
     7
370
    25
100
AcDbLine
 10
65.4991080092
 20
29.8070291174
 30
0.0
 11
67.0064320277
 21
29.8070291174
 31
0.0
  0
LINE
  5
FE
330
1F
100
AcDbEntity
  8
0
  6
Continuous
 62
     7
370
    25
100
AcDbLine
 10
65.4991080092
 20
29.8070291174
 30
0.0
 11
63.1178671849
 21
32.1882699417
 31
0.0
  0
SPLINE
  5
FF
330
1F
100
AcDbEntity
  8
0
  6
Continuous
 62
     7
370
    25
100
AcDbSpline
210
0.0
220
0.0
230
1.0
 70
     8
 71
     3
 72
    12
 73
     8
 74
     0
 42
0.00000001
 43
0.00000001
 40
0.0
 40
0.0
 40
0.0
 40
0.0
 40
0.2500000000000002
 40
0.2500000000000002
 40
0.5000000000000001
 40
0.5000000000000001
 40
1.0
 40
1.0
 40
1.0
 40
1.0
 10
48.46727506808821
 20
27.47764612628751
 30
0.0
 10
48.27227158808241
 20
27.47764612628751
 30
0.0
 10
48.075736929058
 20
27.49339245630948
 30
0.0
 10
47.68631724145245
 20
27.5548374808949
 30
0.0
 10
47.49283254839219
 20
27.60042624014863
 30
0.0
 10
46.91564894963659
 20
27.77687724240522
 30
0.0
 10
46.53521316785363
 20
27.94733494436872
 30
0.0
 10
46.15787399132969
 20
28.15536753154756
 30
0.0
  0
LINE
  5
100
330
1F
100
AcDbEntity
  8
0
  6
Continuous
 62
     7
370
    25
100
AcDbLine
 10
46.1578739913
 20
29.8070291174
 30
0.0
 11
46.1578739913
 21
28.1553675315
 31
0.0
  0
LINE
  5
101
330
1F
100
AcDbEntity
  8
0
  6
Continuous
 62
     7
370
    25
100
AcDbLine
 10
65.4991080092
 20
28.1553675315
 30
0.0
 11
65.4991080092
 21
29.8070291174
 31
0.0
  0
SPLINE
  5
102
330
1F
100
AcDbEntity
  8
0
  6
Continuous
 62
     7
370
    25
100
AcDbSpline
210
0.0
220
0.0
230
1.0
 70
     8
 71
     3
 72
    10
 73
     6
 74
     0
 42
0.00000001
 43
0.00000001
 40
0.0
 40
0.0
 40
0.0
 40
0.0
 40
0.5
 40
0.5
 40
1.0
 40
1.0
 40
1.0
 40
1.0
 10
65.4991080091822
 20
28.15536753154724
 30
0.0
 10
65.1203588617909
 20
27.94655760688098
 30
0.0
 10
64.7391535853796
 20
27.77602346713373
 30
0.0
 10
63.96992296419182
 20
27.5412376621148
 30
0.0
 10
63.5818552593935
 20
27.47764612628751
 30
0.0
 10
63.18970693242365
 20
27.47764612628751
 30
0.0
  0
SPLINE
  5
103
330
1F
100
AcDbEntity
  8
0
  6
Continuous
 62
     7
370
    25
100
AcDbSpline
210
0.0
220
0.0
230
1.0
 70
     8
 71
     3
 72
    12
 73
     8
 74
     0
 42
0.00000001
 43
0.00000001
 40
0.0
 40
0.0
 40
0.0
 40
0.0
 40
0.2499999999999999
 40
0.2499999999999999
 40
0.5
 40
0.5
 40
1.0
 40
1.0
 40
1.0
 40
1.0
 10
44.32849100025593
 20
46.83886205845524
 30
0.0
 10
44.32849100025593
 20
47.03386553846104
 30
0.0
 10
44.34423733027789
 20
47.23040019748545
 30
0.0
 10
44.40568235486332
 20
47.619819885091
 30
0.0
 10
44.45127111411705
 20
47.81330457815125
 30
0.0
 10
44.62772211637364
 20
48.39048817690686
 30
0.0
 10
44.79817981833713
 20
48.77092395868982
 30
0.0
 10
45.00621240551598
 20
49.14826313521376
 30
0.0
  0
LINE
  5
104
330
1F
100
AcDbEntity
  8
0
  6
Continuous
 62
     7
370
    25
100
AcDbLine
 10
49.150769595
 20
49.1482631352
 30
0.0
 11
45.0062124055
 21
49.1482631352
 31
0.0
  0
SPLINE
  5
105
330
1F
100
AcDbEntity
  8
0
  6
Continuous
 62
     7
370
    25
100
AcDbSpline
210
0.0
220
0.0
230
1.0
 70
     8
 71
     3
 72
    10
 73
     6
 74
     0
 42
0.00000001
 43
0.00000001
 40
0.0
 40
0.0
 40
0.0
 40
0.0
 40
0.5
 40
0.5
 40
1.0
 40
1.0
 40
1.0
 40
1.0
 10
49.15076959499573
 20
49.14826313521377
 30
0.0
 10
49.35919034781315
 20
48.77021988581161
 30
0.0
 10
49.52965418309059
 20
48.38945038101576
 30
0.0
 10
49.76463661802897
 20
47.62030185545822
 30
0.0
 10
49.82849100025594
 20
47.23187512728298
 30
0.0
 10
49.82849100025594
 20
46.83886205845524
 30
0.0
  0
LINE
  5
106
330
1F
100
AcDbEntity
  8
0
  6
Continuous
 62
     7
370
    25
100
AcDbLine
 10
61.8284910003
 20
33.4776461263
 30
0.0
 11
59.8284910003
 21
35.4776461263
 31
0.0
  0
LINE
  5
107
330
1F
100
AcDbEntity
  8
0
  6
Continuous
 62
     7
370
    25
100
AcDbLine
 10
59.8284910003
 20
32.4776461263
 30
0.0
 11
62.7911120729
 21
32.4776461263
 31
0.0
  0
LINE
  5
108
330
1F
100
AcDbEntity
  8
0
  6
Continuous
 62
     7
370
    25
100
AcDbLine
 10
51.8284910003
 20
35.4776461263
 30
0.0
 11
49.8284910003
 21
33.4776461263
 31
0.0
  0
LINE
  5
109
330
1F
100
AcDbEntity
  8
0
  6
Continuous
 62
     7
370
    25
100
AcDbLine
 10
48.8658699276
 20
32.4776461263
 30
0.0
 11
51.8284910003
 21
32.4776461263
 31
0.0
  0
LINE
  5
10A
330
1F
100
AcDbEntity
  8
0
  6
Continuous
 62
     7
370
    25
100
AcDbLine
 10
49.8284910003
 20
47.4121006045
 30
0.0
 11
49.8284910003
 21
46.8388620585
 31
0.0
  0
SPLINE
  5
10B
330
1F
100
AcDbEntity
  8
0
  6
Continuous
 62
     7
370
    25
100
AcDbSpline
210
0.0
220
0.0
230
1.0
 70
     8
 71
     3
 72
    32
 73
    28
 74
     0
 42
0.00000001
 43
0.00000001
 40
0.0
 40
0.0
 40
0.0
 40
0.0
 40
0.0625000000000001
 40
0.0625000000000001
 40
0.1250000000000001
 40
0.1250000000000001
 40
0.1875000000000002
 40
0.1875000000000002
 40
0.2500000000000003
 40
0.2500000000000003
 40
0.3750000000000003
 40
0.3750000000000003
 40
0.4375000000000003
 40
0.4375000000000003
 40
0.5000000000000002
 40
0.5000000000000002
 40
0.5625000000000002
 40
0.5625000000000002
 40
0.6250000000000001
 40
0.6250000000000001
 40
0.7500000000000001
 40
0.7500000000000001
 40
0.8750000000000002
 40
0.8750000000000002
 40
0.9375000000000001
 40
0.9375000000000001
 40
1.0
 40
1.0
 40
1.0
 40
1.0
 10
61.82849100024746
 20
47.41210060450816
 30
0.0
 10
61.67163466433057
 20
47.31714362661247
 30
0.0
 10
61.49863623017493
 20
47.21439045198729
 30
0.0
 10
61.12193164354913
 20
46.99767925033902
 30
0.0
 10
60.91907886309244
 20
46.88426053984901
 30
0.0
 10
60.49309760028984
 20
46.65617040315084
 30
0.0
 10
60.26891964000182
 20
46.54086352069898
 30
0.0
 10
59.79756854642544
 20
46.31254041832421
 30
0.0
 10
59.54888303106034
 20
46.19889040219046
 30
0.0
 10
58.7783105463687
 20
45.87582637095641
 30
0.0
 10
58.23267313628653
 20
45.68292784679291
 30
0.0
 10
57.34989338779019
 20
45.47133392151921
 30
0.0
 10
57.05125428791734
 20
45.41569153540146
 30
0.0
 10
56.44475268720157
 20
45.34002346603763
 30
0.0
 10
56.13460544853565
 20
45.32005022026131
 30
0.0
 10
55.51451995985188
 20
45.32038398651456
 30
0.0
 10
55.20794892238384
 20
45.34038295183734
 30
0.0
 10
54.60129417507566
 20
45.41642173803381
 30
0.0
 10
54.29892111045034
 20
45.47307483816537
 30
0.0
 10
53.42228480769739
 20
45.68385338821121
 30
0.0
 10
52.87423067572048
 20
45.87739921878296
 30
0.0
 10
51.8437334084772
 20
46.31001851205876
 30
0.0
 10
51.37617337319774
 20
46.54249515674918
 30
0.0
 10
50.7379597695698
 20
46.88423315766822
 30
0.0
 10
50.53475003137996
 20
46.99785067309661
 30
0.0
 10
50.15841310498553
 20
47.21435306545285
 30
0.0
 10
49.98543449649404
 20
47.31709086189724
 30
0.0
 10
49.82849100025594
 20
47.41210060451332
 30
0.0
  0
LINE
  5
10C
330
1F
100
AcDbEntity
  8
0
  6
Continuous
 62
     7
370
    25
100
AcDbLine
 10
61.8284910003
 20
47.4121006045
 30
0.0
 11
61.8284910003
 21
46.8388620585
 31
0.0
  0
LINE
  5
10D
330
1F
100
AcDbEntity
  8
0
  6
Continuous
 62
     7
370
    25
100
AcDbLine
 10
49.3639389417
 20
18.0813120001
 30
0.0
 11
62.2930430588
 21
18.0813120001
 31
0.0
  0
SPLINE
  5
10E
330
1F
100
AcDbEntity
  8
0
  6
Continuous
 62
     7
370
    25
100
AcDbSpline
210
0.0
220
0.0
230
1.0
 70
     8
 71
     3
 72
    12
 73
     8
 74
     0
 42
0.00000001
 43
0.00000001
 40
0.0
 40
0.0
 40
0.0
 40
0.0
 40
0.0860276384484858
 40
0.3125921905364371
 40
0.5444262578673806
 40
0.772029644149985
 40
1.0
 40
1.0
 40
1.0
 40
1.0
 10
62.00183818772295
 20
48.27054771998863
 30
0.0
 10
62.00304843681481
 20
48.27457764363044
 30
0.0
 10
62.00744602835098
 20
48.28922087552205
 30
0.0
 10
61.97492363505973
 20
48.18164344924882
 30
0.0
 10
61.91889545887528
 20
47.9754946334081
 30
0.0
 10
61.85070263107963
 20
47.69225415599745
 30
0.0
 10
61.8358988520651
 20
47.50553525636639
 30
0.0
 10
61.82849100025593
 20
47.41210060450619
 30
0.0
  0
SPLINE
  5
10F
330
1F
100
AcDbEntity
  8
0
  6
Continuous
 62
     7
370
    25
100
AcDbSpline
210
0.0
220
0.0
230
1.0
 70
     8
 71
     3
 72
    11
 73
     7
 74
     0
 42
0.00000001
 43
0.00000001
 40
0.0
 40
0.0
 40
0.0
 40
0.0
 40
0.3176374464272363
 40
0.6359620287908854
 40
0.8656923440974844
 40
1.0
 40
1.0
 40
1.0
 40
1.0
 10
49.82849100025593
 20
47.41210060451322
 30
0.0
 10
49.81485224018364
 20
47.54336524634292
 30
0.0
 10
49.78754521570234
 20
47.80617849102012
 30
0.0
 10
49.69954060627609
 20
48.11782286385375
 30
0.0
 10
49.65498037620474
 20
48.27156886619164
 30
0.0
 10
49.65532905595668
 20
48.27005563383829
 30
0.0
 10
49.65545769737281
 20
48.26949734402709
 30
0.0
  0
LINE
  5
110
330
1F
100
AcDbEntity
  8
0
  6
Continuous
 62
     7
370
    25
100
AcDbLine
 10
61.7232721836
 20
48.9731153062
 30
0.0
 11
61.7259040404
 21
48.9753400439
 31
0.0
  0
LINE
  5
111
330
1F
100
AcDbEntity
  8
0
  6
Continuous
 62
     7
370
    25
100
AcDbLine
 10
61.0784910003
 20
15.9776461263
 30
0.0
 11
50.5784910003
 21
15.9776461263
 31
0.0
  0
SPLINE
  5
112
330
1F
100
AcDbEntity
  8
0
  6
Continuous
 62
     7
370
    25
100
AcDbSpline
210
0.0
220
0.0
230
1.0
 70
     8
 71
     3
 72
    10
 73
     6
 74
     0
 42
0.00000001
 43
0.00000001
 40
0.0
 40
0.0
 40
0.0
 40
0.0
 40
0.1601790552921523
 40
0.7197651707804853
 40
1.0
 40
1.0
 40
1.0
 40
1.0
 10
49.11654016187883
 20
49.21054141396349
 30
0.0
 10
49.11577737178559
 20
49.21193364198987
 30
0.0
 10
49.11234977171185
 20
49.21818962371819
 30
0.0
 10
49.12685723651013
 20
49.19168235899028
 30
0.0
 10
49.14478678962796
 20
49.15912650384513
 30
0.0
 10
49.15076959499573
 20
49.14826313521377
 30
0.0
  0
SPLINE
  5
113
330
1F
100
AcDbEntity
  8
0
  6
Continuous
 62
     7
370
    25
100
AcDbSpline
210
0.0
220
0.0
230
1.0
 70
     8
 71
     3
 72
    10
 73
     6
 74
     0
 42
0.00000001
 43
0.00000001
 40
0.0
 40
0.0
 40
0.0
 40
0.0
 40
0.1593935212994522
 40
0.7189934545690309
 40
1.0
 40
1.0
 40
1.0
 40
1.0
 10
45.04044939509357
 20
49.21055521468021
 30
0.0
 10
45.04121092209103
 20
49.21194513350682
 30
0.0
 10
45.04464602360694
 20
49.21821478945376
 30
0.0
 10
45.03015140114045
 20
49.19173084762996
 30
0.0
 10
45.01221003064774
 20
49.1591534435831
 30
0.0
 10
45.00621240551612
 20
49.14826313521375
 30
0.0
  0
LINE
  5
114
330
1F
100
AcDbEntity
  8
0
  6
Continuous
 62
     7
370
    25
100
AcDbLine
 10
44.3284910003
 20
47.9776461263
 30
0.0
 11
44.3284910003
 21
46.8388620585
 31
0.0
  0
SPLINE
  5
115
330
1F
100
AcDbEntity
  8
0
  6
Continuous
 62
     7
370
    25
100
AcDbSpline
210
0.0
220
0.0
230
1.0
 70
     8
 71
     3
 72
     9
 73
     5
 74
     0
 42
0.00000001
 43
0.00000001
 40
0.0
 40
0.0
 40
0.0
 40
0.0
 40
0.5797912171256431
 40
1.0
 40
1.0
 40
1.0
 40
1.0
 10
62.50621240551612
 20
49.14826313521375
 30
0.0
 10
62.5185710088626
 20
49.17073678345488
 30
0.0
 10
62.53988661865699
 20
49.20949840587571
 30
0.0
 10
62.54027756115978
 20
49.21023281063391
 30
0.0
 10
62.54044183863304
 20
49.21054141396349
 30
0.0
  0
SPLINE
  5
116
330
1F
100
AcDbEntity
  8
0
  6
Continuous
 62
     7
370
    25
100
AcDbSpline
210
0.0
220
0.0
230
1.0
 70
     8
 71
     3
 72
     9
 73
     5
 74
     0
 42
0.00000001
 43
0.00000001
 40
0.0
 40
0.0
 40
0.0
 40
0.0
 40
0.5789479223911498
 40
1.0
 40
1.0
 40
1.0
 40
1.0
 10
65.49910800918215
 20
28.15536753154771
 30
0.0
 10
65.52154937637481
 20
28.16770842186212
 30
0.0
 10
65.56031170079936
 20
28.18902448473603
 30
0.0
 10
65.56107760365845
 20
28.18943265865041
 30
0.0
 10
65.56140008864851
 20
28.18960452112509
 30
0.0
  0
LINE
  5
117
330
1F
100
AcDbEntity
  8
0
  6
Continuous
 62
     7
370
    25
100
AcDbLine
 10
63.1897069324
 20
27.4776461263
 30
0.0
 11
64.3284910003
 21
27.4776461263
 31
0.0
  0
SPLINE
  5
118
330
1F
100
AcDbEntity
  8
0
  6
Continuous
 62
     7
370
    25
100
AcDbSpline
210
0.0
220
0.0
230
1.0
 70
     8
 71
     3
 72
    10
 73
     6
 74
     0
 42
0.00000001
 43
0.00000001
 40
0.0
 40
0.0
 40
0.0
 40
0.0
 40
0.1593935213061655
 40
0.7189934545756295
 40
1.0
 40
1.0
 40
1.0
 40
1.0
 10
46.09558191186336
 20
28.18960452112509
 30
0.0
 10
46.09419199303672
 20
28.19036604812255
 30
0.0
 10
46.0879223370899
 20
28.19380114963841
 30
0.0
 10
46.1144062789139
 20
28.17930652717181
 30
0.0
 10
46.14698368296058
 20
28.16136515667919
 30
0.0
 10
46.1578739913297
 20
28.1553675315477
 30
0.0
  0
LINE
  5
119
330
1F
100
AcDbEntity
  8
0
  6
Continuous
 62
     7
370
    25
100
AcDbLine
 10
47.3284910003
 20
27.4776461263
 30
0.0
 11
48.4672750681
 21
27.4776461263
 31
0.0
  0
SPLINE
  5
11A
330
1F
100
AcDbEntity
  8
0
  6
Continuous
 62
     7
370
    25
100
AcDbSpline
210
0.0
220
0.0
230
1.0
 70
     8
 71
     3
 72
     9
 73
     5
 74
     0
 42
0.00000001
 43
0.00000001
 40
0.0
 40
0.0
 40
0.0
 40
0.0
 40
0.5789479223839474
 40
0.9999999999999999
 40
0.9999999999999999
 40
0.9999999999999999
 40
0.9999999999999999
 10
45.00621240551612
 20
29.80702911736127
 30
0.0
 10
45.01855329583039
 20
29.78458775016891
 30
0.0
 10
45.0398693587043
 20
29.74582542574435
 30
0.0
 10
45.04027753261883
 20
29.74505952288499
 30
0.0
 10
45.04044939509357
 20
29.74473703789481
 30
0.0
  0
LINE
  5
11B
330
1F
100
AcDbEntity
  8
0
  6
Continuous
 62
     7
370
    25
100
AcDbLine
 10
44.3284910003
 20
32.1164301941
 30
0.0
 11
44.3284910003
 21
30.9776461263
 31
0.0
  0
LINE
  5
11C
330
1F
100
AcDbEntity
  8
0
  6
Continuous
 62
     7
370
    25
100
AcDbLine
 10
65.5660953073
 20
29.7400418193
 30
0.0
 11
65.4991080092
 21
29.8070291174
 31
0.0
  0
LINE
  5
11D
330
1F
100
AcDbEntity
  8
0
  6
Continuous
 62
     7
370
    25
100
AcDbLine
 10
46.1578739913
 20
29.8070291174
 30
0.0
 11
46.0908866932
 21
29.7400418193
 31
0.0
  0
SPLINE
  5
11E
330
1F
100
AcDbEntity
  8
0
  6
Continuous
 62
     7
370
    25
100
AcDbSpline
210
0.0
220
0.0
230
1.0
 70
     8
 71
     3
 72
    15
 73
    11
 74
     0
 42
0.00000001
 43
0.00000001
 40
0.0
 40
0.0
 40
0.0
 40
0.0
 40
0.0081667445812695
 40
0.3321939991490083
 40
0.4756279600585602
 40
0.6866830973284899
 40
0.8457435502264811
 40
0.8967566214763185
 40
0.9909540928118029
 40
1.0
 40
1.0
 40
1.0
 40
1.0
 10
50.72947148666314
 20
66.82764612628752
 30
0.0
 10
50.72898395252026
 20
66.82764344994175
 30
0.0
 10
50.70915280498818
 20
66.82753458575485
 30
0.0
 10
50.68087202497892
 20
66.81798857348552
 30
0.0
 10
50.64304272649009
 20
66.78062619023095
 30
0.0
 10
50.6164588299226
 20
66.73576067549628
 30
0.0
 10
50.59928900616763
 20
66.67788437591938
 30
0.0
 10
50.59147200995116
 20
66.62720833594744
 30
0.0
 10
50.58947632351529
 20
66.59851405642745
 30
0.0
 10
50.58941135956449
 20
66.57932722487193
 30
0.0
 10
50.58940566759782
 20
66.57764612628752
 30
0.0
  0
LINE
  5
11F
330
1F
100
AcDbEntity
  8
0
  6
Continuous
 62
     7
370
    25
100
AcDbLine
 10
50.7294714867
 20
66.8276461263
 30
0.0
 11
60.9275105138
 21
66.8276461263
 31
0.0
  0
SPLINE
  5
120
330
1F
100
AcDbEntity
  8
0
  6
Continuous
 62
     7
370
    25
100
AcDbSpline
210
0.0
220
0.0
230
1.0
 70
     8
 71
     3
 72
    15
 73
    11
 74
     0
 42
0.00000001
 43
0.00000001
 40
0.0
 40
0.0
 40
0.0
 40
0.0
 40
0.0090459071881971
 40
0.1032433785236874
 40
0.1542564497735246
 40
0.313316902671511
 40
0.5243720399414428
 40
0.6678060008509903
 40
0.9918332554187292
 40
1.0
 40
1.0
 40
1.0
 40
1.0
 10
61.06757633291404
 20
66.57764612628752
 30
0.0
 10
61.06757064094737
 20
66.57932722487193
 30
0.0
 10
61.06750567699658
 20
66.59851405642748
 30
0.0
 10
61.06550999056069
 20
66.62720833594743
 30
0.0
 10
61.05769299434424
 20
66.6778843759194
 30
0.0
 10
61.04052317058927
 20
66.73576067549627
 30
0.0
 10
61.01393927402178
 20
66.78062619023095
 30
0.0
 10
60.97610997553294
 20
66.81798857348551
 30
0.0
 10
60.94782919552369
 20
66.82753458575495
 30
0.0
 10
60.92799804799161
 20
66.82764344994175
 30
0.0
 10
60.92751051384872
 20
66.82764612628752
 30
0.0
  0
LINE
  5
121
330
1F
100
AcDbEntity
  8
0
  6
Continuous
 62
     7
370
    25
100
AcDbLine
 10
61.0675763329
 20
66.5776461263
 30
0.0
 11
50.5894056676
 21
66.5776461263
 31
0.0
  0
LINE
  5
122
330
1F
100
AcDbEntity
  8
0
  6
Continuous
 62
     7
370
    25
100
AcDbLine
 10
50.5894056676
 20
66.5776461263
 30
0.0
 11
50.5894056676
 21
65.9776461263
 31
0.0
  0
LINE
  5
123
330
1F
100
AcDbEntity
  8
0
  6
Continuous
 62
     7
370
    25
100
AcDbLine
 10
61.0675763329
 20
65.9776461263
 30
0.0
 11
61.0675763329
 21
66.5776461263
 31
0.0
  0
LINE
  5
124
330
1F
100
AcDbEntity
  8
0
  6
Continuous
 62
     7
370
    25
100
AcDbLine
 10
50.5894056676
 20
65.9776461263
 30
0.0
 11
61.0675763329
 21
65.9776461263
 31
0.0
  0
LINE
  5
125
330
1F
100
AcDbEntity
  8
0
  6
Continuous
 62
     7
370
    25
100
AcDbLine
 10
50.3512654252
 20
66.5776461263
 30
0.0
 11
50.5894056676
 21
66.5776461263
 31
0.0
  0
SPLINE
  5
126
330
1F
100
AcDbEntity
  8
0
  6
Continuous
 62
     7
370
    25
100
AcDbSpline
210
0.0
220
0.0
230
1.0
 70
     8
 71
     3
 72
    15
 73
    11
 74
     0
 42
0.00000001
 43
0.00000001
 40
0.0
 40
0.0
 40
0.0
 40
0.0
 40
0.0089557228015919
 40
0.0999003359608148
 40
0.153163246058169
 40
0.3125636920784848
 40
0.5249666935694999
 40
0.6689893599352451
 40
0.9919152533810159
 40
1.0
 40
1.0
 40
1.0
 40
1.0
 10
50.35126542520427
 20
66.57764612628752
 30
0.0
 10
50.35128118078287
 20
66.57932725186043
 30
0.0
 10
50.35145693293943
 20
66.59808006648485
 30
0.0
 10
50.35688594895896
 20
66.62684229559235
 30
0.0
 10
50.37842143266627
 20
66.67772936906069
 30
0.0
 10
50.4261268609311
 20
66.73586501919331
 30
0.0
 10
50.498517805923
 20
66.78057289237674
 30
0.0
 10
50.60043691794078
 20
66.8178547158385
 30
0.0
 10
50.67579200939525
 20
66.82753387067605
 30
0.0
 10
50.72819165511901
 20
66.82764344987784
 30
0.0
 10
50.72947148666314
 20
66.82764612628752
 30
0.0
  0
LINE
  5
127
330
1F
100
AcDbEntity
  8
0
  6
Continuous
 62
     7
370
    25
100
AcDbLine
 10
61.0675763329
 20
66.5776461263
 30
0.0
 11
61.3057165753
 21
66.5776461263
 31
0.0
  0
SPLINE
  5
128
330
1F
100
AcDbEntity
  8
0
  6
Continuous
 62
     7
370
    25
100
AcDbSpline
210
0.0
220
0.0
230
1.0
 70
     8
 71
     3
 72
    15
 73
    11
 74
     0
 42
0.00000001
 43
0.00000001
 40
0.0
 40
0.0
 40
0.0
 40
0.0
 40
0.0080847466189818
 40
0.3310106400647567
 40
0.4750333064304972
 40
0.6874363079215137
 40
0.8468367539418253
 40
0.9000996640391794
 40
0.9910442771984082
 40
1.0
 40
1.0
 40
1.0
 40
1.0
 10
60.92751051384872
 20
66.82764612628752
 30
0.0
 10
60.92879034539285
 20
66.82764344987785
 30
0.0
 10
60.98118999111664
 20
66.82753387067598
 30
0.0
 10
61.05654508257106
 20
66.8178547158385
 30
0.0
 10
61.15846419458887
 20
66.78057289237674
 30
0.0
 10
61.23085513958075
 20
66.73586501919331
 30
0.0
 10
61.27856056784559
 20
66.67772936906066
 30
0.0
 10
61.3000960515529
 20
66.62684229559237
 30
0.0
 10
61.30552506757243
 20
66.59808006648488
 30
0.0
 10
61.30570081972898
 20
66.57932725186043
 30
0.0
 10
61.30571657530759
 20
66.57764612628752
 30
0.0
  0
LINE
  5
129
330
1F
100
AcDbEntity
  8
0
  6
Continuous
 62
     7
370
    25
100
AcDbLine
 10
50.3512654252
 20
65.9776461263
 30
0.0
 11
50.3512654252
 21
66.5776461263
 31
0.0
  0
LINE
  5
12A
330
1F
100
AcDbEntity
  8
0
  6
Continuous
 62
     7
370
    25
100
AcDbLine
 10
50.5894056676
 20
65.9776461263
 30
0.0
 11
50.3512654252
 21
65.9776461263
 31
0.0
  0
LINE
  5
12B
330
1F
100
AcDbEntity
  8
0
  6
Continuous
 62
     7
370
    25
100
AcDbLine
 10
61.3057165753
 20
66.5776461263
 30
0.0
 11
61.3057165753
 21
65.9776461263
 31
0.0
  0
LINE
  5
12C
330
1F
100
AcDbEntity
  8
0
  6
Continuous
 62
     7
370
    25
100
AcDbLine
 10
61.3057165753
 20
65.9776461263
 30
0.0
 11
61.0675763329
 21
65.9776461263
 31
0.0
  0
LINE
  5
12D
330
1F
100
AcDbEntity
  8
0
  6
Continuous
 62
     7
370
    25
100
AcDbLine
 10
50.0784910003
 20
66.5776461263
 30
0.0
 11
50.0784910003
 21
65.9776461263
 31
0.0
  0
LINE
  5
12E
330
1F
100
AcDbEntity
  8
0
  6
Continuous
 62
     7
370
    25
100
AcDbLine
 10
50.3512654252
 20
66.5776461263
 30
0.0
 11
50.0784910003
 21
66.5776461263
 31
0.0
  0
LINE
  5
12F
330
1F
100
AcDbEntity
  8
0
  6
Continuous
 62
     7
370
    25
100
AcDbLine
 10
50.3512654252
 20
65.9776461263
 30
0.0
 11
50.0784910003
 21
65.9776461263
 31
0.0
  0
LINE
  5
130
330
1F
100
AcDbEntity
  8
0
  6
Continuous
 62
     7
370
    25
100
AcDbLine
 10
50.0784910003
 20
66.8276461263
 30
0.0
 11
50.0784910003
 21
66.5776461263
 31
0.0
  0
LINE
  5
131
330
1F
100
AcDbEntity
  8
0
  6
Continuous
 62
     7
370
    25
100
AcDbLine
 10
50.0784910003
 20
66.8276461263
 30
0.0
 11
50.7294714867
 21
66.8276461263
 31
0.0
  0
LINE
  5
132
330
1F
100
AcDbEntity
  8
0
  6
Continuous
 62
     7
370
    25
100
AcDbLine
 10
49.8284910003
 20
65.9776461263
 30
0.0
 11
49.8284910003
 21
66.5776461263
 31
0.0
  0
LINE
  5
133
330
1F
100
AcDbEntity
  8
0
  6
Continuous
 62
     7
370
    25
100
AcDbLine
 10
49.8284910003
 20
66.5776461263
 30
0.0
 11
50.0784910003
 21
66.5776461263
 31
0.0
  0
LINE
  5
134
330
1F
100
AcDbEntity
  8
0
  6
Continuous
 62
     7
370
    25
100
AcDbLine
 10
50.0784910003
 20
65.9776461263
 30
0.0
 11
49.8284910003
 21
65.9776461263
 31
0.0
  0
ARC
  5
135
330
1F
100
AcDbEntity
  8
0
  6
Continuous
 62
     7
370
    25
100
AcDbCircle
 10
50.0784910003
 20
66.5776461263
 30
0.0
 40
0.25
100
AcDbArc
 50
90.0
 51
180.0
  0
LINE
  5
136
330
1F
100
AcDbEntity
  8
0
  6
Continuous
 62
     7
370
    25
100
AcDbLine
 10
61.5784910003
 20
66.5776461263
 30
0.0
 11
61.5784910003
 21
66.8276461263
 31
0.0
  0
LINE
  5
137
330
1F
100
AcDbEntity
  8
0
  6
Continuous
 62
     7
370
    25
100
AcDbLine
 10
61.5784910003
 20
66.5776461263
 30
0.0
 11
61.3057165753
 21
66.5776461263
 31
0.0
  0
LINE
  5
138
330
1F
100
AcDbEntity
  8
0
  6
Continuous
 62
     7
370
    25
100
AcDbLine
 10
60.9275105138
 20
66.8276461263
 30
0.0
 11
61.5784910003
 21
66.8276461263
 31
0.0
  0
LINE
  5
139
330
1F
100
AcDbEntity
  8
0
  6
Continuous
 62
     7
370
    25
100
AcDbLine
 10
61.5784910003
 20
65.9776461263
 30
0.0
 11
61.5784910003
 21
66.5776461263
 31
0.0
  0
LINE
  5
13A
330
1F
100
AcDbEntity
  8
0
  6
Continuous
 62
     7
370
    25
100
AcDbLine
 10
61.5784910003
 20
65.9776461263
 30
0.0
 11
61.3057165753
 21
65.9776461263
 31
0.0
  0
ARC
  5
13B
330
1F
100
AcDbEntity
  8
0
  6
Continuous
 62
     7
370
    25
100
AcDbCircle
 10
61.5784910003
 20
66.5776461263
 30
0.0
 40
0.25
100
AcDbArc
 50
0.0
 51
90.0
  0
LINE
  5
13C
330
1F
100
AcDbEntity
  8
0
  6
Continuous
 62
     7
370
    25
100
AcDbLine
 10
61.5784910003
 20
66.5776461263
 30
0.0
 11
61.8284910003
 21
66.5776461263
 31
0.0
  0
LINE
  5
13D
330
1F
100
AcDbEntity
  8
0
  6
Continuous
 62
     7
370
    25
100
AcDbLine
 10
61.8284910003
 20
66.5776461263
 30
0.0
 11
61.8284910003
 21
65.9776461263
 31
0.0
  0
LINE
  5
13E
330
1F
100
AcDbEntity
  8
0
  6
Continuous
 62
     7
370
    25
100
AcDbLine
 10
61.8284910003
 20
65.9776461263
 30
0.0
 11
61.5784910003
 21
65.9776461263
 31
0.0
  0
LINE
  5
13F
330
1F
100
AcDbEntity
  8
0
  6
Continuous
 62
     7
370
    25
100
AcDbLine
 10
50.8284910003
 20
66.8276461263
 30
0.0
 11
50.8284910003
 21
66.8376461263
 31
0.0
  0
LINE
  5
140
330
1F
100
AcDbEntity
  8
0
  6
Continuous
 62
     7
370
    25
100
AcDbLine
 10
50.8284910003
 20
66.8376461263
 30
0.0
 11
60.8284910003
 21
66.8376461263
 31
0.0
  0
LINE
  5
141
330
1F
100
AcDbEntity
  8
0
  6
Continuous
 62
     7
370
    25
100
AcDbLine
 10
60.8284910003
 20
66.8276461263
 30
0.0
 11
60.8284910003
 21
66.8376461263
 31
0.0
  0
LINE
  5
142
330
1F
100
AcDbEntity
  8
0
  6
Continuous
 62
     7
370
    25
100
AcDbLine
 10
51.3539441162
 20
57.9776461263
 30
0.0
 11
63.2784910003
 21
57.9776461263
 31
0.0
  0
LINE
  5
143
330
1F
100
AcDbEntity
  8
0
  6
Continuous
 62
     7
370
    25
100
AcDbLine
 10
52.1141548719
 20
58.9723897043
 30
0.0
 11
51.3539441162
 21
57.9776461263
 31
0.0
  0
LINE
  5
144
330
1F
100
AcDbEntity
  8
0
  6
Continuous
 62
     7
370
    25
100
AcDbLine
 10
50.6046888259
 20
65.9776461263
 30
0.0
 11
48.8765501619
 21
58.9723897043
 31
0.0
  0
LINE
  5
145
330
1F
100
AcDbEntity
  8
0
  6
Continuous
 62
     7
370
    25
100
AcDbLine
 10
61.0675763329
 20
65.9776461263
 30
0.0
 11
50.6046888259
 21
65.9776461263
 31
0.0
  0
LINE
  5
146
330
1F
100
AcDbEntity
  8
0
  6
Continuous
 62
     7
370
    25
100
AcDbLine
 10
53.8284910003
 20
49.9776461263
 30
0.0
 11
62.8284910003
 21
49.9776461263
 31
0.0
  0
LINE
  5
147
330
1F
100
AcDbEntity
  8
0
  6
Continuous
 62
     7
370
    25
100
AcDbLine
 10
53.8284910003
 20
50.0154630501
 30
0.0
 11
53.8284910003
 21
49.9776461263
 31
0.0
  0
SPLINE
  5
148
330
1F
100
AcDbEntity
  8
0
  6
Continuous
 62
     7
370
    25
100
AcDbSpline
210
0.0
220
0.0
230
1.0
 70
     8
 71
     3
 72
     9
 73
     5
 74
     0
 42
0.00000001
 43
0.00000001
 40
0.0
 40
0.0
 40
0.0
 40
0.0
 40
0.4875141023677128
 40
0.9999999999999999
 40
0.9999999999999999
 40
0.9999999999999999
 40
0.9999999999999999
 10
53.67254574982873
 20
49.97764612628758
 30
0.0
 10
53.69885232375132
 20
49.97937347225928
 30
0.0
 10
53.75281296569957
 20
49.98291664355076
 30
0.0
 10
53.80284849639432
 20
50.00443512950007
 30
0.0
 10
53.82849100025593
 20
50.01546305008749
 30
0.0
  0
SPLINE
  5
149
330
1F
100
AcDbEntity
  8
0
  6
Continuous
 62
     7
370
    25
100
AcDbSpline
210
0.0
220
0.0
230
1.0
 70
     8
 71
     3
 72
    17
 73
    13
 74
     0
 42
0.00000001
 43
0.00000001
 40
0.0
 40
0.0
 40
0.0
 40
0.0
 40
0.3241697628029875
 40
0.542275846362072
 40
0.689509052693928
 40
0.7894036290694506
 40
0.8577090008137825
 40
0.9049823971474137
 40
0.9551712229700868
 40
0.9753097783197816
 40
0.9919572060138848
 40
1.0
 40
1.0
 40
1.0
 40
1.0
 10
51.35394411617377
 20
57.97764612628515
 30
0.0
 10
51.49665947619095
 20
57.06503262367947
 30
0.0
 10
51.73539578513292
 20
55.53839961741813
 30
0.0
 10
52.11498297958456
 20
53.61162671513716
 30
0.0
 10
52.42411718793164
 20
52.32399124420439
 30
0.0
 10
52.68023071613176
 20
51.46483927748265
 30
0.0
 10
52.89454171902675
 20
50.89137138910524
 30
0.0
 10
53.09777594005466
 20
50.46983923507528
 30
0.0
 10
53.28232120459727
 20
50.18934669227984
 30
0.0
 10
53.4683922909654
 20
50.03379802369919
 30
0.0
 10
53.58360289022131
 20
49.98318742450169
 30
0.0
 10
53.65069169569421
 20
49.97900767269706
 30
0.0
 10
53.67254574982873
 20
49.97764612628758
 30
0.0
  0
SPLINE
  5
14A
330
1F
100
AcDbEntity
  8
0
  6
Continuous
 62
     7
370
    25
100
AcDbSpline
210
0.0
220
0.0
230
1.0
 70
     8
 71
     3
 72
    14
 73
    10
 74
     0
 42
0.00000001
 43
0.00000001
 40
0.0
 40
0.0
 40
0.0
 40
0.0
 40
0.1576095309202821
 40
0.3152382602707094
 40
0.4726926441579496
 40
0.6301650083177253
 40
0.7907313191165902
 40
0.9513050385928076
 40
1.0
 40
1.0
 40
1.0
 40
1.0
 10
49.32849100025594
 20
49.97764612628752
 30
0.0
 10
49.2619199854739
 20
50.19114791476491
 30
0.0
 10
49.12876984688896
 20
50.61817749839042
 30
0.0
 10
48.80020288513827
 20
51.20342457724674
 30
0.0
 10
48.38681324440626
 20
51.72557911806916
 30
0.0
 10
47.8911383254616
 20
52.17455724548903
 30
0.0
 10
47.3248486201771
 20
52.53383897729541
 30
0.0
 10
46.84859796378407
 20
52.7384051563966
 30
0.0
 10
46.5684033955913
 20
52.81919970474789
 30
0.0
 10
46.50320461081828
 20
52.83799987779467
 30
0.0
  0
LINE
  5
14B
330
1F
100
AcDbEntity
  8
0
  6
Continuous
 62
     7
370
    25
100
AcDbLine
 10
46.5032046108
 20
52.8379998778
 30
0.0
 11
40.723447761
 21
54.4066213183
 31
0.0
  0
SPLINE
  5
14C
330
1F
100
AcDbEntity
  8
0
  6
Continuous
 62
     7
370
    25
100
AcDbSpline
210
0.0
220
0.0
230
1.0
 70
     8
 71
     3
 72
    11
 73
     7
 74
     0
 42
0.00000001
 43
0.00000001
 40
0.0
 40
0.0
 40
0.0
 40
0.0
 40
0.248846635328936
 40
0.4976946020535205
 40
0.7488461225871278
 40
1.0
 40
1.0
 40
1.0
 40
1.0
 10
33.65305413871928
 20
55.72982181926306
 30
0.0
 10
34.24749018785553
 20
55.66029744276943
 30
0.0
 10
35.43636546651894
 20
55.52124831780826
 30
0.0
 10
37.21109013722798
 20
55.22091957968296
 30
0.0
 10
38.97767077897034
 20
54.85900996142782
 30
0.0
 10
40.14152027999003
 20
54.55741800436327
 30
0.0
 10
40.72344776096301
 20
54.40662131827754
 30
0.0
  0
LINE
  5
14D
330
1F
100
AcDbEntity
  8
0
  6
Continuous
 62
     7
370
    25
100
AcDbLine
 10
33.6530541387
 20
55.7298218193
 30
0.0
 11
33.6530541387
 21
58.9723897043
 31
0.0
  0
LINE
  5
14E
330
1F
100
AcDbEntity
  8
0
  6
Continuous
 62
     7
370
    25
100
AcDbLine
 10
33.6530541387
 20
58.9723897043
 30
0.0
 11
52.1141548719
 21
58.9723897043
 31
0.0
  0
LINE
  5
14F
330
1F
100
AcDbEntity
  8
0
  6
Continuous
 62
     7
370
    25
100
AcDbLine
 10
53.6725457498
 20
49.9776461263
 30
0.0
 11
49.3284910003
 21
49.9776461263
 31
0.0
  0
LINE
  5
150
330
1F
100
AcDbEntity
  8
0
  6
Continuous
 62
     7
370
    25
100
AcDbLine
 10
53.8284910003
 20
50.0154630501
 30
0.0
 11
53.8216916423
 21
49.9776461263
 31
0.0
  0
LINE
  5
151
330
1F
100
AcDbEntity
  8
0
  6
Continuous
 62
     7
370
    25
100
AcDbLine
 10
53.8216916423
 20
49.9776461263
 30
0.0
 11
53.6725457498
 21
49.9776461263
 31
0.0
  0
LINE
  5
152
330
1F
100
AcDbEntity
  8
0
  6
Continuous
 62
     7
370
    25
100
AcDbLine
 10
53.8284910003
 20
49.9776461263
 30
0.0
 11
53.8216916423
 21
49.9776461263
 31
0.0
  0
LINE
  5
153
330
1F
100
AcDbEntity
  8
0
  6
Continuous
 62
     7
370
    25
100
AcDbLine
 10
15.8284910003
 20
67.9776461263
 30
0.0
 11
33.6530541387
 21
67.9776461263
 31
0.0
  0
LINE
  5
154
330
1F
100
AcDbEntity
  8
0
  6
Continuous
 62
     7
370
    25
100
AcDbLine
 10
33.6530541387
 20
67.9776461263
 30
0.0
 11
33.6530541387
 21
58.9723897043
 31
0.0
  0
LINE
  5
155
330
1F
100
AcDbEntity
  8
0
  6
Continuous
 62
     7
370
    25
100
AcDbLine
 10
28.9368231425
 20
55.9776461263
 30
0.0
 11
20.8284910003
 21
55.9776461263
 31
0.0
  0
ARC
  5
156
330
1F
100
AcDbEntity
  8
0
  6
Continuous
 62
     7
370
    25
100
AcDbCircle
 10
20.8284910003
 20
60.9776461263
 30
0.0
 40
5.0
100
AcDbArc
 50
180.0
 51
270.0
  0
LINE
  5
157
330
1F
100
AcDbEntity
  8
0
  6
Continuous
 62
     7
370
    25
100
AcDbLine
 10
15.8284910003
 20
60.9776461263
 30
0.0
 11
15.8284910003
 21
67.9776461263
 31
0.0
  0
ARC
  5
158
330
1F
100
AcDbEntity
  8
0
  6
Continuous
 62
     7
370
    25
100
AcDbCircle
 10
28.9368231425
 20
10.9775168721
 30
0.0
 40
45.00012925418374
100
AcDbArc
 50
83.9840777705
 51
90.0
  0
LINE
  5
159
330
1F
100
AcDbEntity
  8
0
  6
Continuous
 62
     7
370
    25
100
AcDbLine
 10
33.6530541387
 20
67.9776461263
 30
0.0
 11
35.8284910003
 21
67.9776461263
 31
0.0
  0
LINE
  5
15A
330
1F
100
AcDbEntity
  8
0
  6
Continuous
 62
     7
370
    25
100
AcDbLine
 10
35.8284910003
 20
67.9776461263
 30
0.0
 11
35.8284910003
 21
65.9966016497
 31
0.0
  0
ARC
  5
15B
330
1F
100
AcDbEntity
  8
0
  6
Continuous
 62
     7
370
    25
100
AcDbCircle
 10
41.8284910003
 20
65.9966016497
 30
0.0
 40
6.0
100
AcDbArc
 50
180.0
 51
275.5801667845
  0
ARC
  5
15C
330
1F
100
AcDbEntity
  8
0
  6
Continuous
 62
     7
370
    25
100
AcDbCircle
 10
41.439537436
 20
69.9776461263
 30
0.0
 40
10.00000000000847
100
AcDbArc
 50
275.5801667845
 51
336.4218215217
  0
LINE
  5
15D
330
1F
100
AcDbEntity
  8
0
  6
Continuous
 62
     7
370
    25
100
AcDbLine
 10
49.3284910003
 20
49.9776461263
 30
0.0
 11
48.8284910003
 21
49.9776461263
 31
0.0
  0
LINE
  5
15E
330
1F
100
AcDbEntity
  8
0
  6
Continuous
 62
     7
370
    25
100
AcDbLine
 10
50.5894056676
 20
65.9776461263
 30
0.0
 11
50.6046888259
 21
65.9776461263
 31
0.0
  0
SPLINE
  5
15F
330
1F
100
AcDbEntity
  8
0
  6
Continuous
 62
     7
370
    25
100
AcDbSpline
210
0.0
220
0.0
230
1.0
 70
     8
 71
     3
 72
    30
 73
    26
 74
     0
 42
0.00000001
 43
0.00000001
 40
0.0
 40
0.0
 40
0.0
 40
0.0
 40
0.0110569947995957
 40
0.0534018586163523
 40
0.0957739243294413
 40
0.152560285963683
 40
0.2094465507836707
 40
0.2166929089147469
 40
0.2775705853057713
 40
0.3384474861342897
 40
0.3856607907517328
 40
0.4327791182719195
 40
0.4698641362073264
 40
0.5069103241819656
 40
0.5439143354842868
 40
0.5809675385159896
 40
0.6306181182252716
 40
0.6803606635267528
 40
0.7335199301453341
 40
0.786670493119384
 40
0.8314134775104652
 40
0.876121580665438
 40
0.9187009688159357
 40
0.961245266880381
 40
1.0
 40
1.0
 40
1.0
 40
1.0
 10
49.92849100025592
 20
48.97764612628752
 30
0.0
 10
49.92931504760217
 20
48.97694829438981
 30
0.0
 10
49.93329494093438
 20
48.97357798256321
 30
0.0
 10
50.00407664986358
 20
48.91322833895788
 30
0.0
 10
50.22536537996285
 20
48.72769824329995
 30
0.0
 10
50.61592839535938
 20
48.40715229835834
 30
0.0
 10
51.01917048144553
 20
48.09347539481793
 30
0.0
 10
51.48598472053454
 20
47.74708610692813
 30
0.0
 10
52.02161255460889
 20
47.36666115992157
 30
0.0
 10
52.8373629326266
 20
46.86863760967378
 30
0.0
 10
53.67892273834697
 20
46.45651973656265
 30
0.0
 10
54.46232965711727
 20
46.17952062046908
 30
0.0
 10
55.23531453379319
 20
46.02810346764437
 30
0.0
 10
55.96590483957975
 20
45.98995399838729
 30
0.0
 10
56.69062729639008
 20
46.06928589004945
 30
0.0
 10
57.46399690959346
 20
46.26178909317913
 30
0.0
 10
58.25439176079838
 20
46.57894858664888
 30
0.0
 10
59.05119619143784
 20
47.0042270262738
 30
0.0
 10
59.77856375939542
 20
47.46668812693729
 30
0.0
 10
60.39276794207012
 20
47.90710010358605
 30
0.0
 10
60.88623140941512
 20
48.28556371902441
 30
0.0
 10
61.26128122492451
 20
48.58731897023494
 30
0.0
 10
61.53153615416749
 20
48.810964329753
 30
0.0
 10
61.70051095454419
 20
48.95389165929834
 30
0.0
 10
61.71592459759238
 20
48.96690969233172
 30
0.0
 10
61.7232721835849
 20
48.97311530620685
 30
0.0
  0
LINE
  5
160
330
1F
100
AcDbEntity
  8
0
  6
Continuous
 62
     7
370
    18
100
AcDbLine
 10
49.7622410003
 20
26.9776461263
 30
0.0
 11
50.0789526964
 21
16.8428718488
 31
0.0
  0
LINE
  5
161
330
1F
100
AcDbEntity
  8
0
  6
Continuous
 62
     7
370
    18
100
AcDbLine
 10
61.5780293041
 20
16.8428718488
 30
0.0
 11
61.8947410003
 21
26.9776461263
 31
0.0
  0
LINE
  5
162
330
1F
100
AcDbEntity
  8
0
  6
Continuous
 62
     7
370
    18
100
AcDbLine
 10
40.8784910003
 20
45.2001461263
 30
0.0
 11
37.3899646712
 21
45.2001461263
 31
0.0
  0
LINE
  5
163
330
1F
100
AcDbEntity
  8
0
  6
Continuous
 62
     7
370
    18
100
AcDbLine
 10
37.3899646712
 20
33.7551461263
 30
0.0
 11
40.8784910003
 21
33.7551461263
 31
0.0
  0
LINE
  5
164
330
1F
100
AcDbEntity
  8
0
  6
Continuous
 62
     7
370
    25
100
AcDbLine
 10
40.8784910003
 20
46.0561461263
 30
0.0
 11
40.8784910003
 21
46.0464981893
 31
0.0
  0
SPLINE
  5
165
330
1F
100
AcDbEntity
  8
0
  6
Continuous
 62
     7
370
     0
100
AcDbSpline
210
0.0
220
0.0
230
1.0
 70
     8
 71
     3
 72
    36
 73
    32
 74
     0
 42
0.00000001
 43
0.00000001
 40
0.0
 40
0.0
 40
0.0
 40
0.0
 40
0.0350874934862635
 40
0.0701749869633538
 40
0.1052624804404441
 40
0.1403499739175344
 40
0.1754374673946248
 40
0.2105249608717151
 40
0.2456124543488056
 40
0.280699947825896
 40
0.3157874413029862
 40
0.3508749347800765
 40
0.3859624282571668
 40
0.421049921734257
 40
0.4561374152113477
 40
0.4912249086884379
 40
0.5263124021655283
 40
0.5613998956426187
 40
0.5964873891197087
 40
0.6315748825967991
 40
0.6666623760738897
 40
0.7017498695509798
 40
0.7368373630280702
 40
0.7719248565051606
 40
0.8070123499822509
 40
0.8420998434593412
 40
0.8771873369364316
 40
0.912274830413522
 40
0.9473623238906124
 40
0.9824498173677028
 40
0.9999999999999999
 40
0.9999999999999999
 40
0.9999999999999999
 40
0.9999999999999999
 10
40.87847471237183
 20
46.04649818930713
 30
0.0
 10
40.87849100025593
 20
45.96948440482694
 30
0.0
 10
40.87849100025593
 20
45.81635975207521
 30
0.0
 10
40.87849100025593
 20
45.58891947760227
 30
0.0
 10
40.87849100025593
 20
45.28983011067567
 30
0.0
 10
40.87849100025593
 20
44.92259820066261
 30
0.0
 10
40.87849100025593
 20
44.49152920594465
 30
0.0
 10
40.87849100025593
 20
44.00167701635473
 30
0.0
 10
40.87849100025593
 20
43.45878470093967
 30
0.0
 10
40.87849100025593
 20
42.86921717572652
 30
0.0
 10
40.87849100025593
 20
42.23988658090168
 30
0.0
 10
40.87849100025593
 20
41.57817124228702
 30
0.0
 10
40.87849100025593
 20
40.8918291672157
 30
0.0
 10
40.87849100025593
 20
40.18890708898937
 30
0.0
 10
40.87849100025593
 20
39.47764612628747
 30
0.0
 10
40.87849100025593
 20
38.76638516358556
 30
0.0
 10
40.87849100025593
 20
38.06346308535924
 30
0.0
 10
40.87849100025593
 20
37.37712101028792
 30
0.0
 10
40.87849100025593
 20
36.71540567167327
 30
0.0
 10
40.87849100025593
 20
36.08607507684842
 30
0.0
 10
40.87849100025593
 20
35.49650755163528
 30
0.0
 10
40.87849100025593
 20
34.95361523622022
 30
0.0
 10
40.87849100025593
 20
34.46376304663031
 30
0.0
 10
40.87849100025593
 20
34.03269405191237
 30
0.0
 10
40.87849100025593
 20
33.66546214189932
 30
0.0
 10
40.87849100025593
 20
33.36637277497272
 30
0.0
 10
40.87849100025593
 20
33.13893250049978
 30
0.0
 10
40.87849100025593
 20
32.98580784774807
 30
0.0
 10
40.87849100025593
 20
32.90879406326788
 30
0.0
 10
40.87849100025593
 20
32.89914612628751
 30
0.0
 10
40.87849100025593
 20
32.90109340341593
 30
0.0
 10
40.87849100025593
 20
32.89914612628751
 30
0.0
  0
LINE
  5
166
330
1F
100
AcDbEntity
  8
0
  6
CENTERX2
 62
     7
370
    18
100
AcDbLine
 10
55.8284910003
 20
13.6618497597
 30
0.0
 11
55.8284910003
 21
69.5087553213
 31
0.0
  0
LINE
  5
167
330
1F
100
AcDbEntity
  8
0
  6
CENTERX2
 62
     7
370
    18
100
AcDbLine
 10
71.4028617217
 20
39.4776461263
 30
0.0
 11
19.4708322295
 21
39.4776461263
 31
0.0
  0
LINE
  5
168
330
1F
100
AcDbEntity
  8
0
  6
Continuous
 62
     7
370
    25
100
AcDbLine
 10
91.732658356
 20
27.4776461263
 30
0.0
 11
92.0262937974
 21
18.0813120001
 31
0.0
  0
LINE
  5
169
330
1F
100
AcDbEntity
  8
0
  6
Continuous
 62
     7
370
    25
100
AcDbLine
 10
104.9553979145
 20
18.0813120001
 30
0.0
 11
105.249033356
 21
27.4776461263
 31
0.0
  0
LINE
  5
16A
330
1F
100
AcDbEntity
  8
0
  6
Continuous
 62
     7
370
    25
100
AcDbLine
 10
92.0262937974
 20
18.0813120001
 30
0.0
 11
93.240845856
 21
15.9776461263
 31
0.0
  0
LINE
  5
16B
330
1F
100
AcDbEntity
  8
0
  6
Continuous
 62
     7
370
    25
100
AcDbLine
 10
103.740845856
 20
15.9776461263
 30
0.0
 11
104.9553979145
 21
18.0813120001
 31
0.0
  0
LINE
  5
16C
330
1F
100
AcDbEntity
  8
0
  6
Continuous
 62
     7
370
    25
100
AcDbLine
 10
104.390845856
 20
46.0108723795
 30
0.0
 11
104.390845856
 21
49.9776461263
 31
0.0
  0
LINE
  5
16D
330
1F
100
AcDbEntity
  8
0
  6
Continuous
 62
     7
370
    25
100
AcDbLine
 10
92.590845856
 20
49.9776461263
 30
0.0
 11
92.590845856
 21
46.0161747902
 31
0.0
  0
ARC
  5
16E
330
1F
100
AcDbEntity
  8
0
  6
Continuous
 62
     7
370
    25
100
AcDbCircle
 10
103.740845856
 20
66.5776461263
 30
0.0
 40
0.25
100
AcDbArc
 50
0.0
 51
90.0
  0
ARC
  5
16F
330
1F
100
AcDbEntity
  8
0
  6
Continuous
 62
     7
370
    25
100
AcDbCircle
 10
93.240845856
 20
66.5776461263
 30
0.0
 40
0.25
100
AcDbArc
 50
90.0
 51
180.0
  0
LINE
  5
170
330
1F
100
AcDbEntity
  8
0
  6
Continuous
 62
     7
370
    25
100
AcDbLine
 10
92.990845856
 20
66.5776461263
 30
0.0
 11
92.990845856
 21
65.9776461263
 31
0.0
  0
LINE
  5
171
330
1F
100
AcDbEntity
  8
0
  6
Continuous
 62
     7
370
    25
100
AcDbLine
 10
103.990845856
 20
65.9776461263
 30
0.0
 11
103.990845856
 21
66.5776461263
 31
0.0
  0
LINE
  5
172
330
1F
100
AcDbEntity
  8
0
  6
Continuous
 62
     7
370
    25
100
AcDbLine
 10
105.940845856
 20
57.9776461263
 30
0.0
 11
103.990845856
 21
65.9776461263
 31
0.0
  0
LINE
  5
173
330
1F
100
AcDbEntity
  8
0
  6
Continuous
 62
     7
370
    25
100
AcDbLine
 10
92.990845856
 20
65.9776461263
 30
0.0
 11
91.040845856
 21
57.9776461263
 31
0.0
  0
LINE
  5
174
330
1F
100
AcDbEntity
  8
0
  6
Continuous
 62
     7
370
    25
100
AcDbLine
 10
91.040845856
 20
57.9776461263
 30
0.0
 11
91.490845856
 21
49.9776461263
 31
0.0
  0
LINE
  5
175
330
1F
100
AcDbEntity
  8
0
  6
Continuous
 62
     7
370
    25
100
AcDbLine
 10
105.490845856
 20
49.9776461263
 30
0.0
 11
105.940845856
 21
57.9776461263
 31
0.0
  0
LINE
  5
176
330
1F
100
AcDbEntity
  8
0
  6
Continuous
 62
     7
370
    25
100
AcDbLine
 10
89.990845856
 20
44.1819362692
 30
0.0
 11
89.990845856
 21
44.3851234144
 31
0.0
  0
LINE
  5
177
330
1F
100
AcDbEntity
  8
0
  6
Continuous
 62
     7
370
    25
100
AcDbLine
 10
89.990845856
 20
44.3851234144
 30
0.0
 11
90.1668110854
 21
44.486716987
 31
0.0
  0
LINE
  5
178
330
1F
100
AcDbEntity
  8
0
  6
Continuous
 62
     7
370
    25
100
AcDbLine
 10
106.8148806266
 20
44.486716987
 30
0.0
 11
106.990845856
 21
44.3851234144
 31
0.0
  0
LINE
  5
179
330
1F
100
AcDbEntity
  8
0
  6
Continuous
 62
     7
370
    25
100
AcDbLine
 10
106.990845856
 20
44.3851234144
 30
0.0
 11
106.990845856
 21
44.1819362692
 31
0.0
  0
SPLINE
  5
17A
330
1F
100
AcDbEntity
  8
0
  6
Continuous
 62
     7
370
    25
100
AcDbSpline
210
0.0
220
0.0
230
1.0
 70
     8
 71
     3
 72
    10
 73
     6
 74
     0
 42
0.00000001
 43
0.00000001
 40
0.0
 40
0.0
 40
0.0
 40
0.0
 40
0.5
 40
0.5
 40
1.0
 40
1.0
 40
1.0
 40
1.0
 10
89.99084585599145
 20
34.8588439727705
 30
0.0
 10
89.99084585599145
 20
34.77295691096805
 30
0.0
 10
90.01363830532128
 20
34.68554970198791
 30
0.0
 10
90.10158100941435
 20
34.53291325939418
 30
0.0
 10
90.16643878308821
 20
34.4687902144486
 30
0.0
 10
90.24084585599145
 20
34.42583127087829
 30
0.0
  0
SPLINE
  5
17B
330
1F
100
AcDbEntity
  8
0
  6
Continuous
 62
     7
370
    25
100
AcDbSpline
210
0.0
220
0.0
230
1.0
 70
    24
 71
     3
 72
    14
 73
    10
 74
     0
 42
0.00000001
 43
0.00000001
 40
0.0
 40
0.0
 40
0.0
 40
0.0
 40
0.25
 40
0.25
 40
0.5
 40
0.5
 40
0.75
 40
0.75
 40
1.0
 40
1.0
 40
1.0
 40
1.0
 10
89.99084585599145
 20
34.85884397277047
 30
0.0
 10
89.99084585599145
 20
35.61322403342044
 30
0.0
 10
89.99084585599145
 20
36.38266520088594
 30
0.0
 10
89.99084585599145
 20
37.9231765618271
 30
0.0
 10
89.99084585599145
 20
38.69803094183413
 30
0.0
 10
89.99084585599145
 20
40.25839189671968
 30
0.0
 10
89.99084585599145
 20
41.04884808950471
 30
0.0
 10
89.99084585599145
 20
42.59112775231318
 30
0.0
 10
89.99084585599145
 20
43.34851850551436
 30
0.0
 10
89.99084585599145
 20
44.09644827980452
 30
0.0
  0
SPLINE
  5
17C
330
1F
100
AcDbEntity
  8
0
  6
Continuous
 62
     7
370
    25
100
AcDbSpline
210
0.0
220
0.0
230
1.0
 70
     8
 71
     3
 72
    10
 73
     6
 74
     0
 42
0.00000001
 43
0.00000001
 40
0.0
 40
0.0
 40
0.0
 40
0.0
 40
0.5
 40
0.5
 40
1.0
 40
1.0
 40
1.0
 40
1.0
 10
90.24084585599145
 20
44.52946098169674
 30
0.0
 10
90.16646547861414
 20
44.48651745079552
 30
0.0
 10
90.10216483982836
 20
44.42307500617139
 30
0.0
 10
90.01394915504542
 20
44.27059616905242
 30
0.0
 10
89.99084585599145
 20
44.18236616694514
 30
0.0
 10
89.99084585599145
 20
44.09644827980452
 30
0.0
  0
SPLINE
  5
17D
330
1F
100
AcDbEntity
  8
0
  6
Continuous
 62
     7
370
    25
100
AcDbSpline
210
0.0
220
0.0
230
1.0
 70
    24
 71
     3
 72
    16
 73
    12
 74
     0
 42
0.00000001
 43
0.00000001
 40
0.0
 40
0.0
 40
0.0
 40
0.0
 40
0.2500000000000001
 40
0.2500000000000001
 40
0.5000000000000001
 40
0.5000000000000001
 40
0.6250000000000001
 40
0.6250000000000001
 40
0.7500000000000002
 40
0.7500000000000002
 40
1.0
 40
1.0
 40
1.0
 40
1.0
 10
98.24084585599147
 20
49.14826313521375
 30
0.0
 10
97.58732907595066
 20
48.77095504633725
 30
0.0
 10
96.92910866686069
 20
48.39093131596305
 30
0.0
 10
95.5995460834949
 20
47.62330800055236
 30
0.0
 10
94.92812210142435
 20
47.23566118376356
 30
0.0
 10
93.90912101441764
 20
46.64734063187571
 30
0.0
 10
93.56778023210146
 20
46.45026743932006
 30
0.0
 10
92.892181729131
 20
46.06021046176596
 30
0.0
 10
92.55652257916637
 20
45.86641756117793
 30
0.0
 10
91.55525694266667
 20
45.2883365764145
 30
0.0
 10
90.89534928406353
 20
44.90733871207968
 30
0.0
 10
90.24084585599147
 20
44.52946098169674
 30
0.0
  0
SPLINE
  5
17E
330
1F
100
AcDbEntity
  8
0
  6
Continuous
 62
     7
370
    25
100
AcDbSpline
210
0.0
220
0.0
230
1.0
 70
     8
 71
     3
 72
    10
 73
     6
 74
     0
 42
0.00000001
 43
0.00000001
 40
0.0
 40
0.0
 40
0.0
 40
0.0
 40
0.5
 40
0.5
 40
1.0
 40
1.0
 40
1.0
 40
1.0
 10
98.74084585599147
 20
49.14826313521375
 30
0.0
 10
98.66646547861413
 20
49.19120666611498
 30
0.0
 10
98.57937239049856
 20
49.21517143047096
 30
0.0
 10
98.40321400162257
 20
49.21532903594574
 30
0.0
 10
98.31525292889474
 20
49.19122207878407
 30
0.0
 10
98.24084585599147
 20
49.14826313521375
 30
0.0
  0
SPLINE
  5
17F
330
1F
100
AcDbEntity
  8
0
  6
Continuous
 62
     7
370
    25
100
AcDbSpline
210
0.0
220
0.0
230
1.0
 70
    24
 71
     3
 72
    16
 73
    12
 74
     0
 42
0.00000001
 43
0.00000001
 40
0.0
 40
0.0
 40
0.0
 40
0.0
 40
0.2499999999999997
 40
0.2499999999999997
 40
0.4999999999999993
 40
0.4999999999999993
 40
0.6249999999999993
 40
0.6249999999999993
 40
0.7499999999999996
 40
0.7499999999999996
 40
1.0
 40
1.0
 40
1.0
 40
1.0
 10
106.7408458559915
 20
44.52946098169674
 30
0.0
 10
106.0873290759507
 20
44.90676907057324
 30
0.0
 10
105.4291086668607
 20
45.28679280094744
 30
0.0
 10
104.0995460834949
 20
46.05441611635813
 30
0.0
 10
103.4281221014243
 20
46.44206293314694
 30
0.0
 10
102.4091210144176
 20
47.03038348503478
 30
0.0
 10
102.0677802321015
 20
47.22745667759043
 30
0.0
 10
101.392181729131
 20
47.61751365514453
 30
0.0
 10
101.0565225791664
 20
47.81130655573257
 30
0.0
 10
100.0552569426667
 20
48.389387540496
 30
0.0
 10
99.39534928406351
 20
48.77038540483082
 30
0.0
 10
98.74084585599147
 20
49.14826313521375
 30
0.0
  0
SPLINE
  5
180
330
1F
100
AcDbEntity
  8
0
  6
Continuous
 62
     7
370
    25
100
AcDbSpline
210
0.0
220
0.0
230
1.0
 70
     8
 71
     3
 72
    10
 73
     6
 74
     0
 42
0.00000001
 43
0.00000001
 40
0.0
 40
0.0
 40
0.0
 40
0.0
 40
0.5
 40
0.5
 40
1.0
 40
1.0
 40
1.0
 40
1.0
 10
106.9908458559915
 20
44.09644827980452
 30
0.0
 10
106.9908458559915
 20
44.18233534160698
 30
0.0
 10
106.9680534066617
 20
44.26974255058709
 30
0.0
 10
106.8801107025686
 20
44.42237899318084
 30
0.0
 10
106.8152529288947
 20
44.48650203812643
 30
0.0
 10
106.7408458559915
 20
44.52946098169674
 30
0.0
  0
SPLINE
  5
181
330
1F
100
AcDbEntity
  8
0
  6
Continuous
 62
     7
370
    25
100
AcDbSpline
210
0.0
220
0.0
230
1.0
 70
    24
 71
     3
 72
    14
 73
    10
 74
     0
 42
0.00000001
 43
0.00000001
 40
0.0
 40
0.0
 40
0.0
 40
0.0
 40
0.25
 40
0.25
 40
0.5
 40
0.5
 40
0.75
 40
0.75
 40
1.0
 40
1.0
 40
1.0
 40
1.0
 10
106.9908458559915
 20
34.85884397277046
 30
0.0
 10
106.9908458559915
 20
35.61322403342043
 30
0.0
 10
106.9908458559915
 20
36.38266520088593
 30
0.0
 10
106.9908458559915
 20
37.92317656182709
 30
0.0
 10
106.9908458559915
 20
38.69803094183412
 30
0.0
 10
106.9908458559915
 20
40.25839189671967
 30
0.0
 10
106.9908458559915
 20
41.04884808950471
 30
0.0
 10
106.9908458559915
 20
42.59112775231318
 30
0.0
 10
106.9908458559915
 20
43.34851850551436
 30
0.0
 10
106.9908458559915
 20
44.09644827980452
 30
0.0
  0
SPLINE
  5
182
330
1F
100
AcDbEntity
  8
0
  6
Continuous
 62
     7
370
    25
100
AcDbSpline
210
0.0
220
0.0
230
1.0
 70
     8
 71
     3
 72
    10
 73
     6
 74
     0
 42
0.00000001
 43
0.00000001
 40
0.0
 40
0.0
 40
0.0
 40
0.0
 40
0.5
 40
0.5
 40
1.0
 40
1.0
 40
1.0
 40
1.0
 10
106.7408458559915
 20
34.42583127087829
 30
0.0
 10
106.8152262333686
 20
34.46877480177942
 30
0.0
 10
106.8795268721541
 20
34.53221724640309
 30
0.0
 10
106.9677425569374
 20
34.68469608352221
 30
0.0
 10
106.9908458559915
 20
34.77292608562969
 30
0.0
 10
106.9908458559915
 20
34.85884397277048
 30
0.0
  0
SPLINE
  5
183
330
1F
100
AcDbEntity
  8
0
  6
Continuous
 62
     7
370
    25
100
AcDbSpline
210
0.0
220
0.0
230
1.0
 70
    24
 71
     3
 72
    16
 73
    12
 74
     0
 42
0.00000001
 43
0.00000001
 40
0.0
 40
0.0
 40
0.0
 40
0.0
 40
0.2500000000000002
 40
0.2500000000000002
 40
0.5000000000000004
 40
0.5000000000000004
 40
0.6250000000000003
 40
0.6250000000000003
 40
0.7500000000000002
 40
0.7500000000000002
 40
1.0
 40
1.0
 40
1.0
 40
1.0
 10
98.74084585599147
 20
29.80702911736128
 30
0.0
 10
99.39436263603223
 20
30.18433720623775
 30
0.0
 10
100.0525830451221
 20
30.56436093661192
 30
0.0
 10
101.3821456284878
 20
31.33198425202256
 30
0.0
 10
102.0535696105583
 20
31.71963106881133
 30
0.0
 10
103.072570697565
 20
32.30795162069912
 30
0.0
 10
103.4139114798811
 20
32.50502481325476
 30
0.0
 10
104.0895099828515
 20
32.89508179080883
 30
0.0
 10
104.4251691328161
 20
33.08887469139685
 30
0.0
 10
105.4264347693158
 20
33.66695567616024
 30
0.0
 10
106.0863424279189
 20
34.04795354049503
 30
0.0
 10
106.7408458559909
 20
34.42583127087794
 30
0.0
  0
SPLINE
  5
184
330
1F
100
AcDbEntity
  8
0
  6
Continuous
 62
     7
370
    25
100
AcDbSpline
210
0.0
220
0.0
230
1.0
 70
     8
 71
     3
 72
    10
 73
     6
 74
     0
 42
0.00000001
 43
0.00000001
 40
0.0
 40
0.0
 40
0.0
 40
0.0
 40
0.5
 40
0.5
 40
1.0
 40
1.0
 40
1.0
 40
1.0
 10
98.24084585599147
 20
29.80702911736128
 30
0.0
 10
98.3152262333688
 20
29.76408558646005
 30
0.0
 10
98.40231932148437
 20
29.74012082210407
 30
0.0
 10
98.57847771036036
 20
29.73996321662928
 30
0.0
 10
98.6664387830882
 20
29.76407017379097
 30
0.0
 10
98.74084585599147
 20
29.80702911736128
 30
0.0
  0
SPLINE
  5
185
330
1F
100
AcDbEntity
  8
0
  6
Continuous
 62
     7
370
    25
100
AcDbSpline
210
0.0
220
0.0
230
1.0
 70
    24
 71
     3
 72
    16
 73
    12
 74
     0
 42
0.00000001
 43
0.00000001
 40
0.0
 40
0.0
 40
0.0
 40
0.0
 40
0.2500000000000001
 40
0.2500000000000001
 40
0.5000000000000002
 40
0.5000000000000002
 40
0.6250000000000001
 40
0.6250000000000001
 40
0.7500000000000001
 40
0.7500000000000001
 40
1.0
 40
1.0
 40
1.0
 40
1.0
 10
90.24084585599145
 20
34.42583127087829
 30
0.0
 10
90.89436263603227
 20
34.04852318200179
 30
0.0
 10
91.55258304512225
 20
33.66849945162759
 30
0.0
 10
92.88214562848803
 20
32.90087613621689
 30
0.0
 10
93.55356961055858
 20
32.5132293194281
 30
0.0
 10
94.5725706975653
 20
31.92490876754025
 30
0.0
 10
94.91391147988148
 20
31.7278355749846
 30
0.0
 10
95.58950998285194
 20
31.3377785974305
 30
0.0
 10
95.92516913281655
 20
31.14398569684246
 30
0.0
 10
96.92643476931626
 20
30.56590471207904
 30
0.0
 10
97.58634242791942
 20
30.18490684774421
 30
0.0
 10
98.24084585599147
 20
29.80702911736128
 30
0.0
  0
CIRCLE
  5
186
330
1F
100
AcDbEntity
  8
0
  6
Continuous
 62
     7
370
    25
100
AcDbCircle
 10
98.490845856
 20
39.4776461263
 30
0.0
 40
8.25
  0
SPLINE
  5
187
330
1F
100
AcDbEntity
  8
0
  6
Continuous
 62
     7
370
    25
100
AcDbSpline
210
0.0
220
0.0
230
1.0
 70
     8
 71
     3
 72
    10
 73
     6
 74
     0
 42
0.00000001
 43
0.00000001
 40
0.0
 40
0.0
 40
0.0
 40
0.0
 40
0.5
 40
0.5
 40
1.0
 40
1.0
 40
1.0
 40
1.0
 10
98.24084585599147
 20
28.15536753154771
 30
0.0
 10
98.31522060998152
 20
28.17904113603883
 30
0.0
 10
98.40231434154744
 20
28.19213391183206
 30
0.0
 10
98.57848017009188
 20
28.19222047993301
 30
0.0
 10
98.66644119398217
 20
28.17905065580972
 30
0.0
 10
98.74084585599147
 20
28.1553675315477
 30
0.0
  0
SPLINE
  5
188
330
1F
100
AcDbEntity
  8
0
  6
Continuous
 62
     7
370
    25
100
AcDbSpline
210
0.0
220
0.0
230
1.0
 70
     8
 71
     3
 72
    12
 73
     8
 74
     0
 42
0.00000001
 43
0.00000001
 40
0.0
 40
0.0
 40
0.0
 40
0.0
 40
0.2500000000000003
 40
0.2500000000000003
 40
0.5000000000000002
 40
0.5000000000000002
 40
1.0
 40
1.0
 40
1.0
 40
1.0
 10
102.7408458559915
 20
27.47764612628752
 30
0.0
 10
102.4030899209687
 20
27.47764612628751
 30
0.0
 10
102.0626819060902
 20
27.49339245630947
 30
0.0
 10
101.3881872216898
 20
27.5548374808949
 30
0.0
 10
101.0530619028225
 20
27.60042624014863
 30
0.0
 10
100.0533505844824
 20
27.77687724240523
 30
0.0
 10
99.39441648141711
 20
27.94733494436872
 30
0.0
 10
98.74084585599145
 20
28.15536753154756
 30
0.0
  0
LINE
  5
189
330
1F
100
AcDbEntity
  8
0
  6
Continuous
 62
     7
370
    25
100
AcDbLine
 10
94.240845856
 20
27.4776461263
 30
0.0
 11
102.740845856
 21
27.4776461263
 31
0.0
  0
SPLINE
  5
18A
330
1F
100
AcDbEntity
  8
0
  6
Continuous
 62
     7
370
    25
100
AcDbSpline
210
0.0
220
0.0
230
1.0
 70
     8
 71
     3
 72
    10
 73
     6
 74
     0
 42
0.00000001
 43
0.00000001
 40
0.0
 40
0.0
 40
0.0
 40
0.0
 40
0.5
 40
0.5
 40
1.0
 40
1.0
 40
1.0
 40
1.0
 10
98.24084585599152
 20
28.15536753154724
 30
0.0
 10
97.58483308938641
 20
27.94655760688098
 30
0.0
 10
96.92456618252871
 20
27.77602346713373
 30
0.0
 10
95.5922196638937
 20
27.5412376621148
 30
0.0
 10
94.92006668240636
 20
27.47764612628751
 30
0.0
 10
94.24084585599147
 20
27.47764612628751
 30
0.0
  0
LINE
  5
18B
330
1F
100
AcDbEntity
  8
0
  6
Continuous
 62
     7
370
    25
100
AcDbLine
 10
98.740845856
 20
29.8070291174
 30
0.0
 11
98.740845856
 21
28.1553675315
 31
0.0
  0
LINE
  5
18C
330
1F
100
AcDbEntity
  8
0
  6
Continuous
 62
     7
370
    25
100
AcDbLine
 10
98.240845856
 20
28.1553675315
 30
0.0
 11
98.240845856
 21
29.8070291174
 31
0.0
  0
SPLINE
  5
18D
330
1F
100
AcDbEntity
  8
0
  6
Continuous
 62
     7
370
    25
100
AcDbSpline
210
0.0
220
0.0
230
1.0
 70
     8
 71
     3
 72
    12
 73
     8
 74
     0
 42
0.00000001
 43
0.00000001
 40
0.0
 40
0.0
 40
0.0
 40
0.0
 40
0.2499999999999999
 40
0.2499999999999999
 40
0.4999999999999998
 40
0.4999999999999998
 40
1.0
 40
1.0
 40
1.0
 40
1.0
 10
102.8652759487438
 20
32.18826994165265
 30
0.0
 10
103.194410939137
 20
32.18456145579622
 30
0.0
 10
103.5238730920737
 20
32.16597895295855
 30
0.0
 10
104.1767467101314
 20
32.1011119159924
 30
0.0
 10
104.5011993020085
 20
32.05484636274213
 30
0.0
 10
105.4692597432006
 20
31.87912183243517
 30
0.0
 10
106.1075822274485
 20
31.71281842365841
 30
0.0
 10
106.7408458559915
 20
31.51124958643251
 30
0.0
  0
LINE
  5
18E
330
1F
100
AcDbEntity
  8
0
  6
Continuous
 62
     7
370
    25
100
AcDbLine
 10
106.740845856
 20
28.1553675315
 30
0.0
 11
106.740845856
 21
31.5112495864
 31
0.0
  0
SPLINE
  5
18F
330
1F
100
AcDbEntity
  8
0
  6
Continuous
 62
     7
370
    25
100
AcDbSpline
210
0.0
220
0.0
230
1.0
 70
     8
 71
     3
 72
    10
 73
     6
 74
     0
 42
0.00000001
 43
0.00000001
 40
0.0
 40
0.0
 40
0.0
 40
0.0
 40
0.5
 40
0.5
 40
1.0
 40
1.0
 40
1.0
 40
1.0
 10
106.7408458559915
 20
28.15536753154724
 30
0.0
 10
106.0848330893864
 20
27.94655760688098
 30
0.0
 10
105.4245661825287
 20
27.77602346713373
 30
0.0
 10
104.0922196638937
 20
27.5412376621148
 30
0.0
 10
103.4200666824064
 20
27.47764612628751
 30
0.0
 10
102.7408458559915
 20
27.47764612628752
 30
0.0
  0
SPLINE
  5
190
330
1F
100
AcDbEntity
  8
0
  6
Continuous
 62
     7
370
    25
100
AcDbSpline
210
0.0
220
0.0
230
1.0
 70
     8
 71
     3
 72
    12
 73
     8
 74
     0
 42
0.00000001
 43
0.00000001
 40
0.0
 40
0.0
 40
0.0
 40
0.0
 40
0.2499999999999998
 40
0.2499999999999998
 40
0.4999999999999996
 40
0.4999999999999996
 40
1.0
 40
1.0
 40
1.0
 40
1.0
 10
94.24084585599147
 20
27.47764612628751
 30
0.0
 10
93.90308992096868
 20
27.47764612628751
 30
0.0
 10
93.56268190609018
 20
27.49339245630947
 30
0.0
 10
92.88818722168978
 20
27.5548374808949
 30
0.0
 10
92.55306190282253
 20
27.60042624014863
 30
0.0
 10
91.55335058448239
 20
27.77687724240523
 30
0.0
 10
90.89441648141711
 20
27.94733494436872
 30
0.0
 10
90.24084585599144
 20
28.15536753154756
 30
0.0
  0
LINE
  5
191
330
1F
100
AcDbEntity
  8
0
  6
Continuous
 62
     7
370
    25
100
AcDbLine
 10
90.240845856
 20
31.5112495864
 30
0.0
 11
90.240845856
 21
28.1553675315
 31
0.0
  0
SPLINE
  5
192
330
1F
100
AcDbEntity
  8
0
  6
Continuous
 62
     7
370
    25
100
AcDbSpline
210
0.0
220
0.0
230
1.0
 70
     8
 71
     3
 72
    10
 73
     6
 74
     0
 42
0.00000001
 43
0.00000001
 40
0.0
 40
0.0
 40
0.0
 40
0.0
 40
0.5
 40
0.5
 40
1.0
 40
1.0
 40
1.0
 40
1.0
 10
90.24084585599195
 20
31.51124958643267
 30
0.0
 10
90.8756735618056
 20
31.71331627198359
 30
0.0
 10
91.51493926438137
 20
31.87970904425423
 30
0.0
 10
92.80575419597126
 20
32.11375601812428
 30
0.0
 10
93.45737383144109
 20
32.18084427208311
 30
0.0
 10
94.11641576326119
 20
32.1882699416529
 30
0.0
  0
SPLINE
  5
193
330
1F
100
AcDbEntity
  8
0
  6
Continuous
 62
     7
370
    25
100
AcDbSpline
210
0.0
220
0.0
230
1.0
 70
     8
 71
     3
 72
    10
 73
     6
 74
     0
 42
0.00000001
 43
0.00000001
 40
0.0
 40
0.0
 40
0.0
 40
0.0
 40
0.5
 40
0.5
 40
1.0
 40
1.0
 40
1.0
 40
1.0
 10
106.7408458559915
 20
28.15536753154771
 30
0.0
 10
106.815216322917
 20
28.17903977145927
 30
0.0
 10
106.8795219192049
 20
28.19213376139453
 30
0.0
 10
106.9677447070107
 20
28.19222062885597
 30
0.0
 10
106.9908458559915
 20
28.17905083909661
 30
0.0
 10
106.9908458559915
 20
28.1553675315477
 30
0.0
  0
LINE
  5
194
330
1F
100
AcDbEntity
  8
0
  6
Continuous
 62
     7
370
    25
100
AcDbLine
 10
102.740845856
 20
27.4776461263
 30
0.0
 11
106.990845856
 21
27.4776461263
 31
0.0
  0
SPLINE
  5
195
330
1F
100
AcDbEntity
  8
0
  6
Continuous
 62
     7
370
    25
100
AcDbSpline
210
0.0
220
0.0
230
1.0
 70
    24
 71
     3
 72
    10
 73
     6
 74
     0
 42
0.00000001
 43
0.00000001
 40
0.0
 40
0.0
 40
0.0
 40
0.0
 40
0.4999999999999999
 40
0.4999999999999999
 40
1.0
 40
1.0
 40
1.0
 40
1.0
 10
106.9908458559915
 20
27.47764612628752
 30
0.0
 10
106.9908458559915
 20
27.47764612628752
 30
0.0
 10
106.9908458559915
 20
27.53993048826604
 30
0.0
 10
106.9908458559915
 20
27.77477860627306
 30
0.0
 10
106.9908458559915
 20
27.94802121340426
 30
0.0
 10
106.9908458559915
 20
28.15536753154771
 30
0.0
  0
SPLINE
  5
196
330
1F
100
AcDbEntity
  8
0
  6
Continuous
 62
     7
370
    25
100
AcDbSpline
210
0.0
220
0.0
230
1.0
 70
     8
 71
     3
 72
    10
 73
     6
 74
     0
 42
0.00000001
 43
0.00000001
 40
0.0
 40
0.0
 40
0.0
 40
0.0
 40
0.5
 40
0.5
 40
1.0
 40
1.0
 40
1.0
 40
1.0
 10
89.99084585599145
 20
28.1553675315477
 30
0.0
 10
89.99084585599145
 20
28.17904143210365
 30
0.0
 10
90.0136364276389
 20
28.19213398928279
 30
0.0
 10
90.1015824249377
 20
28.19222040326508
 30
0.0
 10
90.1664432176705
 20
28.17905001166645
 30
0.0
 10
90.24084585599145
 20
28.1553675315477
 30
0.0
  0
LINE
  5
197
330
1F
100
AcDbEntity
  8
0
  6
Continuous
 62
     7
370
    25
100
AcDbLine
 10
89.990845856
 20
27.4776461263
 30
0.0
 11
94.240845856
 21
27.4776461263
 31
0.0
  0
SPLINE
  5
198
330
1F
100
AcDbEntity
  8
0
  6
Continuous
 62
     7
370
    25
100
AcDbSpline
210
0.0
220
0.0
230
1.0
 70
    24
 71
     3
 72
    10
 73
     6
 74
     0
 42
0.00000001
 43
0.00000001
 40
0.0
 40
0.0
 40
0.0
 40
0.0
 40
0.5
 40
0.5
 40
1.0
 40
1.0
 40
1.0
 40
1.0
 10
89.99084585599145
 20
27.47764612628752
 30
0.0
 10
89.99084585599145
 20
27.47764612628752
 30
0.0
 10
89.99084585599145
 20
27.53993048826604
 30
0.0
 10
89.99084585599145
 20
27.77477860627306
 30
0.0
 10
89.99084585599145
 20
27.94802121340426
 30
0.0
 10
89.99084585599145
 20
28.1553675315477
 30
0.0
  0
SPLINE
  5
199
330
1F
100
AcDbEntity
  8
0
  6
Continuous
 62
     7
370
    25
100
AcDbSpline
210
0.0
220
0.0
230
1.0
 70
     8
 71
     3
 72
     8
 73
     4
 74
     0
 42
0.00000001
 43
0.00000001
 40
0.0
 40
0.0
 40
0.0
 40
0.0
 40
1.0
 40
1.0
 40
1.0
 40
1.0
 10
89.99084585599145
 20
31.67273491471353
 30
0.0
 10
90.51265200729328
 20
31.94532505038288
 30
0.0
 10
91.03630547614948
 20
32.21447755150428
 30
0.0
 10
91.56264262571595
 20
32.47764612628752
 30
0.0
  0
SPLINE
  5
19A
330
1F
100
AcDbEntity
  8
0
  6
Continuous
 62
     7
370
    25
100
AcDbSpline
210
0.0
220
0.0
230
1.0
 70
     8
 71
     3
 72
    10
 73
     6
 74
     0
 42
0.00000001
 43
0.00000001
 40
0.0
 40
0.0
 40
0.0
 40
0.0
 40
0.5
 40
0.5
 40
1.0
 40
1.0
 40
1.0
 40
1.0
 10
89.99084585599145
 20
31.51124958643249
 30
0.0
 10
89.99084585599145
 20
31.48757419200808
 30
0.0
 10
90.01363830532131
 20
31.47448308212345
 30
0.0
 10
90.10158100941456
 20
31.47439676083523
 30
0.0
 10
90.16643878308874
 20
31.48756569477917
 30
0.0
 10
90.24084585599213
 20
31.51124958643273
 30
0.0
  0
SPLINE
  5
19B
330
1F
100
AcDbEntity
  8
0
  6
Continuous
 62
     7
370
    25
100
AcDbSpline
210
0.0
220
0.0
230
1.0
 70
    24
 71
     3
 72
     8
 73
     4
 74
     0
 42
0.00000001
 43
0.00000001
 40
0.0
 40
0.0
 40
0.0
 40
0.0
 40
1.0
 40
1.0
 40
1.0
 40
1.0
 10
89.99084585599145
 20
31.67273491471353
 30
0.0
 10
89.99084585599145
 20
31.62184012501271
 30
0.0
 10
89.99084585599145
 20
31.56790627565126
 30
0.0
 10
89.99084585599145
 20
31.51124958643251
 30
0.0
  0
SPLINE
  5
19C
330
1F
100
AcDbEntity
  8
0
  6
Continuous
 62
     7
370
    25
100
AcDbSpline
210
0.0
220
0.0
230
1.0
 70
     8
 71
     3
 72
     8
 73
     4
 74
     0
 42
0.00000001
 43
0.00000001
 40
0.0
 40
0.0
 40
0.0
 40
0.0
 40
1.0
 40
1.0
 40
1.0
 40
1.0
 10
105.419049086267
 20
32.47764612628751
 30
0.0
 10
105.9454699474762
 20
32.21443569568291
 30
0.0
 10
106.4690144041899
 20
31.9453382672962
 30
0.0
 10
106.9908458559915
 20
31.67273491471355
 30
0.0
  0
SPLINE
  5
19D
330
1F
100
AcDbEntity
  8
0
  6
Continuous
 62
     7
370
    25
100
AcDbSpline
210
0.0
220
0.0
230
1.0
 70
     8
 71
     3
 72
    10
 73
     6
 74
     0
 42
0.00000001
 43
0.00000001
 40
0.0
 40
0.0
 40
0.0
 40
0.0
 40
0.5
 40
0.5
 40
1.0
 40
1.0
 40
1.0
 40
1.0
 10
106.7408458559915
 20
31.51124958643251
 30
0.0
 10
106.8152262333688
 20
31.48757419200812
 30
0.0
 10
106.8795268721546
 20
31.47448308212349
 30
0.0
 10
106.9677425569375
 20
31.4743967608352
 30
0.0
 10
106.9908458559915
 20
31.48756569477904
 30
0.0
 10
106.9908458559915
 20
31.51124958643251
 30
0.0
  0
SPLINE
  5
19E
330
1F
100
AcDbEntity
  8
0
  6
Continuous
 62
     7
370
    25
100
AcDbSpline
210
0.0
220
0.0
230
1.0
 70
    24
 71
     3
 72
     8
 73
     4
 74
     0
 42
0.00000001
 43
0.00000001
 40
0.0
 40
0.0
 40
0.0
 40
0.0
 40
1.0
 40
1.0
 40
1.0
 40
1.0
 10
106.9908458559915
 20
31.67273491471353
 30
0.0
 10
106.9908458559915
 20
31.62184012501271
 30
0.0
 10
106.9908458559915
 20
31.56790627565126
 30
0.0
 10
106.9908458559915
 20
31.51124958643251
 30
0.0
  0
LINE
  5
19F
330
1F
100
AcDbEntity
  8
0
  6
Continuous
 62
     7
370
    25
100
AcDbLine
 10
90.990845856
 20
32.4776461263
 30
0.0
 11
93.615201509
 21
32.4776461263
 31
0.0
  0
LINE
  5
1A0
330
1F
100
AcDbEntity
  8
0
  6
Continuous
 62
     7
370
    25
100
AcDbLine
 10
90.990845856
 20
32.4776461263
 30
0.0
 11
90.990845856
 21
33.992818569
 31
0.0
  0
LINE
  5
1A1
330
1F
100
AcDbEntity
  8
0
  6
Continuous
 62
     7
370
    25
100
AcDbLine
 10
105.990845856
 20
33.992818569
 30
0.0
 11
105.990845856
 21
32.4776461263
 31
0.0
  0
LINE
  5
1A2
330
1F
100
AcDbEntity
  8
0
  6
Continuous
 62
     7
370
    25
100
AcDbLine
 10
103.366490203
 20
32.4776461263
 30
0.0
 11
105.990845856
 21
32.4776461263
 31
0.0
  0
LINE
  5
1A3
330
1F
100
AcDbEntity
  8
0
  6
Continuous
 62
     7
370
    25
100
AcDbLine
 10
98.490845856
 20
18.0813120001
 30
0.0
 11
104.9553979145
 21
18.0813120001
 31
0.0
  0
LINE
  5
1A4
330
1F
100
AcDbEntity
  8
0
  6
Continuous
 62
     7
370
    25
100
AcDbLine
 10
92.0262937974
 20
18.0813120001
 30
0.0
 11
98.490845856
 21
18.0813120001
 31
0.0
  0
LINE
  5
1A5
330
1F
100
AcDbEntity
  8
0
  6
Continuous
 62
     7
370
    25
100
AcDbLine
 10
103.740845856
 20
15.9776461263
 30
0.0
 11
93.240845856
 21
15.9776461263
 31
0.0
  0
LINE
  5
1A6
330
1F
100
AcDbEntity
  8
0
  6
Continuous
 62
     7
370
    25
100
AcDbLine
 10
89.990845856
 20
28.1553675315
 30
0.0
 11
89.990845856
 21
31.5112495864
 31
0.0
  0
LINE
  5
1A7
330
1F
100
AcDbEntity
  8
0
  6
Continuous
 62
     7
370
    25
100
AcDbLine
 10
106.990845856
 20
31.5112495864
 30
0.0
 11
106.990845856
 21
28.1553675315
 31
0.0
  0
LINE
  5
1A8
330
1F
100
AcDbEntity
  8
0
  6
Continuous
 62
     7
370
    25
100
AcDbLine
 10
89.990845856
 20
31.6727349147
 30
0.0
 11
89.990845856
 21
34.8160899781
 31
0.0
  0
LINE
  5
1A9
330
1F
100
AcDbEntity
  8
0
  6
Continuous
 62
     7
370
    25
100
AcDbLine
 10
106.990845856
 20
31.6727349147
 30
0.0
 11
106.990845856
 21
34.8160899781
 31
0.0
  0
LINE
  5
1AA
330
1F
100
AcDbEntity
  8
0
  6
Continuous
 62
     7
370
    25
100
AcDbLine
 10
99.740845856
 20
66.5776461263
 30
0.0
 11
99.740845856
 21
66.8276461263
 31
0.0
  0
LINE
  5
1AB
330
1F
100
AcDbEntity
  8
0
  6
Continuous
 62
     7
370
    25
100
AcDbLine
 10
99.740845856
 20
66.5776461263
 30
0.0
 11
97.240845856
 21
66.5776461263
 31
0.0
  0
LINE
  5
1AC
330
1F
100
AcDbEntity
  8
0
  6
Continuous
 62
     7
370
    25
100
AcDbLine
 10
97.240845856
 20
66.8276461263
 30
0.0
 11
97.240845856
 21
66.5776461263
 31
0.0
  0
LINE
  5
1AD
330
1F
100
AcDbEntity
  8
0
  6
Continuous
 62
     7
370
    25
100
AcDbLine
 10
97.240845856
 20
66.8276461263
 30
0.0
 11
99.740845856
 21
66.8276461263
 31
0.0
  0
ARC
  5
1AE
330
1F
100
AcDbEntity
  8
0
  6
Continuous
 62
     7
370
    25
100
AcDbCircle
 10
99.740845856
 20
66.5776461263
 30
0.0
 40
0.25
100
AcDbArc
 50
0.0
 51
90.0
  0
LINE
  5
1AF
330
1F
100
AcDbEntity
  8
0
  6
Continuous
 62
     7
370
    25
100
AcDbLine
 10
99.740845856
 20
66.5776461263
 30
0.0
 11
99.990845856
 21
66.5776461263
 31
0.0
  0
LINE
  5
1B0
330
1F
100
AcDbEntity
  8
0
  6
Continuous
 62
     7
370
    25
100
AcDbLine
 10
96.990845856
 20
65.9776461263
 30
0.0
 11
96.990845856
 21
66.5776461263
 31
0.0
  0
LINE
  5
1B1
330
1F
100
AcDbEntity
  8
0
  6
Continuous
 62
     7
370
    25
100
AcDbLine
 10
96.990845856
 20
66.5776461263
 30
0.0
 11
97.240845856
 21
66.5776461263
 31
0.0
  0
LINE
  5
1B2
330
1F
100
AcDbEntity
  8
0
  6
Continuous
 62
     7
370
    25
100
AcDbLine
 10
97.240845856
 20
66.5776461263
 30
0.0
 11
97.240845856
 21
65.9776461263
 31
0.0
  0
LINE
  5
1B3
330
1F
100
AcDbEntity
  8
0
  6
Continuous
 62
     7
370
    25
100
AcDbLine
 10
97.240845856
 20
65.9776461263
 30
0.0
 11
96.990845856
 21
65.9776461263
 31
0.0
  0
ARC
  5
1B4
330
1F
100
AcDbEntity
  8
0
  6
Continuous
 62
     7
370
    25
100
AcDbCircle
 10
97.240845856
 20
66.5776461263
 30
0.0
 40
0.25
100
AcDbArc
 50
90.0
 51
180.0
  0
LINE
  5
1B5
330
1F
100
AcDbEntity
  8
0
  6
Continuous
 62
     7
370
    25
100
AcDbLine
 10
99.740845856
 20
65.9776461263
 30
0.0
 11
99.740845856
 21
66.5776461263
 31
0.0
  0
LINE
  5
1B6
330
1F
100
AcDbEntity
  8
0
  6
Continuous
 62
     7
370
    25
100
AcDbLine
 10
99.990845856
 20
66.5776461263
 30
0.0
 11
99.990845856
 21
65.9776461263
 31
0.0
  0
LINE
  5
1B7
330
1F
100
AcDbEntity
  8
0
  6
Continuous
 62
     7
370
    25
100
AcDbLine
 10
99.990845856
 20
65.9776461263
 30
0.0
 11
99.740845856
 21
65.9776461263
 31
0.0
  0
LINE
  5
1B8
330
1F
100
AcDbEntity
  8
0
  6
Continuous
 62
     7
370
    25
100
AcDbLine
 10
99.740845856
 20
65.9776461263
 30
0.0
 11
97.240845856
 21
65.9776461263
 31
0.0
  0
SPLINE
  5
1B9
330
1F
100
AcDbEntity
  8
0
  6
Continuous
 62
     7
370
    25
100
AcDbSpline
210
0.0
220
0.0
230
1.0
 70
     8
 71
     3
 72
    15
 73
    11
 74
     0
 42
0.00000001
 43
0.00000001
 40
0.0
 40
0.0
 40
0.0
 40
0.0
 40
0.0081667445812973
 40
0.3321939991490804
 40
0.475627960058556
 40
0.6866830973284891
 40
0.8457435502264751
 40
0.8967566214763124
 40
0.9909540928118028
 40
1.0
 40
1.0
 40
1.0
 40
1.0
 10
99.74084585599147
 20
66.82764612628752
 30
0.0
 10
99.74228331893049
 20
66.82764344994173
 30
0.0
 10
99.80075417688249
 20
66.82753458575495
 30
0.0
 10
99.88517935460165
 20
66.81798857348551
 30
0.0
 10
99.99975842662414
 20
66.78062619023095
 30
0.0
 10
100.0811293138207
 20
66.73576067549628
 30
0.0
 10
100.1341483058224
 20
66.67788437591938
 30
0.0
 10
100.1583502376665
 20
66.62720833594744
 30
0.0
 10
100.1645398583327
 20
66.59851405642745
 30
0.0
 10
100.1647412537453
 20
66.57932722487193
 30
0.0
 10
100.1647588994697
 20
66.57764612628753
 30
0.0
  0
LINE
  5
1BA
330
1F
100
AcDbEntity
  8
0
  6
Continuous
 62
     7
370
    25
100
AcDbLine
 10
99.990845856
 20
66.5776461263
 30
0.0
 11
100.1647588995
 21
66.5776461263
 31
0.0
  0
LINE
  5
1BB
330
1F
100
AcDbEntity
  8
0
  6
Continuous
 62
     7
370
    25
100
AcDbLine
 10
96.8169328125
 20
66.5776461263
 30
0.0
 11
96.990845856
 21
66.5776461263
 31
0.0
  0
SPLINE
  5
1BC
330
1F
100
AcDbEntity
  8
0
  6
Continuous
 62
     7
370
    25
100
AcDbSpline
210
0.0
220
0.0
230
1.0
 70
     8
 71
     3
 72
    15
 73
    11
 74
     0
 42
0.00000001
 43
0.00000001
 40
0.0
 40
0.0
 40
0.0
 40
0.0
 40
0.0090459071881971
 40
0.1032433785236874
 40
0.1542564497735246
 40
0.313316902671511
 40
0.5243720399414428
 40
0.6678060008509903
 40
0.9918332554187292
 40
1.0
 40
1.0
 40
1.0
 40
1.0
 10
96.8169328125132
 20
66.57764612628752
 30
0.0
 10
96.81695045823767
 20
66.57932722487193
 30
0.0
 10
96.81715185365023
 20
66.59851405642748
 30
0.0
 10
96.82334147431641
 20
66.62720833594743
 30
0.0
 10
96.84754340616055
 20
66.6778843759194
 30
0.0
 10
96.90056239816222
 20
66.73576067549627
 30
0.0
 10
96.9819332853588
 20
66.78062619023095
 30
0.0
 10
97.09651235738126
 20
66.81798857348551
 30
0.0
 10
97.18093753510074
 20
66.82753458575495
 30
0.0
 10
97.23940839305246
 20
66.82764344994175
 30
0.0
 10
97.24084585599147
 20
66.82764612628752
 30
0.0
  0
LINE
  5
1BD
330
1F
100
AcDbEntity
  8
0
  6
Continuous
 62
     7
370
    25
100
AcDbLine
 10
96.8169328125
 20
65.9776461263
 30
0.0
 11
96.8169328125
 21
66.5776461263
 31
0.0
  0
LINE
  5
1BE
330
1F
100
AcDbEntity
  8
0
  6
Continuous
 62
     7
370
    25
100
AcDbLine
 10
96.990845856
 20
65.9776461263
 30
0.0
 11
96.8169328125
 21
65.9776461263
 31
0.0
  0
LINE
  5
1BF
330
1F
100
AcDbEntity
  8
0
  6
Continuous
 62
     7
370
    25
100
AcDbLine
 10
100.1647588995
 20
66.5776461263
 30
0.0
 11
100.1647588995
 21
65.9776461263
 31
0.0
  0
LINE
  5
1C0
330
1F
100
AcDbEntity
  8
0
  6
Continuous
 62
     7
370
    25
100
AcDbLine
 10
100.1647588995
 20
65.9776461263
 30
0.0
 11
99.990845856
 21
65.9776461263
 31
0.0
  0
LINE
  5
1C1
330
1F
100
AcDbEntity
  8
0
  6
Continuous
 62
     7
370
    25
100
AcDbLine
 10
99.740845856
 20
66.8276461263
 30
0.0
 11
103.740845856
 21
66.8276461263
 31
0.0
  0
LINE
  5
1C2
330
1F
100
AcDbEntity
  8
0
  6
Continuous
 62
     7
370
    25
100
AcDbLine
 10
93.240845856
 20
66.8276461263
 30
0.0
 11
97.240845856
 21
66.8276461263
 31
0.0
  0
LINE
  5
1C3
330
1F
100
AcDbEntity
  8
0
  6
Continuous
 62
     7
370
    25
100
AcDbLine
 10
92.990845856
 20
65.9776461263
 30
0.0
 11
96.8169328125
 21
65.9776461263
 31
0.0
  0
LINE
  5
1C4
330
1F
100
AcDbEntity
  8
0
  6
Continuous
 62
     7
370
    25
100
AcDbLine
 10
100.1647588995
 20
65.9776461263
 30
0.0
 11
103.990845856
 21
65.9776461263
 31
0.0
  0
LINE
  5
1C5
330
1F
100
AcDbEntity
  8
0
  6
Continuous
 62
     7
370
    25
100
AcDbLine
 10
97.890845856
 20
66.8276461263
 30
0.0
 11
97.890845856
 21
66.8376461263
 31
0.0
  0
LINE
  5
1C6
330
1F
100
AcDbEntity
  8
0
  6
Continuous
 62
     7
370
    25
100
AcDbLine
 10
99.090845856
 20
66.8276461263
 30
0.0
 11
99.090845856
 21
66.8376461263
 31
0.0
  0
LINE
  5
1C7
330
1F
100
AcDbEntity
  8
0
  6
Continuous
 62
     7
370
    25
100
AcDbLine
 10
97.890845856
 20
66.8376461263
 30
0.0
 11
99.090845856
 21
66.8376461263
 31
0.0
  0
LINE
  5
1C8
330
1F
100
AcDbEntity
  8
0
  6
Continuous
 62
     7
370
    25
100
AcDbLine
 10
91.040845856
 20
57.9776461263
 30
0.0
 11
105.940845856
 21
57.9776461263
 31
0.0
  0
LINE
  5
1C9
330
1F
100
AcDbEntity
  8
0
  6
Continuous
 62
     7
370
    25
100
AcDbLine
 10
91.490845856
 20
49.9776461263
 30
0.0
 11
105.490845856
 21
49.9776461263
 31
0.0
  0
LINE
  5
1CA
330
1F
100
AcDbEntity
  8
0
  6
Continuous
 62
     7
370
    25
100
AcDbLine
 10
94.990845856
 20
67.9776461263
 30
0.0
 11
94.990845856
 21
66.8276461263
 31
0.0
  0
LINE
  5
1CB
330
1F
100
AcDbEntity
  8
0
  6
Continuous
 62
     7
370
    25
100
AcDbLine
 10
94.990845856
 20
67.9776461263
 30
0.0
 11
95.2191465919
 21
67.9776461263
 31
0.0
  0
LINE
  5
1CC
330
1F
100
AcDbEntity
  8
0
  6
Continuous
 62
     7
370
    25
100
AcDbLine
 10
95.2191465919
 20
67.9776461263
 30
0.0
 11
95.2191465919
 21
66.8276461263
 31
0.0
  0
LINE
  5
1CD
330
1F
100
AcDbEntity
  8
0
  6
Continuous
 62
     7
370
    25
100
AcDbLine
 10
101.76254512
 20
67.9776461263
 30
0.0
 11
101.76254512
 21
66.8276461263
 31
0.0
  0
LINE
  5
1CE
330
1F
100
AcDbEntity
  8
0
  6
Continuous
 62
     7
370
    25
100
AcDbLine
 10
101.76254512
 20
67.9776461263
 30
0.0
 11
101.990845856
 21
67.9776461263
 31
0.0
  0
LINE
  5
1CF
330
1F
100
AcDbEntity
  8
0
  6
Continuous
 62
     7
370
    25
100
AcDbLine
 10
101.990845856
 20
66.8276461263
 30
0.0
 11
101.990845856
 21
67.9776461263
 31
0.0
  0
LINE
  5
1D0
330
1F
100
AcDbEntity
  8
0
  6
Continuous
 62
     7
370
    25
100
AcDbLine
 10
95.2191465919
 20
67.9776461263
 30
0.0
 11
101.76254512
 21
67.9776461263
 31
0.0
  0
SPLINE
  5
1D1
330
1F
100
AcDbEntity
  8
0
  6
Continuous
 62
     7
370
    25
100
AcDbSpline
210
0.0
220
0.0
230
1.0
 70
     8
 71
     3
 72
    19
 73
    15
 74
     0
 42
0.00000001
 43
0.00000001
 40
0.0
 40
0.0
 40
0.0
 40
0.0
 40
0.0167443253077145
 40
0.0954634940458655
 40
0.1742873090617962
 40
0.279909705783873
 40
0.3857277422410935
 40
0.4988142194004482
 40
0.6118821811708386
 40
0.7070645793534116
 40
0.8021727741776358
 40
0.8927525227676486
 40
0.983257623709805
 40
1.0
 40
1.0
 40
1.0
 40
1.0
 10
92.59848106945527
 20
46.01703949917731
 30
0.0
 10
92.59596056785776
 20
46.01391107945729
 30
0.0
 10
92.58159057176496
 20
45.99607519345849
 30
0.0
 10
92.64503599311072
 20
46.0751382794254
 30
0.0
 10
92.80013733228972
 20
46.25961747019848
 30
0.0
 10
93.08843648045779
 20
46.5795984231622
 30
0.0
 10
93.52086991949086
 20
47.00404609336697
 30
0.0
 10
94.07530281210187
 20
47.46671084331519
 30
0.0
 10
94.71819833023977
 20
47.90719079299252
 30
0.0
 10
95.41763526349496
 20
48.28525173686896
 30
0.0
 10
96.13963558146756
 20
48.58847526426324
 30
0.0
 10
96.91735497125802
 20
48.8068743830874
 30
0.0
 10
97.5054034439021
 20
48.92827414272356
 30
0.0
 10
97.83499362241945
 20
48.9415739700766
 30
0.0
 10
97.88644586104259
 20
48.94365020272922
 30
0.0
  0
SPLINE
  5
1D2
330
1F
100
AcDbEntity
  8
0
  6
Continuous
 62
     7
370
    25
100
AcDbSpline
210
0.0
220
0.0
230
1.0
 70
     8
 71
     3
 72
    19
 73
    15
 74
     0
 42
0.00000001
 43
0.00000001
 40
0.0
 40
0.0
 40
0.0
 40
0.0
 40
0.0313541983615983
 40
0.0973968986100722
 40
0.1974105498213643
 40
0.2975364665175326
 40
0.4181241990449615
 40
0.5388083744099919
 40
0.6564395645295199
 40
0.7739043601099003
 40
0.8504390188503478
 40
0.926872967993711
 40
0.996739946191542
 40
1.0
 40
1.0
 40
1.0
 40
1.0
 10
99.10304306593254
 20
48.93914847855454
 30
0.0
 10
99.19891498755506
 20
48.9339284390222
 30
0.0
 10
99.49672607244176
 20
48.91771320509373
 30
0.0
 10
100.0796114743962
 20
48.80334074021537
 30
0.0
 10
100.8288558128742
 20
48.59406823469436
 30
0.0
 10
101.649320538477
 20
48.24974634239759
 30
0.0
 10
102.4164672252898
 20
47.81414730045157
 30
0.0
 10
103.097757817625
 20
47.31874840867551
 30
0.0
 10
103.6484679215624
 20
46.82835236457041
 30
0.0
 10
104.0172054492817
 20
46.44539637466767
 30
0.0
 10
104.2452308513792
 20
46.18464438650601
 30
0.0
 10
104.3563365812959
 20
46.05018777449681
 30
0.0
 10
104.400312899244
 20
45.9962897878152
 30
0.0
 10
104.3893880276564
 20
46.00962306748558
 30
0.0
 10
104.3889009893035
 20
46.01021747434138
 30
0.0
  0
LINE
  5
1D3
330
1F
100
AcDbEntity
  8
0
  6
Continuous
 62
     7
370
    25
100
AcDbLine
 10
103.990845856
 20
66.5776461263
 30
0.0
 11
100.1647588995
 21
66.5776461263
 31
0.0
  0
LINE
  5
1D4
330
1F
100
AcDbEntity
  8
0
  6
Continuous
 62
     7
370
    25
100
AcDbLine
 10
96.8169328125
 20
66.5776461263
 30
0.0
 11
92.990845856
 21
66.5776461263
 31
0.0
  0
INSERT
  5
1E0
330
1F
100
AcDbEntity
  8
0
  6
Continuous
 62
     7
370
    18
100
AcDbBlockReference
  2
SW_CENTERMARKSYMBOL_0
 10
98.490845856
 20
39.4776461263
 30
0.0
  0
LINE
  5
1E1
330
1F
100
AcDbEntity
  8
0
  6
Continuous
 62
     7
370
    18
100
AcDbLine
 10
92.424595856
 20
26.9776461263
 30
0.0
 11
92.7413075522
 21
16.8428718488
 31
0.0
  0
LINE
  5
1E2
330
1F
100
AcDbEntity
  8
0
  6
Continuous
 62
     7
370
    18
100
AcDbLine
 10
104.2403841598
 20
16.8428718488
 30
0.0
 11
104.557095856
 21
26.9776461263
 31
0.0
  0
LINE
  5
1E3
330
1F
100
AcDbEntity
  8
0
  6
Continuous
 62
     7
370
    25
100
AcDbLine
 10
37.2456271039
 20
91.724961957
 30
0.0
 11
37.3899646712
 21
91.974961957
 31
0.0
  0
LINE
  5
1E4
330
1F
100
AcDbEntity
  8
0
  6
Continuous
 62
     7
370
    25
100
AcDbLine
 10
37.3899646712
 20
108.474961957
 30
0.0
 11
37.2456271039
 21
108.724961957
 31
0.0
  0
LINE
  5
1E5
330
1F
100
AcDbEntity
  8
0
  6
Continuous
 62
     7
370
    25
100
AcDbLine
 10
24.5343022385
 20
108.724961957
 30
0.0
 11
24.3899646712
 21
108.474961957
 31
0.0
  0
LINE
  5
1E6
330
1F
100
AcDbEntity
  8
0
  6
Continuous
 62
     7
370
    25
100
AcDbLine
 10
24.3899646712
 20
91.974961957
 30
0.0
 11
24.5343022385
 21
91.724961957
 31
0.0
  0
LINE
  5
1E7
330
1F
100
AcDbEntity
  8
0
  6
Continuous
 62
     7
370
    25
100
AcDbLine
 10
44.3284910003
 20
108.224961957
 30
0.0
 11
41.5784910003
 21
108.224961957
 31
0.0
  0
LINE
  5
1E8
330
1F
100
AcDbEntity
  8
0
  6
Continuous
 62
     7
370
    25
100
AcDbLine
 10
41.5784910003
 20
92.224961957
 30
0.0
 11
44.3284910003
 21
92.224961957
 31
0.0
  0
LINE
  5
1E9
330
1F
100
AcDbEntity
  8
0
  6
Continuous
 62
     7
370
    25
100
AcDbLine
 10
41.5784910003
 20
108.224961957
 30
0.0
 11
41.3784910003
 21
108.024961957
 31
0.0
  0
LINE
  5
1EA
330
1F
100
AcDbEntity
  8
0
  6
Continuous
 62
     7
370
    25
100
AcDbLine
 10
41.3784910003
 20
92.424961957
 30
0.0
 11
41.5784910003
 21
92.224961957
 31
0.0
  0
LINE
  5
1EB
330
1F
100
AcDbEntity
  8
0
  6
Continuous
 62
     7
370
    25
100
AcDbLine
 10
41.3784910003
 20
106.803461957
 30
0.0
 11
37.3899646712
 21
106.803461957
 31
0.0
  0
LINE
  5
1EC
330
1F
100
AcDbEntity
  8
0
  6
Continuous
 62
     7
370
    25
100
AcDbLine
 10
37.3899646712
 20
93.646461957
 30
0.0
 11
41.3784910003
 21
93.646461957
 31
0.0
  0
LINE
  5
1ED
330
1F
100
AcDbEntity
  8
0
  6
Continuous
 62
     7
370
    25
100
AcDbLine
 10
67.684153433
 20
91.724961957
 30
0.0
 11
67.8284910003
 21
91.974961957
 31
0.0
  0
LINE
  5
1EE
330
1F
100
AcDbEntity
  8
0
  6
Continuous
 62
     7
370
    25
100
AcDbLine
 10
67.8284910003
 20
108.474961957
 30
0.0
 11
67.684153433
 21
108.724961957
 31
0.0
  0
SPLINE
  5
1EF
330
1F
100
AcDbEntity
  8
0
  6
Continuous
 62
     7
370
    25
100
AcDbSpline
210
0.0
220
0.0
230
1.0
 70
    24
 71
     3
 72
    12
 73
     8
 74
     0
 42
0.00000001
 43
0.00000001
 40
0.0
 40
0.0
 40
0.0
 40
0.0
 40
0.0089643896715375
 40
0.2601399461069345
 40
0.5180103875717744
 40
0.775952568550758
 40
1.0
 40
1.0
 40
1.0
 40
1.0
 10
37.24336060481921
 20
91.72496195700859
 30
0.0
 10
37.24395746593863
 20
91.72496195700859
 30
0.0
 10
37.26127793338
 20
91.72496195700857
 30
0.0
 10
37.19817544066293
 20
91.72496195700859
 30
0.0
 10
37.04291480626369
 20
91.7249619570086
 30
0.0
 10
36.79692743705854
 20
91.7249619570086
 30
0.0
 10
36.58496573180053
 20
91.7249619570086
 30
0.0
 10
36.48643772537854
 20
91.7249619570086
 30
0.0
  0
SPLINE
  5
1F0
330
1F
100
AcDbEntity
  8
0
  6
Continuous
 62
     7
370
    25
100
AcDbSpline
210
0.0
220
0.0
230
1.0
 70
     8
 71
     3
 72
    12
 73
     8
 74
     0
 42
0.00000001
 43
0.00000001
 40
0.0
 40
0.0
 40
0.0
 40
0.0
 40
0.2313121818999152
 40
0.4625589636243013
 40
0.6989788266033208
 40
0.9353560267680664
 40
1.0
 40
1.0
 40
1.0
 40
1.0
 10
36.48643772537854
 20
91.7249619570086
 30
0.0
 10
36.60190496434508
 20
92.09219066256676
 30
0.0
 10
36.83280679558555
 20
92.82654424507535
 30
0.0
 10
37.08302135411049
 20
93.95747672985635
 30
0.0
 10
37.22651110538452
 20
95.10934900700471
 30
0.0
 10
37.26725077957526
 20
95.9954060912159
 30
0.0
 10
37.22718471251878
 20
96.48948827133331
 30
0.0
 10
37.21858056771035
 20
96.5955918881171
 30
0.0
  0
SPLINE
  5
1F1
330
1F
100
AcDbEntity
  8
0
  6
Continuous
 62
     7
370
    25
100
AcDbSpline
210
0.0
220
0.0
230
1.0
 70
     8
 71
     3
 72
    11
 73
     7
 74
     0
 42
0.00000001
 43
0.00000001
 40
0.0
 40
0.0
 40
0.0
 40
0.0
 40
0.1877098672487308
 40
0.3889728150789626
 40
0.5902671580349164
 40
1.0
 40
1.0
 40
1.0
 40
1.0
 10
37.2175702736852
 20
103.8504400789027
 30
0.0
 10
37.23197546538135
 20
104.1593972510572
 30
0.0
 10
37.2618259364723
 20
104.7996190079269
 30
0.0
 10
37.18140796456516
 20
105.7702970481286
 30
0.0
 10
36.97952042747276
 20
107.0972900095341
 30
0.0
 10
36.68436100953102
 20
108.071614808551
 30
0.0
 10
36.48643772537854
 20
108.7249619570086
 30
0.0
  0
SPLINE
  5
1F2
330
1F
100
AcDbEntity
  8
0
  6
Continuous
 62
     7
370
    25
100
AcDbSpline
210
0.0
220
0.0
230
1.0
 70
    24
 71
     3
 72
    12
 73
     8
 74
     0
 42
0.00000001
 43
0.00000001
 40
0.0
 40
0.0
 40
0.0
 40
0.0
 40
0.2240470691638383
 40
0.4755443792523614
 40
0.7269766225366154
 40
0.984592297685774
 40
1.0
 40
1.0
 40
1.0
 40
1.0
 10
36.48643772537854
 20
108.7249619570086
 30
0.0
 10
36.58497637219879
 20
108.7249619570086
 30
0.0
 10
36.79412661821355
 20
108.7249619570086
 30
0.0
 10
37.03668842796186
 20
108.7249619570086
 30
0.0
 10
37.19463919252996
 20
108.7249619570086
 30
0.0
 10
37.26111348218619
 20
108.7249619570086
 30
0.0
 10
37.24303888800478
 20
108.7249619570086
 30
0.0
 10
37.24201887290869
 20
108.7249619570086
 30
0.0
  0
LINE
  5
1F3
330
1F
100
AcDbEntity
  8
0
  6
Continuous
 62
     7
370
    25
100
AcDbLine
 10
37.3899646712
 20
91.974961957
 30
0.0
 11
37.3899646712
 21
96.617453816
 31
0.0
  0
LINE
  5
1F4
330
1F
100
AcDbEntity
  8
0
  6
Continuous
 62
     7
370
    25
100
AcDbLine
 10
37.3899646712
 20
103.832470098
 30
0.0
 11
37.3899646712
 21
108.474961957
 31
0.0
  0
SPLINE
  5
1F5
330
1F
100
AcDbEntity
  8
0
  6
Continuous
 62
     7
370
    25
100
AcDbSpline
210
0.0
220
0.0
230
1.0
 70
    24
 71
     3
 72
    12
 73
     8
 74
     0
 42
0.00000001
 43
0.00000001
 40
0.0
 40
0.0
 40
0.0
 40
0.0
 40
0.2240470691638383
 40
0.4755443792523614
 40
0.7269766225366154
 40
0.984592297685774
 40
1.0
 40
1.0
 40
1.0
 40
1.0
 10
25.29349161708305
 20
108.7249619570086
 30
0.0
 10
25.1949529702628
 20
108.7249619570086
 30
0.0
 10
24.98580272424805
 20
108.7249619570086
 30
0.0
 10
24.74324091449976
 20
108.7249619570086
 30
0.0
 10
24.58529014993159
 20
108.7249619570086
 30
0.0
 10
24.51881586027552
 20
108.7249619570086
 30
0.0
 10
24.53689045445681
 20
108.7249619570086
 30
0.0
 10
24.5379104695529
 20
108.7249619570086
 30
0.0
  0
SPLINE
  5
1F6
330
1F
100
AcDbEntity
  8
0
  6
Continuous
 62
     7
370
    25
100
AcDbSpline
210
0.0
220
0.0
230
1.0
 70
     8
 71
     3
 72
    11
 73
     7
 74
     0
 42
0.00000001
 43
0.00000001
 40
0.0
 40
0.0
 40
0.0
 40
0.0
 40
0.2078428791078477
 40
0.404117425439538
 40
0.6004225887532637
 40
1.0
 40
1.0
 40
1.0
 40
1.0
 10
24.56559813773685
 20
103.7249619570085
 30
0.0
 10
24.54879672414739
 20
104.0757541756834
 30
0.0
 10
24.51612904732988
 20
104.7578138588614
 30
0.0
 10
24.59814265111352
 20
105.7702996388524
 30
0.0
 10
24.80062356622546
 20
107.0972885411879
 30
0.0
 10
25.09565449388798
 20
108.0716142191572
 30
0.0
 10
25.29349161708305
 20
108.7249619570086
 30
0.0
  0
SPLINE
  5
1F7
330
1F
100
AcDbEntity
  8
0
  6
Continuous
 62
     7
370
    25
100
AcDbSpline
210
0.0
220
0.0
230
1.0
 70
     8
 71
     3
 72
    12
 73
     8
 74
     0
 42
0.00000001
 43
0.00000001
 40
0.0
 40
0.0
 40
0.0
 40
0.0
 40
0.2253923253478569
 40
0.4507209242740458
 40
0.6810902123832183
 40
0.9114179295261059
 40
1.0
 40
1.0
 40
1.0
 40
1.0
 10
25.29349161708305
 20
91.7249619570086
 30
0.0
 10
25.17800452774907
 20
92.09219135675485
 30
0.0
 10
24.94706300138612
 20
92.82654632744332
 30
0.0
 10
24.69714831104489
 20
93.95746832552082
 30
0.0
 10
24.55249454578275
 20
95.10938130945375
 30
0.0
 10
24.51323666951625
 20
96.03861844792813
 30
0.0
 10
24.55817555533084
 20
96.57576209476946
 30
0.0
 10
24.57065801809875
 20
96.72496195700852
 30
0.0
  0
SPLINE
  5
1F8
330
1F
100
AcDbEntity
  8
0
  6
Continuous
 62
     7
370
    25
100
AcDbSpline
210
0.0
220
0.0
230
1.0
 70
    24
 71
     3
 72
    12
 73
     8
 74
     0
 42
0.00000001
 43
0.00000001
 40
0.0
 40
0.0
 40
0.0
 40
0.0
 40
0.0089643896715375
 40
0.2601399461069345
 40
0.5180103875717744
 40
0.7759525685507581
 40
0.9999999999999999
 40
0.9999999999999999
 40
0.9999999999999999
 40
0.9999999999999999
 10
24.53656873764238
 20
91.72496195700859
 30
0.0
 10
24.53597187652296
 20
91.72496195700859
 30
0.0
 10
24.51865140908163
 20
91.72496195700862
 30
0.0
 10
24.58175390179864
 20
91.72496195700857
 30
0.0
 10
24.73701453619792
 20
91.7249619570086
 30
0.0
 10
24.98300190540304
 20
91.7249619570086
 30
0.0
 10
25.19496361066106
 20
91.7249619570086
 30
0.0
 10
25.29349161708305
 20
91.7249619570086
 30
0.0
  0
LINE
  5
1F9
330
1F
100
AcDbEntity
  8
0
  6
Continuous
 62
     7
370
    25
100
AcDbLine
 10
24.3899646712
 20
91.974961957
 30
0.0
 11
24.3899646712
 21
96.724961957
 31
0.0
  0
LINE
  5
1FA
330
1F
100
AcDbEntity
  8
0
  6
Continuous
 62
     7
370
    25
100
AcDbLine
 10
24.3899646712
 20
103.724961957
 30
0.0
 11
24.3899646712
 21
108.474961957
 31
0.0
  0
LINE
  5
1FB
330
1F
100
AcDbEntity
  8
0
  6
Continuous
 62
     7
370
    25
100
AcDbLine
 10
25.2934916171
 20
108.724961957
 30
0.0
 11
36.4864377254
 21
108.724961957
 31
0.0
  0
LINE
  5
1FC
330
1F
100
AcDbEntity
  8
0
  6
Continuous
 62
     7
370
    25
100
AcDbLine
 10
25.2934916171
 20
91.724961957
 30
0.0
 11
36.4864377254
 21
91.724961957
 31
0.0
  0
LINE
  5
1FD
330
1F
100
AcDbEntity
  8
0
  6
Continuous
 62
     7
370
    25
100
AcDbLine
 10
41.5784910003
 20
108.224961957
 30
0.0
 11
41.5784910003
 21
104.2099447087
 31
0.0
  0
LINE
  5
1FE
330
1F
100
AcDbEntity
  8
0
  6
Continuous
 62
     7
370
    25
100
AcDbLine
 10
41.5784910003
 20
96.2399792053
 30
0.0
 11
41.5784910003
 21
92.224961957
 31
0.0
  0
LINE
  5
1FF
330
1F
100
AcDbEntity
  8
0
  6
Continuous
 62
     7
370
    25
100
AcDbLine
 10
41.3784910003
 20
92.424961957
 30
0.0
 11
41.3784910003
 21
96.2642339183
 31
0.0
  0
LINE
  5
200
330
1F
100
AcDbEntity
  8
0
  6
Continuous
 62
     7
370
    25
100
AcDbLine
 10
41.3784910003
 20
104.1856899957
 30
0.0
 11
41.3784910003
 21
108.024961957
 31
0.0
  0
SPLINE
  5
201
330
1F
100
AcDbEntity
  8
0
  6
Continuous
 62
     7
370
    25
100
AcDbSpline
210
0.0
220
0.0
230
1.0
 70
    24
 71
     3
 72
    10
 73
     6
 74
     0
 42
0.00000001
 43
0.00000001
 40
0.0
 40
0.0
 40
0.0
 40
0.0
 40
0.369621099676053
 40
0.7422877766045075
 40
1.0
 40
1.0
 40
1.0
 40
1.0
 10
67.00643202769834
 20
91.72496195700859
 30
0.0
 10
67.14763477864335
 20
91.72496195700859
 30
0.0
 10
67.4312037527665
 20
91.72496195700859
 30
0.0
 10
67.6503420677233
 20
91.72496195700859
 30
0.0
 10
67.67273303356583
 20
91.72496195700859
 30
0.0
 10
67.68188693384434
 20
91.72496195700859
 30
0.0
  0
SPLINE
  5
202
330
1F
100
AcDbEntity
  8
0
  6
Continuous
 62
     7
370
    25
100
AcDbSpline
210
0.0
220
0.0
230
1.0
 70
     8
 71
     3
 72
    10
 73
     6
 74
     0
 42
0.00000001
 43
0.00000001
 40
0.0
 40
0.0
 40
0.0
 40
0.0
 40
0.5
 40
0.5
 40
1.0
 40
1.0
 40
1.0
 40
1.0
 10
67.00643202769834
 20
91.97496195700859
 30
0.0
 10
66.98275663327394
 20
91.90058157963125
 30
0.0
 10
66.9696655233893
 20
91.8362809408455
 30
0.0
 10
66.96957920210103
 20
91.74806525606255
 30
0.0
 10
66.98274813604486
 20
91.72496195700859
 30
0.0
 10
67.00643202769834
 20
91.72496195700859
 30
0.0
  0
SPLINE
  5
203
330
1F
100
AcDbEntity
  8
0
  6
Continuous
 62
     7
370
    25
100
AcDbSpline
210
0.0
220
0.0
230
1.0
 70
     8
 71
     3
 72
    16
 73
    12
 74
     0
 42
0.00000001
 43
0.00000001
 40
0.0
 40
0.0
 40
0.0
 40
0.0
 40
0.2500000000000001
 40
0.2500000000000001
 40
0.5000000000000001
 40
0.5000000000000001
 40
0.6250000000000001
 40
0.6250000000000001
 40
0.7500000000000002
 40
0.7500000000000002
 40
1.0
 40
1.0
 40
1.0
 40
1.0
 10
67.00643202769834
 20
99.9749619570086
 30
0.0
 10
67.21444747580409
 20
99.32144517696779
 30
0.0
 10
67.38465378077707
 20
98.66322476787781
 30
0.0
 10
67.61958981234467
 20
97.33366218451202
 30
0.0
 10
67.6836619440083
 20
96.66223820244147
 30
0.0
 10
67.68439489292932
 20
95.64323711543477
 30
0.0
 10
67.66873541284629
 20
95.30189633311859
 30
0.0
 10
67.60746028620937
 20
94.62629783014812
 30
0.0
 10
67.56190401371023
 20
94.2906386801835
 30
0.0
 10
67.38541798095397
 20
93.2893730436838
 30
0.0
 10
67.21476152746827
 20
92.62946538508064
 30
0.0
 10
67.00643202769834
 20
91.97496195700859
 30
0.0
  0
SPLINE
  5
204
330
1F
100
AcDbEntity
  8
0
  6
Continuous
 62
     7
370
    25
100
AcDbSpline
210
0.0
220
0.0
230
1.0
 70
     8
 71
     3
 72
    10
 73
     6
 74
     0
 42
0.00000001
 43
0.00000001
 40
0.0
 40
0.0
 40
0.0
 40
0.0
 40
0.5
 40
0.5
 40
1.0
 40
1.0
 40
1.0
 40
1.0
 10
67.00643202769834
 20
100.4749619570086
 30
0.0
 10
66.98275663327394
 20
100.4005815796313
 30
0.0
 10
66.9696655233893
 20
100.3134884915157
 30
0.0
 10
66.96957920210103
 20
100.1373301026397
 30
0.0
 10
66.98274813604486
 20
100.0493690299119
 30
0.0
 10
67.00643202769834
 20
99.9749619570086
 30
0.0
  0
SPLINE
  5
205
330
1F
100
AcDbEntity
  8
0
  6
Continuous
 62
     7
370
    25
100
AcDbSpline
210
0.0
220
0.0
230
1.0
 70
     8
 71
     3
 72
    16
 73
    12
 74
     0
 42
0.00000001
 43
0.00000001
 40
0.0
 40
0.0
 40
0.0
 40
0.0
 40
0.2499999999999997
 40
0.2499999999999997
 40
0.4999999999999993
 40
0.4999999999999993
 40
0.6249999999999993
 40
0.6249999999999993
 40
0.7499999999999996
 40
0.7499999999999996
 40
1.0
 40
1.0
 40
1.0
 40
1.0
 10
67.00643202769834
 20
108.4749619570086
 30
0.0
 10
67.21444747580409
 20
107.8214451769678
 30
0.0
 10
67.38465378077707
 20
107.1632247678778
 30
0.0
 10
67.61958981234467
 20
105.833662184512
 30
0.0
 10
67.6836619440083
 20
105.1622382024415
 30
0.0
 10
67.68439489292932
 20
104.1432371154348
 30
0.0
 10
67.66873541284629
 20
103.8018963331186
 30
0.0
 10
67.60746028620937
 20
103.1262978301481
 30
0.0
 10
67.56190401371023
 20
102.7906386801835
 30
0.0
 10
67.38541798095396
 20
101.7893730436838
 30
0.0
 10
67.21476152746827
 20
101.1294653850806
 30
0.0
 10
67.00643202769834
 20
100.4749619570086
 30
0.0
  0
SPLINE
  5
206
330
1F
100
AcDbEntity
  8
0
  6
Continuous
 62
     7
370
    25
100
AcDbSpline
210
0.0
220
0.0
230
1.0
 70
     8
 71
     3
 72
    10
 73
     6
 74
     0
 42
0.00000001
 43
0.00000001
 40
0.0
 40
0.0
 40
0.0
 40
0.0
 40
0.5
 40
0.5
 40
1.0
 40
1.0
 40
1.0
 40
1.0
 10
67.00643202769834
 20
108.7249619570086
 30
0.0
 10
66.98275663327394
 20
108.7249619570086
 30
0.0
 10
66.9696655233893
 20
108.7021695076788
 30
0.0
 10
66.96957920210103
 20
108.6142268035857
 30
0.0
 10
66.98274813604486
 20
108.5493690299119
 30
0.0
 10
67.00643202769834
 20
108.4749619570086
 30
0.0
  0
SPLINE
  5
207
330
1F
100
AcDbEntity
  8
0
  6
Continuous
 62
     7
370
    25
100
AcDbSpline
210
0.0
220
0.0
230
1.0
 70
    24
 71
     3
 72
    10
 73
     6
 74
     0
 42
0.00000001
 43
0.00000001
 40
0.0
 40
0.0
 40
0.0
 40
0.0
 40
0.2577084693274367
 40
0.6270764869991886
 40
1.0
 40
1.0
 40
1.0
 40
1.0
 10
67.68054520192415
 20
108.7249619570086
 30
0.0
 10
67.67194172330044
 20
108.7249619570086
 30
0.0
 10
67.65100706342905
 20
108.7249619570086
 30
0.0
 10
67.4320380707712
 20
108.7249619570086
 30
0.0
 10
67.14875301021873
 20
108.7249619570086
 30
0.0
 10
67.00643202769834
 20
108.7249619570086
 30
0.0
  0
LINE
  5
208
330
1F
100
AcDbEntity
  8
0
  6
Continuous
 62
     7
370
    25
100
AcDbLine
 10
67.8284910003
 20
108.474961957
 30
0.0
 11
67.8284910003
 21
91.974961957
 31
0.0
  0
SPLINE
  5
209
330
1F
100
AcDbEntity
  8
0
  6
Continuous
 62
     7
370
    25
100
AcDbSpline
210
0.0
220
0.0
230
1.0
 70
     8
 71
     3
 72
    10
 73
     6
 74
     0
 42
0.00000001
 43
0.00000001
 40
0.0
 40
0.0
 40
0.0
 40
0.0
 40
0.0492902600059235
 40
0.5207231735447564
 40
1.0
 40
1.0
 40
1.0
 40
1.0
 10
61.82996527169026
 20
104.5827352889861
 30
0.0
 10
61.83064551897144
 20
104.6475486140544
 30
0.0
 10
61.83783193922998
 20
105.3322640185474
 30
0.0
 10
61.98433238274426
 20
106.6481293251674
 30
0.0
 10
62.3312981741709
 20
107.8626775014785
 30
0.0
 10
62.50621240551612
 20
108.4749619570086
 30
0.0
  0
LINE
  5
20A
330
1F
100
AcDbEntity
  8
0
  6
Continuous
 62
     7
370
    25
100
AcDbLine
 10
67.0064320277
 20
108.474961957
 30
0.0
 11
62.5062124055
 21
108.474961957
 31
0.0
  0
SPLINE
  5
20B
330
1F
100
AcDbEntity
  8
0
  6
Continuous
 62
     7
370
    25
100
AcDbSpline
210
0.0
220
0.0
230
1.0
 70
     8
 71
     3
 72
    10
 73
     6
 74
     0
 42
0.00000001
 43
0.00000001
 40
0.0
 40
0.0
 40
0.0
 40
0.0
 40
0.0844080101167219
 40
0.5388925975636537
 40
1.0
 40
1.0
 40
1.0
 40
1.0
 10
44.33232179679218
 20
104.6450882521199
 30
0.0
 10
44.33415375604138
 20
104.7543302013321
 30
0.0
 10
44.34584967538681
 20
105.4517720399974
 30
0.0
 10
44.50999521450029
 20
106.7445812309075
 30
0.0
 10
44.84001096657451
 20
107.8953936312799
 30
0.0
 10
45.00621240551612
 20
108.4749619570086
 30
0.0
  0
LINE
  5
20C
330
1F
100
AcDbEntity
  8
0
  6
Continuous
 62
     7
370
    25
100
AcDbLine
 10
49.150769595
 20
108.474961957
 30
0.0
 11
45.0062124055
 21
108.474961957
 31
0.0
  0
SPLINE
  5
20D
330
1F
100
AcDbEntity
  8
0
  6
Continuous
 62
     7
370
    25
100
AcDbSpline
210
0.0
220
0.0
230
1.0
 70
     8
 71
     3
 72
     9
 73
     5
 74
     0
 42
0.00000001
 43
0.00000001
 40
0.0
 40
0.0
 40
0.0
 40
0.0
 40
0.7347622315441644
 40
1.0
 40
1.0
 40
1.0
 40
1.0
 10
49.15076959499573
 20
108.4749619570086
 30
0.0
 10
49.34263232571043
 20
107.8245489077255
 30
0.0
 10
49.60375452616905
 20
106.9393468364158
 30
0.0
 10
49.71248618508549
 20
106.0321243929329
 30
0.0
 10
49.74132592765699
 20
105.7914947365304
 30
0.0
  0
SPLINE
  5
20E
330
1F
100
AcDbEntity
  8
0
  6
Continuous
 62
     7
370
    25
100
AcDbSpline
210
0.0
220
0.0
230
1.0
 70
     8
 71
     3
 72
     9
 73
     5
 74
     0
 42
0.00000001
 43
0.00000001
 40
0.0
 40
0.0
 40
0.0
 40
0.0
 40
0.3102900193421324
 40
1.0
 40
1.0
 40
1.0
 40
1.0
 10
49.71494831700959
 20
94.66797642319648
 30
0.0
 10
49.6904204992203
 20
94.38483208620502
 30
0.0
 10
49.61137245944997
 20
93.47231695732083
 30
0.0
 10
49.33877960640018
 20
92.58615600813282
 30
0.0
 10
49.15076959499574
 20
91.97496195700859
 30
0.0
  0
LINE
  5
20F
330
1F
100
AcDbEntity
  8
0
  6
Continuous
 62
     7
370
    25
100
AcDbLine
 10
45.0062124055
 20
91.974961957
 30
0.0
 11
49.150769595
 21
91.974961957
 31
0.0
  0
SPLINE
  5
210
330
1F
100
AcDbEntity
  8
0
  6
Continuous
 62
     7
370
    25
100
AcDbSpline
210
0.0
220
0.0
230
1.0
 70
     8
 71
     3
 72
    10
 73
     6
 74
     0
 42
0.00000001
 43
0.00000001
 40
0.0
 40
0.0
 40
0.0
 40
0.0
 40
0.5171566558038501
 40
0.7803269478524754
 40
1.0
 40
1.0
 40
1.0
 40
1.0
 10
45.00621240551612
 20
91.97496195700859
 30
0.0
 10
44.82141071148136
 20
92.62596906981089
 30
0.0
 10
44.54256726966206
 20
93.60826019506703
 30
0.0
 10
44.36346090617992
 20
94.89656605790472
 30
0.0
 10
44.34479823680334
 20
95.52180520053292
 30
0.0
 10
44.33630752114484
 20
95.80626224531605
 30
0.0
  0
LINE
  5
211
330
1F
100
AcDbEntity
  8
0
  6
Continuous
 62
     7
370
    25
100
AcDbLine
 10
62.5062124055
 20
91.974961957
 30
0.0
 11
67.0064320277
 21
91.974961957
 31
0.0
  0
SPLINE
  5
212
330
1F
100
AcDbEntity
  8
0
  6
Continuous
 62
     7
370
    25
100
AcDbSpline
210
0.0
220
0.0
230
1.0
 70
     8
 71
     3
 72
    10
 73
     6
 74
     0
 42
0.00000001
 43
0.00000001
 40
0.0
 40
0.0
 40
0.0
 40
0.0
 40
0.506885352454668
 40
0.7648287913403526
 40
1.0
 40
1.0
 40
1.0
 40
1.0
 10
62.50621240551614
 20
91.97496195700855
 30
0.0
 10
62.32122645265739
 20
92.62596040474986
 30
0.0
 10
62.04210498652161
 20
93.60823845547529
 30
0.0
 10
61.86065126449
 20
94.92271027239063
 30
0.0
 10
61.84170070913576
 20
95.57421221903317
 30
0.0
 10
61.83266300354416
 20
95.88491988305962
 30
0.0
  0
LINE
  5
213
330
1F
100
AcDbEntity
  8
0
  6
Continuous
 62
     7
370
    25
100
AcDbLine
 10
61.8284910003
 20
95.8087984636
 30
0.0
 11
61.8284910003
 21
92.724961957
 31
0.0
  0
LINE
  5
214
330
1F
100
AcDbEntity
  8
0
  6
Continuous
 62
     7
370
    25
100
AcDbLine
 10
61.8284910003
 20
92.724961957
 30
0.0
 11
49.8284910003
 21
92.724961957
 31
0.0
  0
LINE
  5
215
330
1F
100
AcDbEntity
  8
0
  6
Continuous
 62
     7
370
    25
100
AcDbLine
 10
49.8284910003
 20
94.680146353
 30
0.0
 11
49.8284910003
 21
92.724961957
 31
0.0
  0
LINE
  5
216
330
1F
100
AcDbEntity
  8
0
  6
Continuous
 62
     7
370
    25
100
AcDbLine
 10
49.8284910003
 20
107.724961957
 30
0.0
 11
49.8284910003
 21
105.769777561
 31
0.0
  0
LINE
  5
217
330
1F
100
AcDbEntity
  8
0
  6
Continuous
 62
     7
370
    25
100
AcDbLine
 10
49.8284910003
 20
107.724961957
 30
0.0
 11
61.8284910003
 21
107.724961957
 31
0.0
  0
LINE
  5
218
330
1F
100
AcDbEntity
  8
0
  6
Continuous
 62
     7
370
    25
100
AcDbLine
 10
61.8284910003
 20
107.724961957
 30
0.0
 11
61.8284910003
 21
104.6411254504
 31
0.0
  0
SPLINE
  5
219
330
1F
100
AcDbEntity
  8
0
  6
Continuous
 62
     7
370
    25
100
AcDbSpline
210
0.0
220
0.0
230
1.0
 70
     8
 71
     3
 72
     8
 73
     4
 74
     0
 42
0.00000001
 43
0.00000001
 40
0.0
 40
0.0
 40
0.0
 40
0.0
 40
1.0
 40
1.0
 40
1.0
 40
1.0
 10
49.31225492327676
 20
108.7249619570086
 30
0.0
 10
49.48595799949653
 20
108.3924505348731
 30
0.0
 10
49.65826021855923
 20
108.0591234349742
 30
0.0
 10
49.82849100025594
 20
107.7249619570086
 30
0.0
  0
SPLINE
  5
21A
330
1F
100
AcDbEntity
  8
0
  6
Continuous
 62
     7
370
    25
100
AcDbSpline
210
0.0
220
0.0
230
1.0
 70
     8
 71
     3
 72
    10
 73
     6
 74
     0
 42
0.00000001
 43
0.00000001
 40
0.0
 40
0.0
 40
0.0
 40
0.0
 40
0.5
 40
0.5
 40
1.0
 40
1.0
 40
1.0
 40
1.0
 10
49.15076959500139
 20
108.7249619570086
 30
0.0
 10
49.12709420057708
 20
108.7249619570086
 30
0.0
 10
49.11400309068677
 20
108.7021695076791
 30
0.0
 10
49.11391676939837
 20
108.6142268035861
 30
0.0
 10
49.1270857033422
 20
108.5493690299121
 30
0.0
 10
49.15076959499572
 20
108.4749619570086
 30
0.0
  0
SPLINE
  5
21B
330
1F
100
AcDbEntity
  8
0
  6
Continuous
 62
     7
370
    25
100
AcDbSpline
210
0.0
220
0.0
230
1.0
 70
    24
 71
     3
 72
     8
 73
     4
 74
     0
 42
0.00000001
 43
0.00000001
 40
0.0
 40
0.0
 40
0.0
 40
0.0
 40
1.0
 40
1.0
 40
1.0
 40
1.0
 10
49.31225492327675
 20
108.7249619570086
 30
0.0
 10
49.26135620635434
 20
108.7249619570086
 30
0.0
 10
49.20742207010372
 20
108.7249619570086
 30
0.0
 10
49.15076959499613
 20
108.7249619570086
 30
0.0
  0
SPLINE
  5
21C
330
1F
100
AcDbEntity
  8
0
  6
Continuous
 62
     7
370
    25
100
AcDbSpline
210
0.0
220
0.0
230
1.0
 70
     8
 71
     3
 72
     8
 73
     4
 74
     0
 42
0.00000001
 43
0.00000001
 40
0.0
 40
0.0
 40
0.0
 40
0.0
 40
1.0
 40
1.0
 40
1.0
 40
1.0
 10
61.82849100025593
 20
107.7249619570086
 30
0.0
 10
61.99876860759964
 20
108.0592153532939
 30
0.0
 10
62.17104035622533
 20
108.3924818428629
 30
0.0
 10
62.34472707723499
 20
108.7249619570084
 30
0.0
  0
SPLINE
  5
21D
330
1F
100
AcDbEntity
  8
0
  6
Continuous
 62
     7
370
    25
100
AcDbSpline
210
0.0
220
0.0
230
1.0
 70
    24
 71
     3
 72
     8
 73
     4
 74
     0
 42
0.00000001
 43
0.00000001
 40
0.0
 40
0.0
 40
0.0
 40
0.0
 40
1.0
 40
1.0
 40
1.0
 40
1.0
 10
62.34472707723458
 20
108.7249619570086
 30
0.0
 10
62.39562331048981
 20
108.7249619570086
 30
0.0
 10
62.44955726545365
 20
108.7249619570086
 30
0.0
 10
62.50621240551612
 20
108.7249619570086
 30
0.0
  0
SPLINE
  5
21E
330
1F
100
AcDbEntity
  8
0
  6
Continuous
 62
     7
370
    25
100
AcDbSpline
210
0.0
220
0.0
230
1.0
 70
     8
 71
     3
 72
    10
 73
     6
 74
     0
 42
0.00000001
 43
0.00000001
 40
0.0
 40
0.0
 40
0.0
 40
0.0
 40
0.5
 40
0.5
 40
1.0
 40
1.0
 40
1.0
 40
1.0
 10
62.50621240551612
 20
108.4749619570086
 30
0.0
 10
62.52988779994051
 20
108.5493423343859
 30
0.0
 10
62.54297890982516
 20
108.6136429731717
 30
0.0
 10
62.54306523111343
 20
108.7018586579546
 30
0.0
 10
62.52989629716959
 20
108.7249619570086
 30
0.0
 10
62.50621240551612
 20
108.7249619570086
 30
0.0
  0
SPLINE
  5
21F
330
1F
100
AcDbEntity
  8
0
  6
Continuous
 62
     7
370
    25
100
AcDbSpline
210
0.0
220
0.0
230
1.0
 70
     8
 71
     3
 72
    10
 73
     6
 74
     0
 42
0.00000001
 43
0.00000001
 40
0.0
 40
0.0
 40
0.0
 40
0.0
 40
0.5
 40
0.5
 40
1.0
 40
1.0
 40
1.0
 40
1.0
 10
45.00621240551612
 20
108.7249619570086
 30
0.0
 10
45.02988630607207
 20
108.7249619570086
 30
0.0
 10
45.04297886325122
 20
108.7021713853612
 30
0.0
 10
45.0430652772335
 20
108.6142253880623
 30
0.0
 10
45.02989488563487
 20
108.5493645953296
 30
0.0
 10
45.00621240551612
 20
108.4749619570086
 30
0.0
  0
SPLINE
  5
220
330
1F
100
AcDbEntity
  8
0
  6
Continuous
 62
     7
370
    25
100
AcDbSpline
210
0.0
220
0.0
230
1.0
 70
    24
 71
     3
 72
    12
 73
     8
 74
     0
 42
0.00000001
 43
0.00000001
 40
0.0
 40
0.0
 40
0.0
 40
0.0
 40
0.2499999999999999
 40
0.2499999999999999
 40
0.4999999999999998
 40
0.4999999999999998
 40
1.0
 40
1.0
 40
1.0
 40
1.0
 10
44.32849100025593
 20
108.7249619570086
 30
0.0
 10
44.32849100025593
 20
108.7249619570086
 30
0.0
 10
44.344489805237
 20
108.7249619570086
 30
0.0
 10
44.40625994355139
 20
108.7249619570086
 30
0.0
 10
44.45200206785299
 20
108.7249619570086
 30
0.0
 10
44.62867221519984
 20
108.7249619570086
 30
0.0
 10
44.79892728068013
 20
108.7249619570086
 30
0.0
 10
45.00621240551612
 20
108.7249619570086
 30
0.0
  0
LINE
  5
221
330
1F
100
AcDbEntity
  8
0
  6
Continuous
 62
     7
370
    25
100
AcDbLine
 10
44.3284910003
 20
108.724961957
 30
0.0
 11
44.3284910003
 21
104.6076082389
 31
0.0
  0
SPLINE
  5
222
330
1F
100
AcDbEntity
  8
0
  6
Continuous
 62
     7
370
    25
100
AcDbSpline
210
0.0
220
0.0
230
1.0
 70
     8
 71
     3
 72
     8
 73
     4
 74
     0
 42
0.00000001
 43
0.00000001
 40
0.0
 40
0.0
 40
0.0
 40
0.0
 40
1.0
 40
1.0
 40
1.0
 40
1.0
 10
49.82849100025593
 20
92.72496195700859
 30
0.0
 10
49.65821339291217
 20
92.3907085607232
 30
0.0
 10
49.48594164428646
 20
92.05744207115417
 30
0.0
 10
49.31225492327676
 20
91.72496195700859
 30
0.0
  0
SPLINE
  5
223
330
1F
100
AcDbEntity
  8
0
  6
Continuous
 62
     7
370
    25
100
AcDbSpline
210
0.0
220
0.0
230
1.0
 70
    24
 71
     3
 72
     8
 73
     4
 74
     0
 42
0.00000001
 43
0.00000001
 40
0.0
 40
0.0
 40
0.0
 40
0.0
 40
1.0
 40
1.0
 40
1.0
 40
1.0
 10
49.31225492327676
 20
91.72496195700859
 30
0.0
 10
49.26135620635424
 20
91.72496195700859
 30
0.0
 10
49.20742207010348
 20
91.72496195700859
 30
0.0
 10
49.15076959499574
 20
91.72496195700859
 30
0.0
  0
SPLINE
  5
224
330
1F
100
AcDbEntity
  8
0
  6
Continuous
 62
     7
370
    25
100
AcDbSpline
210
0.0
220
0.0
230
1.0
 70
     8
 71
     3
 72
    10
 73
     6
 74
     0
 42
0.00000001
 43
0.00000001
 40
0.0
 40
0.0
 40
0.0
 40
0.0
 40
0.5
 40
0.5
 40
1.0
 40
1.0
 40
1.0
 40
1.0
 10
49.15076959499574
 20
91.97496195700859
 30
0.0
 10
49.12709420057136
 20
91.90058157963125
 30
0.0
 10
49.11400309068671
 20
91.8362809408455
 30
0.0
 10
49.11391676939843
 20
91.74806525606255
 30
0.0
 10
49.12708570334227
 20
91.72496195700859
 30
0.0
 10
49.15076959499574
 20
91.72496195700859
 30
0.0
  0
SPLINE
  5
225
330
1F
100
AcDbEntity
  8
0
  6
Continuous
 62
     7
370
    25
100
AcDbSpline
210
0.0
220
0.0
230
1.0
 70
     8
 71
     3
 72
     8
 73
     4
 74
     0
 42
0.00000001
 43
0.00000001
 40
0.0
 40
0.0
 40
0.0
 40
0.0
 40
1.0
 40
1.0
 40
1.0
 40
1.0
 10
62.34472707723511
 20
91.72496195700857
 30
0.0
 10
62.17102400101534
 20
92.05747337914408
 30
0.0
 10
61.99872178195263
 20
92.39080047904297
 30
0.0
 10
61.82849100025593
 20
92.72496195700859
 30
0.0
  0
SPLINE
  5
226
330
1F
100
AcDbEntity
  8
0
  6
Continuous
 62
     7
370
    25
100
AcDbSpline
210
0.0
220
0.0
230
1.0
 70
     8
 71
     3
 72
    10
 73
     6
 74
     0
 42
0.00000001
 43
0.00000001
 40
0.0
 40
0.0
 40
0.0
 40
0.0
 40
0.5
 40
0.5
 40
1.0
 40
1.0
 40
1.0
 40
1.0
 10
62.50621240551614
 20
91.72496195700859
 30
0.0
 10
62.52988779994052
 20
91.72496195700859
 30
0.0
 10
62.54297890982516
 20
91.74775440633839
 30
0.0
 10
62.54306523111345
 20
91.83569711043144
 30
0.0
 10
62.52989629716959
 20
91.90055488410529
 30
0.0
 10
62.50621240551614
 20
91.97496195700853
 30
0.0
  0
SPLINE
  5
227
330
1F
100
AcDbEntity
  8
0
  6
Continuous
 62
     7
370
    25
100
AcDbSpline
210
0.0
220
0.0
230
1.0
 70
    24
 71
     3
 72
     8
 73
     4
 74
     0
 42
0.00000001
 43
0.00000001
 40
0.0
 40
0.0
 40
0.0
 40
0.0
 40
1.0
 40
1.0
 40
1.0
 40
1.0
 10
62.34472707723512
 20
91.72496195700859
 30
0.0
 10
62.3956233104902
 20
91.72496195700859
 30
0.0
 10
62.44955726545385
 20
91.72496195700859
 30
0.0
 10
62.50621240551612
 20
91.72496195700859
 30
0.0
  0
SPLINE
  5
228
330
1F
100
AcDbEntity
  8
0
  6
Continuous
 62
     7
370
    25
100
AcDbSpline
210
0.0
220
0.0
230
1.0
 70
     8
 71
     3
 72
    10
 73
     6
 74
     0
 42
0.00000001
 43
0.00000001
 40
0.0
 40
0.0
 40
0.0
 40
0.0
 40
0.5
 40
0.5
 40
1.0
 40
1.0
 40
1.0
 40
1.0
 10
45.00621240551612
 20
91.97496195700859
 30
0.0
 10
45.02988464542769
 20
91.90059149008303
 30
0.0
 10
45.04297863536294
 20
91.83628589379516
 30
0.0
 10
45.04306550282438
 20
91.74806310598932
 30
0.0
 10
45.02989571306503
 20
91.72496195700859
 30
0.0
 10
45.00621240551612
 20
91.72496195700859
 30
0.0
  0
SPLINE
  5
229
330
1F
100
AcDbEntity
  8
0
  6
Continuous
 62
     7
370
    25
100
AcDbSpline
210
0.0
220
0.0
230
1.0
 70
    24
 71
     3
 72
    12
 73
     8
 74
     0
 42
0.00000001
 43
0.00000001
 40
0.0
 40
0.0
 40
0.0
 40
0.0
 40
0.2500000000000001
 40
0.2500000000000001
 40
0.5000000000000001
 40
0.5000000000000001
 40
1.0
 40
1.0
 40
1.0
 40
1.0
 10
44.32849100025593
 20
91.72496195700859
 30
0.0
 10
44.32849100025593
 20
91.72496195700859
 30
0.0
 10
44.344489805237
 20
91.72496195700859
 30
0.0
 10
44.40625994355139
 20
91.72496195700859
 30
0.0
 10
44.45200206785299
 20
91.72496195700859
 30
0.0
 10
44.62867221519984
 20
91.72496195700859
 30
0.0
 10
44.79892728068013
 20
91.72496195700859
 30
0.0
 10
45.00621240551612
 20
91.72496195700859
 30
0.0
  0
LINE
  5
22A
330
1F
100
AcDbEntity
  8
0
  6
Continuous
 62
     7
370
    25
100
AcDbLine
 10
44.3284910003
 20
91.724961957
 30
0.0
 11
44.3284910003
 21
95.8423156751
 31
0.0
  0
LINE
  5
22B
330
1F
100
AcDbEntity
  8
0
  6
Continuous
 62
     7
370
    25
100
AcDbLine
 10
62.5062124055
 20
108.724961957
 30
0.0
 11
67.0064320277
 21
108.724961957
 31
0.0
  0
LINE
  5
22C
330
1F
100
AcDbEntity
  8
0
  6
Continuous
 62
     7
370
    25
100
AcDbLine
 10
45.0062124055
 20
108.724961957
 30
0.0
 11
49.150769595
 21
108.724961957
 31
0.0
  0
LINE
  5
22D
330
1F
100
AcDbEntity
  8
0
  6
Continuous
 62
     7
370
    25
100
AcDbLine
 10
67.0064320277
 20
91.724961957
 30
0.0
 11
62.5062124055
 21
91.724961957
 31
0.0
  0
LINE
  5
22E
330
1F
100
AcDbEntity
  8
0
  6
Continuous
 62
     7
370
    25
100
AcDbLine
 10
49.150769595
 20
91.724961957
 30
0.0
 11
45.0062124055
 21
91.724961957
 31
0.0
  0
LINE
  5
22F
330
1F
100
AcDbEntity
  8
0
  6
Continuous
 62
     7
370
    25
100
AcDbLine
 10
62.3447270772
 20
108.724961957
 30
0.0
 11
49.3122549233
 21
108.724961957
 31
0.0
  0
LINE
  5
230
330
1F
100
AcDbEntity
  8
0
  6
Continuous
 62
     7
370
    25
100
AcDbLine
 10
62.3447270772
 20
91.724961957
 30
0.0
 11
49.3122549233
 21
91.724961957
 31
0.0
  0
SPLINE
  5
231
330
1F
100
AcDbEntity
  8
0
  6
Continuous
 62
     7
370
    25
100
AcDbSpline
210
0.0
220
0.0
230
1.0
 70
     8
 71
     3
 72
    15
 73
    11
 74
     0
 42
0.00000001
 43
0.00000001
 40
0.0
 40
0.0
 40
0.0
 40
0.0
 40
0.0090459071881971
 40
0.1032433785236817
 40
0.1542564497735191
 40
0.3133169026715104
 40
0.5243720399414403
 40
0.667806000850918
 40
0.9918332554187028
 40
1.0
 40
1.0
 40
1.0
 40
1.0
 10
50.58940566759782
 20
101.8988750004869
 30
0.0
 10
50.58941135956449
 20
101.8988573547624
 30
0.0
 10
50.58947632351529
 20
101.8986559593498
 30
0.0
 10
50.59147200995116
 20
101.8924663386836
 30
0.0
 10
50.59928900616763
 20
101.8682644068395
 30
0.0
 10
50.61645882992259
 20
101.8152454148378
 30
0.0
 10
50.64304272649013
 20
101.7338745276413
 30
0.0
 10
50.68087202497875
 20
101.6192954556188
 30
0.0
 10
50.70915280498899
 20
101.5348702778996
 30
0.0
 10
50.72898395252027
 20
101.4763994199476
 30
0.0
 10
50.72947148666314
 20
101.4749619570086
 30
0.0
  0
ARC
  5
232
330
1F
100
AcDbEntity
  8
0
  6
Continuous
 62
     7
370
    25
100
AcDbCircle
 10
55.8284910003
 20
100.224961957
 30
0.0
 40
5.5
100
AcDbArc
 50
17.7189318734
 51
162.2810681266
  0
SPLINE
  5
233
330
1F
100
AcDbEntity
  8
0
  6
Continuous
 62
     7
370
    25
100
AcDbSpline
210
0.0
220
0.0
230
1.0
 70
     8
 71
     3
 72
    15
 73
    11
 74
     0
 42
0.00000001
 43
0.00000001
 40
0.0
 40
0.0
 40
0.0
 40
0.0
 40
0.0081667445812973
 40
0.3321939991490804
 40
0.475627960058556
 40
0.6866830973284891
 40
0.8457435502264751
 40
0.8967566214763124
 40
0.9909540928118028
 40
1.0
 40
1.0
 40
1.0
 40
1.0
 10
60.92751051384872
 20
101.4749619570086
 30
0.0
 10
60.92799804799159
 20
101.4763994199476
 30
0.0
 10
60.94782919552285
 20
101.5348702778996
 30
0.0
 10
60.97610997553311
 20
101.6192954556188
 30
0.0
 10
61.01393927402173
 20
101.7338745276413
 30
0.0
 10
61.04052317058927
 20
101.8152454148378
 30
0.0
 10
61.05769299434424
 20
101.8682644068395
 30
0.0
 10
61.06550999056069
 20
101.8924663386836
 30
0.0
 10
61.06750567699657
 20
101.8986559593498
 30
0.0
 10
61.06757064094737
 20
101.8988573547624
 30
0.0
 10
61.06757633291404
 20
101.8988750004869
 30
0.0
  0
ARC
  5
234
330
1F
100
AcDbEntity
  8
0
  6
Continuous
 62
     7
370
    25
100
AcDbCircle
 10
55.8284910003
 20
100.224961957
 30
0.0
 40
5.250000000000002
100
AcDbArc
 50
13.774146998
 51
166.225853002
  0
SPLINE
  5
235
330
1F
100
AcDbEntity
  8
0
  6
Continuous
 62
     7
370
    25
100
AcDbSpline
210
0.0
220
0.0
230
1.0
 70
     8
 71
     3
 72
    15
 73
    11
 74
     0
 42
0.00000001
 43
0.00000001
 40
0.0
 40
0.0
 40
0.0
 40
0.0
 40
0.0089557228015919
 40
0.0999003359608209
 40
0.1531632460581751
 40
0.3125636920784904
 40
0.5249666935695061
 40
0.6689893599351777
 40
0.991915253381045
 40
1.0
 40
1.0
 40
1.0
 40
1.0
 10
61.30571657530759
 20
101.7249619570086
 30
0.0
 10
61.30570081972898
 20
101.7249511726454
 30
0.0
 10
61.30552506757242
 20
101.7248308739799
 30
0.0
 10
61.30009605155291
 20
101.7211124230618
 30
0.0
 10
61.27856056784559
 20
101.7064013819955
 30
0.0
 10
61.23085513958076
 20
101.673952520537
 30
0.0
 10
61.15846419458884
 20
101.6253684801936
 30
0.0
 10
61.05654508257118
 20
101.5579980079252
 30
0.0
 10
60.98118999111614
 20
101.5091844431913
 30
0.0
 10
60.92879034539284
 20
101.4757778929969
 30
0.0
 10
60.92751051384872
 20
101.4749619570086
 30
0.0
  0
ARC
  5
236
330
1F
100
AcDbEntity
  8
0
  6
Continuous
 62
     7
370
    25
100
AcDbCircle
 10
61.3057165753
 20
101.974961957
 30
0.0
 40
0.2500000000000009
100
AcDbArc
 50
197.7189318734
 51
270.0
  0
SPLINE
  5
237
330
1F
100
AcDbEntity
  8
0
  6
Continuous
 62
     7
370
    25
100
AcDbSpline
210
0.0
220
0.0
230
1.0
 70
     8
 71
     3
 72
    15
 73
    11
 74
     0
 42
0.00000001
 43
0.00000001
 40
0.0
 40
0.0
 40
0.0
 40
0.0
 40
0.0080847466189582
 40
0.3310106400648243
 40
0.4750333064304948
 40
0.6874363079215142
 40
0.8468367539418303
 40
0.9000996640391847
 40
0.9910442771984082
 40
1.0
 40
1.0
 40
1.0
 40
1.0
 10
50.72947148666314
 20
101.4749619570086
 30
0.0
 10
50.72819165511902
 20
101.4757778929969
 30
0.0
 10
50.67579200939578
 20
101.5091844431914
 30
0.0
 10
50.60043691794068
 20
101.5579980079252
 30
0.0
 10
50.49851780592302
 20
101.6253684801936
 30
0.0
 10
50.42612686093109
 20
101.673952520537
 30
0.0
 10
50.37842143266628
 20
101.7064013819955
 30
0.0
 10
50.35688594895895
 20
101.7211124230618
 30
0.0
 10
50.35145693293943
 20
101.7248308739799
 30
0.0
 10
50.35128118078287
 20
101.7249511726454
 30
0.0
 10
50.35126542520427
 20
101.7249619570086
 30
0.0
  0
ARC
  5
238
330
1F
100
AcDbEntity
  8
0
  6
Continuous
 62
     7
370
    25
100
AcDbCircle
 10
50.3512654252
 20
101.974961957
 30
0.0
 40
0.2500000000000077
100
AcDbArc
 50
270.0
 51
342.2810681266
  0
ARC
  5
239
330
1F
100
AcDbEntity
  8
0
  6
Continuous
 62
     7
370
    25
100
AcDbCircle
 10
61.3057165753
 20
98.474961957
 30
0.0
 40
0.25
100
AcDbArc
 50
90.0
 51
162.2810681266
  0
SPLINE
  5
23A
330
1F
100
AcDbEntity
  8
0
  6
Continuous
 62
     7
370
    25
100
AcDbSpline
210
0.0
220
0.0
230
1.0
 70
     8
 71
     3
 72
    15
 73
    11
 74
     0
 42
0.00000001
 43
0.00000001
 40
0.0
 40
0.0
 40
0.0
 40
0.0
 40
0.0090459071881971
 40
0.1032433785236874
 40
0.1542564497735246
 40
0.313316902671511
 40
0.5243720399414428
 40
0.6678060008509903
 40
0.9918332554187292
 40
1.0
 40
1.0
 40
1.0
 40
1.0
 10
61.06757633291404
 20
98.55104891353034
 30
0.0
 10
61.06757064094737
 20
98.5510665592548
 30
0.0
 10
61.06750567699658
 20
98.55126795466734
 30
0.0
 10
61.06550999056069
 20
98.55745757533353
 30
0.0
 10
61.05769299434424
 20
98.58165950717768
 30
0.0
 10
61.04052317058927
 20
98.63467849917936
 30
0.0
 10
61.01393927402178
 20
98.71604938637594
 30
0.0
 10
60.97610997553294
 20
98.83062845839838
 30
0.0
 10
60.94782919552369
 20
98.91505363611786
 30
0.0
 10
60.92799804799161
 20
98.97352449406958
 30
0.0
 10
60.92751051384872
 20
98.9749619570086
 30
0.0
  0
SPLINE
  5
23B
330
1F
100
AcDbEntity
  8
0
  6
Continuous
 62
     7
370
    25
100
AcDbSpline
210
0.0
220
0.0
230
1.0
 70
     8
 71
     3
 72
    15
 73
    11
 74
     0
 42
0.00000001
 43
0.00000001
 40
0.0
 40
0.0
 40
0.0
 40
0.0
 40
0.0080847466189818
 40
0.3310106400647567
 40
0.4750333064304972
 40
0.6874363079215137
 40
0.8468367539418253
 40
0.9000996640391794
 40
0.9910442771984082
 40
1.0
 40
1.0
 40
1.0
 40
1.0
 10
60.92751051384872
 20
98.9749619570086
 30
0.0
 10
60.92879034539285
 20
98.97414602102032
 30
0.0
 10
60.98118999111664
 20
98.94073947082668
 30
0.0
 10
61.05654508257106
 20
98.8919259060918
 30
0.0
 10
61.15846419458887
 20
98.82455543382366
 30
0.0
 10
61.23085513958075
 20
98.77597139348018
 30
0.0
 10
61.27856056784559
 20
98.74352253202164
 30
0.0
 10
61.3000960515529
 20
98.72881149095538
 30
0.0
 10
61.30552506757243
 20
98.72509304003725
 30
0.0
 10
61.30570081972898
 20
98.72497274137174
 30
0.0
 10
61.30571657530759
 20
98.7249619570086
 30
0.0
  0
SPLINE
  5
23C
330
1F
100
AcDbEntity
  8
0
  6
Continuous
 62
     7
370
    25
100
AcDbSpline
210
0.0
220
0.0
230
1.0
 70
     8
 71
     3
 72
    15
 73
    11
 74
     0
 42
0.00000001
 43
0.00000001
 40
0.0
 40
0.0
 40
0.0
 40
0.0
 40
0.0081667445812695
 40
0.3321939991490083
 40
0.4756279600585602
 40
0.6866830973284899
 40
0.8457435502264811
 40
0.8967566214763185
 40
0.9909540928118029
 40
1.0
 40
1.0
 40
1.0
 40
1.0
 10
50.72947148666314
 20
98.9749619570086
 30
0.0
 10
50.72898395252026
 20
98.97352449406958
 30
0.0
 10
50.70915280498818
 20
98.91505363611788
 30
0.0
 10
50.68087202497892
 20
98.83062845839838
 30
0.0
 10
50.64304272649009
 20
98.71604938637594
 30
0.0
 10
50.6164588299226
 20
98.63467849917934
 30
0.0
 10
50.59928900616763
 20
98.58165950717768
 30
0.0
 10
50.59147200995116
 20
98.55745757533353
 30
0.0
 10
50.58947632351529
 20
98.55126795466734
 30
0.0
 10
50.58941135956449
 20
98.5510665592548
 30
0.0
 10
50.58940566759782
 20
98.55104891353034
 30
0.0
  0
ARC
  5
23D
330
1F
100
AcDbEntity
  8
0
  6
Continuous
 62
     7
370
    25
100
AcDbCircle
 10
55.8284910003
 20
100.224961957
 30
0.0
 40
5.250000000000002
100
AcDbArc
 50
193.774146998
 51
346.225853002
  0
ARC
  5
23E
330
1F
100
AcDbEntity
  8
0
  6
Continuous
 62
     7
370
    25
100
AcDbCircle
 10
55.8284910003
 20
100.224961957
 30
0.0
 40
5.500000000000004
100
AcDbArc
 50
197.7189318734
 51
342.2810681266
  0
ARC
  5
23F
330
1F
100
AcDbEntity
  8
0
  6
Continuous
 62
     7
370
    25
100
AcDbCircle
 10
50.3512654252
 20
98.474961957
 30
0.0
 40
0.2500000000000034
100
AcDbArc
 50
17.7189318734
 51
90.0
  0
SPLINE
  5
240
330
1F
100
AcDbEntity
  8
0
  6
Continuous
 62
     7
370
    25
100
AcDbSpline
210
0.0
220
0.0
230
1.0
 70
     8
 71
     3
 72
    15
 73
    11
 74
     0
 42
0.00000001
 43
0.00000001
 40
0.0
 40
0.0
 40
0.0
 40
0.0
 40
0.0089557228015919
 40
0.0999003359608148
 40
0.153163246058169
 40
0.3125636920784848
 40
0.5249666935694999
 40
0.6689893599352451
 40
0.9919152533810159
 40
1.0
 40
1.0
 40
1.0
 40
1.0
 10
50.35126542520427
 20
98.7249619570086
 30
0.0
 10
50.35128118078287
 20
98.72497274137173
 30
0.0
 10
50.35145693293943
 20
98.72509304003725
 30
0.0
 10
50.35688594895896
 20
98.72881149095538
 30
0.0
 10
50.37842143266627
 20
98.74352253202163
 30
0.0
 10
50.4261268609311
 20
98.77597139348018
 30
0.0
 10
50.498517805923
 20
98.82455543382366
 30
0.0
 10
50.60043691794078
 20
98.89192590609181
 30
0.0
 10
50.67579200939525
 20
98.9407394708266
 30
0.0
 10
50.72819165511901
 20
98.97414602102032
 30
0.0
 10
50.72947148666314
 20
98.9749619570086
 30
0.0
  0
LINE
  5
241
330
1F
100
AcDbEntity
  8
0
  6
Continuous
 62
     7
370
    25
100
AcDbLine
 10
50.8284910003
 20
99.624961957
 30
0.0
 11
60.8284910003
 21
99.624961957
 31
0.0
  0
LINE
  5
242
330
1F
100
AcDbEntity
  8
0
  6
Continuous
 62
     7
370
    25
100
AcDbLine
 10
60.8284910003
 20
100.824961957
 30
0.0
 11
50.8284910003
 21
100.824961957
 31
0.0
  0
LINE
  5
243
330
1F
100
AcDbEntity
  8
0
  6
Continuous
 62
     7
370
    25
100
AcDbLine
 10
60.8284910003
 20
99.624961957
 30
0.0
 11
60.8284910003
 21
100.824961957
 31
0.0
  0
LINE
  5
244
330
1F
100
AcDbEntity
  8
0
  6
Continuous
 62
     7
370
    25
100
AcDbLine
 10
50.8284910003
 20
100.824961957
 30
0.0
 11
50.8284910003
 21
99.624961957
 31
0.0
  0
LINE
  5
245
330
1F
100
AcDbEntity
  8
0
  6
Continuous
 62
     7
370
    25
100
AcDbLine
 10
50.0784910003
 20
98.974961957
 30
0.0
 11
50.7294714867
 21
98.974961957
 31
0.0
  0
LINE
  5
246
330
1F
100
AcDbEntity
  8
0
  6
Continuous
 62
     7
370
    25
100
AcDbLine
 10
50.0784910003
 20
101.474961957
 30
0.0
 11
50.0784910003
 21
98.974961957
 31
0.0
  0
LINE
  5
247
330
1F
100
AcDbEntity
  8
0
  6
Continuous
 62
     7
370
    25
100
AcDbLine
 10
50.7294714867
 20
101.474961957
 30
0.0
 11
50.0784910003
 21
101.474961957
 31
0.0
  0
LINE
  5
248
330
1F
100
AcDbEntity
  8
0
  6
Continuous
 62
     7
370
    25
100
AcDbLine
 10
61.5784910003
 20
101.474961957
 30
0.0
 11
60.9275105138
 21
101.474961957
 31
0.0
  0
LINE
  5
249
330
1F
100
AcDbEntity
  8
0
  6
Continuous
 62
     7
370
    25
100
AcDbLine
 10
61.5784910003
 20
98.974961957
 30
0.0
 11
61.5784910003
 21
101.474961957
 31
0.0
  0
LINE
  5
24A
330
1F
100
AcDbEntity
  8
0
  6
Continuous
 62
     7
370
    25
100
AcDbLine
 10
60.9275105138
 20
98.974961957
 30
0.0
 11
61.5784910003
 21
98.974961957
 31
0.0
  0
LINE
  5
24B
330
1F
100
AcDbEntity
  8
0
  6
Continuous
 62
     7
370
    25
100
AcDbLine
 10
61.3057165753
 20
101.724961957
 30
0.0
 11
61.5784910003
 21
101.724961957
 31
0.0
  0
LINE
  5
24C
330
1F
100
AcDbEntity
  8
0
  6
Continuous
 62
     7
370
    25
100
AcDbLine
 10
61.5784910003
 20
101.474961957
 30
0.0
 11
61.5784910003
 21
101.724961957
 31
0.0
  0
ARC
  5
24D
330
1F
100
AcDbEntity
  8
0
  6
Continuous
 62
     7
370
    25
100
AcDbCircle
 10
50.0784910003
 20
101.474961957
 30
0.0
 40
0.25
100
AcDbArc
 50
90.0
 51
180.0
  0
LINE
  5
24E
330
1F
100
AcDbEntity
  8
0
  6
Continuous
 62
     7
370
    25
100
AcDbLine
 10
50.0784910003
 20
101.724961957
 30
0.0
 11
50.0784910003
 21
101.474961957
 31
0.0
  0
LINE
  5
24F
330
1F
100
AcDbEntity
  8
0
  6
Continuous
 62
     7
370
    25
100
AcDbLine
 10
50.0784910003
 20
101.474961957
 30
0.0
 11
49.8284910003
 21
101.474961957
 31
0.0
  0
LINE
  5
250
330
1F
100
AcDbEntity
  8
0
  6
Continuous
 62
     7
370
    25
100
AcDbLine
 10
61.8284910003
 20
101.474961957
 30
0.0
 11
61.5784910003
 21
101.474961957
 31
0.0
  0
ARC
  5
251
330
1F
100
AcDbEntity
  8
0
  6
Continuous
 62
     7
370
    25
100
AcDbCircle
 10
61.5784910003
 20
101.474961957
 30
0.0
 40
0.25
100
AcDbArc
 50
0.0
 51
90.0
  0
LINE
  5
252
330
1F
100
AcDbEntity
  8
0
  6
Continuous
 62
     7
370
    25
100
AcDbLine
 10
50.0784910003
 20
101.724961957
 30
0.0
 11
50.3512654252
 21
101.724961957
 31
0.0
  0
LINE
  5
253
330
1F
100
AcDbEntity
  8
0
  6
Continuous
 62
     7
370
    25
100
AcDbLine
 10
61.8284910003
 20
101.474961957
 30
0.0
 11
61.8284910003
 21
98.974961957
 31
0.0
  0
LINE
  5
254
330
1F
100
AcDbEntity
  8
0
  6
Continuous
 62
     7
370
    25
100
AcDbLine
 10
61.5784910003
 20
98.974961957
 30
0.0
 11
61.8284910003
 21
98.974961957
 31
0.0
  0
LINE
  5
255
330
1F
100
AcDbEntity
  8
0
  6
Continuous
 62
     7
370
    25
100
AcDbLine
 10
49.8284910003
 20
98.974961957
 30
0.0
 11
50.0784910003
 21
98.974961957
 31
0.0
  0
LINE
  5
256
330
1F
100
AcDbEntity
  8
0
  6
Continuous
 62
     7
370
    25
100
AcDbLine
 10
49.8284910003
 20
98.974961957
 30
0.0
 11
49.8284910003
 21
101.474961957
 31
0.0
  0
LINE
  5
257
330
1F
100
AcDbEntity
  8
0
  6
Continuous
 62
     7
370
    25
100
AcDbLine
 10
61.5784910003
 20
98.724961957
 30
0.0
 11
61.5784910003
 21
98.974961957
 31
0.0
  0
ARC
  5
258
330
1F
100
AcDbEntity
  8
0
  6
Continuous
 62
     7
370
    25
100
AcDbCircle
 10
61.5784910003
 20
98.974961957
 30
0.0
 40
0.25
100
AcDbArc
 50
270.0
 51
0.0
  0
LINE
  5
259
330
1F
100
AcDbEntity
  8
0
  6
Continuous
 62
     7
370
    25
100
AcDbLine
 10
61.5784910003
 20
98.724961957
 30
0.0
 11
61.3057165753
 21
98.724961957
 31
0.0
  0
LINE
  5
25A
330
1F
100
AcDbEntity
  8
0
  6
Continuous
 62
     7
370
    25
100
AcDbLine
 10
50.0784910003
 20
98.974961957
 30
0.0
 11
50.0784910003
 21
98.724961957
 31
0.0
  0
LINE
  5
25B
330
1F
100
AcDbEntity
  8
0
  6
Continuous
 62
     7
370
    25
100
AcDbLine
 10
50.3512654252
 20
98.724961957
 30
0.0
 11
50.0784910003
 21
98.724961957
 31
0.0
  0
ARC
  5
25C
330
1F
100
AcDbEntity
  8
0
  6
Continuous
 62
     7
370
    25
100
AcDbCircle
 10
50.0784910003
 20
98.974961957
 30
0.0
 40
0.25
100
AcDbArc
 50
180.0
 51
270.0
  0
LINE
  5
25D
330
1F
100
AcDbEntity
  8
0
  6
Continuous
 62
     7
370
    25
100
AcDbLine
 10
35.8284910003
 20
103.4966612211
 30
0.0
 11
33.6530541387
 21
103.724961957
 31
0.0
  0
LINE
  5
25E
330
1F
100
AcDbEntity
  8
0
  6
Continuous
 62
     7
370
    25
100
AcDbLine
 10
35.8284910003
 20
96.953262693
 30
0.0
 11
35.8284910003
 21
103.4966612211
 31
0.0
  0
LINE
  5
25F
330
1F
100
AcDbEntity
  8
0
  6
Continuous
 62
     7
370
    25
100
AcDbLine
 10
33.6530541387
 20
96.724961957
 30
0.0
 11
35.8284910003
 21
96.953262693
 31
0.0
  0
LINE
  5
260
330
1F
100
AcDbEntity
  8
0
  6
Continuous
 62
     7
370
    25
100
AcDbLine
 10
15.8284910003
 20
96.724961957
 30
0.0
 11
33.6530541387
 21
96.724961957
 31
0.0
  0
LINE
  5
261
330
1F
100
AcDbEntity
  8
0
  6
Continuous
 62
     7
370
    25
100
AcDbLine
 10
15.8284910003
 20
103.724961957
 30
0.0
 11
15.8284910003
 21
96.724961957
 31
0.0
  0
LINE
  5
262
330
1F
100
AcDbEntity
  8
0
  6
Continuous
 62
     7
370
    25
100
AcDbLine
 10
33.6530541387
 20
103.724961957
 30
0.0
 11
15.8284910003
 21
103.724961957
 31
0.0
  0
LINE
  5
263
330
1F
100
AcDbEntity
  8
0
  6
Continuous
 62
     7
370
    25
100
AcDbLine
 10
50.6046888259
 20
101.9459764378
 30
0.0
 11
50.5081245086
 21
101.7865771176
 31
0.0
  0
LINE
  5
264
330
1F
100
AcDbEntity
  8
0
  6
Continuous
 62
     7
370
    25
100
AcDbLine
 10
50.485847128
 20
98.6797442896
 30
0.0
 11
50.6046888259
 21
98.5039474762
 31
0.0
  0
LINE
  5
265
330
1F
100
AcDbEntity
  8
0
  6
Continuous
 62
     7
370
    25
100
AcDbLine
 10
42.4119213467
 20
102.8057645926
 30
0.0
 11
42.4119213467
 21
97.6441593214
 31
0.0
  0
LINE
  5
266
330
1F
100
AcDbEntity
  8
0
  6
Continuous
 62
     7
370
    25
100
AcDbLine
 10
50.6046888259
 20
98.5039474762
 30
0.0
 11
42.4119213467
 21
97.6441593214
 31
0.0
  0
LINE
  5
267
330
1F
100
AcDbEntity
  8
0
  6
Continuous
 62
     7
370
    25
100
AcDbLine
 10
42.4119213467
 20
102.8057645926
 30
0.0
 11
50.6046888259
 21
101.9459764378
 31
0.0
  0
LINE
  5
268
330
1F
100
AcDbEntity
  8
0
  6
Continuous
 62
     7
370
    25
100
AcDbLine
 10
42.4119213467
 20
97.6441593214
 30
0.0
 11
35.8284910003
 21
96.953262693
 31
0.0
  0
LINE
  5
269
330
1F
100
AcDbEntity
  8
0
  6
Continuous
 62
     7
370
    25
100
AcDbLine
 10
35.8284910003
 20
103.4966612211
 30
0.0
 11
42.4119213467
 21
102.8057645926
 31
0.0
  0
ARC
  5
26A
330
1F
100
AcDbEntity
  8
0
  6
Continuous
 62
     7
370
    25
100
AcDbCircle
 10
55.8284910003
 20
100.224961957
 30
0.0
 40
7.450000000000647
100
AcDbArc
 50
233.0863788866
 51
126.9136211134
  0
ARC
  5
26B
330
1F
100
AcDbEntity
  8
0
  6
Continuous
 62
     7
370
    25
100
AcDbCircle
 10
55.8284910003
 20
100.224961957
 30
0.0
 40
7.207531252870791
100
AcDbArc
 50
195.3041237151
 51
238.9797515565
  0
ARC
  5
26C
330
1F
100
AcDbEntity
  8
0
  6
Continuous
 62
     7
370
    25
100
AcDbCircle
 10
55.8284910003
 20
100.224961957
 30
0.0
 40
7.207531252872433
100
AcDbArc
 50
121.0202484435
 51
164.6958762849
  0
ARC
  5
26D
330
1F
100
AcDbEntity
  8
0
  6
Continuous
 62
     7
370
    25
100
AcDbCircle
 10
33.6530541387
 20
168.724961957
 30
0.0
 40
65.0
100
AcDbArc
 50
270.0
 51
286.5000949923
  0
ARC
  5
26E
330
1F
100
AcDbEntity
  8
0
  6
Continuous
 62
     7
370
    25
100
AcDbCircle
 10
33.6530541387
 20
31.724961957
 30
0.0
 40
65.0
100
AcDbArc
 50
73.4999050077
 51
90.0
  0
LINE
  5
26F
330
1F
100
AcDbEntity
  8
0
  6
Continuous
 62
     7
370
    25
100
AcDbLine
 10
67.0064320277
 20
99.974961957
 30
0.0
 11
63.2742951879
 21
99.974961957
 31
0.0
  0
LINE
  5
270
330
1F
100
AcDbEntity
  8
0
  6
Continuous
 62
     7
370
    25
100
AcDbLine
 10
63.2742951879
 20
100.474961957
 30
0.0
 11
67.0064320277
 21
100.474961957
 31
0.0
  0
MTEXT
  5
272
330
1F
100
AcDbEntity
  8
0
  6
Continuous
 62
     7
370
     0
100
AcDbMText
 10
55.9576534579
 20
83.980345078
 30
0.0
 40
3.5
 41
0.0
 71
     1
 72
     1
  1
エースボール　アングル型
  7
SLDTEXTSTYLE0
 73
     1
 44
1.0
  0
MTEXT
  5
273
330
1F
100
AcDbEntity
  8
0
  6
Continuous
 62
     7
370
     0
100
AcDbMText
 10
55.9576534579
 20
79.4546505475
 30
0.0
 40
3.5
 41
0.0
 71
     1
 72
     1
  1
BR-3206
  7
SLDTEXTSTYLE0
 73
     1
 44
1.0
  0
INSERT
  5
27F
330
1F
100
AcDbEntity
  8
0
  6
Continuous
 62
     7
370
    18
100
AcDbBlockReference
  2
SW_CENTERMARKSYMBOL_1
 10
55.8284910003
 20
100.224961957
 30
0.0
  0
ENDSEC
  0
SECTION
  2
OBJECTS
  0
DICTIONARY
  5
C
330
0
100
AcDbDictionary
281
     1
  3
ACAD_GROUP
350
D
  3
ACAD_LAYOUT
350
1A
  3
ACAD_MLINESTYLE
350
17
  3
ACAD_PLOTSETTINGS
350
19
  3
ACAD_PLOTSTYLENAME
350
E
  3
ACAD_SCALELIST
350
47
  3
DWGPROPS
350
280
  0
DICTIONARY
  5
D
102
{ACAD_REACTORS
330
C
102
}
330
C
100
AcDbDictionary
281
     1
  0
DICTIONARY
  5
1A
102
{ACAD_REACTORS
330
C
102
}
330
C
100
AcDbDictionary
281
     1
  3
Layout1
350
1E
  3
Layout2
350
26
  3
Model
350
22
  0
DICTIONARY
  5
17
102
{ACAD_REACTORS
330
C
102
}
330
C
100
AcDbDictionary
281
     1
  3
Standard
350
18
  0
DICTIONARY
  5
19
102
{ACAD_REACTORS
330
C
102
}
330
C
100
AcDbDictionary
281
     1
  0
ACDBDICTIONARYWDFLT
  5
E
102
{ACAD_REACTORS
330
C
102
}
330
C
100
AcDbDictionary
281
     1
  3
Normal
350
F
100
AcDbDictionaryWithDefault
340
F
  0
DICTIONARY
  5
47
102
{ACAD_REACTORS
330
C
102
}
330
C
100
AcDbDictionary
281
     1
  3
A0
350
48
  3
A1
350
49
  3
A2
350
4A
  3
A3
350
4B
  3
A4
350
4C
  3
A5
350
4D
  3
A6
350
4E
  3
A7
350
4F
  3
A8
350
50
  3
A9
350
51
  3
B0
350
52
  3
B1
350
53
  3
B2
350
54
  3
B3
350
55
  3
B4
350
56
  3
B5
350
57
  3
B6
350
58
  0
XRECORD
  5
280
102
{ACAD_REACTORS
330
C
102
}
330
C
100
AcDbXrecord
280
     1
  1
DWGPROPS COOKIE
  2

  3

  4

  6

  7

  8
user52
  9

300
=
301
=
302
=
303
=
304
=
305
=
306
=
307
=
308
=
309
=
 40
0.0
 41
2460339.17660853
 42
2460339.17660897
  1

 90
        0
  0
LAYOUT
  5
1E
102
{ACAD_REACTORS
330
1A
102
}
330
1A
100
AcDbPlotSettings
  1

  2
none_device
  4

  6

 40
0.0
 41
0.0
 42
0.0
 43
0.0
 44
0.0
 45
0.0
 46
0.0
 47
0.0
 48
0.0
 49
0.0
140
0.0
141
0.0
142
1.0
143
1.0
 70
   688
 72
     1
 73
     0
 74
     5
  7

 75
    16
147
1.0
148
0.0
149
0.0
100
AcDbLayout
  1
Layout1
 70
     1
 71
     1
 10
0.0
 20
0.0
 11
420.0
 21
297.0
 12
0.0
 22
0.0
 32
0.0
 14
1.0000000000E+20
 24
1.0000000000E+20
 34
1.0000000000E+20
 15
-1.0000000000E+20
 25
-1.0000000000E+20
 35
-1.0000000000E+20
146
0.0
 13
0.0
 23
0.0
 33
0.0
 16
1.0
 26
0.0
 36
0.0
 17
0.0
 27
1.0
 37
0.0
 76
     0
330
1B
  0
LAYOUT
  5
26
102
{ACAD_REACTORS
330
1A
102
}
330
1A
100
AcDbPlotSettings
  1

  2
none_device
  4

  6

 40
0.0
 41
0.0
 42
0.0
 43
0.0
 44
0.0
 45
0.0
 46
0.0
 47
0.0
 48
0.0
 49
0.0
140
0.0
141
0.0
142
1.0
143
1.0
 70
   688
 72
     1
 73
     0
 74
     5
  7

 75
    16
147
1.0
148
0.0
149
0.0
100
AcDbLayout
  1
Layout2
 70
     1
 71
     2
 10
0.0
 20
0.0
 11
0.0
 21
0.0
 12
0.0
 22
0.0
 32
0.0
 14
0.0
 24
0.0
 34
0.0
 15
0.0
 25
0.0
 35
0.0
146
0.0
 13
0.0
 23
0.0
 33
0.0
 16
1.0
 26
0.0
 36
0.0
 17
0.0
 27
1.0
 37
0.0
 76
     0
330
23
  0
LAYOUT
  5
22
102
{ACAD_REACTORS
330
1A
102
}
330
1A
100
AcDbPlotSettings
  1

  2
none_device
  4
Letter_(8.50_x_11.00_Inches)
  6

 40
6.35
 41
6.35
 42
6.35000508
 43
6.35000508
 44
215.9
 45
279.4
 46
0.0
 47
0.0
 48
0.0
 49
0.0
140
0.0
141
0.0
142
1.0
143
1.0
 70
  1712
 72
     1
 73
     0
 74
     0
  7

 75
     0
147
1.0
148
0.0
149
0.0
100
AcDbLayout
  1
Model
 70
     1
 71
     0
 10
0.0
 20
0.0
 11
431.8
 21
279.4
 12
0.0
 22
0.0
 32
0.0
 14
0.0
 24
0.0
 34
0.0
 15
431.8
 25
279.4
 35
0.0
146
0.0
 13
0.0
 23
0.0
 33
0.0
 16
1.0
 26
0.0
 36
0.0
 17
0.0
 27
1.0
 37
0.0
 76
     0
330
1F
331
29
  0
MLINESTYLE
  5
18
102
{ACAD_REACTORS
330
17
102
}
330
17
100
AcDbMlineStyle
  2
Standard
 70
     0
  3

 62
   256
 51
90.0
 52
90.0
 71
     2
 49
0.5
 62
   256
  6
BYLAYER
 49
-0.5
 62
   256
  6
BYLAYER
  0
ACDBPLACEHOLDER
  5
F
102
{ACAD_REACTORS
330
E
102
}
330
E
  0
SCALE
  5
48
102
{ACAD_REACTORS
330
47
102
}
330
47
100
AcDbScale
 70
     0
300
1:1
140
1.0
141
1.0
290
     1
  0
SCALE
  5
49
102
{ACAD_REACTORS
330
47
102
}
330
47
100
AcDbScale
 70
     0
300
1:2
140
1.0
141
2.0
290
     0
  0
SCALE
  5
4A
102
{ACAD_REACTORS
330
47
102
}
330
47
100
AcDbScale
 70
     0
300
1:4
140
1.0
141
4.0
290
     0
  0
SCALE
  5
4B
102
{ACAD_REACTORS
330
47
102
}
330
47
100
AcDbScale
 70
     0
300
1:5
140
1.0
141
5.0
290
     0
  0
SCALE
  5
4C
102
{ACAD_REACTORS
330
47
102
}
330
47
100
AcDbScale
 70
     0
300
1:8
140
1.0
141
8.0
290
     0
  0
SCALE
  5
4D
102
{ACAD_REACTORS
330
47
102
}
330
47
100
AcDbScale
 70
     0
300
1:10
140
1.0
141
10.0
290
     0
  0
SCALE
  5
4E
102
{ACAD_REACTORS
330
47
102
}
330
47
100
AcDbScale
 70
     0
300
1:16
140
1.0
141
16.0
290
     0
  0
SCALE
  5
4F
102
{ACAD_REACTORS
330
47
102
}
330
47
100
AcDbScale
 70
     0
300
1:20
140
1.0
141
20.0
290
     0
  0
SCALE
  5
50
102
{ACAD_REACTORS
330
47
102
}
330
47
100
AcDbScale
 70
     0
300
1:30
140
1.0
141
30.0
290
     0
  0
SCALE
  5
51
102
{ACAD_REACTORS
330
47
102
}
330
47
100
AcDbScale
 70
     0
300
1:40
140
1.0
141
40.0
290
     0
  0
SCALE
  5
52
102
{ACAD_REACTORS
330
47
102
}
330
47
100
AcDbScale
 70
     0
300
1:50
140
1.0
141
50.0
290
     0
  0
SCALE
  5
53
102
{ACAD_REACTORS
330
47
102
}
330
47
100
AcDbScale
 70
     0
300
1:100
140
1.0
141
100.0
290
     0
  0
SCALE
  5
54
102
{ACAD_REACTORS
330
47
102
}
330
47
100
AcDbScale
 70
     0
300
2:1
140
2.0
141
1.0
290
     0
  0
SCALE
  5
55
102
{ACAD_REACTORS
330
47
102
}
330
47
100
AcDbScale
 70
     0
300
4:1
140
4.0
141
1.0
290
     0
  0
SCALE
  5
56
102
{ACAD_REACTORS
330
47
102
}
330
47
100
AcDbScale
 70
     0
300
8:1
140
8.0
141
1.0
290
     0
  0
SCALE
  5
57
102
{ACAD_REACTORS
330
47
102
}
330
47
100
AcDbScale
 70
     0
300
10:1
140
10.0
141
1.0
290
     0
  0
SCALE
  5
58
102
{ACAD_REACTORS
330
47
102
}
330
47
100
AcDbScale
 70
     0
300
100:1
140
100.0
141
1.0
290
     0
  0
ENDSEC
  0
EOF
