  0
SECTION
  2
HEADER
  9
$ACADVER
  1
AC1015
  9
$ACADMAINTVER
 70
     6
  9
$DWGCODEPAGE
  3
DOS932
  9
$INSBASE
 10
0.0
 20
0.0
 30
0.0
  9
$EXTMIN
 10
0.0
 20
0.0
 30
0.0
  9
$EXTMAX
 10
431.8
 20
279.4
 30
0.0
  9
$LIMMIN
 10
0.0
 20
0.0
  9
$LIMMAX
 10
431.8
 20
279.4
  9
$ORTHOMODE
 70
     0
  9
$REGENMODE
 70
     1
  9
$FILLMODE
 70
     1
  9
$QTEXTMODE
 70
     0
  9
$MIRRTEXT
 70
     1
  9
$LTSCALE
 40
1.0
  9
$ATTMODE
 70
     1
  9
$TEXTSIZE
 40
3.5
  9
$TRACEWID
 40
1.0
  9
$TEXTSTYLE
  7
Standard
  9
$CLAYER
  8
0
  9
$CELTYPE
  6
ByLayer
  9
$CECOLOR
 62
   256
  9
$CELTSCALE
 40
1.0
  9
$DISPSILH
 70
     0
  9
$DIMSCALE
 40
1.0
  9
$DIMASZ
 40
3.556
  9
$DIMEXO
 40
1.0
  9
$DIMDLI
 40
3.75
  9
$DIMRND
 40
0.0
  9
$DIMDLE
 40
0.0
  9
$DIMEXE
 40
1.0
  9
$DIMTP
 40
0.0
  9
$DIMTM
 40
0.0
  9
$DIMTXT
 40
3.5
  9
$DIMCEN
 40
2.5
  9
$DIMTSZ
 40
0.0
  9
$DIMTOL
 70
     0
  9
$DIMLIM
 70
     0
  9
$DIMTIH
 70
     1
  9
$DIMTOH
 70
     1
  9
$DIMSE1
 70
     0
  9
$DIMSE2
 70
     0
  9
$DIMTAD
 70
     1
  9
$DIMZIN
 70
     0
  9
$DIMBLK
  1

  9
$DIMASO
 70
     1
  9
$DIMSHO
 70
     1
  9
$DIMPOST
  1

  9
$DIMAPOST
  1

  9
$DIMALT
 70
     0
  9
$DIMALTD
 70
     3
  9
$DIMALTF
 40
0.0393700787
  9
$DIMLFAC
 40
1.0
  9
$DIMTOFL
 70
     1
  9
$DIMTVP
 40
0.0
  9
$DIMTIX
 70
     0
  9
$DIMSOXD
 70
     0
  9
$DIMSAH
 70
     0
  9
$DIMBLK1
  1

  9
$DIMBLK2
  1

  9
$DIMSTYLE
  2
ISO-25
  9
$DIMCLRD
 70
     0
  9
$DIMCLRE
 70
     0
  9
$DIMCLRT
 70
     0
  9
$DIMTFAC
 40
1.0
  9
$DIMGAP
 40
1.524
  9
$DIMJUST
 70
     0
  9
$DIMSD1
 70
     0
  9
$DIMSD2
 70
     0
  9
$DIMTOLJ
 70
     0
  9
$DIMTZIN
 70
     0
  9
$DIMALTZ
 70
     0
  9
$DIMALTTZ
 70
     0
  9
$DIMUPT
 70
     0
  9
$DIMDEC
 70
     3
  9
$DIMTDEC
 70
     3
  9
$DIMALTU
 70
     2
  9
$DIMALTTD
 70
     3
  9
$DIMTXSTY
  7
Standard
  9
$DIMAUNIT
 70
     0
  9
$DIMADEC
 70
     2
  9
$DIMALTRND
 40
0.0
  9
$DIMAZIN
 70
     0
  9
$DIMDSEP
 70
    44
  9
$DIMATFIT
 70
     3
  9
$DIMFRAC
 70
     0
  9
$DIMLDRBLK
  1

  9
$DIMLUNIT
 70
     2
  9
$DIMLWD
 70
    -2
  9
$DIMLWE
 70
    -2
  9
$DIMTMOVE
 70
     0
  9
$LUNITS
 70
     2
  9
$LUPREC
 70
     3
  9
$SKETCHINC
 40
1.0
  9
$FILLETRAD
 40
0.0
  9
$AUNITS
 70
     0
  9
$AUPREC
 70
     2
  9
$MENU
  1
.
  9
$ELEVATION
 40
0.0
  9
$PELEVATION
 40
0.0
  9
$THICKNESS
 40
0.0
  9
$LIMCHECK
 70
     0
  9
$CHAMFERA
 40
0.0
  9
$CHAMFERB
 40
0.0
  9
$CHAMFERC
 40
0.0
  9
$CHAMFERD
 40
0.0
  9
$SKPOLY
 70
     0
  9
$TDCREATE
 40
2460339.548502269
  9
$TDUCREATE
 40
2460339.173502269
  9
$TDUPDATE
 40
2460339.54850272
  9
$TDUUPDATE
 40
2460339.17350272
  9
$TDINDWG
 40
0.0000000116
  9
$TDUSRTIMER
 40
0.0000000116
  9
$USRTIMER
 70
     1
  9
$ANGBASE
 50
0.0
  9
$ANGDIR
 70
     0
  9
$PDMODE
 70
     0
  9
$PDSIZE
 40
-1.0
  9
$PLINEWID
 40
0.0
  9
$SPLFRAME
 70
     0
  9
$SPLINETYPE
 70
     6
  9
$SPLINESEGS
 70
     8
  9
$HANDSEED
  5
2A6
  9
$SURFTAB1
 70
     6
  9
$SURFTAB2
 70
     6
  9
$SURFTYPE
 70
     6
  9
$SURFU
 70
     6
  9
$SURFV
 70
     6
  9
$UCSBASE
  2

  9
$UCSNAME
  2

  9
$UCSORG
 10
0.0
 20
0.0
 30
0.0
  9
$UCSXDIR
 10
1.0
 20
0.0
 30
0.0
  9
$UCSYDIR
 10
0.0
 20
1.0
 30
0.0
  9
$UCSORTHOREF
  2

  9
$UCSORTHOVIEW
 70
     0
  9
$UCSORGTOP
 10
0.0
 20
0.0
 30
0.0
  9
$UCSORGBOTTOM
 10
0.0
 20
0.0
 30
0.0
  9
$UCSORGLEFT
 10
0.0
 20
0.0
 30
0.0
  9
$UCSORGRIGHT
 10
0.0
 20
0.0
 30
0.0
  9
$UCSORGFRONT
 10
0.0
 20
0.0
 30
0.0
  9
$UCSORGBACK
 10
0.0
 20
0.0
 30
0.0
  9
$PUCSBASE
  2

  9
$PUCSNAME
  2

  9
$PUCSORG
 10
0.0
 20
0.0
 30
0.0
  9
$PUCSXDIR
 10
1.0
 20
0.0
 30
0.0
  9
$PUCSYDIR
 10
0.0
 20
1.0
 30
0.0
  9
$PUCSORTHOREF
  2

  9
$PUCSORTHOVIEW
 70
     0
  9
$PUCSORGTOP
 10
0.0
 20
0.0
 30
0.0
  9
$PUCSORGBOTTOM
 10
0.0
 20
0.0
 30
0.0
  9
$PUCSORGLEFT
 10
0.0
 20
0.0
 30
0.0
  9
$PUCSORGRIGHT
 10
0.0
 20
0.0
 30
0.0
  9
$PUCSORGFRONT
 10
0.0
 20
0.0
 30
0.0
  9
$PUCSORGBACK
 10
0.0
 20
0.0
 30
0.0
  9
$USERI1
 70
     0
  9
$USERI2
 70
     0
  9
$USERI3
 70
     0
  9
$USERI4
 70
     0
  9
$USERI5
 70
     0
  9
$USERR1
 40
0.0
  9
$USERR2
 40
0.0
  9
$USERR3
 40
0.0
  9
$USERR4
 40
0.0
  9
$USERR5
 40
0.0
  9
$WORLDVIEW
 70
     1
  9
$SHADEDGE
 70
     3
  9
$SHADEDIF
 70
    70
  9
$TILEMODE
 70
     1
  9
$MAXACTVP
 70
    64
  9
$PINSBASE
 10
0.0
 20
0.0
 30
0.0
  9
$PLIMCHECK
 70
     0
  9
$PEXTMIN
 10
1.0000000000E+20
 20
1.0000000000E+20
 30
1.0000000000E+20
  9
$PEXTMAX
 10
-1.0000000000E+20
 20
-1.0000000000E+20
 30
-1.0000000000E+20
  9
$PLIMMIN
 10
0.0
 20
0.0
  9
$PLIMMAX
 10
420.0
 20
297.0
  9
$UNITMODE
 70
     0
  9
$VISRETAIN
 70
     1
  9
$PLINEGEN
 70
     0
  9
$PSLTSCALE
 70
     1
  9
$TREEDEPTH
 70
  3020
  9
$CMLSTYLE
  2
Standard
  9
$CMLJUST
 70
     0
  9
$CMLSCALE
 40
20.0
  9
$PROXYGRAPHICS
 70
     1
  9
$MEASUREMENT
 70
     1
  9
$CELWEIGHT
370
    -1
  9
$ENDCAPS
280
     0
  9
$JOINSTYLE
280
     0
  9
$LWDISPLAY
290
     1
  9
$INSUNITS
 70
     4
  9
$HYPERLINKBASE
  1

  9
$STYLESHEET
  1

  9
$XEDIT
290
     1
  9
$CEPSNTYPE
380
     0
  9
$PSTYLEMODE
290
     1
  9
$FINGERPRINTGUID
  2
{7103088c-001e-4ebd-a232-1c0a7c9649c9}
  9
$VERSIONGUID
  2
{FAEB1C32-E019-11D5-929B-00C0DF256EC4}
  9
$EXTNAMES
290
     1
  9
$PSVPSCALE
 40
0.0
  9
$OLESTARTUP
290
     0
  0
ENDSEC
  0
SECTION
  2
CLASSES
  0
CLASS
  1
ACDBDICTIONARYWDFLT
  2
AcDbDictionaryWithDefault
  3
ObjectDBX Classes
 90
        0
280
     0
281
     0
  0
CLASS
  1
VISUALSTYLE
  2
AcDbVisualStyle
  3
ObjectDBX Classes
 90
     4095
280
     0
281
     0
  0
CLASS
  1
MATERIAL
  2
AcDbMaterial
  3
ObjectDBX Classes
 90
     1153
280
     0
281
     0
  0
CLASS
  1
SCALE
  2
AcDbScale
  3
ObjectDBX Classes
 90
     1153
280
     0
281
     0
  0
CLASS
  1
TABLESTYLE
  2
AcDbTableStyle
  3
ObjectDBX Classes
 90
     4095
280
     0
281
     0
  0
CLASS
  1
MLEADERSTYLE
  2
AcDbMLeaderStyle
  3
ACDB_MLEADERSTYLE_CLASS
 90
     4095
280
     0
281
     0
  0
CLASS
  1
SUN
  2
AcDbSun
  3
SCENEOE
 90
     1153
280
     0
281
     0
  0
CLASS
  1
ACDBPLACEHOLDER
  2
AcDbPlaceHolder
  3
ObjectDBX Classes
 90
        0
280
     0
281
     0
  0
CLASS
  1
LAYOUT
  2
AcDbLayout
  3
ObjectDBX Classes
 90
        0
280
     0
281
     0
  0
ENDSEC
  0
SECTION
  2
TABLES
  0
TABLE
  2
VPORT
  5
8
330
0
100
AcDbSymbolTable
 70
     1
  0
VPORT
  5
29
330
8
100
AcDbSymbolTableRecord
100
AcDbViewportTableRecord
  2
*Active
 70
     0
 10
0.0
 20
0.0
 11
1.0
 21
1.0
 12
215.9
 22
139.7
 13
0.0
 23
0.0
 14
10.0
 24
10.0
 15
10.0
 25
10.0
 16
0.0
 26
0.0
 36
1.0
 17
0.0
 27
0.0
 37
0.0
 40
279.4
 41
1.5454545455
 42
50.0
 43
0.0
 44
0.0
 50
0.0
 51
0.0
 71
     0
 72
  2000
 73
     1
 74
     3
 75
     0
 76
     0
 77
     0
 78
     0
281
     0
 65
     1
110
0.0
120
0.0
130
0.0
111
1.0
121
0.0
131
0.0
112
0.0
122
1.0
132
0.0
 79
     0
146
0.0
  0
ENDTAB
  0
TABLE
  2
LTYPE
  5
5
330
0
100
AcDbSymbolTable
 70
     6
  0
LTYPE
  5
14
330
5
100
AcDbSymbolTableRecord
100
AcDbLinetypeTableRecord
  2
ByBlock
 70
     0
  3

 72
    65
 73
     0
 40
0.0
  0
LTYPE
  5
15
330
5
100
AcDbSymbolTableRecord
100
AcDbLinetypeTableRecord
  2
ByLayer
 70
     0
  3

 72
    65
 73
     0
 40
0.0
  0
LTYPE
  5
16
330
5
100
AcDbSymbolTableRecord
100
AcDbLinetypeTableRecord
  2
Continuous
 70
     0
  3
Solid line
 72
    65
 73
     0
 40
0.0
  0
LTYPE
  5
5E
330
5
100
AcDbSymbolTableRecord
100
AcDbLinetypeTableRecord
  2
HIDDEN
 70
     0
  3
Hidden __ __ __ __ __ __ __ __ __ __ __ __ __ __
 72
    65
 73
     2
 40
1.905
 49
1.27
 74
     0
 49
-0.635
 74
     0
  0
LTYPE
  5
5F
330
5
100
AcDbSymbolTableRecord
100
AcDbLinetypeTableRecord
  2
PHANTOM
 70
     0
  3
Phantom ______  __  __  ______  __  __  ______
 72
    65
 73
     6
 40
12.7
 49
6.35
 74
     0
 49
-1.27
 74
     0
 49
1.27
 74
     0
 49
-1.27
 74
     0
 49
1.27
 74
     0
 49
-1.27
 74
     0
  0
LTYPE
  5
60
330
5
100
AcDbSymbolTableRecord
100
AcDbLinetypeTableRecord
  2
CENTER
 70
     0
  3
Center ____ _ ____ _ ____ _ ____ _ ____ _ ____
 72
    65
 73
     4
 40
10.16
 49
6.35
 74
     0
 49
-1.27
 74
     0
 49
1.27
 74
     0
 49
-1.27
 74
     0
  0
LTYPE
  5
61
330
5
100
AcDbSymbolTableRecord
100
AcDbLinetypeTableRecord
  2
CENTERX2
 70
     0
  3
Center (2x) ________  __  ________  __  _____
 72
    65
 73
     4
 40
20.32
 49
12.7
 74
     0
 49
-2.54
 74
     0
 49
2.54
 74
     0
 49
-2.54
 74
     0
  0
LTYPE
  5
62
330
5
100
AcDbSymbolTableRecord
100
AcDbLinetypeTableRecord
  2
DOT2
 70
     0
  3
Dot (.5x) ........................................
 72
    65
 73
     2
 40
0.635
 49
0.0
 74
     0
 49
-0.635
 74
     0
  0
ENDTAB
  0
TABLE
  2
LAYER
  5
2
330
0
100
AcDbSymbolTable
 70
     1
  0
LAYER
  5
10
330
2
100
AcDbSymbolTableRecord
100
AcDbLayerTableRecord
  2
0
 70
     0
 62
     7
  6
Continuous
370
    -3
390
F
  0
ENDTAB
  0
TABLE
  2
STYLE
  5
3
330
0
100
AcDbSymbolTable
 70
     2
  0
STYLE
  5
11
330
3
100
AcDbSymbolTableRecord
100
AcDbTextStyleTableRecord
  2
Standard
 70
     0
 40
0.0
 41
1.0
 50
0.0
 71
     0
 42
3.5
  3
txt
  4
bigfont
  0
STYLE
  5
63
330
3
100
AcDbSymbolTableRecord
100
AcDbTextStyleTableRecord
  2
SLDTEXTSTYLE0
 70
     0
 40
0.0
 41
0.75
 50
0.0
 71
     0
 42
3.5
  3
TXT
  4
bigfont
  0
ENDTAB
  0
TABLE
  2
VIEW
  5
6
330
0
100
AcDbSymbolTable
 70
     0
  0
ENDTAB
  0
TABLE
  2
UCS
  5
7
330
0
100
AcDbSymbolTable
 70
     0
  0
ENDTAB
  0
TABLE
  2
APPID
  5
9
330
0
100
AcDbSymbolTable
 70
     1
  0
APPID
  5
12
330
9
100
AcDbSymbolTableRecord
100
AcDbRegAppTableRecord
  2
ACAD
 70
     0
  0
ENDTAB
  0
TABLE
  2
DIMSTYLE
  5
A
330
0
100
AcDbSymbolTable
 70
     1
100
AcDbDimStyleTable
  0
DIMSTYLE
105
27
330
A
100
AcDbSymbolTableRecord
100
AcDbDimStyleTableRecord
  2
ISO-25
 70
     0
 41
2.5
 42
0.625
 43
3.75
 44
1.25
 73
     0
 74
     0
 77
     1
 78
     8
140
2.5
141
2.5
143
0.0393700787
147
0.625
171
     3
172
     1
178
     0
271
     2
272
     2
274
     3
278
    44
283
     0
284
     8
340
11
  0
ENDTAB
  0
TABLE
  2
BLOCK_RECORD
  5
1
330
0
100
AcDbSymbolTable
 70
     3
  0
BLOCK_RECORD
  5
1F
330
1
100
AcDbSymbolTableRecord
100
AcDbBlockTableRecord
  2
*Model_Space
340
22
  0
BLOCK_RECORD
  5
1B
330
1
100
AcDbSymbolTableRecord
100
AcDbBlockTableRecord
  2
*Paper_Space
340
1E
  0
BLOCK_RECORD
  5
23
330
1
100
AcDbSymbolTableRecord
100
AcDbBlockTableRecord
  2
*Paper_Space0
340
26
  0
BLOCK_RECORD
  5
21D
330
1
100
AcDbSymbolTableRecord
100
AcDbBlockTableRecord
  2
SW_CENTERMARKSYMBOL_0
340
0
102
{BLKREFS
331
228
102
}
  0
BLOCK_RECORD
  5
297
330
1
100
AcDbSymbolTableRecord
100
AcDbBlockTableRecord
  2
SW_CENTERMARKSYMBOL_1
340
0
102
{BLKREFS
331
2A2
102
}
  0
ENDTAB
  0
ENDSEC
  0
SECTION
  2
BLOCKS
  0
BLOCK
  5
20
330
1F
100
AcDbEntity
  8
0
100
AcDbBlockBegin
  2
*Model_Space
 70
     0
 10
0.0
 20
0.0
 30
0.0
  3
*Model_Space
  1

  0
ENDBLK
  5
21
330
1F
100
AcDbEntity
  8
0
100
AcDbBlockEnd
  0
BLOCK
  5
1C
330
1B
100
AcDbEntity
 67
     1
  8
0
100
AcDbBlockBegin
  2
*Paper_Space
 70
     0
 10
0.0
 20
0.0
 30
0.0
  3
*Paper_Space
  1

  0
ENDBLK
  5
1D
330
1B
100
AcDbEntity
 67
     1
  8
0
100
AcDbBlockEnd
  0
BLOCK
  5
24
330
23
100
AcDbEntity
  8
0
100
AcDbBlockBegin
  2
*Paper_Space0
 70
     0
 10
0.0
 20
0.0
 30
0.0
  3
*Paper_Space0
  1

  0
ENDBLK
  5
25
330
23
100
AcDbEntity
  8
0
100
AcDbBlockEnd
  0
BLOCK
  5
21E
330
21D
100
AcDbEntity
  8
0
100
AcDbBlockBegin
  2
SW_CENTERMARKSYMBOL_0
 70
     0
 10
0.0
 20
0.0
 30
0.0
  3
SW_CENTERMARKSYMBOL_0
  1

  0
LINE
  5
220
330
21D
100
AcDbEntity
  8
0
  6
Continuous
 62
     0
370
    18
100
AcDbLine
 10
0.0
 20
0.0
 30
0.0
 11
0.0
 21
2.5
 31
0.0
  0
LINE
  5
221
330
21D
100
AcDbEntity
  8
0
  6
Continuous
 62
     0
370
    18
100
AcDbLine
 10
0.0
 20
0.0
 30
0.0
 11
-2.5
 21
0.0
 31
0.0
  0
LINE
  5
222
330
21D
100
AcDbEntity
  8
0
  6
Continuous
 62
     0
370
    18
100
AcDbLine
 10
0.0
 20
0.0
 30
0.0
 11
0.0
 21
-2.5
 31
0.0
  0
LINE
  5
223
330
21D
100
AcDbEntity
  8
0
  6
Continuous
 62
     0
370
    18
100
AcDbLine
 10
0.0
 20
0.0
 30
0.0
 11
2.5
 21
0.0
 31
0.0
  0
LINE
  5
224
330
21D
100
AcDbEntity
  8
0
  6
Continuous
 62
     0
370
    18
100
AcDbLine
 10
0.0
 20
5.0
 30
0.0
 11
0.0
 21
9.95
 31
0.0
  0
LINE
  5
225
330
21D
100
AcDbEntity
  8
0
  6
Continuous
 62
     0
370
    18
100
AcDbLine
 10
-5.0
 20
0.0
 30
0.0
 11
-42.3265035503
 21
0.0
 31
0.0
  0
LINE
  5
226
330
21D
100
AcDbEntity
  8
0
  6
Continuous
 62
     0
370
    18
100
AcDbLine
 10
0.0
 20
-5.0
 30
0.0
 11
0.0
 21
-9.95
 31
0.0
  0
LINE
  5
227
330
21D
100
AcDbEntity
  8
0
  6
Continuous
 62
     0
370
    18
100
AcDbLine
 10
5.0
 20
0.0
 30
0.0
 11
14.1651092158
 21
0.0
 31
0.0
  0
ENDBLK
  5
21F
330
21D
100
AcDbEntity
  8
0
100
AcDbBlockEnd
  0
BLOCK
  5
298
330
297
100
AcDbEntity
  8
0
100
AcDbBlockBegin
  2
SW_CENTERMARKSYMBOL_1
 70
     0
 10
0.0
 20
0.0
 30
0.0
  3
SW_CENTERMARKSYMBOL_1
  1

  0
LINE
  5
29A
330
297
100
AcDbEntity
  8
0
  6
Continuous
 62
     0
370
    18
100
AcDbLine
 10
0.0
 20
0.0
 30
0.0
 11
0.0
 21
2.5
 31
0.0
  0
LINE
  5
29B
330
297
100
AcDbEntity
  8
0
  6
Continuous
 62
     0
370
    18
100
AcDbLine
 10
0.0
 20
0.0
 30
0.0
 11
-2.5
 21
0.0
 31
0.0
  0
LINE
  5
29C
330
297
100
AcDbEntity
  8
0
  6
Continuous
 62
     0
370
    18
100
AcDbLine
 10
0.0
 20
0.0
 30
0.0
 11
0.0
 21
-2.5
 31
0.0
  0
LINE
  5
29D
330
297
100
AcDbEntity
  8
0
  6
Continuous
 62
     0
370
    18
100
AcDbLine
 10
0.0
 20
0.0
 30
0.0
 11
2.5
 21
0.0
 31
0.0
  0
LINE
  5
29E
330
297
100
AcDbEntity
  8
0
  6
Continuous
 62
     0
370
    18
100
AcDbLine
 10
0.0
 20
5.0
 30
0.0
 11
0.0
 21
30.7015941967
 31
0.0
  0
LINE
  5
29F
330
297
100
AcDbEntity
  8
0
  6
Continuous
 62
     0
370
    18
100
AcDbLine
 10
-5.0
 20
0.0
 30
0.0
 11
-10.75
 21
0.0
 31
0.0
  0
LINE
  5
2A0
330
297
100
AcDbEntity
  8
0
  6
Continuous
 62
     0
370
    18
100
AcDbLine
 10
0.0
 20
-5.0
 30
0.0
 11
0.0
 21
-25.5153258763
 31
0.0
  0
LINE
  5
2A1
330
297
100
AcDbEntity
  8
0
  6
Continuous
 62
     0
370
    18
100
AcDbLine
 10
5.0
 20
0.0
 30
0.0
 11
10.75
 21
0.0
 31
0.0
  0
ENDBLK
  5
299
330
297
100
AcDbEntity
  8
0
100
AcDbBlockEnd
  0
ENDSEC
  0
SECTION
  2
ENTITIES
  0
MTEXT
  5
64
330
1F
100
AcDbEntity
  8
0
  6
Continuous
 62
     7
370
     0
100
AcDbMText
 10
57.3664823499
 20
88.3764018505
 30
0.0
 40
3.5
 41
0.0
 71
     1
 72
     1
  1
エースボール　アングル型
  7
SLDTEXTSTYLE0
 73
     1
 44
1.0
  0
MTEXT
  5
65
330
1F
100
AcDbEntity
  8
0
  6
Continuous
 62
     7
370
     0
100
AcDbMText
 10
57.3664823499
 20
83.8507073201
 30
0.0
 40
3.5
 41
0.0
 71
     1
 72
     1
  1
BR-3202
  7
SLDTEXTSTYLE0
 73
     1
 44
1.0
  0
LINE
  5
66
330
1F
100
AcDbEntity
  8
0
  6
Continuous
 62
     7
370
    25
100
AcDbLine
 10
27.1242895149
 20
53.1289106891
 30
0.0
 11
26.220762569
 21
51.5639561129
 31
0.0
  0
LINE
  5
67
330
1F
100
AcDbEntity
  8
0
  6
Continuous
 62
     7
370
    25
100
AcDbLine
 10
26.220762569
 20
35.0639561129
 30
0.0
 11
27.1242895149
 21
33.4990015366
 31
0.0
  0
LINE
  5
68
330
1F
100
AcDbEntity
  8
0
  6
Continuous
 62
     7
370
    25
100
AcDbLine
 10
38.3172356232
 20
33.4990015366
 30
0.0
 11
39.220762569
 21
35.0639561129
 31
0.0
  0
LINE
  5
69
330
1F
100
AcDbEntity
  8
0
  6
Continuous
 62
     7
370
    25
100
AcDbLine
 10
39.220762569
 20
51.5639561129
 30
0.0
 11
38.3172356232
 21
53.1289106891
 31
0.0
  0
LINE
  5
6A
330
1F
100
AcDbEntity
  8
0
  6
Continuous
 62
     7
370
    25
100
AcDbLine
 10
29.220762569
 20
34.4320142385
 30
0.0
 11
29.470762569
 21
33.4990015366
 31
0.0
  0
LINE
  5
6B
330
1F
100
AcDbEntity
  8
0
  6
Continuous
 62
     7
370
    25
100
AcDbLine
 10
28.970762569
 20
33.4990015366
 30
0.0
 11
29.220762569
 21
34.4320142385
 31
0.0
  0
LINE
  5
6C
330
1F
100
AcDbEntity
  8
0
  6
Continuous
 62
     7
370
    25
100
AcDbLine
 10
29.220762569
 20
52.1958979872
 30
0.0
 11
28.970762569
 21
53.1289106891
 31
0.0
  0
LINE
  5
6D
330
1F
100
AcDbEntity
  8
0
  6
Continuous
 62
     7
370
    25
100
AcDbLine
 10
29.470762569
 20
53.1289106891
 30
0.0
 11
29.220762569
 21
52.1958979872
 31
0.0
  0
LINE
  5
6E
330
1F
100
AcDbEntity
  8
0
  6
Continuous
 62
     7
370
    25
100
AcDbLine
 10
43.7556990596
 20
51.3139561129
 30
0.0
 11
43.5556990596
 21
51.1139561129
 31
0.0
  0
LINE
  5
6F
330
1F
100
AcDbEntity
  8
0
  6
Continuous
 62
     7
370
    25
100
AcDbLine
 10
43.5556990596
 20
35.5139561129
 30
0.0
 11
43.7556990596
 21
35.3139561129
 31
0.0
  0
LINE
  5
70
330
1F
100
AcDbEntity
  8
0
  6
Continuous
 62
     7
370
    25
100
AcDbLine
 10
46.5056990596
 20
51.3139561129
 30
0.0
 11
43.7556990596
 21
51.3139561129
 31
0.0
  0
LINE
  5
71
330
1F
100
AcDbEntity
  8
0
  6
Continuous
 62
     7
370
    25
100
AcDbLine
 10
43.7556990596
 20
35.3139561129
 30
0.0
 11
46.5056990596
 21
35.3139561129
 31
0.0
  0
LINE
  5
72
330
1F
100
AcDbEntity
  8
0
  6
Continuous
 62
     7
370
    25
100
AcDbLine
 10
43.5556990596
 20
49.8924561129
 30
0.0
 11
39.220762569
 21
49.8924561129
 31
0.0
  0
LINE
  5
73
330
1F
100
AcDbEntity
  8
0
  6
Continuous
 62
     7
370
    25
100
AcDbLine
 10
39.220762569
 20
36.7354561129
 30
0.0
 11
43.5556990596
 21
36.7354561129
 31
0.0
  0
LINE
  5
74
330
1F
100
AcDbEntity
  8
0
  6
Continuous
 62
     7
370
    25
100
AcDbLine
 10
69.1468303124
 20
33.5763518058
 30
0.0
 11
70.0056990596
 21
35.0639561129
 31
0.0
  0
LINE
  5
75
330
1F
100
AcDbEntity
  8
0
  6
Continuous
 62
     7
370
    25
100
AcDbLine
 10
70.0056990596
 20
51.5639561129
 30
0.0
 11
69.1468303124
 21
53.0515604199
 31
0.0
  0
LINE
  5
76
330
1F
100
AcDbEntity
  8
0
  6
Continuous
 62
     7
370
    25
100
AcDbLine
 10
51.2475115596
 20
31.3139561129
 30
0.0
 11
51.541147001
 21
21.9176219867
 31
0.0
  0
LINE
  5
77
330
1F
100
AcDbEntity
  8
0
  6
Continuous
 62
     7
370
    25
100
AcDbLine
 10
64.4702511181
 20
21.9176219867
 30
0.0
 11
64.7638865596
 21
31.3139561129
 31
0.0
  0
SPLINE
  5
78
330
1F
100
AcDbEntity
  8
0
  6
Continuous
 62
     7
370
    25
100
AcDbSpline
210
0.0
220
0.0
230
1.0
 70
     8
 71
     3
 72
    12
 73
     8
 74
     0
 42
0.00000001
 43
0.00000001
 40
0.0
 40
0.0
 40
0.0
 40
0.0
 40
0.0107043103187965
 40
0.347013086028172
 40
0.6798498091011334
 40
0.9715874046502858
 40
1.0
 40
1.0
 40
1.0
 40
1.0
 10
64.17146271491774
 20
52.09657825455671
 30
0.0
 10
64.16925815571472
 20
52.09833481310628
 30
0.0
 10
64.09779060016095
 20
52.15527905191501
 30
0.0
 10
64.000595835075
 20
52.31387154772896
 30
0.0
 10
63.90957977901256
 20
52.5478563459946
 30
0.0
 10
63.87938138808019
 20
52.72180257027728
 30
0.0
 10
63.88853659888771
 20
52.80560923169745
 30
0.0
 10
63.88934910285432
 20
52.81304688073292
 30
0.0
  0
SPLINE
  5
79
330
1F
100
AcDbEntity
  8
0
  6
Continuous
 62
     7
370
    25
100
AcDbSpline
210
0.0
220
0.0
230
1.0
 70
     8
 71
     3
 72
    11
 73
     7
 74
     0
 42
0.00000001
 43
0.00000001
 40
0.0
 40
0.0
 40
0.0
 40
0.0
 40
0.1648293344251142
 40
0.4919938432281926
 40
0.8294766477821214
 40
1.0
 40
1.0
 40
1.0
 40
1.0
 10
52.11285015909708
 20
52.81342622811116
 30
0.0
 10
52.11456441894371
 20
52.77020055122006
 30
0.0
 10
52.11968125869303
 20
52.64117760167069
 30
0.0
 10
52.05800066884522
 20
52.43002579403764
 30
0.0
 10
51.96053771167086
 20
52.22986461384296
 30
0.0
 10
51.86350762365138
 20
52.13825055036132
 30
0.0
 10
51.83093735721953
 20
52.10749829075395
 30
0.0
  0
LINE
  5
7A
330
1F
100
AcDbEntity
  8
0
  6
Continuous
 62
     7
370
    25
100
AcDbLine
 10
51.541147001
 20
21.9176219867
 30
0.0
 11
52.7556990596
 21
19.8139561129
 31
0.0
  0
LINE
  5
7B
330
1F
100
AcDbEntity
  8
0
  6
Continuous
 62
     7
370
    25
100
AcDbLine
 10
63.2556990596
 20
19.8139561129
 30
0.0
 11
64.4702511181
 21
21.9176219867
 31
0.0
  0
LINE
  5
7C
330
1F
100
AcDbEntity
  8
0
  6
Continuous
 62
     7
370
    25
100
AcDbLine
 10
63.9056990596
 20
52.8094252928
 30
0.0
 11
63.9056990596
 21
53.8139561129
 31
0.0
  0
LINE
  5
7D
330
1F
100
AcDbEntity
  8
0
  6
Continuous
 62
     7
370
    25
100
AcDbLine
 10
52.1056990596
 20
53.8139561129
 30
0.0
 11
52.1056990596
 21
52.8139561129
 31
0.0
  0
LINE
  5
7E
330
1F
100
AcDbEntity
  8
0
  6
Continuous
 62
     7
370
    25
100
AcDbLine
 10
51.8355321522
 20
52.1086938421
 30
0.0
 11
51.2911678797
 21
53.0515604199
 31
0.0
  0
LINE
  5
7F
330
1F
100
AcDbEntity
  8
0
  6
Continuous
 62
     7
370
    25
100
AcDbLine
 10
47.2202302394
 20
53.0515604199
 30
0.0
 11
46.5056990596
 21
51.8139561129
 31
0.0
  0
LINE
  5
80
330
1F
100
AcDbEntity
  8
0
  6
Continuous
 62
     7
370
    25
100
AcDbLine
 10
64.7202302394
 20
53.0515604199
 30
0.0
 11
64.1758659669
 21
52.1086938421
 31
0.0
  0
LINE
  5
81
330
1F
100
AcDbEntity
  8
0
  6
Continuous
 62
     7
370
    25
100
AcDbLine
 10
66.5056990596
 20
31.3139561129
 30
0.0
 11
67.7433033666
 21
32.0284872927
 31
0.0
  0
LINE
  5
82
330
1F
100
AcDbEntity
  8
0
  6
Continuous
 62
     7
370
    25
100
AcDbLine
 10
46.5056990596
 20
34.8139561129
 30
0.0
 11
47.2202302394
 21
33.5763518058
 31
0.0
  0
LINE
  5
83
330
1F
100
AcDbEntity
  8
0
  6
Continuous
 62
     7
370
    25
100
AcDbLine
 10
48.2680947525
 20
32.0284872927
 30
0.0
 11
49.5056990596
 21
31.3139561129
 31
0.0
  0
LINE
  5
84
330
1F
100
AcDbEntity
  8
0
  6
Continuous
 62
     7
370
    25
100
AcDbLine
 10
67.7433033666
 20
33.5763518058
 30
0.0
 11
69.1493983679
 21
33.5763518058
 31
0.0
  0
LINE
  5
85
330
1F
100
AcDbEntity
  8
0
  6
Continuous
 62
     7
370
    25
100
AcDbLine
 10
67.7433033666
 20
32.0259269113
 30
0.0
 11
67.7433033666
 21
33.5763518058
 31
0.0
  0
LINE
  5
86
330
1F
100
AcDbEntity
  8
0
  6
Continuous
 62
     7
370
    25
100
AcDbLine
 10
51.2937359352
 20
53.0515604199
 30
0.0
 11
47.2176698581
 21
53.0515604199
 31
0.0
  0
LINE
  5
87
330
1F
100
AcDbEntity
  8
0
  6
Continuous
 62
     7
370
    25
100
AcDbLine
 10
69.1493983679
 20
53.0515604199
 30
0.0
 11
64.7176621839
 21
53.0515604199
 31
0.0
  0
LINE
  5
88
330
1F
100
AcDbEntity
  8
0
  6
Continuous
 62
     7
370
    25
100
AcDbLine
 10
48.2680947525
 20
33.5763518058
 30
0.0
 11
48.2680947525
 21
32.0259269113
 31
0.0
  0
LINE
  5
89
330
1F
100
AcDbEntity
  8
0
  6
Continuous
 62
     7
370
    25
100
AcDbLine
 10
47.2176698581
 20
33.5763518058
 30
0.0
 11
48.2680947525
 21
33.5763518058
 31
0.0
  0
LINE
  5
8A
330
1F
100
AcDbEntity
  8
0
  6
Continuous
 62
     7
370
    25
100
AcDbLine
 10
65.4556990596
 20
61.8139561129
 30
0.0
 11
63.5056990596
 21
69.8139561128
 31
0.0
  0
LINE
  5
8B
330
1F
100
AcDbEntity
  8
0
  6
Continuous
 62
     7
370
    25
100
AcDbLine
 10
65.0056990596
 20
53.8139561129
 30
0.0
 11
65.4556990596
 21
61.8139561129
 31
0.0
  0
LINE
  5
8C
330
1F
100
AcDbEntity
  8
0
  6
Continuous
 62
     7
370
    25
100
AcDbLine
 10
50.936953642
 20
55.0360968701
 30
0.0
 11
51.0056990596
 21
53.8139561129
 31
0.0
  0
LINE
  5
8D
330
1F
100
AcDbEntity
  8
0
  6
Continuous
 62
     7
370
    25
100
AcDbLine
 10
52.5056990596
 20
69.8139561128
 30
0.0
 11
52.252467525
 21
68.7750575097
 31
0.0
  0
SPLINE
  5
8E
330
1F
100
AcDbEntity
  8
0
  6
Continuous
 62
     7
370
    25
100
AcDbSpline
210
0.0
220
0.0
230
1.0
 70
     8
 71
     3
 72
    14
 73
    10
 74
     0
 42
0.00000001
 43
0.00000001
 40
0.0
 40
0.0
 40
0.0
 40
0.0
 40
0.188576279986008
 40
0.378895556583529
 40
0.5044823954484108
 40
0.6300701228213249
 40
0.7590052913537332
 40
0.887976329628691
 40
1.0
 40
1.0
 40
1.0
 40
1.0
 10
27.12428951487446
 20
38.40647882474085
 30
0.0
 10
26.9632404757851
 20
39.01201721727631
 30
0.0
 10
26.63965383324695
 20
40.2286909489325
 30
0.0
 10
26.40619411317413
 20
41.89277550031783
 30
0.0
 10
26.34795705800151
 20
43.3590280346062
 30
0.0
 10
26.40482279955897
 20
44.62166855499969
 30
0.0
 10
26.56990683073072
 20
45.88560716548525
 30
0.0
 10
26.8133556158784
 20
47.09090475541426
 30
0.0
 10
27.02562055405339
 20
47.86268163090968
 30
0.0
 10
27.12428951487446
 20
48.22143340096452
 30
0.0
  0
LINE
  5
8F
330
1F
100
AcDbEntity
  8
0
  6
Continuous
 62
     7
370
    25
100
AcDbLine
 10
27.1242895149
 20
48.221433401
 30
0.0
 11
28.970762569
 21
48.221433401
 31
0.0
  0
SPLINE
  5
90
330
1F
100
AcDbEntity
  8
0
  6
Continuous
 62
     7
370
    25
100
AcDbSpline
210
0.0
220
0.0
230
1.0
 70
     8
 71
     3
 72
     9
 73
     5
 74
     0
 42
0.00000001
 43
0.00000001
 40
0.0
 40
0.0
 40
0.0
 40
0.0
 40
0.2781867517081161
 40
1.0
 40
1.0
 40
1.0
 40
1.0
 10
29.2207625690222
 20
45.89056075054977
 30
0.0
 10
29.20288216411544
 20
46.10723485100451
 30
0.0
 10
29.13860733867188
 20
46.88611486281071
 30
0.0
 10
29.04112593654178
 20
47.66164527499595
 30
0.0
 10
28.97076256902221
 20
48.22143340096452
 30
0.0
  0
SPLINE
  5
91
330
1F
100
AcDbEntity
  8
0
  6
Continuous
 62
     7
370
    25
100
AcDbSpline
210
0.0
220
0.0
230
1.0
 70
     8
 71
     3
 72
     9
 73
     5
 74
     0
 42
0.00000001
 43
0.00000001
 40
0.0
 40
0.0
 40
0.0
 40
0.0
 40
0.2781867517081316
 40
1.0
 40
1.0
 40
1.0
 40
1.0
 10
29.2207625690222
 20
45.89056075054977
 30
0.0
 10
29.23864297392896
 20
46.10723485100453
 30
0.0
 10
29.30291779937255
 20
46.88611486281072
 30
0.0
 10
29.40039920150264
 20
47.66164527499596
 30
0.0
 10
29.47076256902221
 20
48.22143340096452
 30
0.0
  0
LINE
  5
92
330
1F
100
AcDbEntity
  8
0
  6
Continuous
 62
     7
370
    25
100
AcDbLine
 10
29.470762569
 20
48.221433401
 30
0.0
 11
38.3172356232
 21
48.221433401
 31
0.0
  0
SPLINE
  5
93
330
1F
100
AcDbEntity
  8
0
  6
Continuous
 62
     7
370
    25
100
AcDbSpline
210
0.0
220
0.0
230
1.0
 70
     8
 71
     3
 72
    14
 73
    10
 74
     0
 42
0.00000001
 43
0.00000001
 40
0.0
 40
0.0
 40
0.0
 40
0.0
 40
0.1885762799860081
 40
0.378895556583529
 40
0.5044823954484108
 40
0.6300701228213249
 40
0.7590052913537331
 40
0.887976329628691
 40
1.0
 40
1.0
 40
1.0
 40
1.0
 10
38.31723562316995
 20
38.40647882474085
 30
0.0
 10
38.47828466225931
 20
39.01201721727631
 30
0.0
 10
38.80187130479745
 20
40.2286909489325
 30
0.0
 10
39.03533102487027
 20
41.89277550031783
 30
0.0
 10
39.09356808004289
 20
43.3590280346062
 30
0.0
 10
39.03670233848543
 20
44.62166855499969
 30
0.0
 10
38.87161830731368
 20
45.88560716548525
 30
0.0
 10
38.628169522166
 20
47.09090475541426
 30
0.0
 10
38.41590458399101
 20
47.86268163090968
 30
0.0
 10
38.31723562316995
 20
48.22143340096452
 30
0.0
  0
LINE
  5
94
330
1F
100
AcDbEntity
  8
0
  6
Continuous
 62
     7
370
    25
100
AcDbLine
 10
29.470762569
 20
38.4064788247
 30
0.0
 11
38.3172356232
 21
38.4064788247
 31
0.0
  0
LINE
  5
95
330
1F
100
AcDbEntity
  8
0
  6
Continuous
 62
     7
370
    25
100
AcDbLine
 10
29.470762569
 20
38.4064788247
 30
0.0
 11
29.220762569
 21
40.7373514752
 31
0.0
  0
LINE
  5
96
330
1F
100
AcDbEntity
  8
0
  6
Continuous
 62
     7
370
    25
100
AcDbLine
 10
28.970762569
 20
38.4064788247
 30
0.0
 11
29.220762569
 21
40.7373514752
 31
0.0
  0
LINE
  5
97
330
1F
100
AcDbEntity
  8
0
  6
Continuous
 62
     7
370
    25
100
AcDbLine
 10
27.1242895149
 20
38.4064788247
 30
0.0
 11
28.970762569
 21
38.4064788247
 31
0.0
  0
SPLINE
  5
98
330
1F
100
AcDbEntity
  8
0
  6
Continuous
 62
     7
370
    25
100
AcDbSpline
210
0.0
220
0.0
230
1.0
 70
     8
 71
     3
 72
    14
 73
    10
 74
     0
 42
0.00000001
 43
0.00000001
 40
0.0
 40
0.0
 40
0.0
 40
0.0
 40
0.132317364830439
 40
0.2645973188387831
 40
0.3998364273285067
 40
0.5350511314348788
 40
0.6502525552916443
 40
0.76547194948634
 40
1.0
 40
1.0
 40
1.0
 40
1.0
 10
27.12428951487446
 20
48.22143340096452
 30
0.0
 10
27.00872133867719
 20
48.43345567695385
 30
0.0
 10
26.77761766151378
 20
48.85744028269901
 30
0.0
 10
26.52892790418647
 20
49.51034391184938
 30
0.0
 10
26.37951925247699
 20
50.17553506822561
 30
0.0
 10
26.34953325590704
 20
50.81670171959592
 30
0.0
 10
26.42755919313599
 20
51.42299693072668
 30
0.0
 10
26.63220437596653
 20
52.18919492336067
 30
0.0
 10
26.92676665235741
 20
52.75170899505952
 30
0.0
 10
27.12428951487446
 20
53.12891068907631
 30
0.0
  0
SPLINE
  5
99
330
1F
100
AcDbEntity
  8
0
  6
Continuous
 62
     7
370
    25
100
AcDbSpline
210
0.0
220
0.0
230
1.0
 70
     8
 71
     3
 72
    14
 73
    10
 74
     0
 42
0.00000001
 43
0.00000001
 40
0.0
 40
0.0
 40
0.0
 40
0.0
 40
0.132317364830439
 40
0.2645973188387832
 40
0.3998364273285067
 40
0.5350511314348789
 40
0.6502525552916445
 40
0.7654719494863401
 40
1.0
 40
1.0
 40
1.0
 40
1.0
 10
27.12428951487446
 20
33.49900153662901
 30
0.0
 10
27.00872133867719
 20
33.71102381261834
 30
0.0
 10
26.77761766151378
 20
34.1350084183635
 30
0.0
 10
26.52892790418647
 20
34.78791204751388
 30
0.0
 10
26.37951925247699
 20
35.45310320389012
 30
0.0
 10
26.34953325590704
 20
36.09426985526044
 30
0.0
 10
26.427559193136
 20
36.70056506639121
 30
0.0
 10
26.63220437596653
 20
37.4667630590252
 30
0.0
 10
26.9267666523574
 20
38.02927713072406
 30
0.0
 10
27.12428951487446
 20
38.40647882474085
 30
0.0
  0
LINE
  5
9A
330
1F
100
AcDbEntity
  8
0
  6
Continuous
 62
     7
370
    25
100
AcDbLine
 10
26.220762569
 20
35.0639561129
 30
0.0
 11
26.220762569
 21
51.5639561129
 31
0.0
  0
LINE
  5
9B
330
1F
100
AcDbEntity
  8
0
  6
Continuous
 62
     7
370
    25
100
AcDbLine
 10
29.220762569
 20
37.2410424995
 30
0.0
 11
29.220762569
 21
40.7373514752
 31
0.0
  0
SPLINE
  5
9C
330
1F
100
AcDbEntity
  8
0
  6
Continuous
 62
     7
370
    25
100
AcDbSpline
210
0.0
220
0.0
230
1.0
 70
     8
 71
     3
 72
     9
 73
     5
 74
     0
 42
0.00000001
 43
0.00000001
 40
0.0
 40
0.0
 40
0.0
 40
0.0
 40
0.1968139937506997
 40
1.0
 40
1.0
 40
1.0
 40
1.0
 10
29.2207625690222
 20
37.24104249953347
 30
0.0
 10
29.23320195624819
 20
37.31769559543874
 30
0.0
 10
29.29640573047651
 20
37.70716534016822
 30
0.0
 10
29.39309949248522
 20
38.09498638699812
 30
0.0
 10
29.47076256902221
 20
38.40647882474085
 30
0.0
  0
SPLINE
  5
9D
330
1F
100
AcDbEntity
  8
0
  6
Continuous
 62
     7
370
    25
100
AcDbSpline
210
0.0
220
0.0
230
1.0
 70
     8
 71
     3
 72
    14
 73
    10
 74
     0
 42
0.00000001
 43
0.00000001
 40
0.0
 40
0.0
 40
0.0
 40
0.0
 40
0.132317364830439
 40
0.2645973188387831
 40
0.3998364273285067
 40
0.5350511314348788
 40
0.6502525552916444
 40
0.7654719494863401
 40
1.0
 40
1.0
 40
1.0
 40
1.0
 10
38.31723562316995
 20
33.49900153662901
 30
0.0
 10
38.43280379936721
 20
33.71102381261834
 30
0.0
 10
38.66390747653062
 20
34.1350084183635
 30
0.0
 10
38.91259723385792
 20
34.78791204751388
 30
0.0
 10
39.06200588556742
 20
35.45310320389012
 30
0.0
 10
39.09199188213737
 20
36.09426985526044
 30
0.0
 10
39.01396594490841
 20
36.70056506639121
 30
0.0
 10
38.80932076207787
 20
37.4667630590252
 30
0.0
 10
38.514758485687
 20
38.02927713072406
 30
0.0
 10
38.31723562316995
 20
38.40647882474085
 30
0.0
  0
SPLINE
  5
9E
330
1F
100
AcDbEntity
  8
0
  6
Continuous
 62
     7
370
    25
100
AcDbSpline
210
0.0
220
0.0
230
1.0
 70
     8
 71
     3
 72
    14
 73
    10
 74
     0
 42
0.00000001
 43
0.00000001
 40
0.0
 40
0.0
 40
0.0
 40
0.0
 40
0.132317364830439
 40
0.2645973188387831
 40
0.3998364273285067
 40
0.5350511314348788
 40
0.6502525552916443
 40
0.7654719494863399
 40
1.0
 40
1.0
 40
1.0
 40
1.0
 10
38.31723562316995
 20
48.22143340096452
 30
0.0
 10
38.43280379936721
 20
48.43345567695385
 30
0.0
 10
38.66390747653062
 20
48.85744028269901
 30
0.0
 10
38.91259723385792
 20
49.51034391184938
 30
0.0
 10
39.06200588556742
 20
50.17553506822561
 30
0.0
 10
39.09199188213737
 20
50.81670171959592
 30
0.0
 10
39.01396594490841
 20
51.42299693072668
 30
0.0
 10
38.80932076207787
 20
52.18919492336067
 30
0.0
 10
38.514758485687
 20
52.75170899505952
 30
0.0
 10
38.31723562316994
 20
53.12891068907631
 30
0.0
  0
LINE
  5
9F
330
1F
100
AcDbEntity
  8
0
  6
Continuous
 62
     7
370
    25
100
AcDbLine
 10
39.220762569
 20
35.0639561129
 30
0.0
 11
39.220762569
 21
51.5639561129
 31
0.0
  0
SPLINE
  5
A0
330
1F
100
AcDbEntity
  8
0
  6
Continuous
 62
     7
370
    25
100
AcDbSpline
210
0.0
220
0.0
230
1.0
 70
     8
 71
     3
 72
     9
 73
     5
 74
     0
 42
0.00000001
 43
0.00000001
 40
0.0
 40
0.0
 40
0.0
 40
0.0
 40
0.1968139937506858
 40
1.0
 40
1.0
 40
1.0
 40
1.0
 10
29.2207625690222
 20
37.24104249953347
 30
0.0
 10
29.20832318179621
 20
37.31769559543874
 30
0.0
 10
29.1451194075679
 20
37.70716534016822
 30
0.0
 10
29.04842564555919
 20
38.09498638699812
 30
0.0
 10
28.97076256902221
 20
38.40647882474085
 30
0.0
  0
LINE
  5
A1
330
1F
100
AcDbEntity
  8
0
  6
Continuous
 62
     7
370
    25
100
AcDbLine
 10
29.470762569
 20
33.4990015366
 30
0.0
 11
38.3172356232
 21
33.4990015366
 31
0.0
  0
LINE
  5
A2
330
1F
100
AcDbEntity
  8
0
  6
Continuous
 62
     7
370
    25
100
AcDbLine
 10
29.470762569
 20
33.4990015366
 30
0.0
 11
29.220762569
 21
34.6644378618
 31
0.0
  0
LINE
  5
A3
330
1F
100
AcDbEntity
  8
0
  6
Continuous
 62
     7
370
    25
100
AcDbLine
 10
28.970762569
 20
33.4990015366
 30
0.0
 11
29.220762569
 21
34.6644378618
 31
0.0
  0
LINE
  5
A4
330
1F
100
AcDbEntity
  8
0
  6
Continuous
 62
     7
370
    25
100
AcDbLine
 10
27.1242895149
 20
33.4990015366
 30
0.0
 11
28.970762569
 21
33.4990015366
 31
0.0
  0
LINE
  5
A5
330
1F
100
AcDbEntity
  8
0
  6
Continuous
 62
     7
370
    25
100
AcDbLine
 10
29.220762569
 20
45.8905607505
 30
0.0
 11
29.220762569
 21
49.3868697262
 31
0.0
  0
LINE
  5
A6
330
1F
100
AcDbEntity
  8
0
  6
Continuous
 62
     7
370
    25
100
AcDbLine
 10
29.470762569
 20
48.221433401
 30
0.0
 11
29.220762569
 21
49.3868697262
 31
0.0
  0
LINE
  5
A7
330
1F
100
AcDbEntity
  8
0
  6
Continuous
 62
     7
370
    25
100
AcDbLine
 10
28.970762569
 20
48.221433401
 30
0.0
 11
29.220762569
 21
49.3868697262
 31
0.0
  0
LINE
  5
A8
330
1F
100
AcDbEntity
  8
0
  6
Continuous
 62
     7
370
    25
100
AcDbLine
 10
27.1242895149
 20
53.1289106891
 30
0.0
 11
28.970762569
 21
53.1289106891
 31
0.0
  0
SPLINE
  5
A9
330
1F
100
AcDbEntity
  8
0
  6
Continuous
 62
     7
370
    25
100
AcDbSpline
210
0.0
220
0.0
230
1.0
 70
     8
 71
     3
 72
     9
 73
     5
 74
     0
 42
0.00000001
 43
0.00000001
 40
0.0
 40
0.0
 40
0.0
 40
0.0
 40
0.1968139937506842
 40
1.0
 40
1.0
 40
1.0
 40
1.0
 10
29.2207625690222
 20
51.96347436386895
 30
0.0
 10
29.20832318179621
 20
52.04012745977421
 30
0.0
 10
29.1451194075679
 20
52.42959720450367
 30
0.0
 10
29.0484256455592
 20
52.81741825133357
 30
0.0
 10
28.97076256902221
 20
53.12891068907631
 30
0.0
  0
SPLINE
  5
AA
330
1F
100
AcDbEntity
  8
0
  6
Continuous
 62
     7
370
    25
100
AcDbSpline
210
0.0
220
0.0
230
1.0
 70
     8
 71
     3
 72
     9
 73
     5
 74
     0
 42
0.00000001
 43
0.00000001
 40
0.0
 40
0.0
 40
0.0
 40
0.0
 40
0.1968139937507004
 40
1.0
 40
1.0
 40
1.0
 40
1.0
 10
29.2207625690222
 20
51.96347436386895
 30
0.0
 10
29.23320195624819
 20
52.04012745977421
 30
0.0
 10
29.29640573047651
 20
52.42959720450368
 30
0.0
 10
29.39309949248521
 20
52.81741825133359
 30
0.0
 10
29.47076256902221
 20
53.12891068907631
 30
0.0
  0
LINE
  5
AB
330
1F
100
AcDbEntity
  8
0
  6
Continuous
 62
     7
370
    25
100
AcDbLine
 10
29.470762569
 20
53.1289106891
 30
0.0
 11
38.3172356232
 21
53.1289106891
 31
0.0
  0
LINE
  5
AC
330
1F
100
AcDbEntity
  8
0
  6
Continuous
 62
     7
370
    25
100
AcDbLine
 10
29.220762569
 20
34.4320142385
 30
0.0
 11
29.220762569
 21
34.6644378618
 31
0.0
  0
LINE
  5
AD
330
1F
100
AcDbEntity
  8
0
  6
Continuous
 62
     7
370
    25
100
AcDbLine
 10
29.220762569
 20
51.9634743639
 30
0.0
 11
29.220762569
 21
52.1958979872
 31
0.0
  0
LINE
  5
AE
330
1F
100
AcDbEntity
  8
0
  6
Continuous
 62
     7
370
    25
100
AcDbLine
 10
43.5556990596
 20
35.5139561129
 30
0.0
 11
43.5556990596
 21
51.1139561129
 31
0.0
  0
LINE
  5
AF
330
1F
100
AcDbEntity
  8
0
  6
Continuous
 62
     7
370
    25
100
AcDbLine
 10
43.7556990596
 20
51.3139561129
 30
0.0
 11
43.7556990596
 21
35.3139561129
 31
0.0
  0
SPLINE
  5
B0
330
1F
100
AcDbEntity
  8
0
  6
Continuous
 62
     7
370
    25
100
AcDbSpline
210
0.0
220
0.0
230
1.0
 70
     8
 71
     3
 72
    10
 73
     6
 74
     0
 42
0.00000001
 43
0.00000001
 40
0.0
 40
0.0
 40
0.0
 40
0.0
 40
0.5000000000000001
 40
0.5000000000000001
 40
1.0
 40
1.0
 40
1.0
 40
1.0
 10
53.3868969060441
 20
31.99167751811282
 30
0.0
 10
54.13757560553992
 20
31.78474746458012
 30
0.0
 10
54.90185654976258
 20
31.61294185420642
 30
0.0
 10
56.45643128385012
 20
31.37599134767505
 30
0.0
 10
57.23200625136626
 20
31.31395611285265
 30
0.0
 10
58.00569905956112
 20
31.31395611285266
 30
0.0
  0
LINE
  5
B1
330
1F
100
AcDbEntity
  8
0
  6
Continuous
 62
     7
370
    25
100
AcDbLine
 10
53.386896906
 20
35.347559573
 30
0.0
 11
53.386896906
 21
31.9916775181
 31
0.0
  0
SPLINE
  5
B2
330
1F
100
AcDbEntity
  8
0
  6
Continuous
 62
     7
370
    25
100
AcDbSpline
210
0.0
220
0.0
230
1.0
 70
     8
 71
     3
 72
     8
 73
     4
 74
     0
 42
0.00000001
 43
0.00000001
 40
0.0
 40
0.0
 40
0.0
 40
0.0
 40
1.0
 40
1.0
 40
1.0
 40
1.0
 10
53.38689690604409
 20
35.34755957299766
 30
0.0
 10
53.59208272858739
 20
35.40412054012188
 30
0.0
 10
53.79830592929468
 20
35.45806061153571
 30
0.0
 10
54.00569905956112
 20
35.50904490127868
 30
0.0
  0
SPLINE
  5
B3
330
1F
100
AcDbEntity
  8
0
  6
Continuous
 62
     7
370
    25
100
AcDbSpline
210
0.0
220
0.0
230
1.0
 70
     8
 71
     3
 72
     8
 73
     4
 74
     0
 42
0.00000001
 43
0.00000001
 40
0.0
 40
0.0
 40
0.0
 40
0.0
 40
1.0
 40
1.0
 40
1.0
 40
1.0
 10
51.32797765430094
 20
38.69515395933562
 30
0.0
 10
51.38454102376917
 20
38.90034849684539
 30
0.0
 10
51.43848094659042
 20
39.10657215036255
 30
0.0
 10
51.48946298258195
 20
39.31395611285266
 30
0.0
  0
LINE
  5
B4
330
1F
100
AcDbEntity
  8
0
  6
Continuous
 62
     7
370
    25
100
AcDbLine
 10
47.1834204648
 20
38.6951539593
 30
0.0
 11
51.3279776543
 21
38.6951539593
 31
0.0
  0
SPLINE
  5
B5
330
1F
100
AcDbEntity
  8
0
  6
Continuous
 62
     7
370
    25
100
AcDbSpline
210
0.0
220
0.0
230
1.0
 70
     8
 71
     3
 72
    10
 73
     6
 74
     0
 42
0.00000001
 43
0.00000001
 40
0.0
 40
0.0
 40
0.0
 40
0.0
 40
0.5
 40
0.5
 40
1.0
 40
1.0
 40
1.0
 40
1.0
 10
47.1834204648213
 20
38.69515395933564
 30
0.0
 10
46.97535178859009
 20
39.44996323238494
 30
0.0
 10
46.80495278256556
 20
40.21070961961684
 30
0.0
 10
46.56979280286671
 20
41.7488519972401
 30
0.0
 10
46.50569905956112
 20
42.52635314976491
 30
0.0
 10
46.50569905956112
 20
43.31395611285266
 30
0.0
  0
SPLINE
  5
B6
330
1F
100
AcDbEntity
  8
0
  6
Continuous
 62
     7
370
    25
100
AcDbSpline
210
0.0
220
0.0
230
1.0
 70
     8
 71
     3
 72
    12
 73
     8
 74
     0
 42
0.00000001
 43
0.00000001
 40
0.0
 40
0.0
 40
0.0
 40
0.0
 40
0.2500000000000001
 40
0.2500000000000001
 40
0.5000000000000001
 40
0.5000000000000001
 40
1.0
 40
1.0
 40
1.0
 40
1.0
 10
46.50569905956112
 20
43.31395611285266
 30
0.0
 10
46.50569905956112
 20
43.7082741935245
 30
0.0
 10
46.52169786454219
 20
44.10193323747493
 30
0.0
 10
46.58346800285658
 20
44.88146923702027
 30
0.0
 10
46.62921012715817
 20
45.2684224251457
 30
0.0
 10
46.80588027450502
 20
46.4218089879997
 30
0.0
 10
46.97613533998532
 20
47.18079147720474
 30
0.0
 10
47.18342046482131
 20
47.93275826636967
 30
0.0
  0
LINE
  5
B7
330
1F
100
AcDbEntity
  8
0
  6
Continuous
 62
     7
370
    25
100
AcDbLine
 10
51.3279776543
 20
47.9327582664
 30
0.0
 11
47.1834204648
 21
47.9327582664
 31
0.0
  0
SPLINE
  5
B8
330
1F
100
AcDbEntity
  8
0
  6
Continuous
 62
     7
370
    25
100
AcDbSpline
210
0.0
220
0.0
230
1.0
 70
     8
 71
     3
 72
     8
 73
     4
 74
     0
 42
0.00000001
 43
0.00000001
 40
0.0
 40
0.0
 40
0.0
 40
0.0
 40
1.0
 40
1.0
 40
1.0
 40
1.0
 10
51.48946298258195
 20
47.31395611285267
 30
0.0
 10
51.43856426565942
 20
47.52100115128165
 30
0.0
 10
51.38463012940866
 20
47.72724048095829
 30
0.0
 10
51.32797765430092
 20
47.93275826636967
 30
0.0
  0
LINE
  5
B9
330
1F
100
AcDbEntity
  8
0
  6
Continuous
 62
     7
370
    25
100
AcDbLine
 10
64.5219351365
 20
47.3139561129
 30
0.0
 11
51.4894629826
 21
47.3139561129
 31
0.0
  0
SPLINE
  5
BA
330
1F
100
AcDbEntity
  8
0
  6
Continuous
 62
     7
370
    25
100
AcDbSpline
210
0.0
220
0.0
230
1.0
 70
     8
 71
     3
 72
     8
 73
     4
 74
     0
 42
0.00000001
 43
0.00000001
 40
0.0
 40
0.0
 40
0.0
 40
0.0
 40
1.0
 40
1.0
 40
1.0
 40
1.0
 10
64.5219351365403
 20
47.31395611285272
 30
0.0
 10
64.57283136979538
 20
47.52099104825649
 30
0.0
 10
64.62676532475903
 20
47.72723081332148
 30
0.0
 10
64.68342046482131
 20
47.93275826636967
 30
0.0
  0
LINE
  5
BB
330
1F
100
AcDbEntity
  8
0
  6
Continuous
 62
     7
370
    25
100
AcDbLine
 10
69.183640087
 20
47.9327582664
 30
0.0
 11
64.6834204648
 21
47.9327582664
 31
0.0
  0
SPLINE
  5
BC
330
1F
100
AcDbEntity
  8
0
  6
Continuous
 62
     7
370
    25
100
AcDbSpline
210
0.0
220
0.0
230
1.0
 70
     8
 71
     3
 72
    14
 73
    10
 74
     0
 42
0.00000001
 43
0.00000001
 40
0.0
 40
0.0
 40
0.0
 40
0.0
 40
0.25
 40
0.25
 40
0.5
 40
0.5
 40
0.75
 40
0.75
 40
1.0
 40
1.0
 40
1.0
 40
1.0
 10
69.18364008700354
 20
38.69515395933561
 30
0.0
 10
69.3915904477093
 20
39.44953401998559
 30
0.0
 10
69.56381225639817
 20
40.21897518745109
 30
0.0
 10
69.79844737914907
 20
41.75948654839225
 30
0.0
 10
69.86139143777676
 20
42.53434092839927
 30
0.0
 10
69.86133152504529
 20
44.09470188328483
 30
0.0
 10
69.79671685875317
 20
44.88515807606986
 30
0.0
 10
69.56015751935195
 20
46.42743773887833
 30
0.0
 10
69.38981237927251
 20
47.1848284920795
 30
0.0
 10
69.18364008700352
 20
47.93275826636967
 30
0.0
  0
LINE
  5
BD
330
1F
100
AcDbEntity
  8
0
  6
Continuous
 62
     7
370
    25
100
AcDbLine
 10
64.6834204648
 20
38.6951539593
 30
0.0
 11
69.183640087
 21
38.6951539593
 31
0.0
  0
SPLINE
  5
BE
330
1F
100
AcDbEntity
  8
0
  6
Continuous
 62
     7
370
    25
100
AcDbSpline
210
0.0
220
0.0
230
1.0
 70
     8
 71
     3
 72
     8
 73
     4
 74
     0
 42
0.00000001
 43
0.00000001
 40
0.0
 40
0.0
 40
0.0
 40
0.0
 40
1.0
 40
1.0
 40
1.0
 40
1.0
 10
64.6834204648213
 20
38.69515395933563
 30
0.0
 10
64.62685862138436
 20
38.90034296087244
 30
0.0
 10
64.57291860412798
 20
39.10656632693714
 30
0.0
 10
64.5219351365403
 20
39.3139561128526
 30
0.0
  0
LINE
  5
BF
330
1F
100
AcDbEntity
  8
0
  6
Continuous
 62
     7
370
    25
100
AcDbLine
 10
64.5219351365
 20
39.3139561129
 30
0.0
 11
62.0056990596
 21
39.3139561129
 31
0.0
  0
SPLINE
  5
C0
330
1F
100
AcDbEntity
  8
0
  6
Continuous
 62
     7
370
    25
100
AcDbSpline
210
0.0
220
0.0
230
1.0
 70
     8
 71
     3
 72
     8
 73
     4
 74
     0
 42
0.00000001
 43
0.00000001
 40
0.0
 40
0.0
 40
0.0
 40
0.0
 40
1.0
 40
1.0
 40
1.0
 40
1.0
 10
62.00569905956112
 20
35.50904490127867
 30
0.0
 10
62.21272812289651
 20
35.45815011157785
 30
0.0
 10
62.41896814016586
 20
35.40421626221641
 30
0.0
 10
62.62450121307813
 20
35.34755957299766
 30
0.0
  0
LINE
  5
C1
330
1F
100
AcDbEntity
  8
0
  6
Continuous
 62
     7
370
    25
100
AcDbLine
 10
62.6245012131
 20
31.9916775181
 30
0.0
 11
62.6245012131
 21
35.347559573
 31
0.0
  0
SPLINE
  5
C2
330
1F
100
AcDbEntity
  8
0
  6
Continuous
 62
     7
370
    25
100
AcDbSpline
210
0.0
220
0.0
230
1.0
 70
     8
 71
     3
 72
    10
 73
     6
 74
     0
 42
0.00000001
 43
0.00000001
 40
0.0
 40
0.0
 40
0.0
 40
0.0
 40
0.5
 40
0.5
 40
1.0
 40
1.0
 40
1.0
 40
1.0
 10
58.00569905956112
 20
31.31395611285266
 30
0.0
 10
58.78127899616808
 20
31.31395611285266
 30
0.0
 10
59.5549692148945
 20
31.37624047483118
 30
0.0
 10
61.09900375722739
 20
31.6110885928382
 30
0.0
 10
61.87231243338221
 20
31.7843311999694
 30
0.0
 10
62.62450121307813
 20
31.99167751811285
 30
0.0
  0
ARC
  5
C3
330
1F
100
AcDbEntity
  8
0
  6
Continuous
 62
     7
370
    25
100
AcDbCircle
 10
59.5564304153
 20
42.7370371195
 30
0.0
 40
0.8890000000000019
100
AcDbArc
 50
45.0
 51
315.0
  0
LINE
  5
C4
330
1F
100
AcDbEntity
  8
0
  6
Continuous
 62
     7
370
    25
100
AcDbLine
 10
60.1850483438
 20
43.365655048
 30
0.0
 11
60.6516587294
 21
43.8322654336
 31
0.0
  0
ARC
  5
C5
330
1F
100
AcDbEntity
  8
0
  6
Continuous
 62
     7
370
    25
100
AcDbCircle
 10
59.5564304153
 20
42.7370371195
 30
0.0
 40
1.548886735692399
100
AcDbArc
 50
45.0
 51
315.0
  0
LINE
  5
C6
330
1F
100
AcDbEntity
  8
0
  6
Continuous
 62
     7
370
    25
100
AcDbLine
 10
60.6516587294
 20
41.6418088054
 30
0.0
 11
60.1850483438
 21
42.1084191911
 31
0.0
  0
ARC
  5
C7
330
1F
100
AcDbEntity
  8
0
  6
Continuous
 62
     7
370
    25
100
AcDbCircle
 10
62.8985750116
 20
42.7370371195
 30
0.0
 40
0.8889999999999919
100
AcDbArc
 50
45.0
 51
159.0751675724
  0
LINE
  5
C8
330
1F
100
AcDbEntity
  8
0
  6
Continuous
 62
     7
370
    25
100
AcDbLine
 10
63.5271929401
 20
43.365655048
 30
0.0
 11
63.9938033257
 21
43.8322654336
 31
0.0
  0
ARC
  5
C9
330
1F
100
AcDbEntity
  8
0
  6
Continuous
 62
     7
370
    25
100
AcDbCircle
 10
62.8985750116
 20
42.7370371195
 30
0.0
 40
1.548886735692384
100
AcDbArc
 50
45.0
 51
315.0
  0
LINE
  5
CA
330
1F
100
AcDbEntity
  8
0
  6
Continuous
 62
     7
370
    25
100
AcDbLine
 10
63.9938033257
 20
41.6418088054
 30
0.0
 11
63.5271929401
 21
42.1084191911
 31
0.0
  0
ARC
  5
CB
330
1F
100
AcDbEntity
  8
0
  6
Continuous
 62
     7
370
    25
100
AcDbCircle
 10
62.8985750116
 20
42.7370371195
 30
0.0
 40
0.8890000000000019
100
AcDbArc
 50
200.9248324276
 51
315.0
  0
LINE
  5
CC
330
1F
100
AcDbEntity
  8
0
  6
Continuous
 62
     7
370
    25
100
AcDbLine
 10
62.0682047629
 20
42.4195371195
 30
0.0
 11
63.9938033257
 21
42.4195371195
 31
0.0
  0
LINE
  5
CD
330
1F
100
AcDbEntity
  8
0
  6
Continuous
 62
     7
370
    25
100
AcDbLine
 10
63.9938033257
 20
42.4195371195
 30
0.0
 11
63.9938033257
 21
43.0545371195
 31
0.0
  0
LINE
  5
CE
330
1F
100
AcDbEntity
  8
0
  6
Continuous
 62
     7
370
    25
100
AcDbLine
 10
63.9938033257
 20
43.0545371195
 30
0.0
 11
62.0682047629
 21
43.0545371195
 31
0.0
  0
LINE
  5
CF
330
1F
100
AcDbEntity
  8
0
  6
Continuous
 62
     7
370
    25
100
AcDbLine
 10
57.1039401456
 20
41.8915830953
 30
0.0
 11
57.0622898263
 21
41.8677781654
 31
0.0
  0
ELLIPSE
  5
D0
330
1F
100
AcDbEntity
  8
0
  6
Continuous
 62
     7
370
    25
100
AcDbEllipse
 10
56.7134466468
 20
42.4224606366
 30
0.0
 11
0.6784129479252599
 21
6.110667527536862E-13
 31
0.0
210
0.0
220
0.0
230
1.0
 40
0.9533039403
 41
3.470145824140265
 42
5.2524691805363
  0
LINE
  5
D1
330
1F
100
AcDbEntity
  8
0
  6
Continuous
 62
     7
370
    25
100
AcDbLine
 10
56.0713218798
 20
42.2137765217
 30
0.0
 11
54.8116676748
 21
45.7362209183
 31
0.0
  0
ELLIPSE
  5
D2
330
1F
100
AcDbEntity
  8
0
  6
Continuous
 62
     7
370
    25
100
AcDbEllipse
 10
54.2206851169
 20
45.4738816822
 30
0.0
 11
0.6519124952381503
 21
6.110667527536862E-13
 31
0.0
210
0.0
220
0.0
230
1.0
 40
0.9533023292
 41
0.4357905044354867
 42
2.705800116361509
  0
LINE
  5
D3
330
1F
100
AcDbEntity
  8
0
  6
Continuous
 62
     7
370
    25
100
AcDbLine
 10
53.6297031184
 20
45.7362220636
 30
0.0
 11
52.3703383167
 21
42.2145986618
 31
0.0
  0
ELLIPSE
  5
D4
330
1F
100
AcDbEntity
  8
0
  6
Continuous
 62
     7
370
    25
100
AcDbEllipse
 10
51.7282171327
 20
42.4232814955
 30
0.0
 11
-0.6784085062757725
 21
3.268496584496461E-13
 31
0.0
210
0.0
220
0.0
230
1.0
 40
0.9533122623
 41
1.047193771187948
 42
2.813042320199945
  0
LINE
  5
D5
330
1F
100
AcDbEntity
  8
0
  6
Continuous
 62
     7
370
    25
100
AcDbLine
 10
51.3890106588
 20
41.8631936503
 30
0.0
 11
51.3374300882
 21
41.8915830953
 31
0.0
  0
LINE
  5
D6
330
1F
100
AcDbEntity
  8
0
  6
Continuous
 62
     7
370
    25
100
AcDbLine
 10
51.3374300882
 20
41.8915830953
 30
0.0
 11
52.1336987478
 21
40.3734109938
 31
0.0
  0
ELLIPSE
  5
D7
330
1F
100
AcDbEntity
  8
0
  6
Continuous
 62
     7
370
    25
100
AcDbEllipse
 10
52.2095476212
 20
40.4095645088
 30
0.0
 11
0.08480161849065837
 21
-1.421085471520200E-14
 31
0.0
210
0.0
220
0.0
230
1.0
 40
0.9533039403
 41
3.605240262590702
 42
5.462183310215438
  0
ELLIPSE
  5
D8
330
1F
100
AcDbEntity
  8
0
  6
Continuous
 62
     7
370
    25
100
AcDbEllipse
 10
54.2206851169
 20
38.3507158883
 30
0.0
 11
2.866293551216202
 21
-1.492139745096210E-12
 31
0.0
210
0.0
220
0.0
230
1.0
 40
0.9533046568
 41
0.8210016221243798
 42
2.32059103146644
  0
ELLIPSE
  5
D9
330
1F
100
AcDbEntity
  8
0
  6
Continuous
 62
     7
370
    25
100
AcDbEllipse
 10
56.2318226126
 20
40.4095645088
 30
0.0
 11
0.08480161849060863
 21
-7.105427357601002E-15
 31
0.0
210
0.0
220
0.0
230
1.0
 40
0.9533039403
 41
3.962594650556611
 42
5.819537698177332
  0
LINE
  5
DA
330
1F
100
AcDbEntity
  8
0
  6
Continuous
 62
     7
370
    25
100
AcDbLine
 10
56.3076714861
 20
40.3734109938
 30
0.0
 11
57.1039401456
 21
41.8915830953
 31
0.0
  0
LINE
  5
DB
330
1F
100
AcDbEntity
  8
0
  6
Continuous
 62
     7
370
    25
100
AcDbLine
 10
54.0056990596
 20
35.5090449013
 30
0.0
 11
54.0056990596
 21
39.3139561129
 31
0.0
  0
LINE
  5
DC
330
1F
100
AcDbEntity
  8
0
  6
Continuous
 62
     7
370
    25
100
AcDbLine
 10
54.0056990596
 20
39.3139561129
 30
0.0
 11
51.4894629826
 21
39.3139561129
 31
0.0
  0
LINE
  5
DD
330
1F
100
AcDbEntity
  8
0
  6
Continuous
 62
     7
370
    25
100
AcDbLine
 10
62.0056990596
 20
35.5090449013
 30
0.0
 11
62.0056990596
 21
39.3139561129
 31
0.0
  0
LINE
  5
DE
330
1F
100
AcDbEntity
  8
0
  6
Continuous
 62
     7
370
    25
100
AcDbLine
 10
52.0056990596
 20
50.675172045
 30
0.0
 11
52.0056990596
 21
47.3139561129
 31
0.0
  0
SPLINE
  5
DF
330
1F
100
AcDbEntity
  8
0
  6
Continuous
 62
     7
370
    25
100
AcDbSpline
210
0.0
220
0.0
230
1.0
 70
     8
 71
     3
 72
    10
 73
     6
 74
     0
 42
0.00000001
 43
0.00000001
 40
0.0
 40
0.0
 40
0.0
 40
0.0
 40
0.5
 40
0.5
 40
1.0
 40
1.0
 40
1.0
 40
1.0
 10
51.32797765430093
 20
48.36577096826189
 30
0.0
 10
51.30430225987654
 20
48.32282743736066
 30
0.0
 10
51.2912111499919
 20
48.25938499273654
 30
0.0
 10
51.29112482870362
 20
48.10690615561757
 30
0.0
 10
51.30429376264746
 20
48.0186761535103
 30
0.0
 10
51.32797765430092
 20
47.93275826636967
 30
0.0
  0
SPLINE
  5
E0
330
1F
100
AcDbEntity
  8
0
  6
Continuous
 62
     7
370
    25
100
AcDbSpline
210
0.0
220
0.0
230
1.0
 70
     8
 71
     3
 72
    12
 73
     8
 74
     0
 42
0.00000001
 43
0.00000001
 40
0.0
 40
0.0
 40
0.0
 40
0.0
 40
0.2500000000000001
 40
0.2500000000000001
 40
0.5000000000000002
 40
0.5000000000000002
 40
1.0
 40
1.0
 40
1.0
 40
1.0
 10
52.00569905956112
 20
50.67517204502039
 30
0.0
 10
52.00569905956112
 20
50.47942978214088
 30
0.0
 10
51.98985612347217
 20
50.28276317295032
 30
0.0
 10
51.92835326323449
 20
49.89349494562203
 30
0.0
 10
51.88274962219081
 20
49.70009091266912
 30
0.0
 10
51.70629860470159
 20
49.12316186141236
 30
0.0
 10
51.53590123744974
 20
48.74291242820935
 30
0.0
 10
51.32797765430093
 20
48.36577096826189
 30
0.0
  0
LINE
  5
E1
330
1F
100
AcDbEntity
  8
0
  6
Continuous
 62
     7
370
    25
100
AcDbLine
 10
46.5056990596
 20
43.3139561129
 30
0.0
 11
46.5056990596
 21
50.675172045
 31
0.0
  0
SPLINE
  5
E2
330
1F
100
AcDbEntity
  8
0
  6
Continuous
 62
     7
370
    25
100
AcDbSpline
210
0.0
220
0.0
230
1.0
 70
     8
 71
     3
 72
    10
 73
     6
 74
     0
 42
0.00000001
 43
0.00000001
 40
0.0
 40
0.0
 40
0.0
 40
0.0
 40
0.5
 40
0.5
 40
1.0
 40
1.0
 40
1.0
 40
1.0
 10
47.18342046482084
 20
48.36577096826186
 30
0.0
 10
46.97461054015459
 20
48.74452011565315
 30
0.0
 10
46.80407640040733
 20
49.12572539206445
 30
0.0
 10
46.56929059538841
 20
49.89495601325223
 30
0.0
 10
46.50569905956112
 20
50.28302371805055
 30
0.0
 10
46.50569905956112
 20
50.67517204502039
 30
0.0
  0
SPLINE
  5
E3
330
1F
100
AcDbEntity
  8
0
  6
Continuous
 62
     7
370
    25
100
AcDbSpline
210
0.0
220
0.0
230
1.0
 70
     8
 71
     3
 72
    10
 73
     6
 74
     0
 42
0.00000001
 43
0.00000001
 40
0.0
 40
0.0
 40
0.0
 40
0.0
 40
0.5
 40
0.5
 40
1.0
 40
1.0
 40
1.0
 40
1.0
 10
47.18342046482131
 20
48.36577096826189
 30
0.0
 10
47.20709270473287
 20
48.32283315916265
 30
0.0
 10
47.22018669466813
 20
48.25939256927045
 30
0.0
 10
47.22027356212957
 20
48.10690342376161
 30
0.0
 10
47.20710377237022
 20
48.01867403455829
 30
0.0
 10
47.18342046482131
 20
47.93275826636967
 30
0.0
  0
ELLIPSE
  5
E4
330
1F
100
AcDbEntity
  8
0
  6
Continuous
 62
     7
370
    25
100
AcDbEllipse
 10
53.951938053
 20
42.8203659734
 30
0.0
 11
0.08480161849065837
 21
-7.105427357601002E-15
 31
0.0
210
0.0
220
0.0
230
1.0
 40
0.9533039403
 41
2.798568711308409
 42
4.712388980384782
  0
LINE
  5
E5
330
1F
100
AcDbEntity
  8
0
  6
Continuous
 62
     7
370
    25
100
AcDbLine
 10
54.1757509959
 20
43.6581386023
 30
0.0
 11
53.8720768148
 21
42.8475559854
 31
0.0
  0
ELLIPSE
  5
E6
330
1F
100
AcDbEntity
  8
0
  6
Continuous
 62
     7
370
    25
100
AcDbEllipse
 10
54.2556122342
 20
43.6309485905
 30
0.0
 11
0.08480161849065837
 21
0.0
 31
0.0
210
0.0
220
0.0
230
1.0
 40
0.9533039403
 41
0.343023940420665
 42
2.798568713169074
  0
LINE
  5
E7
330
1F
100
AcDbEntity
  8
0
  6
Continuous
 62
     7
370
    25
100
AcDbLine
 10
54.6391476502
 20
42.8475559851
 30
0.0
 11
54.3354734725
 21
43.6581386023
 31
0.0
  0
ELLIPSE
  5
E8
330
1F
100
AcDbEntity
  8
0
  6
Continuous
 62
     7
370
    25
100
AcDbEllipse
 10
54.5592864118
 20
42.8203659734
 30
0.0
 11
-0.08480161849066548
 21
-4.973799150320701E-14
 31
0.0
210
0.0
220
0.0
230
1.0
 40
0.9533039403
 41
1.570796326794337
 42
3.484616592149112
  0
LINE
  5
E9
330
1F
100
AcDbEntity
  8
0
  6
Continuous
 62
     7
370
    25
100
AcDbLine
 10
53.951938053
 20
42.7395242564
 30
0.0
 11
54.5592864118
 21
42.7395242564
 31
0.0
  0
LINE
  5
EA
330
1F
100
AcDbEntity
  8
0
  6
Continuous
 62
     7
370
    25
100
AcDbLine
 10
46.5056990596
 20
43.3139561129
 30
0.0
 11
46.5056990596
 21
35.9527401807
 31
0.0
  0
SPLINE
  5
EB
330
1F
100
AcDbEntity
  8
0
  6
Continuous
 62
     7
370
    25
100
AcDbSpline
210
0.0
220
0.0
230
1.0
 70
     8
 71
     3
 72
    10
 73
     6
 74
     0
 42
0.00000001
 43
0.00000001
 40
0.0
 40
0.0
 40
0.0
 40
0.0
 40
0.5
 40
0.5
 40
1.0
 40
1.0
 40
1.0
 40
1.0
 10
47.18342046482131
 20
38.69515395933564
 30
0.0
 10
47.20709436537726
 20
38.60927231682919
 30
0.0
 10
47.2201869225564
 20
38.52186311086376
 30
0.0
 10
47.22027333653868
 20
38.36922062578883
 30
0.0
 10
47.20710294494005
 20
38.30509764070646
 30
0.0
 10
47.18342046482131
 20
38.26214125744343
 30
0.0
  0
SPLINE
  5
EC
330
1F
100
AcDbEntity
  8
0
  6
Continuous
 62
     7
370
    25
100
AcDbSpline
210
0.0
220
0.0
230
1.0
 70
     8
 71
     3
 72
    12
 73
     8
 74
     0
 42
0.00000001
 43
0.00000001
 40
0.0
 40
0.0
 40
0.0
 40
0.0
 40
0.2499999999999999
 40
0.2499999999999999
 40
0.4999999999999998
 40
0.4999999999999998
 40
1.0
 40
1.0
 40
1.0
 40
1.0
 10
46.50569905956112
 20
35.95274018068492
 30
0.0
 10
46.50569905956112
 20
36.14774366069072
 30
0.0
 10
46.52144538958308
 20
36.34427831971513
 30
0.0
 10
46.58289041416851
 20
36.73369800732068
 30
0.0
 10
46.62847917342224
 20
36.92718270038095
 30
0.0
 10
46.80493017567883
 20
37.50436629913655
 30
0.0
 10
46.97538787764232
 20
37.8848020809195
 30
0.0
 10
47.18342046482116
 20
38.26214125744345
 30
0.0
  0
LINE
  5
ED
330
1F
100
AcDbEntity
  8
0
  6
Continuous
 62
     7
370
    25
100
AcDbLine
 10
69.183640087
 20
38.2621412574
 30
0.0
 11
64.6834204648
 21
38.2621412574
 31
0.0
  0
SPLINE
  5
EE
330
1F
100
AcDbEntity
  8
0
  6
Continuous
 62
     7
370
    25
100
AcDbSpline
210
0.0
220
0.0
230
1.0
 70
     8
 71
     3
 72
    10
 73
     6
 74
     0
 42
0.00000001
 43
0.00000001
 40
0.0
 40
0.0
 40
0.0
 40
0.0
 40
0.5
 40
0.5
 40
1.0
 40
1.0
 40
1.0
 40
1.0
 10
64.68342046481804
 20
38.26214125744343
 30
0.0
 10
64.70709585924239
 20
38.30508478834459
 30
0.0
 10
64.7201869691303
 20
38.36852723296838
 30
0.0
 10
64.72027329041866
 20
38.52100607008747
 30
0.0
 10
64.70710435647482
 20
38.6092360721949
 30
0.0
 10
64.68342046482131
 20
38.69515395933564
 30
0.0
  0
SPLINE
  5
EF
330
1F
100
AcDbEntity
  8
0
  6
Continuous
 62
     7
370
    25
100
AcDbSpline
210
0.0
220
0.0
230
1.0
 70
     8
 71
     3
 72
    10
 73
     6
 74
     0
 42
0.00000001
 43
0.00000001
 40
0.0
 40
0.0
 40
0.0
 40
0.0
 40
0.5
 40
0.5
 40
1.0
 40
1.0
 40
1.0
 40
1.0
 10
69.1836400870034
 20
38.69515395933565
 30
0.0
 10
69.15996469257901
 20
38.60926689753319
 30
0.0
 10
69.14687358269448
 20
38.52185968855305
 30
0.0
 10
69.14678726140622
 20
38.36922324595933
 30
0.0
 10
69.15995619535005
 20
38.30510020101374
 30
0.0
 10
69.18364008700352
 20
38.26214125744343
 30
0.0
  0
LINE
  5
F0
330
1F
100
AcDbEntity
  8
0
  6
Continuous
 62
     7
370
    25
100
AcDbLine
 10
64.0056990596
 20
50.675172045
 30
0.0
 11
64.0056990596
 21
47.3139561129
 31
0.0
  0
SPLINE
  5
F1
330
1F
100
AcDbEntity
  8
0
  6
Continuous
 62
     7
370
    25
100
AcDbSpline
210
0.0
220
0.0
230
1.0
 70
     8
 71
     3
 72
    10
 73
     6
 74
     0
 42
0.00000001
 43
0.00000001
 40
0.0
 40
0.0
 40
0.0
 40
0.0
 40
0.5
 40
0.5
 40
1.0
 40
1.0
 40
1.0
 40
1.0
 10
64.68342046482132
 20
48.36577096826186
 30
0.0
 10
64.47499971200389
 20
48.74381421766402
 30
0.0
 10
64.30453587672646
 20
49.12458372245987
 30
0.0
 10
64.06955344178807
 20
49.89373224801741
 30
0.0
 10
64.00569905956112
 20
50.28215897619266
 30
0.0
 10
64.00569905956111
 20
50.67517204502039
 30
0.0
  0
SPLINE
  5
F2
330
1F
100
AcDbEntity
  8
0
  6
Continuous
 62
     7
370
    25
100
AcDbSpline
210
0.0
220
0.0
230
1.0
 70
     8
 71
     3
 72
    10
 73
     6
 74
     0
 42
0.00000001
 43
0.00000001
 40
0.0
 40
0.0
 40
0.0
 40
0.0
 40
0.5
 40
0.5
 40
1.0
 40
1.0
 40
1.0
 40
1.0
 10
64.68342046482132
 20
47.93275826636967
 30
0.0
 10
64.70709585924571
 20
48.01864532817212
 30
0.0
 10
64.72018696913034
 20
48.10605253715223
 30
0.0
 10
64.72027329041863
 20
48.25868897974596
 30
0.0
 10
64.70710435647479
 20
48.32281202469154
 30
0.0
 10
64.68342046482132
 20
48.36577096826186
 30
0.0
  0
SPLINE
  5
F3
330
1F
100
AcDbEntity
  8
0
  6
Continuous
 62
     7
370
    25
100
AcDbSpline
210
0.0
220
0.0
230
1.0
 70
     8
 71
     3
 72
    10
 73
     6
 74
     0
 42
0.00000001
 43
0.00000001
 40
0.0
 40
0.0
 40
0.0
 40
0.0
 40
0.5
 40
0.5
 40
1.0
 40
1.0
 40
1.0
 40
1.0
 10
62.62450121307813
 20
31.99167751811285
 30
0.0
 10
62.71038285558458
 20
32.0153514186688
 30
0.0
 10
62.79779206155001
 20
32.02844397584794
 30
0.0
 10
62.95043454662494
 20
32.02853038983022
 30
0.0
 10
63.01455753170732
 20
32.0153599982316
 30
0.0
 10
63.05751391497034
 20
31.99167751811285
 30
0.0
  0
SPLINE
  5
F4
330
1F
100
AcDbEntity
  8
0
  6
Continuous
 62
     7
370
    25
100
AcDbSpline
210
0.0
220
0.0
230
1.0
 70
     8
 71
     3
 72
    12
 73
     8
 74
     0
 42
0.00000001
 43
0.00000001
 40
0.0
 40
0.0
 40
0.0
 40
0.0
 40
0.2499999999999998
 40
0.2499999999999998
 40
0.4999999999999996
 40
0.4999999999999996
 40
1.0
 40
1.0
 40
1.0
 40
1.0
 10
65.36691499172883
 20
31.31395611285266
 30
0.0
 10
65.17191151172305
 20
31.31395611285265
 30
0.0
 10
64.97537685269863
 20
31.32970244287461
 30
0.0
 10
64.58595716509309
 20
31.39114746746004
 30
0.0
 10
64.39247247203284
 20
31.43673622671377
 30
0.0
 10
63.81528887327723
 20
31.61318722897037
 30
0.0
 10
63.43485309149427
 20
31.78364493093386
 30
0.0
 10
63.05751391497033
 20
31.9916775181127
 30
0.0
  0
LINE
  5
F5
330
1F
100
AcDbEntity
  8
0
  6
Continuous
 62
     7
370
    25
100
AcDbLine
 10
58.0056990596
 20
31.3139561129
 30
0.0
 11
65.3669149917
 21
31.3139561129
 31
0.0
  0
SPLINE
  5
F6
330
1F
100
AcDbEntity
  8
0
  6
Continuous
 62
     7
370
    25
100
AcDbSpline
210
0.0
220
0.0
230
1.0
 70
     8
 71
     3
 72
     8
 73
     4
 74
     0
 42
0.00000001
 43
0.00000001
 40
0.0
 40
0.0
 40
0.0
 40
0.0
 40
1.0
 40
1.0
 40
1.0
 40
1.0
 10
50.7163228749445
 20
36.02457992822392
 30
0.0
 10
51.02534001758625
 20
36.12558503605405
 30
0.0
 10
51.34065777390423
 20
36.22224182511998
 30
0.0
 10
51.66313710074726
 20
36.31395611285266
 30
0.0
  0
SPLINE
  5
F7
330
1F
100
AcDbEntity
  8
0
  6
Continuous
 62
     7
370
    25
100
AcDbSpline
210
0.0
220
0.0
230
1.0
 70
     8
 71
     3
 72
    10
 73
     6
 74
     0
 42
0.00000001
 43
0.00000001
 40
0.0
 40
0.0
 40
0.0
 40
0.0
 40
0.5
 40
0.5
 40
1.0
 40
1.0
 40
1.0
 40
1.0
 10
52.9538842041519
 20
35.34755957299766
 30
0.0
 10
52.99682773505312
 20
35.32388417857327
 30
0.0
 10
53.06027017967725
 20
35.31079306868863
 30
0.0
 10
53.21274901679621
 20
35.31070674740035
 30
0.0
 10
53.30097901890348
 20
35.32387568134418
 30
0.0
 10
53.38689690604411
 20
35.34755957299765
 30
0.0
  0
SPLINE
  5
F8
330
1F
100
AcDbEntity
  8
0
  6
Continuous
 62
     7
370
    25
100
AcDbSpline
210
0.0
220
0.0
230
1.0
 70
     8
 71
     3
 72
    12
 73
     8
 74
     0
 42
0.00000001
 43
0.00000001
 40
0.0
 40
0.0
 40
0.0
 40
0.0
 40
0.2500000000000002
 40
0.2500000000000002
 40
0.5000000000000004
 40
0.5000000000000004
 40
1.0
 40
1.0
 40
1.0
 40
1.0
 10
50.71632287493924
 20
36.0245799282178
 30
0.0
 10
50.90634905024247
 20
36.02087144236137
 30
0.0
 10
51.09656411292829
 20
36.00228893952369
 30
0.0
 10
51.47350087206068
 20
35.93742190255754
 30
0.0
 10
51.66082366332019
 20
35.89115634930727
 30
0.0
 10
52.21973361963428
 20
35.71543181900031
 30
0.0
 10
52.58826927774461
 20
35.54912841022356
 30
0.0
 10
52.9538842041519
 20
35.34755957299766
 30
0.0
  0
SPLINE
  5
F9
330
1F
100
AcDbEntity
  8
0
  6
Continuous
 62
     7
370
    25
100
AcDbSpline
210
0.0
220
0.0
230
1.0
 70
     8
 71
     3
 72
     8
 73
     4
 74
     0
 42
0.00000001
 43
0.00000001
 40
0.0
 40
0.0
 40
0.0
 40
0.0
 40
1.0
 40
1.0
 40
1.0
 40
1.0
 10
64.12708255105728
 20
36.90383457952741
 30
0.0
 10
64.08596727541601
 20
37.03986497401696
 30
0.0
 10
64.04547829254817
 20
37.1765690386544
 30
0.0
 10
64.00569905956112
 20
37.31395611285265
 30
0.0
  0
LINE
  5
FA
330
1F
100
AcDbEntity
  8
0
  6
Continuous
 62
     7
370
    25
100
AcDbLine
 10
64.0056990596
 20
39.3139561129
 30
0.0
 11
64.0056990596
 21
37.3139561129
 31
0.0
  0
SPLINE
  5
FB
330
1F
100
AcDbEntity
  8
0
  6
Continuous
 62
     7
370
    25
100
AcDbSpline
210
0.0
220
0.0
230
1.0
 70
     8
 71
     3
 72
     8
 73
     4
 74
     0
 42
0.00000001
 43
0.00000001
 40
0.0
 40
0.0
 40
0.0
 40
0.0
 40
1.0
 40
1.0
 40
1.0
 40
1.0
 10
64.12708255105728
 20
36.90383457952741
 30
0.0
 10
64.24271516108634
 20
37.36238551158517
 30
0.0
 10
64.43660456590676
 20
37.81445510734342
 30
0.0
 10
64.68342046482117
 20
38.26214125744318
 30
0.0
  0
SPLINE
  5
FC
330
1F
100
AcDbEntity
  8
0
  6
Continuous
 62
     7
370
    25
100
AcDbSpline
210
0.0
220
0.0
230
1.0
 70
     8
 71
     3
 72
    10
 73
     6
 74
     0
 42
0.00000001
 43
0.00000001
 40
0.0
 40
0.0
 40
0.0
 40
0.0
 40
0.5
 40
0.5
 40
1.0
 40
1.0
 40
1.0
 40
1.0
 10
62.62450121307813
 20
35.34755957299764
 30
0.0
 10
62.71038827488068
 20
35.32388417857322
 30
0.0
 10
62.79779548386089
 20
35.3107930686886
 30
0.0
 10
62.95043192645475
 20
35.31070674740037
 30
0.0
 10
63.01455497140049
 20
35.32387568134432
 30
0.0
 10
63.05751391497073
 20
35.34755957299787
 30
0.0
  0
LINE
  5
FD
330
1F
100
AcDbEntity
  8
0
  6
Continuous
 62
     7
370
    25
100
AcDbLine
 10
63.057513915
 20
35.347559573
 30
0.0
 11
63.057513915
 21
31.9916775181
 31
0.0
  0
LINE
  5
FE
330
1F
100
AcDbEntity
  8
0
  6
Continuous
 62
     7
370
    25
100
AcDbLine
 10
47.1834204648
 20
48.3657709683
 30
0.0
 11
51.3279776543
 21
48.3657709683
 31
0.0
  0
SPLINE
  5
FF
330
1F
100
AcDbEntity
  8
0
  6
Continuous
 62
     7
370
    25
100
AcDbSpline
210
0.0
220
0.0
230
1.0
 70
     8
 71
     3
 72
    10
 73
     6
 74
     0
 42
0.00000001
 43
0.00000001
 40
0.0
 40
0.0
 40
0.0
 40
0.0
 40
0.5
 40
0.5
 40
1.0
 40
1.0
 40
1.0
 40
1.0
 10
51.32797765430087
 20
38.69515395933565
 30
0.0
 10
51.30430225987649
 20
38.6092668975332
 30
0.0
 10
51.2912111499919
 20
38.52185968855306
 30
0.0
 10
51.29112482870362
 20
38.36922324595933
 30
0.0
 10
51.30429376264746
 20
38.30510020101374
 30
0.0
 10
51.32797765430092
 20
38.26214125744343
 30
0.0
  0
LINE
  5
100
330
1F
100
AcDbEntity
  8
0
  6
Continuous
 62
     7
370
    25
100
AcDbLine
 10
51.3279776543
 20
38.2621412574
 30
0.0
 11
47.1834204648
 21
38.2621412574
 31
0.0
  0
LINE
  5
101
330
1F
100
AcDbEntity
  8
0
  6
Continuous
 62
     7
370
    25
100
AcDbLine
 10
50.6444831274
 20
31.3139561129
 30
0.0
 11
58.0056990596
 21
31.3139561129
 31
0.0
  0
SPLINE
  5
102
330
1F
100
AcDbEntity
  8
0
  6
Continuous
 62
     7
370
    25
100
AcDbSpline
210
0.0
220
0.0
230
1.0
 70
     8
 71
     3
 72
    10
 73
     6
 74
     0
 42
0.00000001
 43
0.00000001
 40
0.0
 40
0.0
 40
0.0
 40
0.0
 40
0.5
 40
0.5
 40
1.0
 40
1.0
 40
1.0
 40
1.0
 10
52.95388420415193
 20
31.99167751811238
 30
0.0
 10
52.57513505676063
 20
31.78286759344612
 30
0.0
 10
52.19392978034933
 20
31.61233345369887
 30
0.0
 10
51.42469915916155
 20
31.37754764867995
 30
0.0
 10
51.03663145436322
 20
31.31395611285265
 30
0.0
 10
50.64448312739339
 20
31.31395611285266
 30
0.0
  0
SPLINE
  5
103
330
1F
100
AcDbEntity
  8
0
  6
Continuous
 62
     7
370
    25
100
AcDbSpline
210
0.0
220
0.0
230
1.0
 70
     8
 71
     3
 72
    10
 73
     6
 74
     0
 42
0.00000001
 43
0.00000001
 40
0.0
 40
0.0
 40
0.0
 40
0.0
 40
0.5
 40
0.5
 40
1.0
 40
1.0
 40
1.0
 40
1.0
 10
52.9538842041519
 20
31.99167751811285
 30
0.0
 10
52.99682201325113
 20
32.01534975802441
 30
0.0
 10
53.06026260314333
 20
32.02844374795967
 30
0.0
 10
53.21275174865217
 20
32.02853061542112
 30
0.0
 10
53.30098113785548
 20
32.01536082566175
 30
0.0
 10
53.38689690604411
 20
31.99167751811285
 30
0.0
  0
LINE
  5
104
330
1F
100
AcDbEntity
  8
0
  6
Continuous
 62
     7
370
    25
100
AcDbLine
 10
52.9538842042
 20
31.9916775181
 30
0.0
 11
52.9538842042
 21
35.347559573
 31
0.0
  0
LINE
  5
105
330
1F
100
AcDbEntity
  8
0
  6
Continuous
 62
     7
370
    25
100
AcDbLine
 10
52.0056990596
 20
39.3139561129
 30
0.0
 11
52.0056990596
 21
37.3139561129
 31
0.0
  0
SPLINE
  5
106
330
1F
100
AcDbEntity
  8
0
  6
Continuous
 62
     7
370
    25
100
AcDbSpline
210
0.0
220
0.0
230
1.0
 70
     8
 71
     3
 72
     8
 73
     4
 74
     0
 42
0.00000001
 43
0.00000001
 40
0.0
 40
0.0
 40
0.0
 40
0.0
 40
1.0
 40
1.0
 40
1.0
 40
1.0
 10
52.00569905956112
 20
37.31395611285265
 30
0.0
 10
51.96592040137094
 20
37.17657102385255
 30
0.0
 10
51.92543143854271
 20
37.03986694204078
 30
0.0
 10
51.88431556806496
 20
36.90383457952741
 30
0.0
  0
SPLINE
  5
107
330
1F
100
AcDbEntity
  8
0
  6
Continuous
 62
     7
370
    25
100
AcDbSpline
210
0.0
220
0.0
230
1.0
 70
     8
 71
     3
 72
     8
 73
     4
 74
     0
 42
0.00000001
 43
0.00000001
 40
0.0
 40
0.0
 40
0.0
 40
0.0
 40
1.0
 40
1.0
 40
1.0
 40
1.0
 10
51.32797765430092
 20
38.26214125744343
 30
0.0
 10
51.57515143518486
 20
37.81380596439211
 30
0.0
 10
51.76887310348884
 20
37.36163147364852
 30
0.0
 10
51.88431556806496
 20
36.90383457952741
 30
0.0
  0
LINE
  5
108
330
1F
100
AcDbEntity
  8
0
  6
Continuous
 62
     7
370
    25
100
AcDbLine
 10
64.6834204648
 20
48.3657709683
 30
0.0
 11
69.183640087
 21
48.3657709683
 31
0.0
  0
SPLINE
  5
109
330
1F
100
AcDbEntity
  8
0
  6
Continuous
 62
     7
370
    25
100
AcDbSpline
210
0.0
220
0.0
230
1.0
 70
     8
 71
     3
 72
    10
 73
     6
 74
     0
 42
0.00000001
 43
0.00000001
 40
0.0
 40
0.0
 40
0.0
 40
0.0
 40
0.5
 40
0.5
 40
1.0
 40
1.0
 40
1.0
 40
1.0
 10
69.18364008700352
 20
48.36577096826189
 30
0.0
 10
69.15996469257912
 20
48.32282743736066
 30
0.0
 10
69.14687358269448
 20
48.25938499273654
 30
0.0
 10
69.14678726140622
 20
48.10690615561757
 30
0.0
 10
69.15995619535005
 20
48.01867615351029
 30
0.0
 10
69.18364008700352
 20
47.93275826636967
 30
0.0
  0
SPLINE
  5
10A
330
1F
100
AcDbEntity
  8
0
  6
Continuous
 62
     7
370
    25
100
AcDbSpline
210
0.0
220
0.0
230
1.0
 70
     8
 71
     3
 72
     8
 73
     4
 74
     0
 42
0.00000001
 43
0.00000001
 40
0.0
 40
0.0
 40
0.0
 40
0.0
 40
1.0
 40
1.0
 40
1.0
 40
1.0
 10
64.34826101837498
 20
36.31395611285266
 30
0.0
 10
64.67074034522427
 20
36.2222418251182
 30
0.0
 10
64.98605810154822
 20
36.1255850360503
 30
0.0
 10
65.29507524419573
 20
36.02457992821805
 30
0.0
  0
SPLINE
  5
10B
330
1F
100
AcDbEntity
  8
0
  6
Continuous
 62
     7
370
    25
100
AcDbSpline
210
0.0
220
0.0
230
1.0
 70
     8
 71
     3
 72
    10
 73
     6
 74
     0
 42
0.00000001
 43
0.00000001
 40
0.0
 40
0.0
 40
0.0
 40
0.0
 40
0.5
 40
0.5
 40
1.0
 40
1.0
 40
1.0
 40
1.0
 10
63.05751391497061
 20
35.34755957299781
 30
0.0
 10
63.42403186181116
 20
35.54962625854873
 30
0.0
 10
63.79311208727697
 20
35.71601903081937
 30
0.0
 10
64.53836443550438
 20
35.95006600468943
 30
0.0
 10
64.91457720745214
 20
36.01715425864826
 30
0.0
 10
65.29507524419573
 20
36.02457992821805
 30
0.0
  0
SPLINE
  5
10C
330
1F
100
AcDbEntity
  8
0
  6
Continuous
 62
     7
370
    25
100
AcDbSpline
210
0.0
220
0.0
230
1.0
 70
     8
 71
     3
 72
    16
 73
    12
 74
     0
 42
0.00000001
 43
0.00000001
 40
0.0
 40
0.0
 40
0.0
 40
0.0
 40
0.2500000000000001
 40
0.2500000000000001
 40
0.5000000000000001
 40
0.5000000000000001
 40
0.6250000000000001
 40
0.6250000000000001
 40
0.7500000000000002
 40
0.7500000000000002
 40
1.0
 40
1.0
 40
1.0
 40
1.0
 10
69.18364008700352
 20
52.98457312177889
 30
0.0
 10
69.39165553510928
 20
52.6072650329024
 30
0.0
 10
69.56186184008226
 20
52.2272413025282
 30
0.0
 10
69.79679787164986
 20
51.4596179871175
 30
0.0
 10
69.8608700033135
 20
51.0719711703287
 30
0.0
 10
69.8616029522345
 20
50.48365061844086
 30
0.0
 10
69.84594347215148
 20
50.28657742588521
 30
0.0
 10
69.78466834551456
 20
49.89652044833111
 30
0.0
 10
69.73911207301542
 20
49.70272754774307
 30
0.0
 10
69.56262604025916
 20
49.12464656297964
 30
0.0
 10
69.39196958677346
 20
48.74364869864483
 30
0.0
 10
69.18364008700352
 20
48.36577096826189
 30
0.0
  0
SPLINE
  5
10D
330
1F
100
AcDbEntity
  8
0
  6
Continuous
 62
     7
370
    25
100
AcDbSpline
210
0.0
220
0.0
230
1.0
 70
     8
 71
     3
 72
    10
 73
     6
 74
     0
 42
0.00000001
 43
0.00000001
 40
0.0
 40
0.0
 40
0.0
 40
0.0
 40
0.1601790552921226
 40
0.7197651707803578
 40
1.0
 40
1.0
 40
1.0
 40
1.0
 10
69.1494106538866
 20
53.04685140052864
 30
0.0
 10
69.14864786379336
 20
53.04824362855501
 30
0.0
 10
69.14522026371962
 20
53.05449961028333
 30
0.0
 10
69.15972772851792
 20
53.02799234555543
 30
0.0
 10
69.17765728163575
 20
52.99543649041026
 30
0.0
 10
69.18364008700352
 20
52.98457312177889
 30
0.0
  0
SPLINE
  5
10E
330
1F
100
AcDbEntity
  8
0
  6
Continuous
 62
     7
370
    25
100
AcDbSpline
210
0.0
220
0.0
230
1.0
 70
     8
 71
     3
 72
     9
 73
     5
 74
     0
 42
0.00000001
 43
0.00000001
 40
0.0
 40
0.0
 40
0.0
 40
0.0
 40
0.5797912171256352
 40
1.0
 40
1.0
 40
1.0
 40
1.0
 10
69.18364008700352
 20
33.64333910392642
 30
0.0
 10
69.17128148365705
 20
33.6208654556853
 30
0.0
 10
69.14996587386266
 20
33.58210383326448
 30
0.0
 10
69.14957493135987
 20
33.58136942850626
 30
0.0
 10
69.1494106538866
 20
33.58106082517668
 30
0.0
  0
SPLINE
  5
10F
330
1F
100
AcDbEntity
  8
0
  6
Continuous
 62
     7
370
    25
100
AcDbSpline
210
0.0
220
0.0
230
1.0
 70
     8
 71
     3
 72
    16
 73
    12
 74
     0
 42
0.00000001
 43
0.00000001
 40
0.0
 40
0.0
 40
0.0
 40
0.0
 40
0.2500000000000001
 40
0.2500000000000001
 40
0.5000000000000002
 40
0.5000000000000002
 40
0.6250000000000001
 40
0.6250000000000001
 40
0.7500000000000001
 40
0.7500000000000001
 40
1.0
 40
1.0
 40
1.0
 40
1.0
 10
69.18364008700352
 20
38.26214125744343
 30
0.0
 10
69.39165553510928
 20
37.88483316856694
 30
0.0
 10
69.56186184008226
 20
37.50480943819273
 30
0.0
 10
69.79679787164986
 20
36.73718612278204
 30
0.0
 10
69.86087000331351
 20
36.34953930599325
 30
0.0
 10
69.86160295223452
 20
35.76121875410539
 30
0.0
 10
69.84594347215149
 20
35.56414556154974
 30
0.0
 10
69.78466834551456
 20
35.17408858399564
 30
0.0
 10
69.73911207301542
 20
34.98029568340761
 30
0.0
 10
69.56262604025915
 20
34.40221469864419
 30
0.0
 10
69.39196958677344
 20
34.02121683430936
 30
0.0
 10
69.18364008700352
 20
33.64333910392642
 30
0.0
  0
LINE
  5
110
330
1F
100
AcDbEntity
  8
0
  6
Continuous
 62
     7
370
    25
100
AcDbLine
 10
70.0056990596
 20
51.5639561129
 30
0.0
 11
70.0056990596
 21
35.0639561129
 31
0.0
  0
SPLINE
  5
111
330
1F
100
AcDbEntity
  8
0
  6
Continuous
 62
     7
370
    25
100
AcDbSpline
210
0.0
220
0.0
230
1.0
 70
     8
 71
     3
 72
    12
 73
     8
 74
     0
 42
0.00000001
 43
0.00000001
 40
0.0
 40
0.0
 40
0.0
 40
0.0
 40
0.2499999999999999
 40
0.2499999999999999
 40
0.4999999999999998
 40
0.4999999999999998
 40
1.0
 40
1.0
 40
1.0
 40
1.0
 10
64.00569905956111
 20
50.67517204502039
 30
0.0
 10
64.00569905956111
 20
50.8709143078999
 30
0.0
 10
64.02154199565008
 20
51.06758091709046
 30
0.0
 10
64.08304485588774
 20
51.45684914441875
 30
0.0
 10
64.12864849693142
 20
51.65025317737167
 30
0.0
 10
64.30509951442065
 20
52.22718222862843
 30
0.0
 10
64.47549688167251
 20
52.60743166183143
 30
0.0
 10
64.68342046482131
 20
52.98457312177889
 30
0.0
  0
LINE
  5
112
330
1F
100
AcDbEntity
  8
0
  6
Continuous
 62
     7
370
    25
100
AcDbLine
 10
69.183640087
 20
52.9845731218
 30
0.0
 11
64.6834204648
 21
52.9845731218
 31
0.0
  0
ELLIPSE
  5
113
330
1F
100
AcDbEntity
  8
0
  6
Continuous
 62
     7
370
    25
100
AcDbEllipse
 10
58.0056990596
 20
33.4990015366
 30
0.0
 11
8.500000000000007
 21
0.0
 31
0.0
210
0.0
220
0.0
230
1.0
 40
0.5773502692
 41
2.374833212873085
 42
2.530692279913058
  0
LINE
  5
114
330
1F
100
AcDbEntity
  8
0
  6
Continuous
 62
     7
370
    25
100
AcDbLine
 10
50.7163228749
 20
36.0245799282
 30
0.0
 11
48.3350820506
 21
33.6433391039
 31
0.0
  0
LINE
  5
115
330
1F
100
AcDbEntity
  8
0
  6
Continuous
 62
     7
370
    25
100
AcDbLine
 10
47.1834204648
 20
33.6433391039
 30
0.0
 11
48.3350820506
 21
33.6433391039
 31
0.0
  0
SPLINE
  5
116
330
1F
100
AcDbEntity
  8
0
  6
Continuous
 62
     7
370
    25
100
AcDbSpline
210
0.0
220
0.0
230
1.0
 70
     8
 71
     3
 72
    10
 73
     6
 74
     0
 42
0.00000001
 43
0.00000001
 40
0.0
 40
0.0
 40
0.0
 40
0.0
 40
0.5
 40
0.5
 40
1.0
 40
1.0
 40
1.0
 40
1.0
 10
47.18342046482084
 20
33.64333910392639
 30
0.0
 10
46.97461054015458
 20
34.02208825131768
 30
0.0
 10
46.80407640040733
 20
34.40329352772898
 30
0.0
 10
46.56929059538841
 20
35.17252414891676
 30
0.0
 10
46.50569905956112
 20
35.56059185371509
 30
0.0
 10
46.50569905956112
 20
35.95274018068492
 30
0.0
  0
ELLIPSE
  5
117
330
1F
100
AcDbEntity
  8
0
  6
Continuous
 62
     7
370
    25
100
AcDbEllipse
 10
58.0056990596
 20
33.4990015366
 30
0.0
 11
8.500000000000007
 21
0.0
 31
0.0
210
0.0
220
0.0
230
1.0
 40
0.5773502692
 41
0.6109003736767341
 42
0.7667594407167078
  0
LINE
  5
118
330
1F
100
AcDbEntity
  8
0
  6
Continuous
 62
     7
370
    25
100
AcDbLine
 10
67.6763160685
 20
33.6433391039
 30
0.0
 11
69.183640087
 21
33.6433391039
 31
0.0
  0
LINE
  5
119
330
1F
100
AcDbEntity
  8
0
  6
Continuous
 62
     7
370
    25
100
AcDbLine
 10
67.6763160685
 20
33.6433391039
 30
0.0
 11
65.2950752442
 21
36.0245799282
 31
0.0
  0
SPLINE
  5
11A
330
1F
100
AcDbEntity
  8
0
  6
Continuous
 62
     7
370
    25
100
AcDbSpline
210
0.0
220
0.0
230
1.0
 70
     8
 71
     3
 72
    12
 73
     8
 74
     0
 42
0.00000001
 43
0.00000001
 40
0.0
 40
0.0
 40
0.0
 40
0.0
 40
0.2500000000000002
 40
0.2500000000000002
 40
0.5000000000000001
 40
0.5000000000000001
 40
1.0
 40
1.0
 40
1.0
 40
1.0
 10
50.64448312739339
 20
31.31395611285266
 30
0.0
 10
50.44947964738759
 20
31.31395611285266
 30
0.0
 10
50.25294498836318
 20
31.32970244287462
 30
0.0
 10
49.86352530075763
 20
31.39114746746004
 30
0.0
 10
49.67004060769738
 20
31.43673622671377
 30
0.0
 10
49.09285700894178
 20
31.61318722897036
 30
0.0
 10
48.71242122715881
 20
31.78364493093386
 30
0.0
 10
48.33508205063487
 20
31.9916775181127
 30
0.0
  0
LINE
  5
11B
330
1F
100
AcDbEntity
  8
0
  6
Continuous
 62
     7
370
    25
100
AcDbLine
 10
48.3350820506
 20
33.6433391039
 30
0.0
 11
48.3350820506
 21
31.9916775181
 31
0.0
  0
LINE
  5
11C
330
1F
100
AcDbEntity
  8
0
  6
Continuous
 62
     7
370
    25
100
AcDbLine
 10
67.6763160685
 20
31.9916775181
 30
0.0
 11
67.6763160685
 21
33.6433391039
 31
0.0
  0
SPLINE
  5
11D
330
1F
100
AcDbEntity
  8
0
  6
Continuous
 62
     7
370
    25
100
AcDbSpline
210
0.0
220
0.0
230
1.0
 70
     8
 71
     3
 72
    10
 73
     6
 74
     0
 42
0.00000001
 43
0.00000001
 40
0.0
 40
0.0
 40
0.0
 40
0.0
 40
0.5
 40
0.5
 40
1.0
 40
1.0
 40
1.0
 40
1.0
 10
67.67631606848738
 20
31.99167751811238
 30
0.0
 10
67.29756692109609
 20
31.78286759344612
 30
0.0
 10
66.91636164468478
 20
31.61233345369888
 30
0.0
 10
66.14713102349701
 20
31.37754764867995
 30
0.0
 10
65.75906331869868
 20
31.31395611285266
 30
0.0
 10
65.36691499172883
 20
31.31395611285266
 30
0.0
  0
SPLINE
  5
11E
330
1F
100
AcDbEntity
  8
0
  6
Continuous
 62
     7
370
    25
100
AcDbSpline
210
0.0
220
0.0
230
1.0
 70
     8
 71
     3
 72
    12
 73
     8
 74
     0
 42
0.00000001
 43
0.00000001
 40
0.0
 40
0.0
 40
0.0
 40
0.0
 40
0.2499999999999999
 40
0.2499999999999999
 40
0.5
 40
0.5
 40
1.0
 40
1.0
 40
1.0
 40
1.0
 10
46.50569905956112
 20
50.67517204502039
 30
0.0
 10
46.50569905956112
 20
50.87017552502618
 30
0.0
 10
46.52144538958308
 20
51.06671018405059
 30
0.0
 10
46.58289041416851
 20
51.45612987165615
 30
0.0
 10
46.62847917342224
 20
51.6496145647164
 30
0.0
 10
46.80493017567883
 20
52.226798163472
 30
0.0
 10
46.97538787764232
 20
52.60723394525497
 30
0.0
 10
47.18342046482116
 20
52.98457312177891
 30
0.0
  0
LINE
  5
11F
330
1F
100
AcDbEntity
  8
0
  6
Continuous
 62
     7
370
    25
100
AcDbLine
 10
51.3279776543
 20
52.9845731218
 30
0.0
 11
47.1834204648
 21
52.9845731218
 31
0.0
  0
SPLINE
  5
120
330
1F
100
AcDbEntity
  8
0
  6
Continuous
 62
     7
370
    25
100
AcDbSpline
210
0.0
220
0.0
230
1.0
 70
     8
 71
     3
 72
    10
 73
     6
 74
     0
 42
0.00000001
 43
0.00000001
 40
0.0
 40
0.0
 40
0.0
 40
0.0
 40
0.5
 40
0.5
 40
1.0
 40
1.0
 40
1.0
 40
1.0
 10
51.32797765430092
 20
52.98457312177892
 30
0.0
 10
51.53639840711833
 20
52.60652987237675
 30
0.0
 10
51.70686224239577
 20
52.2257603675809
 30
0.0
 10
51.94184467733416
 20
51.45661184202336
 30
0.0
 10
52.00569905956112
 20
51.06818511384812
 30
0.0
 10
52.00569905956112
 20
50.67517204502039
 30
0.0
  0
LINE
  5
121
330
1F
100
AcDbEntity
  8
0
  6
Continuous
 62
     7
370
    25
100
AcDbLine
 10
64.0056990596
 20
37.3139561129
 30
0.0
 11
62.0056990596
 21
39.3139561129
 31
0.0
  0
LINE
  5
122
330
1F
100
AcDbEntity
  8
0
  6
Continuous
 62
     7
370
    25
100
AcDbLine
 10
62.0056990596
 20
36.3139561129
 30
0.0
 11
64.9683201322
 21
36.3139561129
 31
0.0
  0
LINE
  5
123
330
1F
100
AcDbEntity
  8
0
  6
Continuous
 62
     7
370
    25
100
AcDbLine
 10
54.0056990596
 20
39.3139561129
 30
0.0
 11
52.0056990596
 21
37.3139561129
 31
0.0
  0
LINE
  5
124
330
1F
100
AcDbEntity
  8
0
  6
Continuous
 62
     7
370
    25
100
AcDbLine
 10
51.0430779869
 20
36.3139561129
 30
0.0
 11
54.0056990596
 21
36.3139561129
 31
0.0
  0
LINE
  5
125
330
1F
100
AcDbEntity
  8
0
  6
Continuous
 62
     7
370
    25
100
AcDbLine
 10
52.0056990596
 20
51.2484105911
 30
0.0
 11
52.0056990596
 21
50.675172045
 31
0.0
  0
SPLINE
  5
126
330
1F
100
AcDbEntity
  8
0
  6
Continuous
 62
     7
370
    25
100
AcDbSpline
210
0.0
220
0.0
230
1.0
 70
     8
 71
     3
 72
    32
 73
    28
 74
     0
 42
0.00000001
 43
0.00000001
 40
0.0
 40
0.0
 40
0.0
 40
0.0
 40
0.0625000000000001
 40
0.0625000000000001
 40
0.1250000000000001
 40
0.1250000000000001
 40
0.1875000000000002
 40
0.1875000000000002
 40
0.2500000000000003
 40
0.2500000000000003
 40
0.3750000000000003
 40
0.3750000000000003
 40
0.4375000000000003
 40
0.4375000000000003
 40
0.5000000000000002
 40
0.5000000000000002
 40
0.5625000000000002
 40
0.5625000000000002
 40
0.6250000000000001
 40
0.6250000000000001
 40
0.7500000000000001
 40
0.7500000000000001
 40
0.8750000000000002
 40
0.8750000000000002
 40
0.9375000000000001
 40
0.9375000000000001
 40
1.0
 40
1.0
 40
1.0
 40
1.0
 10
64.00569905955264
 20
51.24841059107331
 30
0.0
 10
63.84884272363575
 20
51.15345361317762
 30
0.0
 10
63.67584428948012
 20
51.05070043855243
 30
0.0
 10
63.2991397028543
 20
50.83398923690417
 30
0.0
 10
63.09628692239763
 20
50.72057052641416
 30
0.0
 10
62.67030565959503
 20
50.49248038971598
 30
0.0
 10
62.44612769930701
 20
50.37717350726413
 30
0.0
 10
61.97477660573062
 20
50.14885040488935
 30
0.0
 10
61.72609109036552
 20
50.0352003887556
 30
0.0
 10
60.95551860567389
 20
49.71213635752156
 30
0.0
 10
60.40988119559172
 20
49.51923783335805
 30
0.0
 10
59.52710144709538
 20
49.30764390808436
 30
0.0
 10
59.22846234722252
 20
49.25200152196661
 30
0.0
 10
58.62196074650676
 20
49.17633345260277
 30
0.0
 10
58.31181350784084
 20
49.15636020682646
 30
0.0
 10
57.69172801915707
 20
49.15669397307971
 30
0.0
 10
57.38515698168903
 20
49.17669293840249
 30
0.0
 10
56.77850223438084
 20
49.25273172459896
 30
0.0
 10
56.47612916975553
 20
49.30938482473051
 30
0.0
 10
55.59949286700257
 20
49.52016337477635
 30
0.0
 10
55.05143873502566
 20
49.71370920534811
 30
0.0
 10
54.02094146778239
 20
50.1463284986239
 30
0.0
 10
53.55338143250292
 20
50.37880514331432
 30
0.0
 10
52.91516782887498
 20
50.72054314423337
 30
0.0
 10
52.71195809068515
 20
50.83416065966176
 30
0.0
 10
52.33562116429072
 20
51.050663052018
 30
0.0
 10
52.16264255579922
 20
51.15340084846238
 30
0.0
 10
52.00569905956112
 20
51.24841059107847
 30
0.0
  0
LINE
  5
127
330
1F
100
AcDbEntity
  8
0
  6
Continuous
 62
     7
370
    25
100
AcDbLine
 10
64.0056990596
 20
51.2484105911
 30
0.0
 11
64.0056990596
 21
50.675172045
 31
0.0
  0
LINE
  5
128
330
1F
100
AcDbEntity
  8
0
  6
Continuous
 62
     7
370
    25
100
AcDbLine
 10
51.541147001
 20
21.9176219867
 30
0.0
 11
64.4702511181
 21
21.9176219867
 31
0.0
  0
SPLINE
  5
129
330
1F
100
AcDbEntity
  8
0
  6
Continuous
 62
     7
370
    25
100
AcDbSpline
210
0.0
220
0.0
230
1.0
 70
     8
 71
     3
 72
    12
 73
     8
 74
     0
 42
0.00000001
 43
0.00000001
 40
0.0
 40
0.0
 40
0.0
 40
0.0
 40
0.0860276384484858
 40
0.3125921905364371
 40
0.5444262578673806
 40
0.772029644149985
 40
1.0
 40
1.0
 40
1.0
 40
1.0
 10
64.17904624702814
 20
52.10685770655378
 30
0.0
 10
64.18025649612
 20
52.11088763019559
 30
0.0
 10
64.18465408765617
 20
52.1255308620872
 30
0.0
 10
64.15213169436491
 20
52.01795343581396
 30
0.0
 10
64.09610351818046
 20
51.81180461997325
 30
0.0
 10
64.02791069038481
 20
51.52856414256259
 30
0.0
 10
64.01310691137029
 20
51.34184524293154
 30
0.0
 10
64.00569905956112
 20
51.24841059107133
 30
0.0
  0
SPLINE
  5
12A
330
1F
100
AcDbEntity
  8
0
  6
Continuous
 62
     7
370
    25
100
AcDbSpline
210
0.0
220
0.0
230
1.0
 70
     8
 71
     3
 72
    11
 73
     7
 74
     0
 42
0.00000001
 43
0.00000001
 40
0.0
 40
0.0
 40
0.0
 40
0.0
 40
0.3176290199804765
 40
0.6359451576686763
 40
0.8656693785733311
 40
1.0
 40
1.0
 40
1.0
 40
1.0
 10
52.00569905956112
 20
51.24841059107837
 30
0.0
 10
51.99206032665763
 20
51.37967513881826
 30
0.0
 10
51.96475335657272
 20
51.6424881951123
 30
0.0
 10
51.87674837643522
 20
51.95413385177672
 30
0.0
 10
51.83218732890408
 20
52.10788266282727
 30
0.0
 10
51.83253638723257
 20
52.10636809712658
 30
0.0
 10
51.83266518437168
 20
52.10580924574457
 30
0.0
  0
LINE
  5
12B
330
1F
100
AcDbEntity
  8
0
  6
Continuous
 62
     7
370
    25
100
AcDbLine
 10
63.9004802429
 20
52.8094252928
 30
0.0
 11
63.9031069856
 21
52.8116457074
 31
0.0
  0
LINE
  5
12C
330
1F
100
AcDbEntity
  8
0
  6
Continuous
 62
     7
370
    25
100
AcDbLine
 10
63.2556990596
 20
19.8139561129
 30
0.0
 11
52.7556990596
 21
19.8139561129
 31
0.0
  0
SPLINE
  5
12D
330
1F
100
AcDbEntity
  8
0
  6
Continuous
 62
     7
370
    25
100
AcDbSpline
210
0.0
220
0.0
230
1.0
 70
     8
 71
     3
 72
    10
 73
     6
 74
     0
 42
0.00000001
 43
0.00000001
 40
0.0
 40
0.0
 40
0.0
 40
0.0
 40
0.1601790552921523
 40
0.7197651707804853
 40
1.0
 40
1.0
 40
1.0
 40
1.0
 10
51.29374822118402
 20
53.04685140052864
 30
0.0
 10
51.29298543109077
 20
53.04824362855501
 30
0.0
 10
51.28955783101704
 20
53.05449961028334
 30
0.0
 10
51.30406529581532
 20
53.02799234555543
 30
0.0
 10
51.32199484893315
 20
52.99543649041028
 30
0.0
 10
51.32797765430092
 20
52.98457312177892
 30
0.0
  0
SPLINE
  5
12E
330
1F
100
AcDbEntity
  8
0
  6
Continuous
 62
     7
370
    25
100
AcDbSpline
210
0.0
220
0.0
230
1.0
 70
     8
 71
     3
 72
    10
 73
     6
 74
     0
 42
0.00000001
 43
0.00000001
 40
0.0
 40
0.0
 40
0.0
 40
0.0
 40
0.1593935212994522
 40
0.7189934545690309
 40
1.0
 40
1.0
 40
1.0
 40
1.0
 10
47.21765745439876
 20
53.04686520124535
 30
0.0
 10
47.21841898139621
 20
53.04825512007197
 30
0.0
 10
47.22185408291213
 20
53.05452477601891
 30
0.0
 10
47.20735946044564
 20
53.02804083419511
 30
0.0
 10
47.18941808995292
 20
52.99546343014824
 30
0.0
 10
47.18342046482131
 20
52.98457312177889
 30
0.0
  0
LINE
  5
12F
330
1F
100
AcDbEntity
  8
0
  6
Continuous
 62
     7
370
    25
100
AcDbLine
 10
46.5056990596
 20
51.8139561129
 30
0.0
 11
46.5056990596
 21
50.675172045
 31
0.0
  0
SPLINE
  5
130
330
1F
100
AcDbEntity
  8
0
  6
Continuous
 62
     7
370
    25
100
AcDbSpline
210
0.0
220
0.0
230
1.0
 70
     8
 71
     3
 72
     9
 73
     5
 74
     0
 42
0.00000001
 43
0.00000001
 40
0.0
 40
0.0
 40
0.0
 40
0.0
 40
0.5797912171256431
 40
1.0
 40
1.0
 40
1.0
 40
1.0
 10
64.68342046482131
 20
52.98457312177889
 30
0.0
 10
64.69577906816778
 20
53.00704677002003
 30
0.0
 10
64.71709467796218
 20
53.04580839244085
 30
0.0
 10
64.71748562046496
 20
53.04654279719906
 30
0.0
 10
64.71764989793823
 20
53.04685140052864
 30
0.0
  0
SPLINE
  5
131
330
1F
100
AcDbEntity
  8
0
  6
Continuous
 62
     7
370
    25
100
AcDbSpline
210
0.0
220
0.0
230
1.0
 70
     8
 71
     3
 72
     9
 73
     5
 74
     0
 42
0.00000001
 43
0.00000001
 40
0.0
 40
0.0
 40
0.0
 40
0.0
 40
0.5789479223911498
 40
1.0
 40
1.0
 40
1.0
 40
1.0
 10
67.67631606848734
 20
31.99167751811285
 30
0.0
 10
67.69875743568
 20
32.00401840842726
 30
0.0
 10
67.73751976010455
 20
32.02533447130117
 30
0.0
 10
67.73828566296363
 20
32.02574264521556
 30
0.0
 10
67.7386081479537
 20
32.02591450769023
 30
0.0
  0
LINE
  5
132
330
1F
100
AcDbEntity
  8
0
  6
Continuous
 62
     7
370
    25
100
AcDbLine
 10
65.3669149917
 20
31.3139561129
 30
0.0
 11
66.5056990596
 21
31.3139561129
 31
0.0
  0
SPLINE
  5
133
330
1F
100
AcDbEntity
  8
0
  6
Continuous
 62
     7
370
    25
100
AcDbSpline
210
0.0
220
0.0
230
1.0
 70
     8
 71
     3
 72
     9
 73
     5
 74
     0
 42
0.00000001
 43
0.00000001
 40
0.0
 40
0.0
 40
0.0
 40
0.0
 40
0.5789479223839474
 40
0.9999999999999999
 40
0.9999999999999999
 40
0.9999999999999999
 40
0.9999999999999999
 10
47.18342046482131
 20
33.64333910392642
 30
0.0
 10
47.19576135513557
 20
33.62089773673405
 30
0.0
 10
47.21707741800948
 20
33.5821354123095
 30
0.0
 10
47.21748559192401
 20
33.58136950945013
 30
0.0
 10
47.21765745439876
 20
33.58104702445996
 30
0.0
  0
LINE
  5
134
330
1F
100
AcDbEntity
  8
0
  6
Continuous
 62
     7
370
    25
100
AcDbLine
 10
46.5056990596
 20
35.9527401807
 30
0.0
 11
46.5056990596
 21
34.8139561129
 31
0.0
  0
SPLINE
  5
135
330
1F
100
AcDbEntity
  8
0
  6
Continuous
 62
     7
370
    25
100
AcDbSpline
210
0.0
220
0.0
230
1.0
 70
     8
 71
     3
 72
    10
 73
     6
 74
     0
 42
0.00000001
 43
0.00000001
 40
0.0
 40
0.0
 40
0.0
 40
0.0
 40
0.1593935213061655
 40
0.7189934545756295
 40
1.0
 40
1.0
 40
1.0
 40
1.0
 10
48.27278997116854
 20
32.02591450769023
 30
0.0
 10
48.2714000523419
 20
32.0266760346877
 30
0.0
 10
48.26513039639509
 20
32.03011113620356
 30
0.0
 10
48.29161433821908
 20
32.01561651373695
 30
0.0
 10
48.32419174226577
 20
31.99767514324434
 30
0.0
 10
48.33508205063489
 20
31.99167751811285
 30
0.0
  0
LINE
  5
136
330
1F
100
AcDbEntity
  8
0
  6
Continuous
 62
     7
370
    25
100
AcDbLine
 10
49.5056990596
 20
31.3139561129
 30
0.0
 11
50.6444831274
 21
31.3139561129
 31
0.0
  0
LINE
  5
137
330
1F
100
AcDbEntity
  8
0
  6
Continuous
 62
     7
370
    25
100
AcDbLine
 10
67.7433033666
 20
33.5763518058
 30
0.0
 11
67.6763160685
 21
33.6433391039
 31
0.0
  0
LINE
  5
138
330
1F
100
AcDbEntity
  8
0
  6
Continuous
 62
     7
370
    25
100
AcDbLine
 10
48.3350820506
 20
33.6433391039
 30
0.0
 11
48.2680947525
 21
33.5763518058
 31
0.0
  0
SPLINE
  5
139
330
1F
100
AcDbEntity
  8
0
  6
Continuous
 62
     7
370
    25
100
AcDbSpline
210
0.0
220
0.0
230
1.0
 70
     8
 71
     3
 72
    15
 73
    11
 74
     0
 42
0.00000001
 43
0.00000001
 40
0.0
 40
0.0
 40
0.0
 40
0.0
 40
0.0081667445812695
 40
0.3321939991490083
 40
0.4756279600585602
 40
0.6866830973284899
 40
0.8457435502264811
 40
0.8967566214763185
 40
0.9909540928118029
 40
1.0
 40
1.0
 40
1.0
 40
1.0
 10
52.90667954596833
 20
70.66395611285266
 30
0.0
 10
52.90619201182545
 20
70.66395343650689
 30
0.0
 10
52.88636086429337
 20
70.66384457231999
 30
0.0
 10
52.85808008428411
 20
70.65429856005066
 30
0.0
 10
52.82025078579527
 20
70.6169361767961
 30
0.0
 10
52.79366688922779
 20
70.57207066206142
 30
0.0
 10
52.77649706547281
 20
70.51419436248452
 30
0.0
 10
52.76868006925635
 20
70.46351832251258
 30
0.0
 10
52.76668438282047
 20
70.43482404299259
 30
0.0
 10
52.76661941886967
 20
70.41563721143707
 30
0.0
 10
52.76661372690301
 20
70.41395611285266
 30
0.0
  0
LINE
  5
13A
330
1F
100
AcDbEntity
  8
0
  6
Continuous
 62
     7
370
    25
100
AcDbLine
 10
52.906679546
 20
70.6639561129
 30
0.0
 11
63.1047185732
 21
70.6639561129
 31
0.0
  0
SPLINE
  5
13B
330
1F
100
AcDbEntity
  8
0
  6
Continuous
 62
     7
370
    25
100
AcDbSpline
210
0.0
220
0.0
230
1.0
 70
     8
 71
     3
 72
    15
 73
    11
 74
     0
 42
0.00000001
 43
0.00000001
 40
0.0
 40
0.0
 40
0.0
 40
0.0
 40
0.0090459071881971
 40
0.1032433785236874
 40
0.1542564497735246
 40
0.313316902671511
 40
0.5243720399414428
 40
0.6678060008509903
 40
0.9918332554187292
 40
1.0
 40
1.0
 40
1.0
 40
1.0
 10
63.24478439221923
 20
70.41395611285266
 30
0.0
 10
63.24477870025255
 20
70.41563721143707
 30
0.0
 10
63.24471373630178
 20
70.43482404299262
 30
0.0
 10
63.24271804986588
 20
70.46351832251257
 30
0.0
 10
63.23490105364943
 20
70.51419436248455
 30
0.0
 10
63.21773122989445
 20
70.5720706620614
 30
0.0
 10
63.19114733332697
 20
70.6169361767961
 30
0.0
 10
63.15331803483812
 20
70.65429856005065
 30
0.0
 10
63.12503725482888
 20
70.6638445723201
 30
0.0
 10
63.10520610729679
 20
70.66395343650689
 30
0.0
 10
63.1047185731539
 20
70.66395611285266
 30
0.0
  0
LINE
  5
13C
330
1F
100
AcDbEntity
  8
0
  6
Continuous
 62
     7
370
    25
100
AcDbLine
 10
63.2447843922
 20
70.4139561129
 30
0.0
 11
52.7666137269
 21
70.4139561129
 31
0.0
  0
LINE
  5
13D
330
1F
100
AcDbEntity
  8
0
  6
Continuous
 62
     7
370
    25
100
AcDbLine
 10
52.7666137269
 20
70.4139561129
 30
0.0
 11
52.7666137269
 21
69.8139561129
 31
0.0
  0
LINE
  5
13E
330
1F
100
AcDbEntity
  8
0
  6
Continuous
 62
     7
370
    25
100
AcDbLine
 10
63.2447843922
 20
69.8139561129
 30
0.0
 11
63.2447843922
 21
70.4139561129
 31
0.0
  0
LINE
  5
13F
330
1F
100
AcDbEntity
  8
0
  6
Continuous
 62
     7
370
    25
100
AcDbLine
 10
52.7666137269
 20
69.8139561129
 30
0.0
 11
63.2447843922
 21
69.8139561129
 31
0.0
  0
LINE
  5
140
330
1F
100
AcDbEntity
  8
0
  6
Continuous
 62
     7
370
    25
100
AcDbLine
 10
52.5284734845
 20
70.4139561129
 30
0.0
 11
52.7666137269
 21
70.4139561129
 31
0.0
  0
SPLINE
  5
141
330
1F
100
AcDbEntity
  8
0
  6
Continuous
 62
     7
370
    25
100
AcDbSpline
210
0.0
220
0.0
230
1.0
 70
     8
 71
     3
 72
    15
 73
    11
 74
     0
 42
0.00000001
 43
0.00000001
 40
0.0
 40
0.0
 40
0.0
 40
0.0
 40
0.0089557228015919
 40
0.0999003359608148
 40
0.153163246058169
 40
0.3125636920784848
 40
0.5249666935694999
 40
0.6689893599352451
 40
0.9919152533810159
 40
1.0
 40
1.0
 40
1.0
 40
1.0
 10
52.52847348450945
 20
70.41395611285266
 30
0.0
 10
52.52848924008806
 20
70.41563723842557
 30
0.0
 10
52.52866499224462
 20
70.43439005305
 30
0.0
 10
52.53409400826415
 20
70.4631522821575
 30
0.0
 10
52.55562949197146
 20
70.51403935562584
 30
0.0
 10
52.60333492023629
 20
70.57217500575847
 30
0.0
 10
52.67572586522819
 20
70.61688287894188
 30
0.0
 10
52.77764497724597
 20
70.65416470240363
 30
0.0
 10
52.85300006870044
 20
70.6638438572412
 30
0.0
 10
52.90539971442419
 20
70.66395343644298
 30
0.0
 10
52.90667954596833
 20
70.66395611285266
 30
0.0
  0
LINE
  5
142
330
1F
100
AcDbEntity
  8
0
  6
Continuous
 62
     7
370
    25
100
AcDbLine
 10
63.2447843922
 20
70.4139561129
 30
0.0
 11
63.4829246346
 21
70.4139561129
 31
0.0
  0
SPLINE
  5
143
330
1F
100
AcDbEntity
  8
0
  6
Continuous
 62
     7
370
    25
100
AcDbSpline
210
0.0
220
0.0
230
1.0
 70
     8
 71
     3
 72
    15
 73
    11
 74
     0
 42
0.00000001
 43
0.00000001
 40
0.0
 40
0.0
 40
0.0
 40
0.0
 40
0.0080847466189818
 40
0.3310106400647567
 40
0.4750333064304972
 40
0.6874363079215137
 40
0.8468367539418253
 40
0.9000996640391794
 40
0.9910442771984082
 40
1.0
 40
1.0
 40
1.0
 40
1.0
 10
63.1047185731539
 20
70.66395611285266
 30
0.0
 10
63.10599840469805
 20
70.663953436443
 30
0.0
 10
63.15839805042182
 20
70.66384385724113
 30
0.0
 10
63.23375314187625
 20
70.65416470240363
 30
0.0
 10
63.33567225389405
 20
70.61688287894188
 30
0.0
 10
63.40806319888595
 20
70.57217500575847
 30
0.0
 10
63.45576862715077
 20
70.51403935562581
 30
0.0
 10
63.47730411085809
 20
70.46315228215751
 30
0.0
 10
63.48273312687762
 20
70.43439005305002
 30
0.0
 10
63.48290887903417
 20
70.41563723842557
 30
0.0
 10
63.48292463461277
 20
70.41395611285266
 30
0.0
  0
LINE
  5
144
330
1F
100
AcDbEntity
  8
0
  6
Continuous
 62
     7
370
    25
100
AcDbLine
 10
52.5284734845
 20
69.8139561129
 30
0.0
 11
52.5284734845
 21
70.4139561129
 31
0.0
  0
LINE
  5
145
330
1F
100
AcDbEntity
  8
0
  6
Continuous
 62
     7
370
    25
100
AcDbLine
 10
52.7666137269
 20
69.8139561129
 30
0.0
 11
52.5284734845
 21
69.8139561129
 31
0.0
  0
LINE
  5
146
330
1F
100
AcDbEntity
  8
0
  6
Continuous
 62
     7
370
    25
100
AcDbLine
 10
63.4829246346
 20
70.4139561129
 30
0.0
 11
63.4829246346
 21
69.8139561129
 31
0.0
  0
LINE
  5
147
330
1F
100
AcDbEntity
  8
0
  6
Continuous
 62
     7
370
    25
100
AcDbLine
 10
63.4829246346
 20
69.8139561129
 30
0.0
 11
63.2447843922
 21
69.8139561129
 31
0.0
  0
LINE
  5
148
330
1F
100
AcDbEntity
  8
0
  6
Continuous
 62
     7
370
    25
100
AcDbLine
 10
52.2556990596
 20
70.6639561129
 30
0.0
 11
52.2556990596
 21
70.4139561129
 31
0.0
  0
LINE
  5
149
330
1F
100
AcDbEntity
  8
0
  6
Continuous
 62
     7
370
    25
100
AcDbLine
 10
52.5284734845
 20
70.4139561129
 30
0.0
 11
52.2556990596
 21
70.4139561129
 31
0.0
  0
LINE
  5
14A
330
1F
100
AcDbEntity
  8
0
  6
Continuous
 62
     7
370
    25
100
AcDbLine
 10
52.2556990596
 20
70.6639561129
 30
0.0
 11
52.906679546
 21
70.6639561129
 31
0.0
  0
LINE
  5
14B
330
1F
100
AcDbEntity
  8
0
  6
Continuous
 62
     7
370
    25
100
AcDbLine
 10
52.2556990596
 20
70.4139561129
 30
0.0
 11
52.2556990596
 21
69.8139561129
 31
0.0
  0
LINE
  5
14C
330
1F
100
AcDbEntity
  8
0
  6
Continuous
 62
     7
370
    25
100
AcDbLine
 10
52.5284734845
 20
69.8139561129
 30
0.0
 11
52.2556990596
 21
69.8139561129
 31
0.0
  0
LINE
  5
14D
330
1F
100
AcDbEntity
  8
0
  6
Continuous
 62
     7
370
    25
100
AcDbLine
 10
52.0056990596
 20
69.8139561129
 30
0.0
 11
52.0056990596
 21
70.4139561129
 31
0.0
  0
LINE
  5
14E
330
1F
100
AcDbEntity
  8
0
  6
Continuous
 62
     7
370
    25
100
AcDbLine
 10
52.0056990596
 20
70.4139561129
 30
0.0
 11
52.2556990596
 21
70.4139561129
 31
0.0
  0
LINE
  5
14F
330
1F
100
AcDbEntity
  8
0
  6
Continuous
 62
     7
370
    25
100
AcDbLine
 10
52.2556990596
 20
69.8139561129
 30
0.0
 11
52.0056990596
 21
69.8139561129
 31
0.0
  0
ARC
  5
150
330
1F
100
AcDbEntity
  8
0
  6
Continuous
 62
     7
370
    25
100
AcDbCircle
 10
52.2556990596
 20
70.4139561129
 30
0.0
 40
0.25
100
AcDbArc
 50
90.0
 51
180.0
  0
LINE
  5
151
330
1F
100
AcDbEntity
  8
0
  6
Continuous
 62
     7
370
    25
100
AcDbLine
 10
63.7556990596
 20
70.4139561129
 30
0.0
 11
63.7556990596
 21
70.6639561129
 31
0.0
  0
LINE
  5
152
330
1F
100
AcDbEntity
  8
0
  6
Continuous
 62
     7
370
    25
100
AcDbLine
 10
63.7556990596
 20
70.4139561129
 30
0.0
 11
63.4829246346
 21
70.4139561129
 31
0.0
  0
LINE
  5
153
330
1F
100
AcDbEntity
  8
0
  6
Continuous
 62
     7
370
    25
100
AcDbLine
 10
63.1047185732
 20
70.6639561129
 30
0.0
 11
63.7556990596
 21
70.6639561129
 31
0.0
  0
LINE
  5
154
330
1F
100
AcDbEntity
  8
0
  6
Continuous
 62
     7
370
    25
100
AcDbLine
 10
63.7556990596
 20
69.8139561129
 30
0.0
 11
63.7556990596
 21
70.4139561129
 31
0.0
  0
LINE
  5
155
330
1F
100
AcDbEntity
  8
0
  6
Continuous
 62
     7
370
    25
100
AcDbLine
 10
63.7556990596
 20
69.8139561129
 30
0.0
 11
63.4829246346
 21
69.8139561129
 31
0.0
  0
LINE
  5
156
330
1F
100
AcDbEntity
  8
0
  6
Continuous
 62
     7
370
    25
100
AcDbLine
 10
63.7556990596
 20
70.4139561129
 30
0.0
 11
64.0056990596
 21
70.4139561129
 31
0.0
  0
LINE
  5
157
330
1F
100
AcDbEntity
  8
0
  6
Continuous
 62
     7
370
    25
100
AcDbLine
 10
64.0056990596
 20
70.4139561129
 30
0.0
 11
64.0056990596
 21
69.8139561129
 31
0.0
  0
LINE
  5
158
330
1F
100
AcDbEntity
  8
0
  6
Continuous
 62
     7
370
    25
100
AcDbLine
 10
64.0056990596
 20
69.8139561129
 30
0.0
 11
63.7556990596
 21
69.8139561129
 31
0.0
  0
ARC
  5
159
330
1F
100
AcDbEntity
  8
0
  6
Continuous
 62
     7
370
    25
100
AcDbCircle
 10
63.7556990596
 20
70.4139561129
 30
0.0
 40
0.2500000000000071
100
AcDbArc
 50
0.0
 51
90.0
  0
LINE
  5
15A
330
1F
100
AcDbEntity
  8
0
  6
Continuous
 62
     7
370
    25
100
AcDbLine
 10
63.0056990596
 20
70.6639561129
 30
0.0
 11
63.0056990596
 21
70.6739561129
 31
0.0
  0
LINE
  5
15B
330
1F
100
AcDbEntity
  8
0
  6
Continuous
 62
     7
370
    25
100
AcDbLine
 10
53.0056990596
 20
70.6739561129
 30
0.0
 11
63.0056990596
 21
70.6739561129
 31
0.0
  0
LINE
  5
15C
330
1F
100
AcDbEntity
  8
0
  6
Continuous
 62
     7
370
    25
100
AcDbLine
 10
53.0056990596
 20
70.6639561129
 30
0.0
 11
53.0056990596
 21
70.6739561129
 31
0.0
  0
LINE
  5
15D
330
1F
100
AcDbEntity
  8
0
  6
Continuous
 62
     7
370
    25
100
AcDbLine
 10
53.5311521755
 20
61.8139561129
 30
0.0
 11
65.4556990596
 21
61.8139561128
 31
0.0
  0
LINE
  5
15E
330
1F
100
AcDbEntity
  8
0
  6
Continuous
 62
     7
370
    25
100
AcDbLine
 10
54.2913629312
 20
62.8086996908
 30
0.0
 11
53.5311521755
 21
61.8139561129
 31
0.0
  0
LINE
  5
15F
330
1F
100
AcDbEntity
  8
0
  6
Continuous
 62
     7
370
    25
100
AcDbLine
 10
52.7818968852
 20
69.8139561128
 30
0.0
 11
51.0537582212
 21
62.8086996908
 31
0.0
  0
LINE
  5
160
330
1F
100
AcDbEntity
  8
0
  6
Continuous
 62
     7
370
    25
100
AcDbLine
 10
63.2447843922
 20
69.8139561128
 30
0.0
 11
52.7818968852
 21
69.8139561128
 31
0.0
  0
LINE
  5
161
330
1F
100
AcDbEntity
  8
0
  6
Continuous
 62
     7
370
    25
100
AcDbLine
 10
56.0056990596
 20
53.8139561129
 30
0.0
 11
65.0056990596
 21
53.8139561129
 31
0.0
  0
LINE
  5
162
330
1F
100
AcDbEntity
  8
0
  6
Continuous
 62
     7
370
    25
100
AcDbLine
 10
56.0056990596
 20
53.8517730367
 30
0.0
 11
56.0056990596
 21
53.8139561129
 31
0.0
  0
SPLINE
  5
163
330
1F
100
AcDbEntity
  8
0
  6
Continuous
 62
     7
370
    25
100
AcDbSpline
210
0.0
220
0.0
230
1.0
 70
     8
 71
     3
 72
     9
 73
     5
 74
     0
 42
0.00000001
 43
0.00000001
 40
0.0
 40
0.0
 40
0.0
 40
0.0
 40
0.4875141023677128
 40
0.9999999999999999
 40
0.9999999999999999
 40
0.9999999999999999
 40
0.9999999999999999
 10
55.84975380913392
 20
53.81395611285272
 30
0.0
 10
55.8760603830565
 20
53.81568345882442
 30
0.0
 10
55.93002102500475
 20
53.8192266301159
 30
0.0
 10
55.98005655569951
 20
53.84074511606521
 30
0.0
 10
56.00569905956112
 20
53.85177303665264
 30
0.0
  0
SPLINE
  5
164
330
1F
100
AcDbEntity
  8
0
  6
Continuous
 62
     7
370
    25
100
AcDbSpline
210
0.0
220
0.0
230
1.0
 70
     8
 71
     3
 72
    17
 73
    13
 74
     0
 42
0.00000001
 43
0.00000001
 40
0.0
 40
0.0
 40
0.0
 40
0.0
 40
0.3241697628029875
 40
0.542275846362072
 40
0.689509052693928
 40
0.7894036290694506
 40
0.8577090008137825
 40
0.9049823971474137
 40
0.9551712229700868
 40
0.9753097783197816
 40
0.9919572060138848
 40
1.0
 40
1.0
 40
1.0
 40
1.0
 10
53.53115217547896
 20
61.81395611285029
 30
0.0
 10
53.67386753549614
 20
60.90134261024462
 30
0.0
 10
53.91260384443811
 20
59.37470960398327
 30
0.0
 10
54.29219103888975
 20
57.4479367017023
 30
0.0
 10
54.60132524723683
 20
56.16030123076954
 30
0.0
 10
54.85743877543695
 20
55.30114926404779
 30
0.0
 10
55.07174977833194
 20
54.72768137567039
 30
0.0
 10
55.27498399935985
 20
54.30614922164042
 30
0.0
 10
55.45952926390245
 20
54.02565667884499
 30
0.0
 10
55.64560035027058
 20
53.87010801026434
 30
0.0
 10
55.7608109495265
 20
53.81949741106683
 30
0.0
 10
55.82789975499939
 20
53.8153176592622
 30
0.0
 10
55.84975380913392
 20
53.81395611285272
 30
0.0
  0
SPLINE
  5
165
330
1F
100
AcDbEntity
  8
0
  6
Continuous
 62
     7
370
    25
100
AcDbSpline
210
0.0
220
0.0
230
1.0
 70
     8
 71
     3
 72
    14
 73
    10
 74
     0
 42
0.00000001
 43
0.00000001
 40
0.0
 40
0.0
 40
0.0
 40
0.0
 40
0.1576095309202821
 40
0.3152382602707094
 40
0.4726926441579496
 40
0.6301650083177253
 40
0.7907313191165902
 40
0.9513050385928076
 40
1.0
 40
1.0
 40
1.0
 40
1.0
 10
51.50569905956112
 20
53.81395611285266
 30
0.0
 10
51.43912804477909
 20
54.02745790133006
 30
0.0
 10
51.30597790619415
 20
54.45448748495557
 30
0.0
 10
50.97741094444346
 20
55.03973456381188
 30
0.0
 10
50.56402130371144
 20
55.56188910463431
 30
0.0
 10
50.06834638476679
 20
56.01086723205417
 30
0.0
 10
49.50205667948229
 20
56.37014896386056
 30
0.0
 10
49.02580602308926
 20
56.57471514296174
 30
0.0
 10
48.74561145489649
 20
56.65550969131304
 30
0.0
 10
48.68041267012346
 20
56.67430986435981
 30
0.0
  0
LINE
  5
166
330
1F
100
AcDbEntity
  8
0
  6
Continuous
 62
     7
370
    25
100
AcDbLine
 10
48.6804126701
 20
56.6743098644
 30
0.0
 11
42.9006558203
 21
58.2429313048
 31
0.0
  0
SPLINE
  5
167
330
1F
100
AcDbEntity
  8
0
  6
Continuous
 62
     7
370
    25
100
AcDbSpline
210
0.0
220
0.0
230
1.0
 70
     8
 71
     3
 72
    11
 73
     7
 74
     0
 42
0.00000001
 43
0.00000001
 40
0.0
 40
0.0
 40
0.0
 40
0.0
 40
0.248846635328936
 40
0.4976946020535205
 40
0.7488461225871278
 40
1.0
 40
1.0
 40
1.0
 40
1.0
 10
35.83026219802446
 20
59.56613180582821
 30
0.0
 10
36.42469824716072
 20
59.49660742933457
 30
0.0
 10
37.61357352582413
 20
59.35755830437341
 30
0.0
 10
39.38829819653316
 20
59.0572295662481
 30
0.0
 10
41.15487883827553
 20
58.69531994799297
 30
0.0
 10
42.31872833929522
 20
58.39372799092842
 30
0.0
 10
42.9006558202682
 20
58.24293130484269
 30
0.0
  0
LINE
  5
168
330
1F
100
AcDbEntity
  8
0
  6
Continuous
 62
     7
370
    25
100
AcDbLine
 10
35.830262198
 20
59.5661318058
 30
0.0
 11
35.830262198
 21
62.8086996908
 31
0.0
  0
LINE
  5
169
330
1F
100
AcDbEntity
  8
0
  6
Continuous
 62
     7
370
    25
100
AcDbLine
 10
35.830262198
 20
62.8086996908
 30
0.0
 11
54.2913629312
 21
62.8086996908
 31
0.0
  0
LINE
  5
16A
330
1F
100
AcDbEntity
  8
0
  6
Continuous
 62
     7
370
    25
100
AcDbLine
 10
55.8497538091
 20
53.8139561129
 30
0.0
 11
51.5056990596
 21
53.8139561129
 31
0.0
  0
LINE
  5
16B
330
1F
100
AcDbEntity
  8
0
  6
Continuous
 62
     7
370
    25
100
AcDbLine
 10
56.0056990596
 20
53.8517730367
 30
0.0
 11
55.9988997016
 21
53.8139561129
 31
0.0
  0
LINE
  5
16C
330
1F
100
AcDbEntity
  8
0
  6
Continuous
 62
     7
370
    25
100
AcDbLine
 10
56.0056990596
 20
53.8139561129
 30
0.0
 11
55.9988997016
 21
53.8139561129
 31
0.0
  0
LINE
  5
16D
330
1F
100
AcDbEntity
  8
0
  6
Continuous
 62
     7
370
    25
100
AcDbLine
 10
55.9988997016
 20
53.8139561129
 30
0.0
 11
55.8497538091
 21
53.8139561129
 31
0.0
  0
LINE
  5
16E
330
1F
100
AcDbEntity
  8
0
  6
Continuous
 62
     7
370
    25
100
AcDbLine
 10
18.0056990596
 20
71.8139561129
 30
0.0
 11
35.830262198
 21
71.8139561129
 31
0.0
  0
LINE
  5
16F
330
1F
100
AcDbEntity
  8
0
  6
Continuous
 62
     7
370
    25
100
AcDbLine
 10
35.830262198
 20
71.8139561129
 30
0.0
 11
35.830262198
 21
62.8086996908
 31
0.0
  0
LINE
  5
170
330
1F
100
AcDbEntity
  8
0
  6
Continuous
 62
     7
370
    25
100
AcDbLine
 10
31.1140312018
 20
59.8139561129
 30
0.0
 11
23.0056990596
 21
59.8139561129
 31
0.0
  0
ARC
  5
171
330
1F
100
AcDbEntity
  8
0
  6
Continuous
 62
     7
370
    25
100
AcDbCircle
 10
23.0056990596
 20
64.8139561129
 30
0.0
 40
4.999999999999996
100
AcDbArc
 50
180.0
 51
270.0
  0
LINE
  5
172
330
1F
100
AcDbEntity
  8
0
  6
Continuous
 62
     7
370
    25
100
AcDbLine
 10
18.0056990596
 20
64.8139561129
 30
0.0
 11
18.0056990596
 21
71.8139561129
 31
0.0
  0
ARC
  5
173
330
1F
100
AcDbEntity
  8
0
  6
Continuous
 62
     7
370
    25
100
AcDbCircle
 10
31.1140312018
 20
14.8138268587
 30
0.0
 40
45.00012925418373
100
AcDbArc
 50
83.9840777705
 51
90.0
  0
LINE
  5
174
330
1F
100
AcDbEntity
  8
0
  6
Continuous
 62
     7
370
    25
100
AcDbLine
 10
35.830262198
 20
71.8139561129
 30
0.0
 11
38.0056990596
 21
71.8139561129
 31
0.0
  0
LINE
  5
175
330
1F
100
AcDbEntity
  8
0
  6
Continuous
 62
     7
370
    25
100
AcDbLine
 10
38.0056990596
 20
71.8139561129
 30
0.0
 11
38.0056990596
 21
69.8329116362
 31
0.0
  0
ARC
  5
176
330
1F
100
AcDbEntity
  8
0
  6
Continuous
 62
     7
370
    25
100
AcDbCircle
 10
44.0056990596
 20
69.8329116362
 30
0.0
 40
6.00000000000001
100
AcDbArc
 50
180.0
 51
275.5801667845
  0
ARC
  5
177
330
1F
100
AcDbEntity
  8
0
  6
Continuous
 62
     7
370
    25
100
AcDbCircle
 10
43.6167454953
 20
73.8139561129
 30
0.0
 40
10.00000000000847
100
AcDbArc
 50
275.5801667845
 51
336.4218215217
  0
LINE
  5
178
330
1F
100
AcDbEntity
  8
0
  6
Continuous
 62
     7
370
    25
100
AcDbLine
 10
51.5056990596
 20
53.8139561129
 30
0.0
 11
51.0056990596
 21
53.8139561129
 31
0.0
  0
LINE
  5
179
330
1F
100
AcDbEntity
  8
0
  6
Continuous
 62
     7
370
    25
100
AcDbLine
 10
52.7666137269
 20
69.8139561128
 30
0.0
 11
52.7818968852
 21
69.8139561128
 31
0.0
  0
SPLINE
  5
17A
330
1F
100
AcDbEntity
  8
0
  6
Continuous
 62
     7
370
    25
100
AcDbSpline
210
0.0
220
0.0
230
1.0
 70
     8
 71
     3
 72
    30
 73
    26
 74
     0
 42
0.00000001
 43
0.00000001
 40
0.0
 40
0.0
 40
0.0
 40
0.0
 40
0.0110569947995957
 40
0.0534018586163523
 40
0.0957739243294413
 40
0.152560285963683
 40
0.2094465507836707
 40
0.2166929089147469
 40
0.2775705853057713
 40
0.3384474861342897
 40
0.3856607907517328
 40
0.4327791182719195
 40
0.4698641362073264
 40
0.5069103241819656
 40
0.5439143354842868
 40
0.5809675385159896
 40
0.6306181182252716
 40
0.6803606635267528
 40
0.7335199301453341
 40
0.786670493119384
 40
0.8314134775104652
 40
0.876121580665438
 40
0.9187009688159357
 40
0.961245266880381
 40
1.0
 40
1.0
 40
1.0
 40
1.0
 10
52.10569905956111
 20
52.81395611285266
 30
0.0
 10
52.10652310690736
 20
52.81325828095495
 30
0.0
 10
52.11050300023957
 20
52.80988796912836
 30
0.0
 10
52.18128470916877
 20
52.74953832552303
 30
0.0
 10
52.40257343926804
 20
52.5640082298651
 30
0.0
 10
52.79313645466457
 20
52.24346228492349
 30
0.0
 10
53.19637854075071
 20
51.92978538138308
 30
0.0
 10
53.66319277983973
 20
51.58339609349327
 30
0.0
 10
54.19882061391408
 20
51.20297114648672
 30
0.0
 10
55.01457099193178
 20
50.70494759623892
 30
0.0
 10
55.85613079765216
 20
50.29282972312779
 30
0.0
 10
56.63953771642245
 20
50.01583060703423
 30
0.0
 10
57.41252259309837
 20
49.86441345420951
 30
0.0
 10
58.14311289888494
 20
49.82626398495243
 30
0.0
 10
58.86783535569527
 20
49.9055958766146
 30
0.0
 10
59.64120496889865
 20
50.09809907974428
 30
0.0
 10
60.43159982010357
 20
50.41525857321403
 30
0.0
 10
61.22840425074303
 20
50.84053701283894
 30
0.0
 10
61.9557718187006
 20
51.30299811350244
 30
0.0
 10
62.5699760013753
 20
51.74341009015119
 30
0.0
 10
63.06343946872031
 20
52.12187370558956
 30
0.0
 10
63.4384892842297
 20
52.42362895680009
 30
0.0
 10
63.70874421347267
 20
52.64727431631815
 30
0.0
 10
63.87771901384938
 20
52.79020164586349
 30
0.0
 10
63.89313265689756
 20
52.80321967889686
 30
0.0
 10
63.90048024289008
 20
52.80942529277199
 30
0.0
  0
LINE
  5
17B
330
1F
100
AcDbEntity
  8
0
  6
Continuous
 62
     7
370
    18
100
AcDbLine
 10
51.9394490596
 20
30.8139561129
 30
0.0
 11
52.2561607557
 21
20.6791818354
 31
0.0
  0
LINE
  5
17C
330
1F
100
AcDbEntity
  8
0
  6
Continuous
 62
     7
370
    18
100
AcDbLine
 10
63.7552373634
 20
20.6791818354
 30
0.0
 11
64.0719490596
 21
30.8139561129
 31
0.0
  0
LINE
  5
17D
330
1F
100
AcDbEntity
  8
0
  6
Continuous
 62
     7
370
    18
100
AcDbLine
 10
43.0556990596
 20
49.0364561129
 30
0.0
 11
39.220762569
 21
49.0364561129
 31
0.0
  0
LINE
  5
17E
330
1F
100
AcDbEntity
  8
0
  6
Continuous
 62
     7
370
    18
100
AcDbLine
 10
39.220762569
 20
37.5914561129
 30
0.0
 11
43.0556990596
 21
37.5914561129
 31
0.0
  0
LINE
  5
17F
330
1F
100
AcDbEntity
  8
0
  6
Continuous
 62
     7
370
    25
100
AcDbLine
 10
43.0556990596
 20
49.8924561129
 30
0.0
 11
43.0556990596
 21
49.8828081759
 31
0.0
  0
SPLINE
  5
180
330
1F
100
AcDbEntity
  8
0
  6
Continuous
 62
     7
370
     0
100
AcDbSpline
210
0.0
220
0.0
230
1.0
 70
     8
 71
     3
 72
    36
 73
    32
 74
     0
 42
0.00000001
 43
0.00000001
 40
0.0
 40
0.0
 40
0.0
 40
0.0
 40
0.0350874934856205
 40
0.0701749869627343
 40
0.1052624804398479
 40
0.1403499739169616
 40
0.1754374673940753
 40
0.210524960871189
 40
0.2456124543483029
 40
0.2806999478254166
 40
0.31578744130253
 40
0.350874934779644
 40
0.3859624282567576
 40
0.4210499217338712
 40
0.4561374152109852
 40
0.4912249086880989
 40
0.5263124021652127
 40
0.5613998956423264
 40
0.5964873891194398
 40
0.6315748825965536
 40
0.6666623760736674
 40
0.7017498695507813
 40
0.7368373630278948
 40
0.7719248565050085
 40
0.8070123499821225
 40
0.842099843459236
 40
0.8771873369363499
 40
0.9122748304134637
 40
0.9473623238905774
 40
0.9824498173676912
 40
1.0
 40
1.0
 40
1.0
 40
1.0
 10
43.05568337440491
 20
49.88280817587228
 30
0.0
 10
43.05569905956111
 20
49.80579439139208
 30
0.0
 10
43.05569905956111
 20
49.65266973864036
 30
0.0
 10
43.05569905956111
 20
49.42522946416742
 30
0.0
 10
43.05569905956111
 20
49.12614009724081
 30
0.0
 10
43.05569905956111
 20
48.75890818722775
 30
0.0
 10
43.05569905956111
 20
48.3278391925098
 30
0.0
 10
43.05569905956111
 20
47.83798700291988
 30
0.0
 10
43.05569905956111
 20
47.29509468750481
 30
0.0
 10
43.05569905956111
 20
46.70552716229167
 30
0.0
 10
43.05569905956111
 20
46.07619656746682
 30
0.0
 10
43.05569905956111
 20
45.41448122885217
 30
0.0
 10
43.05569905956111
 20
44.72813915378084
 30
0.0
 10
43.05569905956111
 20
44.02521707555452
 30
0.0
 10
43.05569905956111
 20
43.31395611285261
 30
0.0
 10
43.05569905956111
 20
42.60269515015071
 30
0.0
 10
43.05569905956111
 20
41.89977307192439
 30
0.0
 10
43.05569905956111
 20
41.21343099685307
 30
0.0
 10
43.05569905956111
 20
40.55171565823841
 30
0.0
 10
43.05569905956111
 20
39.92238506341357
 30
0.0
 10
43.05569905956111
 20
39.33281753820042
 30
0.0
 10
43.05569905956111
 20
38.78992522278537
 30
0.0
 10
43.05569905956111
 20
38.30007303319546
 30
0.0
 10
43.05569905956111
 20
37.86900403847751
 30
0.0
 10
43.05569905956111
 20
37.50177212846447
 30
0.0
 10
43.05569905956111
 20
37.20268276153786
 30
0.0
 10
43.05569905956111
 20
36.97524248706493
 30
0.0
 10
43.05569905956111
 20
36.82211783431321
 30
0.0
 10
43.05569905956111
 20
36.74510404983302
 30
0.0
 10
43.05569905956111
 20
36.73545611285266
 30
0.0
 10
43.05569905956112
 20
36.73740338998108
 30
0.0
 10
43.05569905956111
 20
36.73545611285266
 30
0.0
  0
LINE
  5
181
330
1F
100
AcDbEntity
  8
0
  6
CENTERX2
 62
     7
370
    18
100
AcDbLine
 10
73.093267533
 20
43.3139561129
 30
0.0
 11
23.3490637242
 21
43.3139561129
 31
0.0
  0
LINE
  5
182
330
1F
100
AcDbEntity
  8
0
  6
CENTERX2
 62
     7
370
    18
100
AcDbLine
 10
58.0056990596
 20
17.0101295804
 30
0.0
 11
58.0056990596
 21
73.1307203528
 31
0.0
  0
LINE
  5
183
330
1F
100
AcDbEntity
  8
0
  6
Continuous
 62
     7
370
    25
100
AcDbLine
 10
26.3651001363
 20
112.4821947449
 30
0.0
 11
26.220762569
 21
112.2321947449
 31
0.0
  0
LINE
  5
184
330
1F
100
AcDbEntity
  8
0
  6
Continuous
 62
     7
370
    25
100
AcDbLine
 10
26.220762569
 20
95.7321947449
 30
0.0
 11
26.3651001363
 21
95.4821947449
 31
0.0
  0
LINE
  5
185
330
1F
100
AcDbEntity
  8
0
  6
Continuous
 62
     7
370
    25
100
AcDbLine
 10
39.0764250017
 20
95.4821947449
 30
0.0
 11
39.220762569
 21
95.7321947449
 31
0.0
  0
LINE
  5
186
330
1F
100
AcDbEntity
  8
0
  6
Continuous
 62
     7
370
    25
100
AcDbLine
 10
39.220762569
 20
112.2321947449
 30
0.0
 11
39.0764250017
 21
112.4821947449
 31
0.0
  0
LINE
  5
187
330
1F
100
AcDbEntity
  8
0
  6
Continuous
 62
     7
370
    25
100
AcDbLine
 10
46.5056990596
 20
111.9821947449
 30
0.0
 11
43.7556990596
 21
111.9821947449
 31
0.0
  0
LINE
  5
188
330
1F
100
AcDbEntity
  8
0
  6
Continuous
 62
     7
370
    25
100
AcDbLine
 10
43.7556990596
 20
95.9821947449
 30
0.0
 11
46.5056990596
 21
95.9821947449
 31
0.0
  0
LINE
  5
189
330
1F
100
AcDbEntity
  8
0
  6
Continuous
 62
     7
370
    25
100
AcDbLine
 10
43.7556990596
 20
111.9821947449
 30
0.0
 11
43.5556990596
 21
111.7821947449
 31
0.0
  0
LINE
  5
18A
330
1F
100
AcDbEntity
  8
0
  6
Continuous
 62
     7
370
    25
100
AcDbLine
 10
43.5556990596
 20
96.1821947449
 30
0.0
 11
43.7556990596
 21
95.9821947449
 31
0.0
  0
LINE
  5
18B
330
1F
100
AcDbEntity
  8
0
  6
Continuous
 62
     7
370
    25
100
AcDbLine
 10
43.5556990596
 20
110.5606947449
 30
0.0
 11
39.220762569
 21
110.5606947449
 31
0.0
  0
LINE
  5
18C
330
1F
100
AcDbEntity
  8
0
  6
Continuous
 62
     7
370
    25
100
AcDbLine
 10
39.220762569
 20
97.4036947449
 30
0.0
 11
43.5556990596
 21
97.4036947449
 31
0.0
  0
LINE
  5
18D
330
1F
100
AcDbEntity
  8
0
  6
Continuous
 62
     7
370
    25
100
AcDbLine
 10
69.8613614923
 20
95.4821947449
 30
0.0
 11
70.0056990596
 21
95.7321947449
 31
0.0
  0
LINE
  5
18E
330
1F
100
AcDbEntity
  8
0
  6
Continuous
 62
     7
370
    25
100
AcDbLine
 10
70.0056990596
 20
112.2321947449
 30
0.0
 11
69.8613614923
 21
112.4821947449
 31
0.0
  0
SPLINE
  5
18F
330
1F
100
AcDbEntity
  8
0
  6
Continuous
 62
     7
370
    25
100
AcDbSpline
210
0.0
220
0.0
230
1.0
 70
     8
 71
     3
 72
    11
 73
     7
 74
     0
 42
0.00000001
 43
0.00000001
 40
0.0
 40
0.0
 40
0.0
 40
0.0
 40
0.2078428791078478
 40
0.4041174254395381
 40
0.6004225887532638
 40
1.0
 40
1.0
 40
1.0
 40
1.0
 10
26.39639603552825
 20
107.482194744875
 30
0.0
 10
26.3795946219388
 20
107.8329869635499
 30
0.0
 10
26.34692694512128
 20
108.5150466467279
 30
0.0
 10
26.42894054890492
 20
109.5275324267189
 30
0.0
 10
26.63142146401686
 20
110.8545213290544
 30
0.0
 10
26.92645239167939
 20
111.8288470070237
 30
0.0
 10
27.12428951487446
 20
112.4821947448751
 30
0.0
  0
LINE
  5
190
330
1F
100
AcDbEntity
  8
0
  6
Continuous
 62
     7
370
    25
100
AcDbLine
 10
27.1242895149
 20
112.4821947449
 30
0.0
 11
28.970762569
 21
112.4821947449
 31
0.0
  0
SPLINE
  5
191
330
1F
100
AcDbEntity
  8
0
  6
Continuous
 62
     7
370
    25
100
AcDbSpline
210
0.0
220
0.0
230
1.0
 70
     8
 71
     3
 72
     9
 73
     5
 74
     0
 42
0.00000001
 43
0.00000001
 40
0.0
 40
0.0
 40
0.0
 40
0.0
 40
0.1968139937506806
 40
1.0
 40
1.0
 40
1.0
 40
1.0
 10
29.2207625690222
 20
110.4635998166296
 30
0.0
 10
29.20832318179621
 20
110.596366873295
 30
0.0
 10
29.14511940756789
 20
111.2709482591773
 30
0.0
 10
29.04842564555919
 20
111.9426740165312
 30
0.0
 10
28.97076256902221
 20
112.4821947448751
 30
0.0
  0
SPLINE
  5
192
330
1F
100
AcDbEntity
  8
0
  6
Continuous
 62
     7
370
    25
100
AcDbSpline
210
0.0
220
0.0
230
1.0
 70
     8
 71
     3
 72
     9
 73
     5
 74
     0
 42
0.00000001
 43
0.00000001
 40
0.0
 40
0.0
 40
0.0
 40
0.0
 40
0.1968139937506957
 40
0.9999999999999999
 40
0.9999999999999999
 40
0.9999999999999999
 40
0.9999999999999999
 10
29.2207625690222
 20
110.4635998166296
 30
0.0
 10
29.2332019562482
 20
110.596366873295
 30
0.0
 10
29.29640573047652
 20
111.2709482591773
 30
0.0
 10
29.39309949248522
 20
111.9426740165312
 30
0.0
 10
29.47076256902221
 20
112.4821947448751
 30
0.0
  0
LINE
  5
193
330
1F
100
AcDbEntity
  8
0
  6
Continuous
 62
     7
370
    25
100
AcDbLine
 10
29.470762569
 20
112.4821947449
 30
0.0
 11
38.3172356232
 21
112.4821947449
 31
0.0
  0
SPLINE
  5
194
330
1F
100
AcDbEntity
  8
0
  6
Continuous
 62
     7
370
    25
100
AcDbSpline
210
0.0
220
0.0
230
1.0
 70
     8
 71
     3
 72
    11
 73
     7
 74
     0
 42
0.00000001
 43
0.00000001
 40
0.0
 40
0.0
 40
0.0
 40
0.0
 40
0.1901186220120355
 40
0.3907847472727
 40
0.5914821745603823
 40
1.0
 40
1.0
 40
1.0
 40
1.0
 10
39.04798912370406
 20
107.5929889550689
 30
0.0
 10
39.06267210112104
 20
107.9068418003752
 30
0.0
 10
39.09285264607965
 20
108.5519595880798
 30
0.0
 10
39.01225290198153
 20
109.527530157775
 30
0.0
 10
38.81029166458389
 20
110.8545226150252
 30
0.0
 10
38.51514820573146
 20
111.8288475232121
 30
0.0
 10
38.31723562316995
 20
112.4821947448751
 30
0.0
  0
SPLINE
  5
195
330
1F
100
AcDbEntity
  8
0
  6
Continuous
 62
     7
370
    25
100
AcDbSpline
210
0.0
220
0.0
230
1.0
 70
    24
 71
     3
 72
    12
 73
     8
 74
     0
 42
0.00000001
 43
0.00000001
 40
0.0
 40
0.0
 40
0.0
 40
0.0
 40
0.2240473266927281
 40
0.4755449258625739
 40
0.72697745815336
 40
0.984593429416541
 40
0.9999999999999999
 40
0.9999999999999999
 40
0.9999999999999999
 40
0.9999999999999999
 10
27.12428951487445
 20
112.4821947448751
 30
0.0
 10
27.02575086914886
 20
112.4821947448751
 30
0.0
 10
26.81660062545753
 20
112.4821947448751
 30
0.0
 10
26.57403879664427
 20
112.4821947448751
 30
0.0
 10
26.41608810676346
 20
112.4821947448751
 30
0.0
 10
26.34961376753503
 20
112.4821947448751
 30
0.0
 10
26.36768821647662
 20
112.4821947448751
 30
0.0
 10
26.36870815157609
 20
112.4821947448751
 30
0.0
  0
SPLINE
  5
196
330
1F
100
AcDbEntity
  8
0
  6
Continuous
 62
     7
370
    25
100
AcDbSpline
210
0.0
220
0.0
230
1.0
 70
     8
 71
     3
 72
    12
 73
     8
 74
     0
 42
0.00000001
 43
0.00000001
 40
0.0
 40
0.0
 40
0.0
 40
0.0
 40
0.2253923253478569
 40
0.4507209242740461
 40
0.6810902123832185
 40
0.9114179295261062
 40
0.9999999999999999
 40
0.9999999999999999
 40
0.9999999999999999
 40
0.9999999999999999
 10
27.12428951487445
 20
95.4821947448751
 30
0.0
 10
27.00880242554047
 20
95.84942414462135
 30
0.0
 10
26.77786089917752
 20
96.58377911530981
 30
0.0
 10
26.52794620883629
 20
97.71470111338733
 30
0.0
 10
26.38329244357415
 20
98.86661409732024
 30
0.0
 10
26.34403456730766
 20
99.79585123579463
 30
0.0
 10
26.38897345312225
 20
100.332994882636
 30
0.0
 10
26.40145591589015
 20
100.482194744875
 30
0.0
  0
SPLINE
  5
197
330
1F
100
AcDbEntity
  8
0
  6
Continuous
 62
     7
370
    25
100
AcDbSpline
210
0.0
220
0.0
230
1.0
 70
    24
 71
     3
 72
    12
 73
     8
 74
     0
 42
0.00000001
 43
0.00000001
 40
0.0
 40
0.0
 40
0.0
 40
0.0
 40
0.0089632188110591
 40
0.2601390719981865
 40
0.5180098181244386
 40
0.775952303849591
 40
1.0
 40
1.0
 40
1.0
 40
1.0
 10
26.36736640711637
 20
95.48219474487509
 30
0.0
 10
26.3667696271149
 20
95.48219474487509
 30
0.0
 10
26.34944930959925
 20
95.4821947448751
 30
0.0
 10
26.41255186523025
 20
95.48219474487509
 30
0.0
 10
26.56781241620218
 20
95.4821947448751
 30
0.0
 10
26.81379980696681
 20
95.4821947448751
 30
0.0
 10
27.02576150964955
 20
95.4821947448751
 30
0.0
 10
27.12428951487445
 20
95.4821947448751
 30
0.0
  0
LINE
  5
198
330
1F
100
AcDbEntity
  8
0
  6
Continuous
 62
     7
370
    25
100
AcDbLine
 10
26.220762569
 20
95.7321947449
 30
0.0
 11
26.220762569
 21
100.4821947449
 31
0.0
  0
LINE
  5
199
330
1F
100
AcDbEntity
  8
0
  6
Continuous
 62
     7
370
    25
100
AcDbLine
 10
26.220762569
 20
107.4821947449
 30
0.0
 11
26.220762569
 21
112.2321947449
 31
0.0
  0
SPLINE
  5
19A
330
1F
100
AcDbEntity
  8
0
  6
Continuous
 62
     7
370
    25
100
AcDbSpline
210
0.0
220
0.0
230
1.0
 70
    24
 71
     3
 72
    12
 73
     8
 74
     0
 42
0.00000001
 43
0.00000001
 40
0.0
 40
0.0
 40
0.0
 40
0.0
 40
0.0089632188110591
 40
0.2601390719981864
 40
0.5180098181244385
 40
0.775952303849591
 40
1.0
 40
1.0
 40
1.0
 40
1.0
 10
39.07415873092803
 20
95.48219474487509
 30
0.0
 10
39.0747555109295
 20
95.48219474487509
 30
0.0
 10
39.09207582844518
 20
95.48219474487513
 30
0.0
 10
39.02897327281416
 20
95.48219474487507
 30
0.0
 10
38.87371272184221
 20
95.4821947448751
 30
0.0
 10
38.62772533107758
 20
95.4821947448751
 30
0.0
 10
38.41576362839485
 20
95.4821947448751
 30
0.0
 10
38.31723562316994
 20
95.4821947448751
 30
0.0
  0
SPLINE
  5
19B
330
1F
100
AcDbEntity
  8
0
  6
Continuous
 62
     7
370
    25
100
AcDbSpline
210
0.0
220
0.0
230
1.0
 70
     8
 71
     3
 72
    12
 73
     8
 74
     0
 42
0.00000001
 43
0.00000001
 40
0.0
 40
0.0
 40
0.0
 40
0.0
 40
0.2307605777717619
 40
0.4614559113260877
 40
0.6973119900230796
 40
0.9331255076426984
 40
1.0
 40
1.0
 40
1.0
 40
1.0
 10
38.31723562316995
 20
95.4821947448751
 30
0.0
 10
38.43270482746487
 20
95.84942351916285
 30
0.0
 10
38.66361058880646
 20
96.58377723911119
 30
0.0
 10
38.91379545823587
 20
97.71470868563351
 30
0.0
 10
39.05740045522245
 20
98.86658499304477
 30
0.0
 10
39.09799206277993
 20
99.75657147482123
 30
0.0
 10
39.05748144995052
 20
100.2545726843188
 30
0.0
 10
39.0485312220632
 20
100.364598773826
 30
0.0
  0
SPLINE
  5
19C
330
1F
100
AcDbEntity
  8
0
  6
Continuous
 62
     7
370
    25
100
AcDbSpline
210
0.0
220
0.0
230
1.0
 70
    24
 71
     3
 72
    12
 73
     8
 74
     0
 42
0.00000001
 43
0.00000001
 40
0.0
 40
0.0
 40
0.0
 40
0.0
 40
0.2240473266927281
 40
0.4755449258625739
 40
0.7269774581533601
 40
0.984593429416541
 40
0.9999999999999999
 40
0.9999999999999999
 40
0.9999999999999999
 40
0.9999999999999999
 10
38.31723562316994
 20
112.4821947448751
 30
0.0
 10
38.41577426889553
 20
112.4821947448751
 30
0.0
 10
38.62492451258685
 20
112.4821947448751
 30
0.0
 10
38.86748634140015
 20
112.4821947448751
 30
0.0
 10
39.02543703128093
 20
112.4821947448751
 30
0.0
 10
39.09191137050941
 20
112.4821947448751
 30
0.0
 10
39.07383692156778
 20
112.4821947448751
 30
0.0
 10
39.0728169864683
 20
112.4821947448751
 30
0.0
  0
LINE
  5
19D
330
1F
100
AcDbEntity
  8
0
  6
Continuous
 62
     7
370
    25
100
AcDbLine
 10
39.220762569
 20
95.7321947449
 30
0.0
 11
39.220762569
 21
100.3937076469
 31
0.0
  0
LINE
  5
19E
330
1F
100
AcDbEntity
  8
0
  6
Continuous
 62
     7
370
    25
100
AcDbLine
 10
39.220762569
 20
107.5706818428
 30
0.0
 11
39.220762569
 21
112.2321947449
 31
0.0
  0
LINE
  5
19F
330
1F
100
AcDbEntity
  8
0
  6
Continuous
 62
     7
370
    25
100
AcDbLine
 10
29.470762569
 20
95.4821947449
 30
0.0
 11
38.3172356232
 21
95.4821947449
 31
0.0
  0
LINE
  5
1A0
330
1F
100
AcDbEntity
  8
0
  6
Continuous
 62
     7
370
    25
100
AcDbLine
 10
29.470762569
 20
95.4821947449
 30
0.0
 11
29.220762569
 21
97.5007896731
 31
0.0
  0
LINE
  5
1A1
330
1F
100
AcDbEntity
  8
0
  6
Continuous
 62
     7
370
    25
100
AcDbLine
 10
28.970762569
 20
95.4821947449
 30
0.0
 11
29.220762569
 21
97.5007896731
 31
0.0
  0
LINE
  5
1A2
330
1F
100
AcDbEntity
  8
0
  6
Continuous
 62
     7
370
    25
100
AcDbLine
 10
27.1242895149
 20
95.4821947449
 30
0.0
 11
28.970762569
 21
95.4821947449
 31
0.0
  0
SPLINE
  5
1A3
330
1F
100
AcDbEntity
  8
0
  6
Continuous
 62
     7
370
    25
100
AcDbSpline
210
0.0
220
0.0
230
1.0
 70
    24
 71
     3
 72
     9
 73
     5
 74
     0
 42
0.00000001
 43
0.00000001
 40
0.0
 40
0.0
 40
0.0
 40
0.0
 40
0.2781867517081161
 40
1.0
 40
1.0
 40
1.0
 40
1.0
 10
29.2207625690222
 20
95.4821947448751
 30
0.0
 10
29.20288216411544
 20
95.4821947448751
 30
0.0
 10
29.13860733867188
 20
95.4821947448751
 30
0.0
 10
29.04112593654178
 20
95.4821947448751
 30
0.0
 10
28.97076256902221
 20
95.4821947448751
 30
0.0
  0
LINE
  5
1A4
330
1F
100
AcDbEntity
  8
0
  6
Continuous
 62
     7
370
    25
100
AcDbLine
 10
29.220762569
 20
95.4821947449
 30
0.0
 11
29.220762569
 21
97.5007896731
 31
0.0
  0
SPLINE
  5
1A5
330
1F
100
AcDbEntity
  8
0
  6
Continuous
 62
     7
370
    25
100
AcDbSpline
210
0.0
220
0.0
230
1.0
 70
    24
 71
     3
 72
     9
 73
     5
 74
     0
 42
0.00000001
 43
0.00000001
 40
0.0
 40
0.0
 40
0.0
 40
0.0
 40
0.2781867517081316
 40
1.0
 40
1.0
 40
1.0
 40
1.0
 10
29.2207625690222
 20
95.4821947448751
 30
0.0
 10
29.23864297392896
 20
95.4821947448751
 30
0.0
 10
29.30291779937255
 20
95.4821947448751
 30
0.0
 10
29.40039920150264
 20
95.4821947448751
 30
0.0
 10
29.47076256902221
 20
95.4821947448751
 30
0.0
  0
LINE
  5
1A6
330
1F
100
AcDbEntity
  8
0
  6
Continuous
 62
     7
370
    25
100
AcDbLine
 10
28.970762569
 20
112.4821947449
 30
0.0
 11
29.220762569
 21
112.4821947449
 31
0.0
  0
LINE
  5
1A7
330
1F
100
AcDbEntity
  8
0
  6
Continuous
 62
     7
370
    25
100
AcDbLine
 10
29.220762569
 20
110.4635998166
 30
0.0
 11
29.220762569
 21
112.4821947449
 31
0.0
  0
LINE
  5
1A8
330
1F
100
AcDbEntity
  8
0
  6
Continuous
 62
     7
370
    25
100
AcDbLine
 10
29.470762569
 20
112.4821947449
 30
0.0
 11
29.220762569
 21
112.4821947449
 31
0.0
  0
LINE
  5
1A9
330
1F
100
AcDbEntity
  8
0
  6
Continuous
 62
     7
370
    25
100
AcDbLine
 10
43.7556990596
 20
111.9821947449
 30
0.0
 11
43.7556990596
 21
107.9671774965
 31
0.0
  0
LINE
  5
1AA
330
1F
100
AcDbEntity
  8
0
  6
Continuous
 62
     7
370
    25
100
AcDbLine
 10
43.7556990596
 20
99.9972119932
 30
0.0
 11
43.7556990596
 21
95.9821947449
 31
0.0
  0
LINE
  5
1AB
330
1F
100
AcDbEntity
  8
0
  6
Continuous
 62
     7
370
    25
100
AcDbLine
 10
43.5556990596
 20
96.1821947449
 30
0.0
 11
43.5556990596
 21
100.0214667062
 31
0.0
  0
LINE
  5
1AC
330
1F
100
AcDbEntity
  8
0
  6
Continuous
 62
     7
370
    25
100
AcDbLine
 10
43.5556990596
 20
107.9429227835
 30
0.0
 11
43.5556990596
 21
111.7821947449
 31
0.0
  0
SPLINE
  5
1AD
330
1F
100
AcDbEntity
  8
0
  6
Continuous
 62
     7
370
    25
100
AcDbSpline
210
0.0
220
0.0
230
1.0
 70
    24
 71
     3
 72
    10
 73
     6
 74
     0
 42
0.00000001
 43
0.00000001
 40
0.0
 40
0.0
 40
0.0
 40
0.0
 40
0.3696206350370905
 40
0.7422868434980839
 40
1.0
 40
1.0
 40
1.0
 40
1.0
 10
69.18364008700352
 20
95.48219474487509
 30
0.0
 10
69.32484284512094
 20
95.48219474487509
 30
0.0
 10
69.60841183364802
 20
95.48219474487509
 30
0.0
 10
69.82755032657337
 20
95.48219474487509
 30
0.0
 10
69.84994129410232
 20
95.48219474487509
 30
0.0
 10
69.85909522146694
 20
95.48219474487509
 30
0.0
  0
SPLINE
  5
1AE
330
1F
100
AcDbEntity
  8
0
  6
Continuous
 62
     7
370
    25
100
AcDbSpline
210
0.0
220
0.0
230
1.0
 70
     8
 71
     3
 72
    10
 73
     6
 74
     0
 42
0.00000001
 43
0.00000001
 40
0.0
 40
0.0
 40
0.0
 40
0.0
 40
0.5
 40
0.5
 40
1.0
 40
1.0
 40
1.0
 40
1.0
 10
69.18364008700352
 20
95.73219474487509
 30
0.0
 10
69.15996469257912
 20
95.65781436749776
 30
0.0
 10
69.14687358269448
 20
95.59351372871198
 30
0.0
 10
69.14678726140622
 20
95.50529804392905
 30
0.0
 10
69.15995619535005
 20
95.48219474487509
 30
0.0
 10
69.18364008700352
 20
95.48219474487509
 30
0.0
  0
SPLINE
  5
1AF
330
1F
100
AcDbEntity
  8
0
  6
Continuous
 62
     7
370
    25
100
AcDbSpline
210
0.0
220
0.0
230
1.0
 70
     8
 71
     3
 72
    16
 73
    12
 74
     0
 42
0.00000001
 43
0.00000001
 40
0.0
 40
0.0
 40
0.0
 40
0.0
 40
0.2500000000000001
 40
0.2500000000000001
 40
0.5000000000000001
 40
0.5000000000000001
 40
0.6250000000000001
 40
0.6250000000000001
 40
0.7500000000000002
 40
0.7500000000000002
 40
1.0
 40
1.0
 40
1.0
 40
1.0
 10
69.18364008700352
 20
103.7321947448751
 30
0.0
 10
69.39165553510928
 20
103.0786779648343
 30
0.0
 10
69.56186184008226
 20
102.4204575557443
 30
0.0
 10
69.79679787164986
 20
101.0908949723785
 30
0.0
 10
69.8608700033135
 20
100.419470990308
 30
0.0
 10
69.8616029522345
 20
99.40046990330126
 30
0.0
 10
69.84594347215148
 20
99.05912912098508
 30
0.0
 10
69.78466834551456
 20
98.38353061801462
 30
0.0
 10
69.73911207301542
 20
98.04787146804999
 30
0.0
 10
69.56262604025916
 20
97.0466058315503
 30
0.0
 10
69.39196958677346
 20
96.38669817294713
 30
0.0
 10
69.18364008700352
 20
95.73219474487509
 30
0.0
  0
SPLINE
  5
1B0
330
1F
100
AcDbEntity
  8
0
  6
Continuous
 62
     7
370
    25
100
AcDbSpline
210
0.0
220
0.0
230
1.0
 70
     8
 71
     3
 72
    10
 73
     6
 74
     0
 42
0.00000001
 43
0.00000001
 40
0.0
 40
0.0
 40
0.0
 40
0.0
 40
0.5
 40
0.5
 40
1.0
 40
1.0
 40
1.0
 40
1.0
 10
69.18364008700352
 20
104.2321947448751
 30
0.0
 10
69.15996469257912
 20
104.1578143674977
 30
0.0
 10
69.14687358269448
 20
104.0707212793822
 30
0.0
 10
69.14678726140622
 20
103.8945628905062
 30
0.0
 10
69.15995619535005
 20
103.8066018177784
 30
0.0
 10
69.18364008700352
 20
103.7321947448751
 30
0.0
  0
SPLINE
  5
1B1
330
1F
100
AcDbEntity
  8
0
  6
Continuous
 62
     7
370
    25
100
AcDbSpline
210
0.0
220
0.0
230
1.0
 70
     8
 71
     3
 72
    16
 73
    12
 74
     0
 42
0.00000001
 43
0.00000001
 40
0.0
 40
0.0
 40
0.0
 40
0.0
 40
0.2499999999999997
 40
0.2499999999999997
 40
0.4999999999999993
 40
0.4999999999999993
 40
0.6249999999999993
 40
0.6249999999999993
 40
0.7499999999999996
 40
0.7499999999999996
 40
1.0
 40
1.0
 40
1.0
 40
1.0
 10
69.18364008700352
 20
112.2321947448751
 30
0.0
 10
69.39165553510928
 20
111.5786779648343
 30
0.0
 10
69.56186184008226
 20
110.9204575557443
 30
0.0
 10
69.79679787164986
 20
109.5908949723785
 30
0.0
 10
69.8608700033135
 20
108.919470990308
 30
0.0
 10
69.8616029522345
 20
107.9004699033013
 30
0.0
 10
69.84594347215148
 20
107.5591291209851
 30
0.0
 10
69.78466834551456
 20
106.8835306180146
 30
0.0
 10
69.73911207301542
 20
106.54787146805
 30
0.0
 10
69.56262604025915
 20
105.5466058315503
 30
0.0
 10
69.39196958677346
 20
104.8866981729471
 30
0.0
 10
69.18364008700352
 20
104.2321947448751
 30
0.0
  0
SPLINE
  5
1B2
330
1F
100
AcDbEntity
  8
0
  6
Continuous
 62
     7
370
    25
100
AcDbSpline
210
0.0
220
0.0
230
1.0
 70
     8
 71
     3
 72
    10
 73
     6
 74
     0
 42
0.00000001
 43
0.00000001
 40
0.0
 40
0.0
 40
0.0
 40
0.0
 40
0.5
 40
0.5
 40
1.0
 40
1.0
 40
1.0
 40
1.0
 10
69.18364008700352
 20
112.4821947448751
 30
0.0
 10
69.15996469257912
 20
112.4821947448751
 30
0.0
 10
69.14687358269448
 20
112.4594022955453
 30
0.0
 10
69.14678726140622
 20
112.3714595914522
 30
0.0
 10
69.15995619535005
 20
112.3066018177784
 30
0.0
 10
69.18364008700352
 20
112.2321947448751
 30
0.0
  0
SPLINE
  5
1B3
330
1F
100
AcDbEntity
  8
0
  6
Continuous
 62
     7
370
    25
100
AcDbSpline
210
0.0
220
0.0
230
1.0
 70
    24
 71
     3
 72
    10
 73
     6
 74
     0
 42
0.00000001
 43
0.00000001
 40
0.0
 40
0.0
 40
0.0
 40
0.0
 40
0.257709377161418
 40
0.6270769430903919
 40
1.0
 40
1.0
 40
1.0
 40
1.0
 10
69.85775347699756
 20
112.4821947448751
 30
0.0
 10
69.84914997484834
 20
112.4821947448751
 30
0.0
 10
69.82821531625335
 20
112.4821947448751
 30
0.0
 10
69.60924615155933
 20
112.4821947448751
 30
0.0
 10
69.32596107670771
 20
112.4821947448751
 30
0.0
 10
69.18364008700352
 20
112.4821947448751
 30
0.0
  0
LINE
  5
1B4
330
1F
100
AcDbEntity
  8
0
  6
Continuous
 62
     7
370
    25
100
AcDbLine
 10
70.0056990596
 20
112.2321947449
 30
0.0
 11
70.0056990596
 21
95.7321947449
 31
0.0
  0
SPLINE
  5
1B5
330
1F
100
AcDbEntity
  8
0
  6
Continuous
 62
     7
370
    25
100
AcDbSpline
210
0.0
220
0.0
230
1.0
 70
     8
 71
     3
 72
    10
 73
     6
 74
     0
 42
0.00000001
 43
0.00000001
 40
0.0
 40
0.0
 40
0.0
 40
0.0
 40
0.0461063097150453
 40
0.519118063670724
 40
1.0
 40
1.0
 40
1.0
 40
1.0
 10
64.00735345293737
 20
108.3531354905269
 30
0.0
 10
64.00799935970299
 20
108.413559858518
 30
0.0
 10
64.01527172375805
 20
109.0938871521986
 30
0.0
 10
64.1616454228556
 20
110.4053628516303
 30
0.0
 10
64.50854141902873
 20
111.6199105368943
 30
0.0
 10
64.68342046482131
 20
112.2321947448751
 30
0.0
  0
LINE
  5
1B6
330
1F
100
AcDbEntity
  8
0
  6
Continuous
 62
     7
370
    25
100
AcDbLine
 10
69.183640087
 20
112.2321947449
 30
0.0
 11
64.6834204648
 21
112.2321947449
 31
0.0
  0
SPLINE
  5
1B7
330
1F
100
AcDbEntity
  8
0
  6
Continuous
 62
     7
370
    25
100
AcDbSpline
210
0.0
220
0.0
230
1.0
 70
     8
 71
     3
 72
    10
 73
     6
 74
     0
 42
0.00000001
 43
0.00000001
 40
0.0
 40
0.0
 40
0.0
 40
0.0
 40
0.0840980369592295
 40
0.5387364899097471
 40
1.0
 40
1.0
 40
1.0
 40
1.0
 10
46.50955944270522
 20
108.4036349860371
 30
0.0
 10
46.51138612644284
 20
108.5124389080272
 30
0.0
 10
46.52308795945297
 20
109.2094426091927
 30
0.0
 10
46.68721301767808
 20
110.5018139227409
 30
0.0
 10
47.017222289462
 20
111.6526263869814
 30
0.0
 10
47.18342046482131
 20
112.2321947448751
 30
0.0
  0
LINE
  5
1B8
330
1F
100
AcDbEntity
  8
0
  6
Continuous
 62
     7
370
    25
100
AcDbLine
 10
51.3279776543
 20
112.2321947449
 30
0.0
 11
47.1834204648
 21
112.2321947449
 31
0.0
  0
SPLINE
  5
1B9
330
1F
100
AcDbEntity
  8
0
  6
Continuous
 62
     7
370
    25
100
AcDbSpline
210
0.0
220
0.0
230
1.0
 70
     8
 71
     3
 72
     9
 73
     5
 74
     0
 42
0.00000001
 43
0.00000001
 40
0.0
 40
0.0
 40
0.0
 40
0.0
 40
0.7349317374792806
 40
1.0
 40
1.0
 40
1.0
 40
1.0
 10
51.32797765430092
 20
112.2321947448751
 30
0.0
 10
51.51984671158814
 20
111.5817826097792
 30
0.0
 10
51.78091729474912
 20
110.6967859469235
 30
0.0
 10
51.88963248398768
 20
109.7897739907117
 30
0.0
 10
51.91844943030875
 20
109.5493539073931
 30
0.0
  0
SPLINE
  5
1BA
330
1F
100
AcDbEntity
  8
0
  6
Continuous
 62
     7
370
    25
100
AcDbSpline
210
0.0
220
0.0
230
1.0
 70
     8
 71
     3
 72
     9
 73
     5
 74
     0
 42
0.00000001
 43
0.00000001
 40
0.0
 40
0.0
 40
0.0
 40
0.0
 40
0.3107732335729582
 40
1.0
 40
1.0
 40
1.0
 40
1.0
 10
51.89236474148915
 20
98.42712276041675
 30
0.0
 10
51.86779119842743
 20
98.14333734245602
 30
0.0
 10
51.7887189347733
 20
97.2301782048493
 30
0.0
 10
51.51596616431673
 20
96.34339172375259
 30
0.0
 10
51.32797765430093
 20
95.73219474487509
 30
0.0
  0
LINE
  5
1BB
330
1F
100
AcDbEntity
  8
0
  6
Continuous
 62
     7
370
    25
100
AcDbLine
 10
47.1834204648
 20
95.7321947449
 30
0.0
 11
51.3279776543
 21
95.7321947449
 31
0.0
  0
SPLINE
  5
1BC
330
1F
100
AcDbEntity
  8
0
  6
Continuous
 62
     7
370
    25
100
AcDbSpline
210
0.0
220
0.0
230
1.0
 70
     8
 71
     3
 72
    10
 73
     6
 74
     0
 42
0.00000001
 43
0.00000001
 40
0.0
 40
0.0
 40
0.0
 40
0.0
 40
0.5170486164648547
 40
0.7801639295354912
 40
0.9999999999999999
 40
0.9999999999999999
 40
0.9999999999999999
 40
0.9999999999999999
 10
47.18342046482131
 20
95.73219474487509
 30
0.0
 10
46.99861678806447
 20
96.38320176443676
 30
0.0
 10
46.71977035455696
 20
97.36549274900406
 30
0.0
 10
46.54064008966557
 20
98.6540684443784
 30
0.0
 10
46.52197446146754
 20
99.27957840440136
 30
0.0
 10
46.51347799889243
 20
99.56430613546472
 30
0.0
  0
LINE
  5
1BD
330
1F
100
AcDbEntity
  8
0
  6
Continuous
 62
     7
370
    25
100
AcDbLine
 10
64.6834204648
 20
95.7321947449
 30
0.0
 11
69.183640087
 21
95.7321947449
 31
0.0
  0
SPLINE
  5
1BE
330
1F
100
AcDbEntity
  8
0
  6
Continuous
 62
     7
370
    25
100
AcDbSpline
210
0.0
220
0.0
230
1.0
 70
     8
 71
     3
 72
    10
 73
     6
 74
     0
 42
0.00000001
 43
0.00000001
 40
0.0
 40
0.0
 40
0.0
 40
0.0
 40
0.5071891631958924
 40
0.7652872050642481
 40
1.0
 40
1.0
 40
1.0
 40
1.0
 10
64.68342046482132
 20
95.73219474487504
 30
0.0
 10
64.49843984180647
 20
96.38319344326065
 30
0.0
 10
64.21932641776155
 20
97.36547187217805
 30
0.0
 10
64.03794432809855
 20
98.6791545661829
 30
0.0
 10
64.01900248231193
 20
99.32986443087124
 30
0.0
 10
64.0099809810912
 20
99.63978036539845
 30
0.0
  0
LINE
  5
1BF
330
1F
100
AcDbEntity
  8
0
  6
Continuous
 62
     7
370
    25
100
AcDbLine
 10
64.0056990596
 20
99.5660312515
 30
0.0
 11
64.0056990596
 21
96.4821947449
 31
0.0
  0
LINE
  5
1C0
330
1F
100
AcDbEntity
  8
0
  6
Continuous
 62
     7
370
    25
100
AcDbLine
 10
64.0056990596
 20
96.4821947449
 30
0.0
 11
52.0056990596
 21
96.4821947449
 31
0.0
  0
LINE
  5
1C1
330
1F
100
AcDbEntity
  8
0
  6
Continuous
 62
     7
370
    25
100
AcDbLine
 10
52.0056990596
 20
98.4373791409
 30
0.0
 11
52.0056990596
 21
96.4821947449
 31
0.0
  0
LINE
  5
1C2
330
1F
100
AcDbEntity
  8
0
  6
Continuous
 62
     7
370
    25
100
AcDbLine
 10
52.0056990596
 20
111.4821947449
 30
0.0
 11
52.0056990596
 21
109.5270103488
 31
0.0
  0
LINE
  5
1C3
330
1F
100
AcDbEntity
  8
0
  6
Continuous
 62
     7
370
    25
100
AcDbLine
 10
52.0056990596
 20
111.4821947449
 30
0.0
 11
64.0056990596
 21
111.4821947449
 31
0.0
  0
LINE
  5
1C4
330
1F
100
AcDbEntity
  8
0
  6
Continuous
 62
     7
370
    25
100
AcDbLine
 10
64.0056990596
 20
111.4821947449
 30
0.0
 11
64.0056990596
 21
108.3983582382
 31
0.0
  0
SPLINE
  5
1C5
330
1F
100
AcDbEntity
  8
0
  6
Continuous
 62
     7
370
    25
100
AcDbSpline
210
0.0
220
0.0
230
1.0
 70
     8
 71
     3
 72
     8
 73
     4
 74
     0
 42
0.00000001
 43
0.00000001
 40
0.0
 40
0.0
 40
0.0
 40
0.0
 40
1.0
 40
1.0
 40
1.0
 40
1.0
 10
51.48946298258195
 20
112.4821947448751
 30
0.0
 10
51.66316605880171
 20
112.1496833227396
 30
0.0
 10
51.83546827786442
 20
111.8163562228407
 30
0.0
 10
52.00569905956112
 20
111.4821947448751
 30
0.0
  0
SPLINE
  5
1C6
330
1F
100
AcDbEntity
  8
0
  6
Continuous
 62
     7
370
    25
100
AcDbSpline
210
0.0
220
0.0
230
1.0
 70
     8
 71
     3
 72
    10
 73
     6
 74
     0
 42
0.00000001
 43
0.00000001
 40
0.0
 40
0.0
 40
0.0
 40
0.0
 40
0.5
 40
0.5
 40
1.0
 40
1.0
 40
1.0
 40
1.0
 10
51.32797765430658
 20
112.4821947448751
 30
0.0
 10
51.30430225988226
 20
112.4821947448751
 30
0.0
 10
51.29121114999196
 20
112.4594022955456
 30
0.0
 10
51.29112482870356
 20
112.3714595914526
 30
0.0
 10
51.30429376264739
 20
112.3066018177786
 30
0.0
 10
51.32797765430091
 20
112.2321947448751
 30
0.0
  0
SPLINE
  5
1C7
330
1F
100
AcDbEntity
  8
0
  6
Continuous
 62
     7
370
    25
100
AcDbSpline
210
0.0
220
0.0
230
1.0
 70
    24
 71
     3
 72
     8
 73
     4
 74
     0
 42
0.00000001
 43
0.00000001
 40
0.0
 40
0.0
 40
0.0
 40
0.0
 40
1.0
 40
1.0
 40
1.0
 40
1.0
 10
51.48946298258193
 20
112.4821947448751
 30
0.0
 10
51.43856426565953
 20
112.4821947448751
 30
0.0
 10
51.3846301294089
 20
112.4821947448751
 30
0.0
 10
51.32797765430131
 20
112.4821947448751
 30
0.0
  0
SPLINE
  5
1C8
330
1F
100
AcDbEntity
  8
0
  6
Continuous
 62
     7
370
    25
100
AcDbSpline
210
0.0
220
0.0
230
1.0
 70
     8
 71
     3
 72
     8
 73
     4
 74
     0
 42
0.00000001
 43
0.00000001
 40
0.0
 40
0.0
 40
0.0
 40
0.0
 40
1.0
 40
1.0
 40
1.0
 40
1.0
 10
64.00569905956112
 20
111.4821947448751
 30
0.0
 10
64.17597666690483
 20
111.8164481411604
 30
0.0
 10
64.3482484155305
 20
112.1497146307293
 30
0.0
 10
64.52193513654016
 20
112.4821947448749
 30
0.0
  0
SPLINE
  5
1C9
330
1F
100
AcDbEntity
  8
0
  6
Continuous
 62
     7
370
    25
100
AcDbSpline
210
0.0
220
0.0
230
1.0
 70
    24
 71
     3
 72
     8
 73
     4
 74
     0
 42
0.00000001
 43
0.00000001
 40
0.0
 40
0.0
 40
0.0
 40
0.0
 40
1.0
 40
1.0
 40
1.0
 40
1.0
 10
64.52193513653977
 20
112.4821947448751
 30
0.0
 10
64.572831369795
 20
112.4821947448751
 30
0.0
 10
64.62676532475884
 20
112.4821947448751
 30
0.0
 10
64.68342046482131
 20
112.4821947448751
 30
0.0
  0
SPLINE
  5
1CA
330
1F
100
AcDbEntity
  8
0
  6
Continuous
 62
     7
370
    25
100
AcDbSpline
210
0.0
220
0.0
230
1.0
 70
     8
 71
     3
 72
    10
 73
     6
 74
     0
 42
0.00000001
 43
0.00000001
 40
0.0
 40
0.0
 40
0.0
 40
0.0
 40
0.5
 40
0.5
 40
1.0
 40
1.0
 40
1.0
 40
1.0
 10
64.68342046482131
 20
112.2321947448751
 30
0.0
 10
64.7070958592457
 20
112.3065751222524
 30
0.0
 10
64.72018696913034
 20
112.3708757610382
 30
0.0
 10
64.72027329041862
 20
112.4590914458211
 30
0.0
 10
64.70710435647479
 20
112.4821947448751
 30
0.0
 10
64.68342046482131
 20
112.4821947448751
 30
0.0
  0
SPLINE
  5
1CB
330
1F
100
AcDbEntity
  8
0
  6
Continuous
 62
     7
370
    25
100
AcDbSpline
210
0.0
220
0.0
230
1.0
 70
     8
 71
     3
 72
    10
 73
     6
 74
     0
 42
0.00000001
 43
0.00000001
 40
0.0
 40
0.0
 40
0.0
 40
0.0
 40
0.5
 40
0.5
 40
1.0
 40
1.0
 40
1.0
 40
1.0
 10
47.18342046482131
 20
112.4821947448751
 30
0.0
 10
47.20709436537725
 20
112.4821947448751
 30
0.0
 10
47.2201869225564
 20
112.4594041732277
 30
0.0
 10
47.22027333653868
 20
112.3714581759288
 30
0.0
 10
47.20710294494005
 20
112.3065973831961
 30
0.0
 10
47.18342046482131
 20
112.2321947448751
 30
0.0
  0
SPLINE
  5
1CC
330
1F
100
AcDbEntity
  8
0
  6
Continuous
 62
     7
370
    25
100
AcDbSpline
210
0.0
220
0.0
230
1.0
 70
    24
 71
     3
 72
    12
 73
     8
 74
     0
 42
0.00000001
 43
0.00000001
 40
0.0
 40
0.0
 40
0.0
 40
0.0
 40
0.2499999999999999
 40
0.2499999999999999
 40
0.4999999999999998
 40
0.4999999999999998
 40
1.0
 40
1.0
 40
1.0
 40
1.0
 10
46.50569905956112
 20
112.4821947448751
 30
0.0
 10
46.50569905956112
 20
112.4821947448751
 30
0.0
 10
46.52169786454219
 20
112.4821947448751
 30
0.0
 10
46.58346800285658
 20
112.4821947448751
 30
0.0
 10
46.62921012715817
 20
112.4821947448751
 30
0.0
 10
46.80588027450502
 20
112.4821947448751
 30
0.0
 10
46.97613533998532
 20
112.4821947448751
 30
0.0
 10
47.18342046482131
 20
112.4821947448751
 30
0.0
  0
LINE
  5
1CD
330
1F
100
AcDbEntity
  8
0
  6
Continuous
 62
     7
370
    25
100
AcDbLine
 10
46.5056990596
 20
112.4821947449
 30
0.0
 11
46.5056990596
 21
108.3648410267
 31
0.0
  0
SPLINE
  5
1CE
330
1F
100
AcDbEntity
  8
0
  6
Continuous
 62
     7
370
    25
100
AcDbSpline
210
0.0
220
0.0
230
1.0
 70
     8
 71
     3
 72
     8
 73
     4
 74
     0
 42
0.00000001
 43
0.00000001
 40
0.0
 40
0.0
 40
0.0
 40
0.0
 40
1.0
 40
1.0
 40
1.0
 40
1.0
 10
52.00569905956112
 20
96.48219474487509
 30
0.0
 10
51.83542145221736
 20
96.14794134858968
 30
0.0
 10
51.66314970359165
 20
95.81467485902066
 30
0.0
 10
51.48946298258195
 20
95.48219474487509
 30
0.0
  0
SPLINE
  5
1CF
330
1F
100
AcDbEntity
  8
0
  6
Continuous
 62
     7
370
    25
100
AcDbSpline
210
0.0
220
0.0
230
1.0
 70
    24
 71
     3
 72
     8
 73
     4
 74
     0
 42
0.00000001
 43
0.00000001
 40
0.0
 40
0.0
 40
0.0
 40
0.0
 40
1.0
 40
1.0
 40
1.0
 40
1.0
 10
51.48946298258195
 20
95.48219474487509
 30
0.0
 10
51.43856426565942
 20
95.48219474487509
 30
0.0
 10
51.38463012940866
 20
95.48219474487509
 30
0.0
 10
51.32797765430092
 20
95.48219474487509
 30
0.0
  0
SPLINE
  5
1D0
330
1F
100
AcDbEntity
  8
0
  6
Continuous
 62
     7
370
    25
100
AcDbSpline
210
0.0
220
0.0
230
1.0
 70
     8
 71
     3
 72
    10
 73
     6
 74
     0
 42
0.00000001
 43
0.00000001
 40
0.0
 40
0.0
 40
0.0
 40
0.0
 40
0.5
 40
0.5
 40
1.0
 40
1.0
 40
1.0
 40
1.0
 10
51.32797765430093
 20
95.73219474487509
 30
0.0
 10
51.30430225987654
 20
95.65781436749776
 30
0.0
 10
51.2912111499919
 20
95.59351372871198
 30
0.0
 10
51.29112482870362
 20
95.50529804392905
 30
0.0
 10
51.30429376264746
 20
95.48219474487509
 30
0.0
 10
51.32797765430092
 20
95.48219474487509
 30
0.0
  0
SPLINE
  5
1D1
330
1F
100
AcDbEntity
  8
0
  6
Continuous
 62
     7
370
    25
100
AcDbSpline
210
0.0
220
0.0
230
1.0
 70
     8
 71
     3
 72
     8
 73
     4
 74
     0
 42
0.00000001
 43
0.00000001
 40
0.0
 40
0.0
 40
0.0
 40
0.0
 40
1.0
 40
1.0
 40
1.0
 40
1.0
 10
64.52193513654029
 20
95.48219474487509
 30
0.0
 10
64.34823206032053
 20
95.81470616701058
 30
0.0
 10
64.17592984125783
 20
96.14803326690947
 30
0.0
 10
64.00569905956112
 20
96.48219474487509
 30
0.0
  0
SPLINE
  5
1D2
330
1F
100
AcDbEntity
  8
0
  6
Continuous
 62
     7
370
    25
100
AcDbSpline
210
0.0
220
0.0
230
1.0
 70
     8
 71
     3
 72
    10
 73
     6
 74
     0
 42
0.00000001
 43
0.00000001
 40
0.0
 40
0.0
 40
0.0
 40
0.0
 40
0.5
 40
0.5
 40
1.0
 40
1.0
 40
1.0
 40
1.0
 10
64.68342046482132
 20
95.48219474487509
 30
0.0
 10
64.70709585924571
 20
95.48219474487509
 30
0.0
 10
64.72018696913034
 20
95.50498719420487
 30
0.0
 10
64.72027329041863
 20
95.59292989829792
 30
0.0
 10
64.70710435647479
 20
95.65778767197178
 30
0.0
 10
64.68342046482132
 20
95.73219474487503
 30
0.0
  0
SPLINE
  5
1D3
330
1F
100
AcDbEntity
  8
0
  6
Continuous
 62
     7
370
    25
100
AcDbSpline
210
0.0
220
0.0
230
1.0
 70
    24
 71
     3
 72
     8
 73
     4
 74
     0
 42
0.00000001
 43
0.00000001
 40
0.0
 40
0.0
 40
0.0
 40
0.0
 40
1.0
 40
1.0
 40
1.0
 40
1.0
 10
64.5219351365403
 20
95.48219474487509
 30
0.0
 10
64.57283136979538
 20
95.48219474487509
 30
0.0
 10
64.62676532475903
 20
95.48219474487509
 30
0.0
 10
64.68342046482131
 20
95.48219474487509
 30
0.0
  0
SPLINE
  5
1D4
330
1F
100
AcDbEntity
  8
0
  6
Continuous
 62
     7
370
    25
100
AcDbSpline
210
0.0
220
0.0
230
1.0
 70
     8
 71
     3
 72
    10
 73
     6
 74
     0
 42
0.00000001
 43
0.00000001
 40
0.0
 40
0.0
 40
0.0
 40
0.0
 40
0.5
 40
0.5
 40
1.0
 40
1.0
 40
1.0
 40
1.0
 10
47.18342046482131
 20
95.73219474487509
 30
0.0
 10
47.20709270473287
 20
95.65782427794953
 30
0.0
 10
47.22018669466813
 20
95.59351868166166
 30
0.0
 10
47.22027356212957
 20
95.50529589385583
 30
0.0
 10
47.20710377237022
 20
95.48219474487509
 30
0.0
 10
47.18342046482131
 20
95.48219474487509
 30
0.0
  0
SPLINE
  5
1D5
330
1F
100
AcDbEntity
  8
0
  6
Continuous
 62
     7
370
    25
100
AcDbSpline
210
0.0
220
0.0
230
1.0
 70
    24
 71
     3
 72
    12
 73
     8
 74
     0
 42
0.00000001
 43
0.00000001
 40
0.0
 40
0.0
 40
0.0
 40
0.0
 40
0.2500000000000001
 40
0.2500000000000001
 40
0.5000000000000001
 40
0.5000000000000001
 40
1.0
 40
1.0
 40
1.0
 40
1.0
 10
46.50569905956112
 20
95.48219474487509
 30
0.0
 10
46.50569905956112
 20
95.48219474487509
 30
0.0
 10
46.52169786454219
 20
95.48219474487509
 30
0.0
 10
46.58346800285658
 20
95.48219474487509
 30
0.0
 10
46.62921012715817
 20
95.48219474487509
 30
0.0
 10
46.80588027450502
 20
95.48219474487509
 30
0.0
 10
46.97613533998532
 20
95.48219474487509
 30
0.0
 10
47.18342046482131
 20
95.48219474487509
 30
0.0
  0
LINE
  5
1D6
330
1F
100
AcDbEntity
  8
0
  6
Continuous
 62
     7
370
    25
100
AcDbLine
 10
46.5056990596
 20
95.4821947449
 30
0.0
 11
46.5056990596
 21
99.599548463
 31
0.0
  0
LINE
  5
1D7
330
1F
100
AcDbEntity
  8
0
  6
Continuous
 62
     7
370
    25
100
AcDbLine
 10
64.6834204648
 20
112.4821947449
 30
0.0
 11
69.183640087
 21
112.4821947449
 31
0.0
  0
LINE
  5
1D8
330
1F
100
AcDbEntity
  8
0
  6
Continuous
 62
     7
370
    25
100
AcDbLine
 10
47.1834204648
 20
112.4821947449
 30
0.0
 11
51.3279776543
 21
112.4821947449
 31
0.0
  0
LINE
  5
1D9
330
1F
100
AcDbEntity
  8
0
  6
Continuous
 62
     7
370
    25
100
AcDbLine
 10
69.183640087
 20
95.4821947449
 30
0.0
 11
64.6834204648
 21
95.4821947449
 31
0.0
  0
LINE
  5
1DA
330
1F
100
AcDbEntity
  8
0
  6
Continuous
 62
     7
370
    25
100
AcDbLine
 10
51.3279776543
 20
95.4821947449
 30
0.0
 11
47.1834204648
 21
95.4821947449
 31
0.0
  0
LINE
  5
1DB
330
1F
100
AcDbEntity
  8
0
  6
Continuous
 62
     7
370
    25
100
AcDbLine
 10
64.5219351365
 20
112.4821947449
 30
0.0
 11
51.4894629826
 21
112.4821947449
 31
0.0
  0
LINE
  5
1DC
330
1F
100
AcDbEntity
  8
0
  6
Continuous
 62
     7
370
    25
100
AcDbLine
 10
64.5219351365
 20
95.4821947449
 30
0.0
 11
51.4894629826
 21
95.4821947449
 31
0.0
  0
SPLINE
  5
1DD
330
1F
100
AcDbEntity
  8
0
  6
Continuous
 62
     7
370
    25
100
AcDbSpline
210
0.0
220
0.0
230
1.0
 70
     8
 71
     3
 72
    15
 73
    11
 74
     0
 42
0.00000001
 43
0.00000001
 40
0.0
 40
0.0
 40
0.0
 40
0.0
 40
0.0090459071881971
 40
0.1032433785236817
 40
0.1542564497735191
 40
0.3133169026715104
 40
0.5243720399414403
 40
0.667806000850918
 40
0.9918332554187028
 40
1.0
 40
1.0
 40
1.0
 40
1.0
 10
52.76661372690301
 20
105.6561077883534
 30
0.0
 10
52.76661941886967
 20
105.6560901426289
 30
0.0
 10
52.76668438282047
 20
105.6558887472163
 30
0.0
 10
52.76868006925635
 20
105.6496991265501
 30
0.0
 10
52.77649706547281
 20
105.625497194706
 30
0.0
 10
52.79366688922777
 20
105.5724782027043
 30
0.0
 10
52.82025078579532
 20
105.4911073155078
 30
0.0
 10
52.85808008428394
 20
105.3765282434853
 30
0.0
 10
52.88636086429417
 20
105.2921030657661
 30
0.0
 10
52.90619201182546
 20
105.2336322078141
 30
0.0
 10
52.90667954596833
 20
105.2321947448751
 30
0.0
  0
ARC
  5
1DE
330
1F
100
AcDbEntity
  8
0
  6
Continuous
 62
     7
370
    25
100
AcDbCircle
 10
58.0056990596
 20
103.9821947449
 30
0.0
 40
5.500000000000004
100
AcDbArc
 50
17.7189318734
 51
162.2810681266
  0
SPLINE
  5
1DF
330
1F
100
AcDbEntity
  8
0
  6
Continuous
 62
     7
370
    25
100
AcDbSpline
210
0.0
220
0.0
230
1.0
 70
     8
 71
     3
 72
    15
 73
    11
 74
     0
 42
0.00000001
 43
0.00000001
 40
0.0
 40
0.0
 40
0.0
 40
0.0
 40
0.0081667445812973
 40
0.3321939991490804
 40
0.475627960058556
 40
0.6866830973284891
 40
0.8457435502264751
 40
0.8967566214763124
 40
0.9909540928118028
 40
1.0
 40
1.0
 40
1.0
 40
1.0
 10
63.1047185731539
 20
105.2321947448751
 30
0.0
 10
63.10520610729678
 20
105.2336322078141
 30
0.0
 10
63.12503725482804
 20
105.2921030657661
 30
0.0
 10
63.15331803483829
 20
105.3765282434853
 30
0.0
 10
63.19114733332692
 20
105.4911073155078
 30
0.0
 10
63.21773122989446
 20
105.5724782027043
 30
0.0
 10
63.23490105364943
 20
105.625497194706
 30
0.0
 10
63.24271804986588
 20
105.6496991265501
 30
0.0
 10
63.24471373630176
 20
105.6558887472163
 30
0.0
 10
63.24477870025255
 20
105.6560901426289
 30
0.0
 10
63.24478439221923
 20
105.6561077883534
 30
0.0
  0
ARC
  5
1E0
330
1F
100
AcDbEntity
  8
0
  6
Continuous
 62
     7
370
    25
100
AcDbCircle
 10
58.0056990596
 20
103.9821947449
 30
0.0
 40
5.250000000000002
100
AcDbArc
 50
13.774146998
 51
166.225853002
  0
SPLINE
  5
1E1
330
1F
100
AcDbEntity
  8
0
  6
Continuous
 62
     7
370
    25
100
AcDbSpline
210
0.0
220
0.0
230
1.0
 70
     8
 71
     3
 72
    15
 73
    11
 74
     0
 42
0.00000001
 43
0.00000001
 40
0.0
 40
0.0
 40
0.0
 40
0.0
 40
0.0080847466189582
 40
0.3310106400648243
 40
0.4750333064304948
 40
0.6874363079215142
 40
0.8468367539418303
 40
0.9000996640391847
 40
0.9910442771984082
 40
1.0
 40
1.0
 40
1.0
 40
1.0
 10
52.90667954596833
 20
105.2321947448751
 30
0.0
 10
52.90539971442421
 20
105.2330106808634
 30
0.0
 10
52.85300006870097
 20
105.2664172310579
 30
0.0
 10
52.77764497724586
 20
105.3152307957917
 30
0.0
 10
52.67572586522821
 20
105.3826012680601
 30
0.0
 10
52.60333492023628
 20
105.4311853084035
 30
0.0
 10
52.55562949197147
 20
105.463634169862
 30
0.0
 10
52.53409400826414
 20
105.4783452109283
 30
0.0
 10
52.52866499224462
 20
105.4820636618464
 30
0.0
 10
52.52848924008806
 20
105.4821839605119
 30
0.0
 10
52.52847348450945
 20
105.4821947448751
 30
0.0
  0
ARC
  5
1E2
330
1F
100
AcDbEntity
  8
0
  6
Continuous
 62
     7
370
    25
100
AcDbCircle
 10
52.5284734845
 20
105.7321947449
 30
0.0
 40
0.2500000000000034
100
AcDbArc
 50
270.0
 51
342.2810681266
  0
SPLINE
  5
1E3
330
1F
100
AcDbEntity
  8
0
  6
Continuous
 62
     7
370
    25
100
AcDbSpline
210
0.0
220
0.0
230
1.0
 70
     8
 71
     3
 72
    15
 73
    11
 74
     0
 42
0.00000001
 43
0.00000001
 40
0.0
 40
0.0
 40
0.0
 40
0.0
 40
0.0089557228015919
 40
0.0999003359608209
 40
0.1531632460581751
 40
0.3125636920784904
 40
0.5249666935695061
 40
0.6689893599351777
 40
0.991915253381045
 40
1.0
 40
1.0
 40
1.0
 40
1.0
 10
63.48292463461277
 20
105.4821947448751
 30
0.0
 10
63.48290887903417
 20
105.4821839605119
 30
0.0
 10
63.4827331268776
 20
105.4820636618464
 30
0.0
 10
63.47730411085809
 20
105.4783452109283
 30
0.0
 10
63.45576862715077
 20
105.463634169862
 30
0.0
 10
63.40806319888595
 20
105.4311853084035
 30
0.0
 10
63.33567225389402
 20
105.3826012680601
 30
0.0
 10
63.23375314187636
 20
105.3152307957917
 30
0.0
 10
63.15839805042133
 20
105.2664172310578
 30
0.0
 10
63.10599840469802
 20
105.2330106808634
 30
0.0
 10
63.1047185731539
 20
105.2321947448751
 30
0.0
  0
ARC
  5
1E4
330
1F
100
AcDbEntity
  8
0
  6
Continuous
 62
     7
370
    25
100
AcDbCircle
 10
63.4829246346
 20
105.7321947449
 30
0.0
 40
0.25
100
AcDbArc
 50
197.7189318734
 51
270.0
  0
ARC
  5
1E5
330
1F
100
AcDbEntity
  8
0
  6
Continuous
 62
     7
370
    25
100
AcDbCircle
 10
63.4829246346
 20
102.2321947449
 30
0.0
 40
0.25
100
AcDbArc
 50
90.0
 51
162.2810681266
  0
SPLINE
  5
1E6
330
1F
100
AcDbEntity
  8
0
  6
Continuous
 62
     7
370
    25
100
AcDbSpline
210
0.0
220
0.0
230
1.0
 70
     8
 71
     3
 72
    15
 73
    11
 74
     0
 42
0.00000001
 43
0.00000001
 40
0.0
 40
0.0
 40
0.0
 40
0.0
 40
0.0090459071881971
 40
0.1032433785236874
 40
0.1542564497735246
 40
0.313316902671511
 40
0.5243720399414428
 40
0.6678060008509903
 40
0.9918332554187292
 40
1.0
 40
1.0
 40
1.0
 40
1.0
 10
63.24478439221923
 20
102.3082817013968
 30
0.0
 10
63.24477870025255
 20
102.3082993471213
 30
0.0
 10
63.24471373630178
 20
102.3085007425338
 30
0.0
 10
63.24271804986588
 20
102.3146903632
 30
0.0
 10
63.23490105364943
 20
102.3388922950442
 30
0.0
 10
63.21773122989445
 20
102.3919112870458
 30
0.0
 10
63.19114733332697
 20
102.4732821742424
 30
0.0
 10
63.15331803483812
 20
102.5878612462649
 30
0.0
 10
63.12503725482888
 20
102.6722864239844
 30
0.0
 10
63.10520610729679
 20
102.7307572819361
 30
0.0
 10
63.1047185731539
 20
102.7321947448751
 30
0.0
  0
SPLINE
  5
1E7
330
1F
100
AcDbEntity
  8
0
  6
Continuous
 62
     7
370
    25
100
AcDbSpline
210
0.0
220
0.0
230
1.0
 70
     8
 71
     3
 72
    15
 73
    11
 74
     0
 42
0.00000001
 43
0.00000001
 40
0.0
 40
0.0
 40
0.0
 40
0.0
 40
0.0080847466189818
 40
0.3310106400647567
 40
0.4750333064304972
 40
0.6874363079215137
 40
0.8468367539418253
 40
0.9000996640391794
 40
0.9910442771984082
 40
1.0
 40
1.0
 40
1.0
 40
1.0
 10
63.1047185731539
 20
102.7321947448751
 30
0.0
 10
63.10599840469805
 20
102.7313788088868
 30
0.0
 10
63.15839805042182
 20
102.6979722586932
 30
0.0
 10
63.23375314187625
 20
102.6491586939583
 30
0.0
 10
63.33567225389405
 20
102.5817882216902
 30
0.0
 10
63.40806319888595
 20
102.5332041813467
 30
0.0
 10
63.45576862715077
 20
102.5007553198881
 30
0.0
 10
63.47730411085809
 20
102.4860442788219
 30
0.0
 10
63.48273312687762
 20
102.4823258279038
 30
0.0
 10
63.48290887903417
 20
102.4822055292382
 30
0.0
 10
63.48292463461277
 20
102.4821947448751
 30
0.0
  0
SPLINE
  5
1E8
330
1F
100
AcDbEntity
  8
0
  6
Continuous
 62
     7
370
    25
100
AcDbSpline
210
0.0
220
0.0
230
1.0
 70
     8
 71
     3
 72
    15
 73
    11
 74
     0
 42
0.00000001
 43
0.00000001
 40
0.0
 40
0.0
 40
0.0
 40
0.0
 40
0.0081667445812695
 40
0.3321939991490083
 40
0.4756279600585602
 40
0.6866830973284899
 40
0.8457435502264811
 40
0.8967566214763185
 40
0.9909540928118029
 40
1.0
 40
1.0
 40
1.0
 40
1.0
 10
52.90667954596833
 20
102.7321947448751
 30
0.0
 10
52.90619201182545
 20
102.7307572819361
 30
0.0
 10
52.88636086429337
 20
102.6722864239844
 30
0.0
 10
52.85808008428411
 20
102.5878612462649
 30
0.0
 10
52.82025078579527
 20
102.4732821742424
 30
0.0
 10
52.79366688922779
 20
102.3919112870458
 30
0.0
 10
52.77649706547281
 20
102.3388922950442
 30
0.0
 10
52.76868006925635
 20
102.3146903632
 30
0.0
 10
52.76668438282047
 20
102.3085007425339
 30
0.0
 10
52.76661941886967
 20
102.3082993471213
 30
0.0
 10
52.76661372690301
 20
102.3082817013968
 30
0.0
  0
ARC
  5
1E9
330
1F
100
AcDbEntity
  8
0
  6
Continuous
 62
     7
370
    25
100
AcDbCircle
 10
58.0056990596
 20
103.9821947449
 30
0.0
 40
5.250000000000002
100
AcDbArc
 50
193.774146998
 51
346.225853002
  0
ARC
  5
1EA
330
1F
100
AcDbEntity
  8
0
  6
Continuous
 62
     7
370
    25
100
AcDbCircle
 10
58.0056990596
 20
103.9821947449
 30
0.0
 40
5.5
100
AcDbArc
 50
197.7189318734
 51
342.2810681266
  0
ARC
  5
1EB
330
1F
100
AcDbEntity
  8
0
  6
Continuous
 62
     7
370
    25
100
AcDbCircle
 10
52.5284734845
 20
102.2321947449
 30
0.0
 40
0.2500000000000077
100
AcDbArc
 50
17.7189318734
 51
90.0
  0
SPLINE
  5
1EC
330
1F
100
AcDbEntity
  8
0
  6
Continuous
 62
     7
370
    25
100
AcDbSpline
210
0.0
220
0.0
230
1.0
 70
     8
 71
     3
 72
    15
 73
    11
 74
     0
 42
0.00000001
 43
0.00000001
 40
0.0
 40
0.0
 40
0.0
 40
0.0
 40
0.0089557228015919
 40
0.0999003359608148
 40
0.153163246058169
 40
0.3125636920784848
 40
0.5249666935694999
 40
0.6689893599352451
 40
0.9919152533810159
 40
1.0
 40
1.0
 40
1.0
 40
1.0
 10
52.52847348450945
 20
102.4821947448751
 30
0.0
 10
52.52848924008806
 20
102.4822055292382
 30
0.0
 10
52.52866499224462
 20
102.4823258279038
 30
0.0
 10
52.53409400826415
 20
102.4860442788219
 30
0.0
 10
52.55562949197146
 20
102.5007553198881
 30
0.0
 10
52.60333492023629
 20
102.5332041813467
 30
0.0
 10
52.67572586522819
 20
102.5817882216902
 30
0.0
 10
52.77764497724597
 20
102.6491586939583
 30
0.0
 10
52.85300006870044
 20
102.6979722586931
 30
0.0
 10
52.90539971442419
 20
102.7313788088868
 30
0.0
 10
52.90667954596833
 20
102.7321947448751
 30
0.0
  0
LINE
  5
1ED
330
1F
100
AcDbEntity
  8
0
  6
Continuous
 62
     7
370
    25
100
AcDbLine
 10
53.0056990596
 20
103.3821947449
 30
0.0
 11
63.0056990596
 21
103.3821947449
 31
0.0
  0
LINE
  5
1EE
330
1F
100
AcDbEntity
  8
0
  6
Continuous
 62
     7
370
    25
100
AcDbLine
 10
63.0056990596
 20
104.5821947449
 30
0.0
 11
53.0056990596
 21
104.5821947449
 31
0.0
  0
LINE
  5
1EF
330
1F
100
AcDbEntity
  8
0
  6
Continuous
 62
     7
370
    25
100
AcDbLine
 10
63.0056990596
 20
103.3821947449
 30
0.0
 11
63.0056990596
 21
104.5821947449
 31
0.0
  0
LINE
  5
1F0
330
1F
100
AcDbEntity
  8
0
  6
Continuous
 62
     7
370
    25
100
AcDbLine
 10
53.0056990596
 20
104.5821947449
 30
0.0
 11
53.0056990596
 21
103.3821947449
 31
0.0
  0
LINE
  5
1F1
330
1F
100
AcDbEntity
  8
0
  6
Continuous
 62
     7
370
    25
100
AcDbLine
 10
52.2556990596
 20
102.7321947449
 30
0.0
 11
52.906679546
 21
102.7321947449
 31
0.0
  0
LINE
  5
1F2
330
1F
100
AcDbEntity
  8
0
  6
Continuous
 62
     7
370
    25
100
AcDbLine
 10
52.2556990596
 20
105.2321947449
 30
0.0
 11
52.2556990596
 21
102.7321947449
 31
0.0
  0
LINE
  5
1F3
330
1F
100
AcDbEntity
  8
0
  6
Continuous
 62
     7
370
    25
100
AcDbLine
 10
52.906679546
 20
105.2321947449
 30
0.0
 11
52.2556990596
 21
105.2321947449
 31
0.0
  0
LINE
  5
1F4
330
1F
100
AcDbEntity
  8
0
  6
Continuous
 62
     7
370
    25
100
AcDbLine
 10
63.7556990596
 20
105.2321947449
 30
0.0
 11
63.1047185732
 21
105.2321947449
 31
0.0
  0
LINE
  5
1F5
330
1F
100
AcDbEntity
  8
0
  6
Continuous
 62
     7
370
    25
100
AcDbLine
 10
63.7556990596
 20
102.7321947449
 30
0.0
 11
63.7556990596
 21
105.2321947449
 31
0.0
  0
LINE
  5
1F6
330
1F
100
AcDbEntity
  8
0
  6
Continuous
 62
     7
370
    25
100
AcDbLine
 10
63.1047185732
 20
102.7321947449
 30
0.0
 11
63.7556990596
 21
102.7321947449
 31
0.0
  0
ARC
  5
1F7
330
1F
100
AcDbEntity
  8
0
  6
Continuous
 62
     7
370
    25
100
AcDbCircle
 10
52.2556990596
 20
105.2321947449
 30
0.0
 40
0.25
100
AcDbArc
 50
90.0
 51
180.0
  0
LINE
  5
1F8
330
1F
100
AcDbEntity
  8
0
  6
Continuous
 62
     7
370
    25
100
AcDbLine
 10
52.2556990596
 20
105.4821947449
 30
0.0
 11
52.2556990596
 21
105.2321947449
 31
0.0
  0
LINE
  5
1F9
330
1F
100
AcDbEntity
  8
0
  6
Continuous
 62
     7
370
    25
100
AcDbLine
 10
52.2556990596
 20
105.2321947449
 30
0.0
 11
52.0056990596
 21
105.2321947449
 31
0.0
  0
LINE
  5
1FA
330
1F
100
AcDbEntity
  8
0
  6
Continuous
 62
     7
370
    25
100
AcDbLine
 10
63.4829246346
 20
105.4821947449
 30
0.0
 11
63.7556990596
 21
105.4821947449
 31
0.0
  0
LINE
  5
1FB
330
1F
100
AcDbEntity
  8
0
  6
Continuous
 62
     7
370
    25
100
AcDbLine
 10
63.7556990596
 20
105.2321947449
 30
0.0
 11
63.7556990596
 21
105.4821947449
 31
0.0
  0
LINE
  5
1FC
330
1F
100
AcDbEntity
  8
0
  6
Continuous
 62
     7
370
    25
100
AcDbLine
 10
52.2556990596
 20
105.4821947449
 30
0.0
 11
52.5284734845
 21
105.4821947449
 31
0.0
  0
LINE
  5
1FD
330
1F
100
AcDbEntity
  8
0
  6
Continuous
 62
     7
370
    25
100
AcDbLine
 10
64.0056990596
 20
105.2321947449
 30
0.0
 11
63.7556990596
 21
105.2321947449
 31
0.0
  0
ARC
  5
1FE
330
1F
100
AcDbEntity
  8
0
  6
Continuous
 62
     7
370
    25
100
AcDbCircle
 10
63.7556990596
 20
105.2321947449
 30
0.0
 40
0.2500000000000071
100
AcDbArc
 50
0.0
 51
90.0
  0
LINE
  5
1FF
330
1F
100
AcDbEntity
  8
0
  6
Continuous
 62
     7
370
    25
100
AcDbLine
 10
64.0056990596
 20
105.2321947449
 30
0.0
 11
64.0056990596
 21
102.7321947449
 31
0.0
  0
LINE
  5
200
330
1F
100
AcDbEntity
  8
0
  6
Continuous
 62
     7
370
    25
100
AcDbLine
 10
63.7556990596
 20
102.7321947449
 30
0.0
 11
64.0056990596
 21
102.7321947449
 31
0.0
  0
LINE
  5
201
330
1F
100
AcDbEntity
  8
0
  6
Continuous
 62
     7
370
    25
100
AcDbLine
 10
52.0056990596
 20
102.7321947449
 30
0.0
 11
52.2556990596
 21
102.7321947449
 31
0.0
  0
LINE
  5
202
330
1F
100
AcDbEntity
  8
0
  6
Continuous
 62
     7
370
    25
100
AcDbLine
 10
52.0056990596
 20
102.7321947449
 30
0.0
 11
52.0056990596
 21
105.2321947449
 31
0.0
  0
LINE
  5
203
330
1F
100
AcDbEntity
  8
0
  6
Continuous
 62
     7
370
    25
100
AcDbLine
 10
63.7556990596
 20
102.4821947449
 30
0.0
 11
63.7556990596
 21
102.7321947449
 31
0.0
  0
ARC
  5
204
330
1F
100
AcDbEntity
  8
0
  6
Continuous
 62
     7
370
    25
100
AcDbCircle
 10
63.7556990596
 20
102.7321947449
 30
0.0
 40
0.2500000000000071
100
AcDbArc
 50
270.0
 51
0.0
  0
ARC
  5
205
330
1F
100
AcDbEntity
  8
0
  6
Continuous
 62
     7
370
    25
100
AcDbCircle
 10
52.2556990596
 20
102.7321947449
 30
0.0
 40
0.25
100
AcDbArc
 50
180.0
 51
270.0
  0
LINE
  5
206
330
1F
100
AcDbEntity
  8
0
  6
Continuous
 62
     7
370
    25
100
AcDbLine
 10
52.2556990596
 20
102.7321947449
 30
0.0
 11
52.2556990596
 21
102.4821947449
 31
0.0
  0
LINE
  5
207
330
1F
100
AcDbEntity
  8
0
  6
Continuous
 62
     7
370
    25
100
AcDbLine
 10
63.7556990596
 20
102.4821947449
 30
0.0
 11
63.4829246346
 21
102.4821947449
 31
0.0
  0
LINE
  5
208
330
1F
100
AcDbEntity
  8
0
  6
Continuous
 62
     7
370
    25
100
AcDbLine
 10
52.5284734845
 20
102.4821947449
 30
0.0
 11
52.2556990596
 21
102.4821947449
 31
0.0
  0
LINE
  5
209
330
1F
100
AcDbEntity
  8
0
  6
Continuous
 62
     7
370
    25
100
AcDbLine
 10
38.0056990596
 20
100.7104954808
 30
0.0
 11
38.0056990596
 21
107.2538940089
 31
0.0
  0
LINE
  5
20A
330
1F
100
AcDbEntity
  8
0
  6
Continuous
 62
     7
370
    25
100
AcDbLine
 10
35.830262198
 20
100.4821947449
 30
0.0
 11
38.0056990596
 21
100.7104954808
 31
0.0
  0
LINE
  5
20B
330
1F
100
AcDbEntity
  8
0
  6
Continuous
 62
     7
370
    25
100
AcDbLine
 10
18.0056990596
 20
100.4821947449
 30
0.0
 11
35.830262198
 21
100.4821947449
 31
0.0
  0
LINE
  5
20C
330
1F
100
AcDbEntity
  8
0
  6
Continuous
 62
     7
370
    25
100
AcDbLine
 10
38.0056990596
 20
107.2538940089
 30
0.0
 11
35.830262198
 21
107.4821947449
 31
0.0
  0
LINE
  5
20D
330
1F
100
AcDbEntity
  8
0
  6
Continuous
 62
     7
370
    25
100
AcDbLine
 10
18.0056990596
 20
107.4821947449
 30
0.0
 11
18.0056990596
 21
100.4821947449
 31
0.0
  0
LINE
  5
20E
330
1F
100
AcDbEntity
  8
0
  6
Continuous
 62
     7
370
    25
100
AcDbLine
 10
35.830262198
 20
107.4821947449
 30
0.0
 11
18.0056990596
 21
107.4821947449
 31
0.0
  0
LINE
  5
20F
330
1F
100
AcDbEntity
  8
0
  6
Continuous
 62
     7
370
    25
100
AcDbLine
 10
52.7818968852
 20
105.7032092257
 30
0.0
 11
52.6853325679
 21
105.5438099054
 31
0.0
  0
LINE
  5
210
330
1F
100
AcDbEntity
  8
0
  6
Continuous
 62
     7
370
    25
100
AcDbLine
 10
52.6630551873
 20
102.4369770775
 30
0.0
 11
52.7818968852
 21
102.2611802641
 31
0.0
  0
LINE
  5
211
330
1F
100
AcDbEntity
  8
0
  6
Continuous
 62
     7
370
    25
100
AcDbLine
 10
44.589129406
 20
106.5629973804
 30
0.0
 11
44.589129406
 21
101.4013921093
 31
0.0
  0
LINE
  5
212
330
1F
100
AcDbEntity
  8
0
  6
Continuous
 62
     7
370
    25
100
AcDbLine
 10
52.7818968852
 20
102.261180264
 30
0.0
 11
44.589129406
 21
101.4013921093
 31
0.0
  0
LINE
  5
213
330
1F
100
AcDbEntity
  8
0
  6
Continuous
 62
     7
370
    25
100
AcDbLine
 10
44.589129406
 20
106.5629973804
 30
0.0
 11
52.7818968852
 21
105.7032092257
 31
0.0
  0
LINE
  5
214
330
1F
100
AcDbEntity
  8
0
  6
Continuous
 62
     7
370
    25
100
AcDbLine
 10
44.589129406
 20
101.4013921093
 30
0.0
 11
38.0056990596
 21
100.7104954808
 31
0.0
  0
LINE
  5
215
330
1F
100
AcDbEntity
  8
0
  6
Continuous
 62
     7
370
    25
100
AcDbLine
 10
38.0056990596
 20
107.2538940089
 30
0.0
 11
44.589129406
 21
106.5629973804
 31
0.0
  0
ARC
  5
216
330
1F
100
AcDbEntity
  8
0
  6
Continuous
 62
     7
370
    25
100
AcDbCircle
 10
58.0056990596
 20
103.9821947449
 30
0.0
 40
7.450000000000649
100
AcDbArc
 50
233.0863788866
 51
126.9136211134
  0
ARC
  5
217
330
1F
100
AcDbEntity
  8
0
  6
Continuous
 62
     7
370
    25
100
AcDbCircle
 10
58.0056990596
 20
103.9821947449
 30
0.0
 40
7.207531252870779
100
AcDbArc
 50
195.3041237151
 51
238.9797515565
  0
ARC
  5
218
330
1F
100
AcDbEntity
  8
0
  6
Continuous
 62
     7
370
    25
100
AcDbCircle
 10
58.0056990596
 20
103.9821947449
 30
0.0
 40
7.207531252872441
100
AcDbArc
 50
121.0202484435
 51
164.6958762849
  0
ARC
  5
219
330
1F
100
AcDbEntity
  8
0
  6
Continuous
 62
     7
370
    25
100
AcDbCircle
 10
35.830262198
 20
172.4821947449
 30
0.0
 40
64.99999999999999
100
AcDbArc
 50
270.0
 51
286.5000949923
  0
ARC
  5
21A
330
1F
100
AcDbEntity
  8
0
  6
Continuous
 62
     7
370
    25
100
AcDbCircle
 10
35.830262198
 20
35.4821947449
 30
0.0
 40
65.0
100
AcDbArc
 50
73.4999050077
 51
90.0
  0
LINE
  5
21B
330
1F
100
AcDbEntity
  8
0
  6
Continuous
 62
     7
370
    25
100
AcDbLine
 10
69.183640087
 20
103.7321947449
 30
0.0
 11
65.4515032472
 21
103.7321947449
 31
0.0
  0
LINE
  5
21C
330
1F
100
AcDbEntity
  8
0
  6
Continuous
 62
     7
370
    25
100
AcDbLine
 10
65.4515032472
 20
104.2321947449
 30
0.0
 11
69.183640087
 21
104.2321947449
 31
0.0
  0
INSERT
  5
228
330
1F
100
AcDbEntity
  8
0
  6
Continuous
 62
     7
370
    18
100
AcDbBlockReference
  2
SW_CENTERMARKSYMBOL_0
 10
58.0056990596
 20
103.9821947449
 30
0.0
  0
LINE
  5
229
330
1F
100
AcDbEntity
  8
0
  6
Continuous
 62
     7
370
    25
100
AcDbLine
 10
93.0032396565
 20
31.3139561129
 30
0.0
 11
93.296875098
 21
21.9176219867
 31
0.0
  0
LINE
  5
22A
330
1F
100
AcDbEntity
  8
0
  6
Continuous
 62
     7
370
    25
100
AcDbLine
 10
106.2259792151
 20
21.9176219867
 30
0.0
 11
106.5196146565
 21
31.3139561129
 31
0.0
  0
LINE
  5
22B
330
1F
100
AcDbEntity
  8
0
  6
Continuous
 62
     7
370
    25
100
AcDbLine
 10
93.296875098
 20
21.9176219867
 30
0.0
 11
94.5114271565
 21
19.8139561129
 31
0.0
  0
LINE
  5
22C
330
1F
100
AcDbEntity
  8
0
  6
Continuous
 62
     7
370
    25
100
AcDbLine
 10
105.0114271565
 20
19.8139561129
 30
0.0
 11
106.2259792151
 21
21.9176219867
 31
0.0
  0
SPLINE
  5
22D
330
1F
100
AcDbEntity
  8
0
  6
Continuous
 62
     7
370
    25
100
AcDbSpline
210
0.0
220
0.0
230
1.0
 70
     8
 71
     3
 72
     9
 73
     5
 74
     0
 42
0.00000001
 43
0.00000001
 40
0.0
 40
0.0
 40
0.0
 40
0.0
 40
0.1224508815557314
 40
1.0
 40
1.0
 40
1.0
 40
1.0
 10
93.86099725531994
 20
49.85260665915237
 30
0.0
 10
93.86158065061628
 20
49.84702802863269
 30
0.0
 10
93.86634497153344
 20
49.80146992036263
 30
0.0
 10
93.85776366689068
 20
49.75599111982311
 30
0.0
 10
93.85023315056632
 20
49.71608123850175
 30
0.0
  0
LINE
  5
22E
330
1F
100
AcDbEntity
  8
0
  6
Continuous
 62
     7
370
    25
100
AcDbLine
 10
105.6614271565
 20
49.847182366
 30
0.0
 11
105.6614271565
 21
53.8139561129
 31
0.0
  0
LINE
  5
22F
330
1F
100
AcDbEntity
  8
0
  6
Continuous
 62
     7
370
    25
100
AcDbLine
 10
93.8614271565
 20
53.8139561129
 30
0.0
 11
93.8614271565
 21
49.8524847768
 31
0.0
  0
ARC
  5
230
330
1F
100
AcDbEntity
  8
0
  6
Continuous
 62
     7
370
    25
100
AcDbCircle
 10
105.0114271565
 20
70.4139561129
 30
0.0
 40
0.25
100
AcDbArc
 50
0.0
 51
90.0
  0
ARC
  5
231
330
1F
100
AcDbEntity
  8
0
  6
Continuous
 62
     7
370
    25
100
AcDbCircle
 10
94.5114271565
 20
70.4139561129
 30
0.0
 40
0.25
100
AcDbArc
 50
90.0
 51
180.0
  0
LINE
  5
232
330
1F
100
AcDbEntity
  8
0
  6
Continuous
 62
     7
370
    25
100
AcDbLine
 10
105.2614271565
 20
69.8139561129
 30
0.0
 11
105.2614271565
 21
70.4139561129
 31
0.0
  0
LINE
  5
233
330
1F
100
AcDbEntity
  8
0
  6
Continuous
 62
     7
370
    25
100
AcDbLine
 10
94.2614271565
 20
70.4139561129
 30
0.0
 11
94.2614271565
 21
69.8139561129
 31
0.0
  0
LINE
  5
234
330
1F
100
AcDbEntity
  8
0
  6
Continuous
 62
     7
370
    25
100
AcDbLine
 10
92.3114271565
 20
61.8139561129
 30
0.0
 11
92.7614271565
 21
53.8139561129
 31
0.0
  0
LINE
  5
235
330
1F
100
AcDbEntity
  8
0
  6
Continuous
 62
     7
370
    25
100
AcDbLine
 10
106.7614271565
 20
53.8139561129
 30
0.0
 11
107.2114271565
 21
61.8139561129
 31
0.0
  0
LINE
  5
236
330
1F
100
AcDbEntity
  8
0
  6
Continuous
 62
     7
370
    25
100
AcDbLine
 10
107.2114271565
 20
61.8139561129
 30
0.0
 11
105.2614271565
 21
69.8139561128
 31
0.0
  0
LINE
  5
237
330
1F
100
AcDbEntity
  8
0
  6
Continuous
 62
     7
370
    25
100
AcDbLine
 10
94.2614271565
 20
69.8139561128
 30
0.0
 11
92.3114271565
 21
61.8139561129
 31
0.0
  0
LINE
  5
238
330
1F
100
AcDbEntity
  8
0
  6
Continuous
 62
     7
370
    25
100
AcDbLine
 10
91.2614271565
 20
48.0194582312
 30
0.0
 11
91.2614271565
 21
48.221433401
 31
0.0
  0
LINE
  5
239
330
1F
100
AcDbEntity
  8
0
  6
Continuous
 62
     7
370
    25
100
AcDbLine
 10
91.2614271565
 20
48.221433401
 30
0.0
 11
91.4363427845
 21
48.3224209859
 31
0.0
  0
LINE
  5
23A
330
1F
100
AcDbEntity
  8
0
  6
Continuous
 62
     7
370
    25
100
AcDbLine
 10
108.0865115286
 20
48.3224209859
 30
0.0
 11
108.2614271565
 21
48.221433401
 31
0.0
  0
LINE
  5
23B
330
1F
100
AcDbEntity
  8
0
  6
Continuous
 62
     7
370
    25
100
AcDbLine
 10
108.2614271565
 20
48.221433401
 30
0.0
 11
108.2614271565
 21
48.0194582312
 31
0.0
  0
SPLINE
  5
23C
330
1F
100
AcDbEntity
  8
0
  6
Continuous
 62
     7
370
    25
100
AcDbSpline
210
0.0
220
0.0
230
1.0
 70
     8
 71
     3
 72
    10
 73
     6
 74
     0
 42
0.00000001
 43
0.00000001
 40
0.0
 40
0.0
 40
0.0
 40
0.0
 40
0.5
 40
0.5
 40
1.0
 40
1.0
 40
1.0
 40
1.0
 10
91.26142715652885
 20
38.69515395933565
 30
0.0
 10
91.26142715652884
 20
38.60926689753319
 30
0.0
 10
91.28421960585865
 20
38.52185968855305
 30
0.0
 10
91.37216230995172
 20
38.36922324595933
 30
0.0
 10
91.43702008362558
 20
38.30510020101374
 30
0.0
 10
91.51142715652884
 20
38.26214125744343
 30
0.0
  0
SPLINE
  5
23D
330
1F
100
AcDbEntity
  8
0
  6
Continuous
 62
     7
370
    25
100
AcDbSpline
210
0.0
220
0.0
230
1.0
 70
    24
 71
     3
 72
    14
 73
    10
 74
     0
 42
0.00000001
 43
0.00000001
 40
0.0
 40
0.0
 40
0.0
 40
0.0
 40
0.25
 40
0.25
 40
0.5
 40
0.5
 40
0.75
 40
0.75
 40
1.0
 40
1.0
 40
1.0
 40
1.0
 10
91.26142715652885
 20
38.69515395933561
 30
0.0
 10
91.26142715652885
 20
39.44953401998559
 30
0.0
 10
91.26142715652885
 20
40.21897518745109
 30
0.0
 10
91.26142715652885
 20
41.75948654839225
 30
0.0
 10
91.26142715652885
 20
42.53434092839927
 30
0.0
 10
91.26142715652885
 20
44.09470188328483
 30
0.0
 10
91.26142715652885
 20
44.88515807606986
 30
0.0
 10
91.26142715652885
 20
46.42743773887833
 30
0.0
 10
91.26142715652885
 20
47.1848284920795
 30
0.0
 10
91.26142715652885
 20
47.93275826636967
 30
0.0
  0
SPLINE
  5
23E
330
1F
100
AcDbEntity
  8
0
  6
Continuous
 62
     7
370
    25
100
AcDbSpline
210
0.0
220
0.0
230
1.0
 70
     8
 71
     3
 72
    10
 73
     6
 74
     0
 42
0.00000001
 43
0.00000001
 40
0.0
 40
0.0
 40
0.0
 40
0.0
 40
0.5
 40
0.5
 40
1.0
 40
1.0
 40
1.0
 40
1.0
 10
91.51142715652885
 20
48.36577096826189
 30
0.0
 10
91.43704677915152
 20
48.32282743736066
 30
0.0
 10
91.37274614036573
 20
48.25938499273654
 30
0.0
 10
91.28453045558281
 20
48.10690615561757
 30
0.0
 10
91.26142715652885
 20
48.01867615351029
 30
0.0
 10
91.26142715652885
 20
47.93275826636967
 30
0.0
  0
SPLINE
  5
23F
330
1F
100
AcDbEntity
  8
0
  6
Continuous
 62
     7
370
    25
100
AcDbSpline
210
0.0
220
0.0
230
1.0
 70
    24
 71
     3
 72
    16
 73
    12
 74
     0
 42
0.00000001
 43
0.00000001
 40
0.0
 40
0.0
 40
0.0
 40
0.0
 40
0.2500000000000001
 40
0.2500000000000001
 40
0.5000000000000001
 40
0.5000000000000001
 40
0.6250000000000001
 40
0.6250000000000001
 40
0.7500000000000002
 40
0.7500000000000002
 40
1.0
 40
1.0
 40
1.0
 40
1.0
 10
99.51142715652884
 20
52.98457312177889
 30
0.0
 10
98.85791037648804
 20
52.6072650329024
 30
0.0
 10
98.19968996739807
 20
52.2272413025282
 30
0.0
 10
96.87012738403227
 20
51.4596179871175
 30
0.0
 10
96.19870340196174
 20
51.0719711703287
 30
0.0
 10
95.17970231495501
 20
50.48365061844086
 30
0.0
 10
94.83836153263883
 20
50.28657742588521
 30
0.0
 10
94.16276302966837
 20
49.89652044833111
 30
0.0
 10
93.82710387970376
 20
49.70272754774307
 30
0.0
 10
92.82583824320405
 20
49.12464656297964
 30
0.0
 10
92.1659305846009
 20
48.74364869864483
 30
0.0
 10
91.51142715652885
 20
48.36577096826189
 30
0.0
  0
SPLINE
  5
240
330
1F
100
AcDbEntity
  8
0
  6
Continuous
 62
     7
370
    25
100
AcDbSpline
210
0.0
220
0.0
230
1.0
 70
     8
 71
     3
 72
    10
 73
     6
 74
     0
 42
0.00000001
 43
0.00000001
 40
0.0
 40
0.0
 40
0.0
 40
0.0
 40
0.5
 40
0.5
 40
1.0
 40
1.0
 40
1.0
 40
1.0
 10
100.0114271565288
 20
52.98457312177889
 30
0.0
 10
99.93704677915152
 20
53.02751665268012
 30
0.0
 10
99.84995369103594
 20
53.05148141703611
 30
0.0
 10
99.67379530215995
 20
53.05163902251088
 30
0.0
 10
99.58583422943211
 20
53.02753206534921
 30
0.0
 10
99.51142715652884
 20
52.9845731217789
 30
0.0
  0
SPLINE
  5
241
330
1F
100
AcDbEntity
  8
0
  6
Continuous
 62
     7
370
    25
100
AcDbSpline
210
0.0
220
0.0
230
1.0
 70
    24
 71
     3
 72
    16
 73
    12
 74
     0
 42
0.00000001
 43
0.00000001
 40
0.0
 40
0.0
 40
0.0
 40
0.0
 40
0.2499999999999997
 40
0.2499999999999997
 40
0.4999999999999993
 40
0.4999999999999993
 40
0.6249999999999993
 40
0.6249999999999993
 40
0.7499999999999996
 40
0.7499999999999996
 40
1.0
 40
1.0
 40
1.0
 40
1.0
 10
108.0114271565289
 20
48.36577096826189
 30
0.0
 10
107.357910376488
 20
48.74307905713839
 30
0.0
 10
106.6996899673981
 20
49.12310278751259
 30
0.0
 10
105.3701273840323
 20
49.89072610292327
 30
0.0
 10
104.6987034019617
 20
50.27837291971208
 30
0.0
 10
103.679702314955
 20
50.86669347159993
 30
0.0
 10
103.3383615326388
 20
51.06376666415557
 30
0.0
 10
102.6627630296684
 20
51.45382364170968
 30
0.0
 10
102.3271038797038
 20
51.64761654229771
 30
0.0
 10
101.3258382432041
 20
52.22569752706114
 30
0.0
 10
100.6659305846009
 20
52.60669539139597
 30
0.0
 10
100.0114271565288
 20
52.98457312177889
 30
0.0
  0
SPLINE
  5
242
330
1F
100
AcDbEntity
  8
0
  6
Continuous
 62
     7
370
    25
100
AcDbSpline
210
0.0
220
0.0
230
1.0
 70
     8
 71
     3
 72
    10
 73
     6
 74
     0
 42
0.00000001
 43
0.00000001
 40
0.0
 40
0.0
 40
0.0
 40
0.0
 40
0.5
 40
0.5
 40
1.0
 40
1.0
 40
1.0
 40
1.0
 10
108.2614271565289
 20
47.93275826636967
 30
0.0
 10
108.2614271565289
 20
48.01864532817213
 30
0.0
 10
108.2386347071991
 20
48.10605253715224
 30
0.0
 10
108.150692003106
 20
48.25868897974598
 30
0.0
 10
108.0858342294321
 20
48.32281202469157
 30
0.0
 10
108.0114271565289
 20
48.36577096826189
 30
0.0
  0
SPLINE
  5
243
330
1F
100
AcDbEntity
  8
0
  6
Continuous
 62
     7
370
    25
100
AcDbSpline
210
0.0
220
0.0
230
1.0
 70
    24
 71
     3
 72
    14
 73
    10
 74
     0
 42
0.00000001
 43
0.00000001
 40
0.0
 40
0.0
 40
0.0
 40
0.0
 40
0.25
 40
0.25
 40
0.5
 40
0.5
 40
0.75
 40
0.75
 40
1.0
 40
1.0
 40
1.0
 40
1.0
 10
108.2614271565289
 20
38.6951539593356
 30
0.0
 10
108.2614271565289
 20
39.44953401998558
 30
0.0
 10
108.2614271565289
 20
40.21897518745108
 30
0.0
 10
108.2614271565289
 20
41.75948654839224
 30
0.0
 10
108.2614271565289
 20
42.53434092839927
 30
0.0
 10
108.2614271565289
 20
44.09470188328482
 30
0.0
 10
108.2614271565289
 20
44.88515807606986
 30
0.0
 10
108.2614271565289
 20
46.42743773887833
 30
0.0
 10
108.2614271565289
 20
47.1848284920795
 30
0.0
 10
108.2614271565289
 20
47.93275826636967
 30
0.0
  0
SPLINE
  5
244
330
1F
100
AcDbEntity
  8
0
  6
Continuous
 62
     7
370
    25
100
AcDbSpline
210
0.0
220
0.0
230
1.0
 70
     8
 71
     3
 72
    10
 73
     6
 74
     0
 42
0.00000001
 43
0.00000001
 40
0.0
 40
0.0
 40
0.0
 40
0.0
 40
0.5
 40
0.5
 40
1.0
 40
1.0
 40
1.0
 40
1.0
 10
108.0114271565289
 20
38.26214125744343
 30
0.0
 10
108.085807533906
 20
38.30508478834456
 30
0.0
 10
108.1501081726915
 20
38.36852723296823
 30
0.0
 10
108.2383238574748
 20
38.52100607008735
 30
0.0
 10
108.2614271565288
 20
38.60923607219484
 30
0.0
 10
108.2614271565289
 20
38.69515395933563
 30
0.0
  0
SPLINE
  5
245
330
1F
100
AcDbEntity
  8
0
  6
Continuous
 62
     7
370
    25
100
AcDbSpline
210
0.0
220
0.0
230
1.0
 70
    24
 71
     3
 72
    16
 73
    12
 74
     0
 42
0.00000001
 43
0.00000001
 40
0.0
 40
0.0
 40
0.0
 40
0.0
 40
0.2500000000000002
 40
0.2500000000000002
 40
0.5000000000000004
 40
0.5000000000000004
 40
0.6250000000000003
 40
0.6250000000000003
 40
0.7500000000000002
 40
0.7500000000000002
 40
1.0
 40
1.0
 40
1.0
 40
1.0
 10
100.0114271565288
 20
33.64333910392642
 30
0.0
 10
100.6649439365696
 20
34.02064719280289
 30
0.0
 10
101.3231643456595
 20
34.40067092317707
 30
0.0
 10
102.6527269290252
 20
35.16829423858771
 30
0.0
 10
103.3241509110957
 20
35.55594105537647
 30
0.0
 10
104.3431519981023
 20
36.14426160726426
 30
0.0
 10
104.6844927804185
 20
36.3413347998199
 30
0.0
 10
105.3600912833889
 20
36.73139177737397
 30
0.0
 10
105.6957504333535
 20
36.925184677962
 30
0.0
 10
106.6970160698531
 20
37.50326566272538
 30
0.0
 10
107.3569237284563
 20
37.88426352706018
 30
0.0
 10
108.0114271565282
 20
38.26214125744308
 30
0.0
  0
SPLINE
  5
246
330
1F
100
AcDbEntity
  8
0
  6
Continuous
 62
     7
370
    25
100
AcDbSpline
210
0.0
220
0.0
230
1.0
 70
     8
 71
     3
 72
    10
 73
     6
 74
     0
 42
0.00000001
 43
0.00000001
 40
0.0
 40
0.0
 40
0.0
 40
0.0
 40
0.5
 40
0.5
 40
1.0
 40
1.0
 40
1.0
 40
1.0
 10
99.51142715652884
 20
33.64333910392642
 30
0.0
 10
99.58580753390618
 20
33.6003955730252
 30
0.0
 10
99.67290062202174
 20
33.57643080866922
 30
0.0
 10
99.84905901089775
 20
33.57627320319443
 30
0.0
 10
99.93702008362558
 20
33.60038016035612
 30
0.0
 10
100.0114271565288
 20
33.64333910392642
 30
0.0
  0
SPLINE
  5
247
330
1F
100
AcDbEntity
  8
0
  6
Continuous
 62
     7
370
    25
100
AcDbSpline
210
0.0
220
0.0
230
1.0
 70
    24
 71
     3
 72
    16
 73
    12
 74
     0
 42
0.00000001
 43
0.00000001
 40
0.0
 40
0.0
 40
0.0
 40
0.0
 40
0.2500000000000001
 40
0.2500000000000001
 40
0.5000000000000002
 40
0.5000000000000002
 40
0.6250000000000001
 40
0.6250000000000001
 40
0.7500000000000001
 40
0.7500000000000001
 40
1.0
 40
1.0
 40
1.0
 40
1.0
 10
91.51142715652885
 20
38.26214125744343
 30
0.0
 10
92.16494393656966
 20
37.88483316856694
 30
0.0
 10
92.82316434565962
 20
37.50480943819273
 30
0.0
 10
94.15272692902542
 20
36.73718612278204
 30
0.0
 10
94.82415091109596
 20
36.34953930599325
 30
0.0
 10
95.84315199810267
 20
35.76121875410539
 30
0.0
 10
96.18449278041885
 20
35.56414556154974
 30
0.0
 10
96.86009128338932
 20
35.17408858399564
 30
0.0
 10
97.19575043335395
 20
34.98029568340761
 30
0.0
 10
98.19701606985365
 20
34.40221469864419
 30
0.0
 10
98.85692372845679
 20
34.02121683430936
 30
0.0
 10
99.51142715652884
 20
33.64333910392642
 30
0.0
  0
CIRCLE
  5
248
330
1F
100
AcDbEntity
  8
0
  6
Continuous
 62
     7
370
    25
100
AcDbCircle
 10
99.7614271565
 20
43.3139561129
 30
0.0
 40
8.250000000000014
  0
SPLINE
  5
249
330
1F
100
AcDbEntity
  8
0
  6
Continuous
 62
     7
370
    25
100
AcDbSpline
210
0.0
220
0.0
230
1.0
 70
     8
 71
     3
 72
    10
 73
     6
 74
     0
 42
0.00000001
 43
0.00000001
 40
0.0
 40
0.0
 40
0.0
 40
0.0
 40
0.5
 40
0.5
 40
1.0
 40
1.0
 40
1.0
 40
1.0
 10
99.51142715652884
 20
31.99167751811285
 30
0.0
 10
99.5858019105189
 20
32.01535112260397
 30
0.0
 10
99.67289564208481
 20
32.0284438983972
 30
0.0
 10
99.84906147062927
 20
32.02853046649815
 30
0.0
 10
99.93702249451955
 20
32.01536064237487
 30
0.0
 10
100.0114271565288
 20
31.99167751811285
 30
0.0
  0
SPLINE
  5
24A
330
1F
100
AcDbEntity
  8
0
  6
Continuous
 62
     7
370
    25
100
AcDbSpline
210
0.0
220
0.0
230
1.0
 70
     8
 71
     3
 72
    12
 73
     8
 74
     0
 42
0.00000001
 43
0.00000001
 40
0.0
 40
0.0
 40
0.0
 40
0.0
 40
0.2500000000000003
 40
0.2500000000000003
 40
0.5000000000000002
 40
0.5000000000000002
 40
1.0
 40
1.0
 40
1.0
 40
1.0
 10
104.0114271565289
 20
31.31395611285266
 30
0.0
 10
103.6736712215061
 20
31.31395611285266
 30
0.0
 10
103.3332632066276
 20
31.32970244287461
 30
0.0
 10
102.6587685222272
 20
31.39114746746004
 30
0.0
 10
102.3236432033599
 20
31.43673622671377
 30
0.0
 10
101.3239318850198
 20
31.61318722897037
 30
0.0
 10
100.6649977819545
 20
31.78364493093386
 30
0.0
 10
100.0114271565288
 20
31.9916775181127
 30
0.0
  0
LINE
  5
24B
330
1F
100
AcDbEntity
  8
0
  6
Continuous
 62
     7
370
    25
100
AcDbLine
 10
95.5114271565
 20
31.3139561129
 30
0.0
 11
104.0114271565
 21
31.3139561129
 31
0.0
  0
SPLINE
  5
24C
330
1F
100
AcDbEntity
  8
0
  6
Continuous
 62
     7
370
    25
100
AcDbSpline
210
0.0
220
0.0
230
1.0
 70
     8
 71
     3
 72
    10
 73
     6
 74
     0
 42
0.00000001
 43
0.00000001
 40
0.0
 40
0.0
 40
0.0
 40
0.0
 40
0.5
 40
0.5
 40
1.0
 40
1.0
 40
1.0
 40
1.0
 10
99.5114271565289
 20
31.99167751811238
 30
0.0
 10
98.8554143899238
 20
31.78286759344612
 30
0.0
 10
98.19514748306608
 20
31.61233345369888
 30
0.0
 10
96.86280096443107
 20
31.37754764867995
 30
0.0
 10
96.19064798294374
 20
31.31395611285266
 30
0.0
 10
95.51142715652884
 20
31.31395611285266
 30
0.0
  0
LINE
  5
24D
330
1F
100
AcDbEntity
  8
0
  6
Continuous
 62
     7
370
    25
100
AcDbLine
 10
100.0114271565
 20
33.6433391039
 30
0.0
 11
100.0114271565
 21
31.9916775181
 31
0.0
  0
LINE
  5
24E
330
1F
100
AcDbEntity
  8
0
  6
Continuous
 62
     7
370
    25
100
AcDbLine
 10
99.5114271565
 20
31.9916775181
 30
0.0
 11
99.5114271565
 21
33.6433391039
 31
0.0
  0
SPLINE
  5
24F
330
1F
100
AcDbEntity
  8
0
  6
Continuous
 62
     7
370
    25
100
AcDbSpline
210
0.0
220
0.0
230
1.0
 70
     8
 71
     3
 72
    12
 73
     8
 74
     0
 42
0.00000001
 43
0.00000001
 40
0.0
 40
0.0
 40
0.0
 40
0.0
 40
0.2499999999999998
 40
0.2499999999999998
 40
0.4999999999999996
 40
0.4999999999999996
 40
1.0
 40
1.0
 40
1.0
 40
1.0
 10
95.51142715652884
 20
31.31395611285266
 30
0.0
 10
95.17367122150607
 20
31.31395611285265
 30
0.0
 10
94.83326320662756
 20
31.32970244287461
 30
0.0
 10
94.15876852222715
 20
31.39114746746004
 30
0.0
 10
93.82364320335991
 20
31.43673622671377
 30
0.0
 10
92.82393188501976
 20
31.61318722897037
 30
0.0
 10
92.16499778195448
 20
31.78364493093386
 30
0.0
 10
91.51142715652882
 20
31.9916775181127
 30
0.0
  0
LINE
  5
250
330
1F
100
AcDbEntity
  8
0
  6
Continuous
 62
     7
370
    25
100
AcDbLine
 10
91.5114271565
 20
35.347559573
 30
0.0
 11
91.5114271565
 21
31.9916775181
 31
0.0
  0
SPLINE
  5
251
330
1F
100
AcDbEntity
  8
0
  6
Continuous
 62
     7
370
    25
100
AcDbSpline
210
0.0
220
0.0
230
1.0
 70
     8
 71
     3
 72
    10
 73
     6
 74
     0
 42
0.00000001
 43
0.00000001
 40
0.0
 40
0.0
 40
0.0
 40
0.0
 40
0.5
 40
0.5
 40
1.0
 40
1.0
 40
1.0
 40
1.0
 10
91.51142715652932
 20
35.34755957299781
 30
0.0
 10
92.14625486234297
 20
35.54962625854873
 30
0.0
 10
92.78552056491874
 20
35.71601903081937
 30
0.0
 10
94.07633549650863
 20
35.95006600468943
 30
0.0
 10
94.72795513197848
 20
36.01715425864826
 30
0.0
 10
95.38699706379857
 20
36.02457992821805
 30
0.0
  0
SPLINE
  5
252
330
1F
100
AcDbEntity
  8
0
  6
Continuous
 62
     7
370
    25
100
AcDbSpline
210
0.0
220
0.0
230
1.0
 70
     8
 71
     3
 72
    12
 73
     8
 74
     0
 42
0.00000001
 43
0.00000001
 40
0.0
 40
0.0
 40
0.0
 40
0.0
 40
0.2499999999999999
 40
0.2499999999999999
 40
0.4999999999999998
 40
0.4999999999999998
 40
1.0
 40
1.0
 40
1.0
 40
1.0
 10
104.1358572492812
 20
36.0245799282178
 30
0.0
 10
104.4649922396744
 20
36.02087144236137
 30
0.0
 10
104.7944543926111
 20
36.00228893952369
 30
0.0
 10
105.4473280106688
 20
35.93742190255754
 30
0.0
 10
105.7717806025459
 20
35.89115634930727
 30
0.0
 10
106.739841043738
 20
35.71543181900031
 30
0.0
 10
107.3781635279859
 20
35.54912841022355
 30
0.0
 10
108.0114271565288
 20
35.34755957299766
 30
0.0
  0
LINE
  5
253
330
1F
100
AcDbEntity
  8
0
  6
Continuous
 62
     7
370
    25
100
AcDbLine
 10
108.0114271565
 20
31.9916775181
 30
0.0
 11
108.0114271565
 21
35.347559573
 31
0.0
  0
SPLINE
  5
254
330
1F
100
AcDbEntity
  8
0
  6
Continuous
 62
     7
370
    25
100
AcDbSpline
210
0.0
220
0.0
230
1.0
 70
     8
 71
     3
 72
    10
 73
     6
 74
     0
 42
0.00000001
 43
0.00000001
 40
0.0
 40
0.0
 40
0.0
 40
0.0
 40
0.5
 40
0.5
 40
1.0
 40
1.0
 40
1.0
 40
1.0
 10
108.0114271565289
 20
31.99167751811238
 30
0.0
 10
107.3554143899238
 20
31.78286759344612
 30
0.0
 10
106.6951474830661
 20
31.61233345369888
 30
0.0
 10
105.3628009644311
 20
31.37754764867995
 30
0.0
 10
104.6906479829437
 20
31.31395611285266
 30
0.0
 10
104.0114271565289
 20
31.31395611285266
 30
0.0
  0
SPLINE
  5
255
330
1F
100
AcDbEntity
  8
0
  6
Continuous
 62
     7
370
    25
100
AcDbSpline
210
0.0
220
0.0
230
1.0
 70
     8
 71
     3
 72
    10
 73
     6
 74
     0
 42
0.00000001
 43
0.00000001
 40
0.0
 40
0.0
 40
0.0
 40
0.0
 40
0.5
 40
0.5
 40
1.0
 40
1.0
 40
1.0
 40
1.0
 10
91.26142715652885
 20
31.99167751811285
 30
0.0
 10
91.26142715652885
 20
32.0153514186688
 30
0.0
 10
91.28421772817629
 20
32.02844397584794
 30
0.0
 10
91.3721637254751
 20
32.02853038983022
 30
0.0
 10
91.43702451820789
 20
32.0153599982316
 30
0.0
 10
91.51142715652885
 20
31.99167751811285
 30
0.0
  0
LINE
  5
256
330
1F
100
AcDbEntity
  8
0
  6
Continuous
 62
     7
370
    25
100
AcDbLine
 10
91.2614271565
 20
31.3139561129
 30
0.0
 11
95.5114271565
 21
31.3139561129
 31
0.0
  0
SPLINE
  5
257
330
1F
100
AcDbEntity
  8
0
  6
Continuous
 62
     7
370
    25
100
AcDbSpline
210
0.0
220
0.0
230
1.0
 70
    24
 71
     3
 72
    10
 73
     6
 74
     0
 42
0.00000001
 43
0.00000001
 40
0.0
 40
0.0
 40
0.0
 40
0.0
 40
0.5
 40
0.5
 40
1.0
 40
1.0
 40
1.0
 40
1.0
 10
91.26142715652885
 20
31.31395611285266
 30
0.0
 10
91.26142715652885
 20
31.31395611285266
 30
0.0
 10
91.26142715652885
 20
31.37624047483118
 30
0.0
 10
91.26142715652885
 20
31.6110885928382
 30
0.0
 10
91.26142715652885
 20
31.7843311999694
 30
0.0
 10
91.26142715652885
 20
31.99167751811285
 30
0.0
  0
SPLINE
  5
258
330
1F
100
AcDbEntity
  8
0
  6
Continuous
 62
     7
370
    25
100
AcDbSpline
210
0.0
220
0.0
230
1.0
 70
     8
 71
     3
 72
    10
 73
     6
 74
     0
 42
0.00000001
 43
0.00000001
 40
0.0
 40
0.0
 40
0.0
 40
0.0
 40
0.5
 40
0.5
 40
1.0
 40
1.0
 40
1.0
 40
1.0
 10
108.0114271565289
 20
31.99167751811285
 30
0.0
 10
108.0857976234544
 20
32.01534975802441
 30
0.0
 10
108.1501032197423
 20
32.02844374795967
 30
0.0
 10
108.2383260075481
 20
32.02853061542112
 30
0.0
 10
108.2614271565289
 20
32.01536082566175
 30
0.0
 10
108.2614271565289
 20
31.99167751811285
 30
0.0
  0
LINE
  5
259
330
1F
100
AcDbEntity
  8
0
  6
Continuous
 62
     7
370
    25
100
AcDbLine
 10
104.0114271565
 20
31.3139561129
 30
0.0
 11
108.2614271565
 21
31.3139561129
 31
0.0
  0
SPLINE
  5
25A
330
1F
100
AcDbEntity
  8
0
  6
Continuous
 62
     7
370
    25
100
AcDbSpline
210
0.0
220
0.0
230
1.0
 70
    24
 71
     3
 72
    10
 73
     6
 74
     0
 42
0.00000001
 43
0.00000001
 40
0.0
 40
0.0
 40
0.0
 40
0.0
 40
0.4999999999999999
 40
0.4999999999999999
 40
1.0
 40
1.0
 40
1.0
 40
1.0
 10
108.2614271565289
 20
31.31395611285266
 30
0.0
 10
108.2614271565289
 20
31.31395611285266
 30
0.0
 10
108.2614271565289
 20
31.37624047483118
 30
0.0
 10
108.2614271565288
 20
31.6110885928382
 30
0.0
 10
108.2614271565288
 20
31.78433119996941
 30
0.0
 10
108.2614271565289
 20
31.99167751811285
 30
0.0
  0
SPLINE
  5
25B
330
1F
100
AcDbEntity
  8
0
  6
Continuous
 62
     7
370
    25
100
AcDbSpline
210
0.0
220
0.0
230
1.0
 70
     8
 71
     3
 72
     8
 73
     4
 74
     0
 42
0.00000001
 43
0.00000001
 40
0.0
 40
0.0
 40
0.0
 40
0.0
 40
1.0
 40
1.0
 40
1.0
 40
1.0
 10
91.26142715652885
 20
35.50904490127867
 30
0.0
 10
91.78323330783067
 20
35.78163503694802
 30
0.0
 10
92.30688677668685
 20
36.05078753806942
 30
0.0
 10
92.83322392625334
 20
36.31395611285266
 30
0.0
  0
SPLINE
  5
25C
330
1F
100
AcDbEntity
  8
0
  6
Continuous
 62
     7
370
    25
100
AcDbSpline
210
0.0
220
0.0
230
1.0
 70
     8
 71
     3
 72
    10
 73
     6
 74
     0
 42
0.00000001
 43
0.00000001
 40
0.0
 40
0.0
 40
0.0
 40
0.0
 40
0.5
 40
0.5
 40
1.0
 40
1.0
 40
1.0
 40
1.0
 10
91.26142715652885
 20
35.34755957299764
 30
0.0
 10
91.26142715652885
 20
35.32388417857322
 30
0.0
 10
91.2842196058587
 20
35.3107930686886
 30
0.0
 10
91.37216230995195
 20
35.31070674740037
 30
0.0
 10
91.43702008362611
 20
35.32387568134432
 30
0.0
 10
91.51142715652952
 20
35.34755957299787
 30
0.0
  0
SPLINE
  5
25D
330
1F
100
AcDbEntity
  8
0
  6
Continuous
 62
     7
370
    25
100
AcDbSpline
210
0.0
220
0.0
230
1.0
 70
    24
 71
     3
 72
     8
 73
     4
 74
     0
 42
0.00000001
 43
0.00000001
 40
0.0
 40
0.0
 40
0.0
 40
0.0
 40
1.0
 40
1.0
 40
1.0
 40
1.0
 10
91.26142715652885
 20
35.50904490127867
 30
0.0
 10
91.26142715652885
 20
35.45815011157785
 30
0.0
 10
91.26142715652885
 20
35.40421626221641
 30
0.0
 10
91.26142715652885
 20
35.34755957299766
 30
0.0
  0
SPLINE
  5
25E
330
1F
100
AcDbEntity
  8
0
  6
Continuous
 62
     7
370
    25
100
AcDbSpline
210
0.0
220
0.0
230
1.0
 70
     8
 71
     3
 72
     8
 73
     4
 74
     0
 42
0.00000001
 43
0.00000001
 40
0.0
 40
0.0
 40
0.0
 40
0.0
 40
1.0
 40
1.0
 40
1.0
 40
1.0
 10
106.6896303868044
 20
36.31395611285265
 30
0.0
 10
107.2160512480136
 20
36.05074568224805
 30
0.0
 10
107.7395957047273
 20
35.78164825386135
 30
0.0
 10
108.2614271565289
 20
35.50904490127869
 30
0.0
  0
SPLINE
  5
25F
330
1F
100
AcDbEntity
  8
0
  6
Continuous
 62
     7
370
    25
100
AcDbSpline
210
0.0
220
0.0
230
1.0
 70
     8
 71
     3
 72
    10
 73
     6
 74
     0
 42
0.00000001
 43
0.00000001
 40
0.0
 40
0.0
 40
0.0
 40
0.0
 40
0.5
 40
0.5
 40
1.0
 40
1.0
 40
1.0
 40
1.0
 10
108.0114271565289
 20
35.34755957299766
 30
0.0
 10
108.0858075339062
 20
35.32388417857327
 30
0.0
 10
108.150108172692
 20
35.31079306868863
 30
0.0
 10
108.2383238574749
 20
35.31070674740035
 30
0.0
 10
108.2614271565289
 20
35.32387568134418
 30
0.0
 10
108.2614271565289
 20
35.34755957299765
 30
0.0
  0
SPLINE
  5
260
330
1F
100
AcDbEntity
  8
0
  6
Continuous
 62
     7
370
    25
100
AcDbSpline
210
0.0
220
0.0
230
1.0
 70
    24
 71
     3
 72
     8
 73
     4
 74
     0
 42
0.00000001
 43
0.00000001
 40
0.0
 40
0.0
 40
0.0
 40
0.0
 40
1.0
 40
1.0
 40
1.0
 40
1.0
 10
108.2614271565289
 20
35.50904490127867
 30
0.0
 10
108.2614271565289
 20
35.45815011157785
 30
0.0
 10
108.2614271565289
 20
35.40421626221641
 30
0.0
 10
108.2614271565289
 20
35.34755957299766
 30
0.0
  0
LINE
  5
261
330
1F
100
AcDbEntity
  8
0
  6
Continuous
 62
     7
370
    25
100
AcDbLine
 10
92.2614271565
 20
36.3139561129
 30
0.0
 11
94.8857828095
 21
36.3139561129
 31
0.0
  0
LINE
  5
262
330
1F
100
AcDbEntity
  8
0
  6
Continuous
 62
     7
370
    25
100
AcDbLine
 10
92.2614271565
 20
36.3139561129
 30
0.0
 11
92.2614271565
 21
37.8291285556
 31
0.0
  0
LINE
  5
263
330
1F
100
AcDbEntity
  8
0
  6
Continuous
 62
     7
370
    25
100
AcDbLine
 10
107.2614271565
 20
37.8291285556
 30
0.0
 11
107.2614271565
 21
36.3139561129
 31
0.0
  0
LINE
  5
264
330
1F
100
AcDbEntity
  8
0
  6
Continuous
 62
     7
370
    25
100
AcDbLine
 10
104.6370715035
 20
36.3139561129
 30
0.0
 11
107.2614271565
 21
36.3139561129
 31
0.0
  0
LINE
  5
265
330
1F
100
AcDbEntity
  8
0
  6
Continuous
 62
     7
370
    25
100
AcDbLine
 10
99.7614271565
 20
21.9176219867
 30
0.0
 11
106.2259792151
 21
21.9176219867
 31
0.0
  0
LINE
  5
266
330
1F
100
AcDbEntity
  8
0
  6
Continuous
 62
     7
370
    25
100
AcDbLine
 10
93.296875098
 20
21.9176219867
 30
0.0
 11
99.7614271565
 21
21.9176219867
 31
0.0
  0
LINE
  5
267
330
1F
100
AcDbEntity
  8
0
  6
Continuous
 62
     7
370
    25
100
AcDbLine
 10
105.0114271565
 20
19.8139561129
 30
0.0
 11
94.5114271565
 21
19.8139561129
 31
0.0
  0
LINE
  5
268
330
1F
100
AcDbEntity
  8
0
  6
Continuous
 62
     7
370
    25
100
AcDbLine
 10
91.2614271565
 20
31.9916775181
 30
0.0
 11
91.2614271565
 21
35.347559573
 31
0.0
  0
LINE
  5
269
330
1F
100
AcDbEntity
  8
0
  6
Continuous
 62
     7
370
    25
100
AcDbLine
 10
108.2614271565
 20
35.347559573
 30
0.0
 11
108.2614271565
 21
31.9916775181
 31
0.0
  0
LINE
  5
26A
330
1F
100
AcDbEntity
  8
0
  6
Continuous
 62
     7
370
    25
100
AcDbLine
 10
91.2614271565
 20
35.5090449013
 30
0.0
 11
91.2614271565
 21
38.6517939769
 31
0.0
  0
LINE
  5
26B
330
1F
100
AcDbEntity
  8
0
  6
Continuous
 62
     7
370
    25
100
AcDbLine
 10
108.2614271565
 20
35.5090449013
 30
0.0
 11
108.2614271565
 21
38.6517939769
 31
0.0
  0
LINE
  5
26C
330
1F
100
AcDbEntity
  8
0
  6
Continuous
 62
     7
370
    25
100
AcDbLine
 10
101.0114271565
 20
69.8139561129
 30
0.0
 11
101.0114271565
 21
70.4139561129
 31
0.0
  0
LINE
  5
26D
330
1F
100
AcDbEntity
  8
0
  6
Continuous
 62
     7
370
    25
100
AcDbLine
 10
98.5114271565
 20
70.4139561129
 30
0.0
 11
98.5114271565
 21
69.8139561129
 31
0.0
  0
LINE
  5
26E
330
1F
100
AcDbEntity
  8
0
  6
Continuous
 62
     7
370
    25
100
AcDbLine
 10
101.0114271565
 20
70.4139561129
 30
0.0
 11
98.5114271565
 21
70.4139561129
 31
0.0
  0
LINE
  5
26F
330
1F
100
AcDbEntity
  8
0
  6
Continuous
 62
     7
370
    25
100
AcDbLine
 10
101.0114271565
 20
69.8139561129
 30
0.0
 11
98.5114271565
 21
69.8139561129
 31
0.0
  0
LINE
  5
270
330
1F
100
AcDbEntity
  8
0
  6
Continuous
 62
     7
370
    25
100
AcDbLine
 10
101.0114271565
 20
70.4139561129
 30
0.0
 11
101.0114271565
 21
70.6639561129
 31
0.0
  0
LINE
  5
271
330
1F
100
AcDbEntity
  8
0
  6
Continuous
 62
     7
370
    25
100
AcDbLine
 10
98.5114271565
 20
70.6639561129
 30
0.0
 11
98.5114271565
 21
70.4139561129
 31
0.0
  0
LINE
  5
272
330
1F
100
AcDbEntity
  8
0
  6
Continuous
 62
     7
370
    25
100
AcDbLine
 10
98.5114271565
 20
70.6639561129
 30
0.0
 11
101.0114271565
 21
70.6639561129
 31
0.0
  0
ARC
  5
273
330
1F
100
AcDbEntity
  8
0
  6
Continuous
 62
     7
370
    25
100
AcDbCircle
 10
101.0114271565
 20
70.4139561129
 30
0.0
 40
0.25
100
AcDbArc
 50
0.0
 51
90.0
  0
LINE
  5
274
330
1F
100
AcDbEntity
  8
0
  6
Continuous
 62
     7
370
    25
100
AcDbLine
 10
101.0114271565
 20
70.4139561129
 30
0.0
 11
101.2614271565
 21
70.4139561129
 31
0.0
  0
ARC
  5
275
330
1F
100
AcDbEntity
  8
0
  6
Continuous
 62
     7
370
    25
100
AcDbCircle
 10
98.5114271565
 20
70.4139561129
 30
0.0
 40
0.25
100
AcDbArc
 50
90.0
 51
180.0
  0
LINE
  5
276
330
1F
100
AcDbEntity
  8
0
  6
Continuous
 62
     7
370
    25
100
AcDbLine
 10
98.2614271565
 20
70.4139561129
 30
0.0
 11
98.5114271565
 21
70.4139561129
 31
0.0
  0
LINE
  5
277
330
1F
100
AcDbEntity
  8
0
  6
Continuous
 62
     7
370
    25
100
AcDbLine
 10
98.2614271565
 20
69.8139561129
 30
0.0
 11
98.2614271565
 21
70.4139561129
 31
0.0
  0
LINE
  5
278
330
1F
100
AcDbEntity
  8
0
  6
Continuous
 62
     7
370
    25
100
AcDbLine
 10
98.5114271565
 20
69.8139561129
 30
0.0
 11
98.2614271565
 21
69.8139561129
 31
0.0
  0
LINE
  5
279
330
1F
100
AcDbEntity
  8
0
  6
Continuous
 62
     7
370
    25
100
AcDbLine
 10
101.2614271565
 20
70.4139561129
 30
0.0
 11
101.2614271565
 21
69.8139561129
 31
0.0
  0
LINE
  5
27A
330
1F
100
AcDbEntity
  8
0
  6
Continuous
 62
     7
370
    25
100
AcDbLine
 10
101.2614271565
 20
69.8139561129
 30
0.0
 11
101.0114271565
 21
69.8139561129
 31
0.0
  0
SPLINE
  5
27B
330
1F
100
AcDbEntity
  8
0
  6
Continuous
 62
     7
370
    25
100
AcDbSpline
210
0.0
220
0.0
230
1.0
 70
     8
 71
     3
 72
    15
 73
    11
 74
     0
 42
0.00000001
 43
0.00000001
 40
0.0
 40
0.0
 40
0.0
 40
0.0
 40
0.0081667445812973
 40
0.3321939991490804
 40
0.475627960058556
 40
0.6866830973284891
 40
0.8457435502264751
 40
0.8967566214763124
 40
0.9909540928118028
 40
1.0
 40
1.0
 40
1.0
 40
1.0
 10
101.0114271565289
 20
70.66395611285266
 30
0.0
 10
101.0128646194679
 20
70.66395343650687
 30
0.0
 10
101.0713354774199
 20
70.6638445723201
 30
0.0
 10
101.155760655139
 20
70.65429856005065
 30
0.0
 10
101.2703397271615
 20
70.6169361767961
 30
0.0
 10
101.3517106143581
 20
70.57207066206142
 30
0.0
 10
101.4047296063598
 20
70.51419436248452
 30
0.0
 10
101.4289315382039
 20
70.46351832251258
 30
0.0
 10
101.4351211588701
 20
70.43482404299259
 30
0.0
 10
101.4353225542826
 20
70.41563721143707
 30
0.0
 10
101.4353402000071
 20
70.41395611285267
 30
0.0
  0
LINE
  5
27C
330
1F
100
AcDbEntity
  8
0
  6
Continuous
 62
     7
370
    25
100
AcDbLine
 10
101.2614271565
 20
70.4139561129
 30
0.0
 11
101.4353402
 21
70.4139561129
 31
0.0
  0
LINE
  5
27D
330
1F
100
AcDbEntity
  8
0
  6
Continuous
 62
     7
370
    25
100
AcDbLine
 10
98.0875141131
 20
70.4139561129
 30
0.0
 11
98.2614271565
 21
70.4139561129
 31
0.0
  0
SPLINE
  5
27E
330
1F
100
AcDbEntity
  8
0
  6
Continuous
 62
     7
370
    25
100
AcDbSpline
210
0.0
220
0.0
230
1.0
 70
     8
 71
     3
 72
    15
 73
    11
 74
     0
 42
0.00000001
 43
0.00000001
 40
0.0
 40
0.0
 40
0.0
 40
0.0
 40
0.0090459071881971
 40
0.1032433785236874
 40
0.1542564497735246
 40
0.313316902671511
 40
0.5243720399414428
 40
0.6678060008509903
 40
0.9918332554187292
 40
1.0
 40
1.0
 40
1.0
 40
1.0
 10
98.08751411305059
 20
70.41395611285266
 30
0.0
 10
98.08753175877504
 20
70.41563721143707
 30
0.0
 10
98.0877331541876
 20
70.43482404299262
 30
0.0
 10
98.0939227748538
 20
70.46351832251257
 30
0.0
 10
98.11812470669794
 20
70.51419436248455
 30
0.0
 10
98.1711436986996
 20
70.5720706620614
 30
0.0
 10
98.2525145858962
 20
70.6169361767961
 30
0.0
 10
98.36709365791864
 20
70.65429856005065
 30
0.0
 10
98.45151883563811
 20
70.6638445723201
 30
0.0
 10
98.50998969358983
 20
70.66395343650689
 30
0.0
 10
98.51142715652884
 20
70.66395611285266
 30
0.0
  0
LINE
  5
27F
330
1F
100
AcDbEntity
  8
0
  6
Continuous
 62
     7
370
    25
100
AcDbLine
 10
98.0875141131
 20
69.8139561129
 30
0.0
 11
98.0875141131
 21
70.4139561129
 31
0.0
  0
LINE
  5
280
330
1F
100
AcDbEntity
  8
0
  6
Continuous
 62
     7
370
    25
100
AcDbLine
 10
98.2614271565
 20
69.8139561129
 30
0.0
 11
98.0875141131
 21
69.8139561129
 31
0.0
  0
LINE
  5
281
330
1F
100
AcDbEntity
  8
0
  6
Continuous
 62
     7
370
    25
100
AcDbLine
 10
101.4353402
 20
70.4139561129
 30
0.0
 11
101.4353402
 21
69.8139561129
 31
0.0
  0
LINE
  5
282
330
1F
100
AcDbEntity
  8
0
  6
Continuous
 62
     7
370
    25
100
AcDbLine
 10
101.4353402
 20
69.8139561129
 30
0.0
 11
101.2614271565
 21
69.8139561129
 31
0.0
  0
LINE
  5
283
330
1F
100
AcDbEntity
  8
0
  6
Continuous
 62
     7
370
    25
100
AcDbLine
 10
101.0114271565
 20
70.6639561129
 30
0.0
 11
105.0114271565
 21
70.6639561129
 31
0.0
  0
LINE
  5
284
330
1F
100
AcDbEntity
  8
0
  6
Continuous
 62
     7
370
    25
100
AcDbLine
 10
94.5114271565
 20
70.6639561129
 30
0.0
 11
98.5114271565
 21
70.6639561129
 31
0.0
  0
LINE
  5
285
330
1F
100
AcDbEntity
  8
0
  6
Continuous
 62
     7
370
    25
100
AcDbLine
 10
101.4353402
 20
69.8139561129
 30
0.0
 11
105.2614271565
 21
69.8139561129
 31
0.0
  0
LINE
  5
286
330
1F
100
AcDbEntity
  8
0
  6
Continuous
 62
     7
370
    25
100
AcDbLine
 10
94.2614271565
 20
69.8139561129
 30
0.0
 11
98.0875141131
 21
69.8139561129
 31
0.0
  0
LINE
  5
287
330
1F
100
AcDbEntity
  8
0
  6
Continuous
 62
     7
370
    25
100
AcDbLine
 10
99.1614271565
 20
70.6739561129
 30
0.0
 11
100.3614271565
 21
70.6739561129
 31
0.0
  0
LINE
  5
288
330
1F
100
AcDbEntity
  8
0
  6
Continuous
 62
     7
370
    25
100
AcDbLine
 10
100.3614271565
 20
70.6639561129
 30
0.0
 11
100.3614271565
 21
70.6739561129
 31
0.0
  0
LINE
  5
289
330
1F
100
AcDbEntity
  8
0
  6
Continuous
 62
     7
370
    25
100
AcDbLine
 10
99.1614271565
 20
70.6639561129
 30
0.0
 11
99.1614271565
 21
70.6739561129
 31
0.0
  0
LINE
  5
28A
330
1F
100
AcDbEntity
  8
0
  6
Continuous
 62
     7
370
    25
100
AcDbLine
 10
92.7614271565
 20
53.8139561129
 30
0.0
 11
106.7614271565
 21
53.8139561129
 31
0.0
  0
LINE
  5
28B
330
1F
100
AcDbEntity
  8
0
  6
Continuous
 62
     7
370
    25
100
AcDbLine
 10
92.3114271565
 20
61.8139561128
 30
0.0
 11
107.2114271565
 21
61.8139561128
 31
0.0
  0
LINE
  5
28C
330
1F
100
AcDbEntity
  8
0
  6
Continuous
 62
     7
370
    25
100
AcDbLine
 10
96.2614271565
 20
71.8139561129
 30
0.0
 11
96.2614271565
 21
70.6639561129
 31
0.0
  0
LINE
  5
28D
330
1F
100
AcDbEntity
  8
0
  6
Continuous
 62
     7
370
    25
100
AcDbLine
 10
96.2614271565
 20
71.8139561129
 30
0.0
 11
96.4897278925
 21
71.8139561129
 31
0.0
  0
LINE
  5
28E
330
1F
100
AcDbEntity
  8
0
  6
Continuous
 62
     7
370
    25
100
AcDbLine
 10
96.4897278925
 20
71.8139561129
 30
0.0
 11
96.4897278925
 21
70.6639561129
 31
0.0
  0
LINE
  5
28F
330
1F
100
AcDbEntity
  8
0
  6
Continuous
 62
     7
370
    25
100
AcDbLine
 10
103.0331264206
 20
71.8139561129
 30
0.0
 11
103.0331264206
 21
70.6639561129
 31
0.0
  0
LINE
  5
290
330
1F
100
AcDbEntity
  8
0
  6
Continuous
 62
     7
370
    25
100
AcDbLine
 10
103.0331264206
 20
71.8139561129
 30
0.0
 11
103.2614271565
 21
71.8139561129
 31
0.0
  0
LINE
  5
291
330
1F
100
AcDbEntity
  8
0
  6
Continuous
 62
     7
370
    25
100
AcDbLine
 10
103.2614271565
 20
70.6639561129
 30
0.0
 11
103.2614271565
 21
71.8139561129
 31
0.0
  0
LINE
  5
292
330
1F
100
AcDbEntity
  8
0
  6
Continuous
 62
     7
370
    25
100
AcDbLine
 10
96.4897278925
 20
71.8139561129
 30
0.0
 11
103.0331264206
 21
71.8139561129
 31
0.0
  0
SPLINE
  5
293
330
1F
100
AcDbEntity
  8
0
  6
Continuous
 62
     7
370
    25
100
AcDbSpline
210
0.0
220
0.0
230
1.0
 70
     8
 71
     3
 72
    19
 73
    15
 74
     0
 42
0.00000001
 43
0.00000001
 40
0.0
 40
0.0
 40
0.0
 40
0.0
 40
0.0167680916995514
 40
0.0954853577071537
 40
0.174307267463118
 40
0.2799271111734687
 40
0.3857425898901314
 40
0.498826333622569
 40
0.6118915624135799
 40
0.7070716599308943
 40
0.8021775558834381
 40
0.8927551150593922
 40
0.9832580283918071
 40
1.0
 40
1.0
 40
1.0
 40
1.0
 10
93.86907110402146
 20
49.85336031865578
 30
0.0
 10
93.86654637922648
 20
49.8502266550925
 30
0.0
 10
93.8521694152594
 20
49.8323821089369
 30
0.0
 10
93.91561477102633
 20
49.91144512607008
 30
0.0
 10
94.0707195690327
 20
50.0959286220636
 30
0.0
 10
94.35901750006413
 20
50.41590806005101
 30
0.0
 10
94.79145130117568
 20
50.84035618093675
 30
0.0
 10
95.34588409016389
 20
51.30302080190514
 30
0.0
 10
95.98877963574931
 20
51.74350078574653
 30
0.0
 10
96.68821656279691
 20
52.12156172189636
 30
0.0
 10
97.41021688231938
 20
52.42478525121977
 30
0.0
 10
98.18793627170942
 20
52.64318436954554
 30
0.0
 10
98.77598474444255
 20
52.76458412929252
 30
0.0
 10
99.10557492295725
 20
52.77788395664227
 30
0.0
 10
99.15702716157996
 20
52.77996018929436
 30
0.0
  0
SPLINE
  5
294
330
1F
100
AcDbEntity
  8
0
  6
Continuous
 62
     7
370
    25
100
AcDbSpline
210
0.0
220
0.0
230
1.0
 70
     8
 71
     3
 72
    19
 73
    15
 74
     0
 42
0.00000001
 43
0.00000001
 40
0.0
 40
0.0
 40
0.0
 40
0.0
 40
0.0313541544377719
 40
0.0973967621675959
 40
0.1974102732706256
 40
0.2975360497012597
 40
0.4181236132983728
 40
0.5388076195979816
 40
0.6564386449289886
 40
0.7739032759539487
 40
0.8504378274776521
 40
0.9268716695453544
 40
0.9967385498671375
 40
1.0
 40
1.0
 40
1.0
 40
1.0
 10
100.3736243664699
 20
52.77545846511969
 30
0.0
 10
100.4694962880923
 20
52.77023842558746
 30
0.0
 10
100.7673073729787
 20
52.7540231916594
 30
0.0
 10
101.3501927749386
 20
52.63965072677435
 30
0.0
 10
102.0994371133824
 20
52.43037822129519
 30
0.0
 10
102.919901839131
 20
52.08605632881997
 30
0.0
 10
103.6870485252921
 20
51.65045728767146
 30
0.0
 10
104.368339120127
 20
51.15505839283614
 30
0.0
 10
104.9190492149813
 20
50.6646623598477
 30
0.0
 10
105.2877867724573
 20
50.28170633352647
 30
0.0
 10
105.5158120994401
 20
50.02095443729576
 30
0.0
 10
105.6269180730016
 20
49.88649752709578
 30
0.0
 10
105.6708942234995
 20
49.83259974463606
 30
0.0
 10
105.659968946078
 20
49.84593352027992
 30
0.0
 10
105.6594816896716
 20
49.84652819328934
 30
0.0
  0
LINE
  5
295
330
1F
100
AcDbEntity
  8
0
  6
Continuous
 62
     7
370
    25
100
AcDbLine
 10
105.2614271565
 20
70.4139561129
 30
0.0
 11
101.4353402
 21
70.4139561129
 31
0.0
  0
LINE
  5
296
330
1F
100
AcDbEntity
  8
0
  6
Continuous
 62
     7
370
    25
100
AcDbLine
 10
98.0875141131
 20
70.4139561129
 30
0.0
 11
94.2614271565
 21
70.4139561129
 31
0.0
  0
INSERT
  5
2A2
330
1F
100
AcDbEntity
  8
0
  6
Continuous
 62
     7
370
    18
100
AcDbBlockReference
  2
SW_CENTERMARKSYMBOL_1
 10
99.7614271565
 20
43.3139561129
 30
0.0
  0
LINE
  5
2A3
330
1F
100
AcDbEntity
  8
0
  6
Continuous
 62
     7
370
    18
100
AcDbLine
 10
93.6951771565
 20
30.8139561129
 30
0.0
 11
94.0118888527
 21
20.6791818354
 31
0.0
  0
LINE
  5
2A4
330
1F
100
AcDbEntity
  8
0
  6
Continuous
 62
     7
370
    18
100
AcDbLine
 10
105.5109654604
 20
20.6791818354
 30
0.0
 11
105.8276771565
 21
30.8139561129
 31
0.0
  0
ENDSEC
  0
SECTION
  2
OBJECTS
  0
DICTIONARY
  5
C
330
0
100
AcDbDictionary
281
     1
  3
ACAD_GROUP
350
D
  3
ACAD_LAYOUT
350
1A
  3
ACAD_MLINESTYLE
350
17
  3
ACAD_PLOTSETTINGS
350
19
  3
ACAD_PLOTSTYLENAME
350
E
  3
ACAD_SCALELIST
350
47
  3
DWGPROPS
350
2A5
  0
DICTIONARY
  5
D
102
{ACAD_REACTORS
330
C
102
}
330
C
100
AcDbDictionary
281
     1
  0
DICTIONARY
  5
1A
102
{ACAD_REACTORS
330
C
102
}
330
C
100
AcDbDictionary
281
     1
  3
Layout1
350
1E
  3
Layout2
350
26
  3
Model
350
22
  0
DICTIONARY
  5
17
102
{ACAD_REACTORS
330
C
102
}
330
C
100
AcDbDictionary
281
     1
  3
Standard
350
18
  0
DICTIONARY
  5
19
102
{ACAD_REACTORS
330
C
102
}
330
C
100
AcDbDictionary
281
     1
  0
ACDBDICTIONARYWDFLT
  5
E
102
{ACAD_REACTORS
330
C
102
}
330
C
100
AcDbDictionary
281
     1
  3
Normal
350
F
100
AcDbDictionaryWithDefault
340
F
  0
DICTIONARY
  5
47
102
{ACAD_REACTORS
330
C
102
}
330
C
100
AcDbDictionary
281
     1
  3
A0
350
48
  3
A1
350
49
  3
A2
350
4A
  3
A3
350
4B
  3
A4
350
4C
  3
A5
350
4D
  3
A6
350
4E
  3
A7
350
4F
  3
A8
350
50
  3
A9
350
51
  3
B0
350
52
  3
B1
350
53
  3
B2
350
54
  3
B3
350
55
  3
B4
350
56
  3
B5
350
57
  3
B6
350
58
  0
XRECORD
  5
2A5
102
{ACAD_REACTORS
330
C
102
}
330
C
100
AcDbXrecord
280
     1
  1
DWGPROPS COOKIE
  2

  3

  4

  6

  7

  8
user52
  9

300
=
301
=
302
=
303
=
304
=
305
=
306
=
307
=
308
=
309
=
 40
0.0
 41
2460339.173502269
 42
2460339.17350272
  1

 90
        0
  0
LAYOUT
  5
1E
102
{ACAD_REACTORS
330
1A
102
}
330
1A
100
AcDbPlotSettings
  1

  2
none_device
  4

  6

 40
0.0
 41
0.0
 42
0.0
 43
0.0
 44
0.0
 45
0.0
 46
0.0
 47
0.0
 48
0.0
 49
0.0
140
0.0
141
0.0
142
1.0
143
1.0
 70
   688
 72
     1
 73
     0
 74
     5
  7

 75
    16
147
1.0
148
0.0
149
0.0
100
AcDbLayout
  1
Layout1
 70
     1
 71
     1
 10
0.0
 20
0.0
 11
420.0
 21
297.0
 12
0.0
 22
0.0
 32
0.0
 14
1.0000000000E+20
 24
1.0000000000E+20
 34
1.0000000000E+20
 15
-1.0000000000E+20
 25
-1.0000000000E+20
 35
-1.0000000000E+20
146
0.0
 13
0.0
 23
0.0
 33
0.0
 16
1.0
 26
0.0
 36
0.0
 17
0.0
 27
1.0
 37
0.0
 76
     0
330
1B
  0
LAYOUT
  5
26
102
{ACAD_REACTORS
330
1A
102
}
330
1A
100
AcDbPlotSettings
  1

  2
none_device
  4

  6

 40
0.0
 41
0.0
 42
0.0
 43
0.0
 44
0.0
 45
0.0
 46
0.0
 47
0.0
 48
0.0
 49
0.0
140
0.0
141
0.0
142
1.0
143
1.0
 70
   688
 72
     1
 73
     0
 74
     5
  7

 75
    16
147
1.0
148
0.0
149
0.0
100
AcDbLayout
  1
Layout2
 70
     1
 71
     2
 10
0.0
 20
0.0
 11
0.0
 21
0.0
 12
0.0
 22
0.0
 32
0.0
 14
0.0
 24
0.0
 34
0.0
 15
0.0
 25
0.0
 35
0.0
146
0.0
 13
0.0
 23
0.0
 33
0.0
 16
1.0
 26
0.0
 36
0.0
 17
0.0
 27
1.0
 37
0.0
 76
     0
330
23
  0
LAYOUT
  5
22
102
{ACAD_REACTORS
330
1A
102
}
330
1A
100
AcDbPlotSettings
  1

  2
none_device
  4
Letter_(8.50_x_11.00_Inches)
  6

 40
6.35
 41
6.35
 42
6.35000508
 43
6.35000508
 44
215.9
 45
279.4
 46
0.0
 47
0.0
 48
0.0
 49
0.0
140
0.0
141
0.0
142
1.0
143
1.0
 70
  1712
 72
     1
 73
     0
 74
     0
  7

 75
     0
147
1.0
148
0.0
149
0.0
100
AcDbLayout
  1
Model
 70
     1
 71
     0
 10
0.0
 20
0.0
 11
431.8
 21
279.4
 12
0.0
 22
0.0
 32
0.0
 14
0.0
 24
0.0
 34
0.0
 15
431.8
 25
279.4
 35
0.0
146
0.0
 13
0.0
 23
0.0
 33
0.0
 16
1.0
 26
0.0
 36
0.0
 17
0.0
 27
1.0
 37
0.0
 76
     0
330
1F
331
29
  0
MLINESTYLE
  5
18
102
{ACAD_REACTORS
330
17
102
}
330
17
100
AcDbMlineStyle
  2
Standard
 70
     0
  3

 62
   256
 51
90.0
 52
90.0
 71
     2
 49
0.5
 62
   256
  6
BYLAYER
 49
-0.5
 62
   256
  6
BYLAYER
  0
ACDBPLACEHOLDER
  5
F
102
{ACAD_REACTORS
330
E
102
}
330
E
  0
SCALE
  5
48
102
{ACAD_REACTORS
330
47
102
}
330
47
100
AcDbScale
 70
     0
300
1:1
140
1.0
141
1.0
290
     1
  0
SCALE
  5
49
102
{ACAD_REACTORS
330
47
102
}
330
47
100
AcDbScale
 70
     0
300
1:2
140
1.0
141
2.0
290
     0
  0
SCALE
  5
4A
102
{ACAD_REACTORS
330
47
102
}
330
47
100
AcDbScale
 70
     0
300
1:4
140
1.0
141
4.0
290
     0
  0
SCALE
  5
4B
102
{ACAD_REACTORS
330
47
102
}
330
47
100
AcDbScale
 70
     0
300
1:5
140
1.0
141
5.0
290
     0
  0
SCALE
  5
4C
102
{ACAD_REACTORS
330
47
102
}
330
47
100
AcDbScale
 70
     0
300
1:8
140
1.0
141
8.0
290
     0
  0
SCALE
  5
4D
102
{ACAD_REACTORS
330
47
102
}
330
47
100
AcDbScale
 70
     0
300
1:10
140
1.0
141
10.0
290
     0
  0
SCALE
  5
4E
102
{ACAD_REACTORS
330
47
102
}
330
47
100
AcDbScale
 70
     0
300
1:16
140
1.0
141
16.0
290
     0
  0
SCALE
  5
4F
102
{ACAD_REACTORS
330
47
102
}
330
47
100
AcDbScale
 70
     0
300
1:20
140
1.0
141
20.0
290
     0
  0
SCALE
  5
50
102
{ACAD_REACTORS
330
47
102
}
330
47
100
AcDbScale
 70
     0
300
1:30
140
1.0
141
30.0
290
     0
  0
SCALE
  5
51
102
{ACAD_REACTORS
330
47
102
}
330
47
100
AcDbScale
 70
     0
300
1:40
140
1.0
141
40.0
290
     0
  0
SCALE
  5
52
102
{ACAD_REACTORS
330
47
102
}
330
47
100
AcDbScale
 70
     0
300
1:50
140
1.0
141
50.0
290
     0
  0
SCALE
  5
53
102
{ACAD_REACTORS
330
47
102
}
330
47
100
AcDbScale
 70
     0
300
1:100
140
1.0
141
100.0
290
     0
  0
SCALE
  5
54
102
{ACAD_REACTORS
330
47
102
}
330
47
100
AcDbScale
 70
     0
300
2:1
140
2.0
141
1.0
290
     0
  0
SCALE
  5
55
102
{ACAD_REACTORS
330
47
102
}
330
47
100
AcDbScale
 70
     0
300
4:1
140
4.0
141
1.0
290
     0
  0
SCALE
  5
56
102
{ACAD_REACTORS
330
47
102
}
330
47
100
AcDbScale
 70
     0
300
8:1
140
8.0
141
1.0
290
     0
  0
SCALE
  5
57
102
{ACAD_REACTORS
330
47
102
}
330
47
100
AcDbScale
 70
     0
300
10:1
140
10.0
141
1.0
290
     0
  0
SCALE
  5
58
102
{ACAD_REACTORS
330
47
102
}
330
47
100
AcDbScale
 70
     0
300
100:1
140
100.0
141
1.0
290
     0
  0
ENDSEC
  0
EOF
