  0
SECTION
  2
HEADER
  9
$ACADVER
  1
AC1015
  9
$ACADMAINTVER
 70
     6
  9
$DWGCODEPAGE
  3
DOS932
  9
$INSBASE
 10
0.0
 20
0.0
 30
0.0
  9
$EXTMIN
 10
0.0
 20
0.0
 30
0.0
  9
$EXTMAX
 10
431.8
 20
279.4
 30
0.0
  9
$LIMMIN
 10
0.0
 20
0.0
  9
$LIMMAX
 10
431.8
 20
279.4
  9
$ORTHOMODE
 70
     0
  9
$REGENMODE
 70
     1
  9
$FILLMODE
 70
     1
  9
$QTEXTMODE
 70
     0
  9
$MIRRTEXT
 70
     1
  9
$LTSCALE
 40
1.0
  9
$ATTMODE
 70
     1
  9
$TEXTSIZE
 40
3.5
  9
$TRACEWID
 40
1.0
  9
$TEXTSTYLE
  7
Standard
  9
$CLAYER
  8
0
  9
$CELTYPE
  6
ByLayer
  9
$CECOLOR
 62
   256
  9
$CELTSCALE
 40
1.0
  9
$DISPSILH
 70
     0
  9
$DIMSCALE
 40
1.0
  9
$DIMASZ
 40
3.556
  9
$DIMEXO
 40
1.0
  9
$DIMDLI
 40
3.75
  9
$DIMRND
 40
0.0
  9
$DIMDLE
 40
0.0
  9
$DIMEXE
 40
1.0
  9
$DIMTP
 40
0.0
  9
$DIMTM
 40
0.0
  9
$DIMTXT
 40
3.5
  9
$DIMCEN
 40
2.5
  9
$DIMTSZ
 40
0.0
  9
$DIMTOL
 70
     0
  9
$DIMLIM
 70
     0
  9
$DIMTIH
 70
     1
  9
$DIMTOH
 70
     1
  9
$DIMSE1
 70
     0
  9
$DIMSE2
 70
     0
  9
$DIMTAD
 70
     1
  9
$DIMZIN
 70
     0
  9
$DIMBLK
  1

  9
$DIMASO
 70
     1
  9
$DIMSHO
 70
     1
  9
$DIMPOST
  1

  9
$DIMAPOST
  1

  9
$DIMALT
 70
     0
  9
$DIMALTD
 70
     3
  9
$DIMALTF
 40
0.0393700787
  9
$DIMLFAC
 40
1.0
  9
$DIMTOFL
 70
     1
  9
$DIMTVP
 40
0.0
  9
$DIMTIX
 70
     0
  9
$DIMSOXD
 70
     0
  9
$DIMSAH
 70
     0
  9
$DIMBLK1
  1

  9
$DIMBLK2
  1

  9
$DIMSTYLE
  2
ISO-25
  9
$DIMCLRD
 70
     0
  9
$DIMCLRE
 70
     0
  9
$DIMCLRT
 70
     0
  9
$DIMTFAC
 40
1.0
  9
$DIMGAP
 40
1.524
  9
$DIMJUST
 70
     0
  9
$DIMSD1
 70
     0
  9
$DIMSD2
 70
     0
  9
$DIMTOLJ
 70
     0
  9
$DIMTZIN
 70
     0
  9
$DIMALTZ
 70
     0
  9
$DIMALTTZ
 70
     0
  9
$DIMUPT
 70
     0
  9
$DIMDEC
 70
     3
  9
$DIMTDEC
 70
     3
  9
$DIMALTU
 70
     2
  9
$DIMALTTD
 70
     3
  9
$DIMTXSTY
  7
Standard
  9
$DIMAUNIT
 70
     0
  9
$DIMADEC
 70
     2
  9
$DIMALTRND
 40
0.0
  9
$DIMAZIN
 70
     0
  9
$DIMDSEP
 70
    44
  9
$DIMATFIT
 70
     3
  9
$DIMFRAC
 70
     0
  9
$DIMLDRBLK
  1

  9
$DIMLUNIT
 70
     2
  9
$DIMLWD
 70
    -2
  9
$DIMLWE
 70
    -2
  9
$DIMTMOVE
 70
     0
  9
$LUNITS
 70
     2
  9
$LUPREC
 70
     3
  9
$SKETCHINC
 40
1.0
  9
$FILLETRAD
 40
0.0
  9
$AUNITS
 70
     0
  9
$AUPREC
 70
     2
  9
$MENU
  1
.
  9
$ELEVATION
 40
0.0
  9
$PELEVATION
 40
0.0
  9
$THICKNESS
 40
0.0
  9
$LIMCHECK
 70
     0
  9
$CHAMFERA
 40
0.0
  9
$CHAMFERB
 40
0.0
  9
$CHAMFERC
 40
0.0
  9
$CHAMFERD
 40
0.0
  9
$SKPOLY
 70
     0
  9
$TDCREATE
 40
2460339.54265831
  9
$TDUCREATE
 40
2460339.16765831
  9
$TDUPDATE
 40
2460339.542658738
  9
$TDUUPDATE
 40
2460339.167658738
  9
$TDINDWG
 40
0.0000000116
  9
$TDUSRTIMER
 40
0.0000000116
  9
$USRTIMER
 70
     1
  9
$ANGBASE
 50
0.0
  9
$ANGDIR
 70
     0
  9
$PDMODE
 70
     0
  9
$PDSIZE
 40
-1.0
  9
$PLINEWID
 40
0.0
  9
$SPLFRAME
 70
     0
  9
$SPLINETYPE
 70
     6
  9
$SPLINESEGS
 70
     8
  9
$HANDSEED
  5
284
  9
$SURFTAB1
 70
     6
  9
$SURFTAB2
 70
     6
  9
$SURFTYPE
 70
     6
  9
$SURFU
 70
     6
  9
$SURFV
 70
     6
  9
$UCSBASE
  2

  9
$UCSNAME
  2

  9
$UCSORG
 10
0.0
 20
0.0
 30
0.0
  9
$UCSXDIR
 10
1.0
 20
0.0
 30
0.0
  9
$UCSYDIR
 10
0.0
 20
1.0
 30
0.0
  9
$UCSORTHOREF
  2

  9
$UCSORTHOVIEW
 70
     0
  9
$UCSORGTOP
 10
0.0
 20
0.0
 30
0.0
  9
$UCSORGBOTTOM
 10
0.0
 20
0.0
 30
0.0
  9
$UCSORGLEFT
 10
0.0
 20
0.0
 30
0.0
  9
$UCSORGRIGHT
 10
0.0
 20
0.0
 30
0.0
  9
$UCSORGFRONT
 10
0.0
 20
0.0
 30
0.0
  9
$UCSORGBACK
 10
0.0
 20
0.0
 30
0.0
  9
$PUCSBASE
  2

  9
$PUCSNAME
  2

  9
$PUCSORG
 10
0.0
 20
0.0
 30
0.0
  9
$PUCSXDIR
 10
1.0
 20
0.0
 30
0.0
  9
$PUCSYDIR
 10
0.0
 20
1.0
 30
0.0
  9
$PUCSORTHOREF
  2

  9
$PUCSORTHOVIEW
 70
     0
  9
$PUCSORGTOP
 10
0.0
 20
0.0
 30
0.0
  9
$PUCSORGBOTTOM
 10
0.0
 20
0.0
 30
0.0
  9
$PUCSORGLEFT
 10
0.0
 20
0.0
 30
0.0
  9
$PUCSORGRIGHT
 10
0.0
 20
0.0
 30
0.0
  9
$PUCSORGFRONT
 10
0.0
 20
0.0
 30
0.0
  9
$PUCSORGBACK
 10
0.0
 20
0.0
 30
0.0
  9
$USERI1
 70
     0
  9
$USERI2
 70
     0
  9
$USERI3
 70
     0
  9
$USERI4
 70
     0
  9
$USERI5
 70
     0
  9
$USERR1
 40
0.0
  9
$USERR2
 40
0.0
  9
$USERR3
 40
0.0
  9
$USERR4
 40
0.0
  9
$USERR5
 40
0.0
  9
$WORLDVIEW
 70
     1
  9
$SHADEDGE
 70
     3
  9
$SHADEDIF
 70
    70
  9
$TILEMODE
 70
     1
  9
$MAXACTVP
 70
    64
  9
$PINSBASE
 10
0.0
 20
0.0
 30
0.0
  9
$PLIMCHECK
 70
     0
  9
$PEXTMIN
 10
1.0000000000E+20
 20
1.0000000000E+20
 30
1.0000000000E+20
  9
$PEXTMAX
 10
-1.0000000000E+20
 20
-1.0000000000E+20
 30
-1.0000000000E+20
  9
$PLIMMIN
 10
0.0
 20
0.0
  9
$PLIMMAX
 10
420.0
 20
297.0
  9
$UNITMODE
 70
     0
  9
$VISRETAIN
 70
     1
  9
$PLINEGEN
 70
     0
  9
$PSLTSCALE
 70
     1
  9
$TREEDEPTH
 70
  3020
  9
$CMLSTYLE
  2
Standard
  9
$CMLJUST
 70
     0
  9
$CMLSCALE
 40
20.0
  9
$PROXYGRAPHICS
 70
     1
  9
$MEASUREMENT
 70
     1
  9
$CELWEIGHT
370
    -1
  9
$ENDCAPS
280
     0
  9
$JOINSTYLE
280
     0
  9
$LWDISPLAY
290
     1
  9
$INSUNITS
 70
     4
  9
$HYPERLINKBASE
  1

  9
$STYLESHEET
  1

  9
$XEDIT
290
     1
  9
$CEPSNTYPE
380
     0
  9
$PSTYLEMODE
290
     1
  9
$FINGERPRINTGUID
  2
{074451c0-fb9f-42ca-ab35-9fb233882d71}
  9
$VERSIONGUID
  2
{FAEB1C32-E019-11D5-929B-00C0DF256EC4}
  9
$EXTNAMES
290
     1
  9
$PSVPSCALE
 40
0.0
  9
$OLESTARTUP
290
     0
  0
ENDSEC
  0
SECTION
  2
CLASSES
  0
CLASS
  1
ACDBDICTIONARYWDFLT
  2
AcDbDictionaryWithDefault
  3
ObjectDBX Classes
 90
        0
280
     0
281
     0
  0
CLASS
  1
VISUALSTYLE
  2
AcDbVisualStyle
  3
ObjectDBX Classes
 90
     4095
280
     0
281
     0
  0
CLASS
  1
MATERIAL
  2
AcDbMaterial
  3
ObjectDBX Classes
 90
     1153
280
     0
281
     0
  0
CLASS
  1
SCALE
  2
AcDbScale
  3
ObjectDBX Classes
 90
     1153
280
     0
281
     0
  0
CLASS
  1
TABLESTYLE
  2
AcDbTableStyle
  3
ObjectDBX Classes
 90
     4095
280
     0
281
     0
  0
CLASS
  1
MLEADERSTYLE
  2
AcDbMLeaderStyle
  3
ACDB_MLEADERSTYLE_CLASS
 90
     4095
280
     0
281
     0
  0
CLASS
  1
SUN
  2
AcDbSun
  3
SCENEOE
 90
     1153
280
     0
281
     0
  0
CLASS
  1
ACDBPLACEHOLDER
  2
AcDbPlaceHolder
  3
ObjectDBX Classes
 90
        0
280
     0
281
     0
  0
CLASS
  1
LAYOUT
  2
AcDbLayout
  3
ObjectDBX Classes
 90
        0
280
     0
281
     0
  0
ENDSEC
  0
SECTION
  2
TABLES
  0
TABLE
  2
VPORT
  5
8
330
0
100
AcDbSymbolTable
 70
     1
  0
VPORT
  5
29
330
8
100
AcDbSymbolTableRecord
100
AcDbViewportTableRecord
  2
*Active
 70
     0
 10
0.0
 20
0.0
 11
1.0
 21
1.0
 12
215.9
 22
139.7
 13
0.0
 23
0.0
 14
10.0
 24
10.0
 15
10.0
 25
10.0
 16
0.0
 26
0.0
 36
1.0
 17
0.0
 27
0.0
 37
0.0
 40
279.4
 41
1.5454545455
 42
50.0
 43
0.0
 44
0.0
 50
0.0
 51
0.0
 71
     0
 72
  2000
 73
     1
 74
     3
 75
     0
 76
     0
 77
     0
 78
     0
281
     0
 65
     1
110
0.0
120
0.0
130
0.0
111
1.0
121
0.0
131
0.0
112
0.0
122
1.0
132
0.0
 79
     0
146
0.0
  0
ENDTAB
  0
TABLE
  2
LTYPE
  5
5
330
0
100
AcDbSymbolTable
 70
     6
  0
LTYPE
  5
14
330
5
100
AcDbSymbolTableRecord
100
AcDbLinetypeTableRecord
  2
ByBlock
 70
     0
  3

 72
    65
 73
     0
 40
0.0
  0
LTYPE
  5
15
330
5
100
AcDbSymbolTableRecord
100
AcDbLinetypeTableRecord
  2
ByLayer
 70
     0
  3

 72
    65
 73
     0
 40
0.0
  0
LTYPE
  5
16
330
5
100
AcDbSymbolTableRecord
100
AcDbLinetypeTableRecord
  2
Continuous
 70
     0
  3
Solid line
 72
    65
 73
     0
 40
0.0
  0
LTYPE
  5
5E
330
5
100
AcDbSymbolTableRecord
100
AcDbLinetypeTableRecord
  2
HIDDEN
 70
     0
  3
Hidden __ __ __ __ __ __ __ __ __ __ __ __ __ __
 72
    65
 73
     2
 40
1.905
 49
1.27
 74
     0
 49
-0.635
 74
     0
  0
LTYPE
  5
5F
330
5
100
AcDbSymbolTableRecord
100
AcDbLinetypeTableRecord
  2
PHANTOM
 70
     0
  3
Phantom ______  __  __  ______  __  __  ______
 72
    65
 73
     6
 40
12.7
 49
6.35
 74
     0
 49
-1.27
 74
     0
 49
1.27
 74
     0
 49
-1.27
 74
     0
 49
1.27
 74
     0
 49
-1.27
 74
     0
  0
LTYPE
  5
60
330
5
100
AcDbSymbolTableRecord
100
AcDbLinetypeTableRecord
  2
CENTER
 70
     0
  3
Center ____ _ ____ _ ____ _ ____ _ ____ _ ____
 72
    65
 73
     4
 40
10.16
 49
6.35
 74
     0
 49
-1.27
 74
     0
 49
1.27
 74
     0
 49
-1.27
 74
     0
  0
LTYPE
  5
61
330
5
100
AcDbSymbolTableRecord
100
AcDbLinetypeTableRecord
  2
CENTERX2
 70
     0
  3
Center (2x) ________  __  ________  __  _____
 72
    65
 73
     4
 40
20.32
 49
12.7
 74
     0
 49
-2.54
 74
     0
 49
2.54
 74
     0
 49
-2.54
 74
     0
  0
LTYPE
  5
62
330
5
100
AcDbSymbolTableRecord
100
AcDbLinetypeTableRecord
  2
DOT2
 70
     0
  3
Dot (.5x) ........................................
 72
    65
 73
     2
 40
0.635
 49
0.0
 74
     0
 49
-0.635
 74
     0
  0
ENDTAB
  0
TABLE
  2
LAYER
  5
2
330
0
100
AcDbSymbolTable
 70
     1
  0
LAYER
  5
10
330
2
100
AcDbSymbolTableRecord
100
AcDbLayerTableRecord
  2
0
 70
     0
 62
     7
  6
Continuous
370
    -3
390
F
  0
ENDTAB
  0
TABLE
  2
STYLE
  5
3
330
0
100
AcDbSymbolTable
 70
     2
  0
STYLE
  5
11
330
3
100
AcDbSymbolTableRecord
100
AcDbTextStyleTableRecord
  2
Standard
 70
     0
 40
0.0
 41
1.0
 50
0.0
 71
     0
 42
3.5
  3
txt
  4
bigfont
  0
STYLE
  5
1F8
330
3
100
AcDbSymbolTableRecord
100
AcDbTextStyleTableRecord
  2
SLDTEXTSTYLE0
 70
     0
 40
0.0
 41
0.75
 50
0.0
 71
     0
 42
3.5
  3
TXT
  4
bigfont
  0
ENDTAB
  0
TABLE
  2
VIEW
  5
6
330
0
100
AcDbSymbolTable
 70
     0
  0
ENDTAB
  0
TABLE
  2
UCS
  5
7
330
0
100
AcDbSymbolTable
 70
     0
  0
ENDTAB
  0
TABLE
  2
APPID
  5
9
330
0
100
AcDbSymbolTable
 70
     1
  0
APPID
  5
12
330
9
100
AcDbSymbolTableRecord
100
AcDbRegAppTableRecord
  2
ACAD
 70
     0
  0
ENDTAB
  0
TABLE
  2
DIMSTYLE
  5
A
330
0
100
AcDbSymbolTable
 70
     1
100
AcDbDimStyleTable
  0
DIMSTYLE
105
27
330
A
100
AcDbSymbolTableRecord
100
AcDbDimStyleTableRecord
  2
ISO-25
 70
     0
 41
2.5
 42
0.625
 43
3.75
 44
1.25
 73
     0
 74
     0
 77
     1
 78
     8
140
2.5
141
2.5
143
0.0393700787
147
0.625
171
     3
172
     1
178
     0
271
     2
272
     2
274
     3
278
    44
283
     0
284
     8
340
11
  0
ENDTAB
  0
TABLE
  2
BLOCK_RECORD
  5
1
330
0
100
AcDbSymbolTable
 70
     3
  0
BLOCK_RECORD
  5
1F
330
1
100
AcDbSymbolTableRecord
100
AcDbBlockTableRecord
  2
*Model_Space
340
22
  0
BLOCK_RECORD
  5
1B
330
1
100
AcDbSymbolTableRecord
100
AcDbBlockTableRecord
  2
*Paper_Space
340
1E
  0
BLOCK_RECORD
  5
23
330
1
100
AcDbSymbolTableRecord
100
AcDbBlockTableRecord
  2
*Paper_Space0
340
26
  0
BLOCK_RECORD
  5
1FB
330
1
100
AcDbSymbolTableRecord
100
AcDbBlockTableRecord
  2
SW_CENTERMARKSYMBOL_0
340
0
102
{BLKREFS
331
206
102
}
  0
BLOCK_RECORD
  5
275
330
1
100
AcDbSymbolTableRecord
100
AcDbBlockTableRecord
  2
SW_CENTERMARKSYMBOL_1
340
0
102
{BLKREFS
331
280
102
}
  0
ENDTAB
  0
ENDSEC
  0
SECTION
  2
BLOCKS
  0
BLOCK
  5
20
330
1F
100
AcDbEntity
  8
0
100
AcDbBlockBegin
  2
*Model_Space
 70
     0
 10
0.0
 20
0.0
 30
0.0
  3
*Model_Space
  1

  0
ENDBLK
  5
21
330
1F
100
AcDbEntity
  8
0
100
AcDbBlockEnd
  0
BLOCK
  5
1C
330
1B
100
AcDbEntity
 67
     1
  8
0
100
AcDbBlockBegin
  2
*Paper_Space
 70
     0
 10
0.0
 20
0.0
 30
0.0
  3
*Paper_Space
  1

  0
ENDBLK
  5
1D
330
1B
100
AcDbEntity
 67
     1
  8
0
100
AcDbBlockEnd
  0
BLOCK
  5
24
330
23
100
AcDbEntity
  8
0
100
AcDbBlockBegin
  2
*Paper_Space0
 70
     0
 10
0.0
 20
0.0
 30
0.0
  3
*Paper_Space0
  1

  0
ENDBLK
  5
25
330
23
100
AcDbEntity
  8
0
100
AcDbBlockEnd
  0
BLOCK
  5
1FC
330
1FB
100
AcDbEntity
  8
0
100
AcDbBlockBegin
  2
SW_CENTERMARKSYMBOL_0
 70
     0
 10
0.0
 20
0.0
 30
0.0
  3
SW_CENTERMARKSYMBOL_0
  1

  0
LINE
  5
1FE
330
1FB
100
AcDbEntity
  8
0
  6
Continuous
 62
     0
370
    18
100
AcDbLine
 10
0.0
 20
0.0
 30
0.0
 11
0.0
 21
2.5
 31
0.0
  0
LINE
  5
1FF
330
1FB
100
AcDbEntity
  8
0
  6
Continuous
 62
     0
370
    18
100
AcDbLine
 10
0.0
 20
0.0
 30
0.0
 11
-2.5
 21
0.0
 31
0.0
  0
LINE
  5
200
330
1FB
100
AcDbEntity
  8
0
  6
Continuous
 62
     0
370
    18
100
AcDbLine
 10
0.0
 20
0.0
 30
0.0
 11
0.0
 21
-2.5
 31
0.0
  0
LINE
  5
201
330
1FB
100
AcDbEntity
  8
0
  6
Continuous
 62
     0
370
    18
100
AcDbLine
 10
0.0
 20
0.0
 30
0.0
 11
2.5
 21
0.0
 31
0.0
  0
LINE
  5
202
330
1FB
100
AcDbEntity
  8
0
  6
Continuous
 62
     0
370
    18
100
AcDbLine
 10
0.0
 20
5.0
 30
0.0
 11
0.0
 21
9.95
 31
0.0
  0
LINE
  5
203
330
1FB
100
AcDbEntity
  8
0
  6
Continuous
 62
     0
370
    18
100
AcDbLine
 10
-5.0
 20
0.0
 30
0.0
 11
-42.9765582747
 21
0.0
 31
0.0
  0
LINE
  5
204
330
1FB
100
AcDbEntity
  8
0
  6
Continuous
 62
     0
370
    18
100
AcDbLine
 10
0.0
 20
-5.0
 30
0.0
 11
0.0
 21
-9.95
 31
0.0
  0
LINE
  5
205
330
1FB
100
AcDbEntity
  8
0
  6
Continuous
 62
     0
370
    18
100
AcDbLine
 10
5.0
 20
0.0
 30
0.0
 11
15.3454990436
 21
0.0
 31
0.0
  0
ENDBLK
  5
1FD
330
1FB
100
AcDbEntity
  8
0
100
AcDbBlockEnd
  0
BLOCK
  5
276
330
275
100
AcDbEntity
  8
0
100
AcDbBlockBegin
  2
SW_CENTERMARKSYMBOL_1
 70
     0
 10
0.0
 20
0.0
 30
0.0
  3
SW_CENTERMARKSYMBOL_1
  1

  0
LINE
  5
278
330
275
100
AcDbEntity
  8
0
  6
Continuous
 62
     0
370
    18
100
AcDbLine
 10
0.0
 20
0.0
 30
0.0
 11
0.0
 21
2.5
 31
0.0
  0
LINE
  5
279
330
275
100
AcDbEntity
  8
0
  6
Continuous
 62
     0
370
    18
100
AcDbLine
 10
0.0
 20
0.0
 30
0.0
 11
-2.5
 21
0.0
 31
0.0
  0
LINE
  5
27A
330
275
100
AcDbEntity
  8
0
  6
Continuous
 62
     0
370
    18
100
AcDbLine
 10
0.0
 20
0.0
 30
0.0
 11
0.0
 21
-2.5
 31
0.0
  0
LINE
  5
27B
330
275
100
AcDbEntity
  8
0
  6
Continuous
 62
     0
370
    18
100
AcDbLine
 10
0.0
 20
0.0
 30
0.0
 11
2.5
 21
0.0
 31
0.0
  0
LINE
  5
27C
330
275
100
AcDbEntity
  8
0
  6
Continuous
 62
     0
370
    18
100
AcDbLine
 10
0.0
 20
5.0
 30
0.0
 11
0.0
 21
30.1879545884
 31
0.0
  0
LINE
  5
27D
330
275
100
AcDbEntity
  8
0
  6
Continuous
 62
     0
370
    18
100
AcDbLine
 10
-5.0
 20
0.0
 30
0.0
 11
-10.75
 21
0.0
 31
0.0
  0
LINE
  5
27E
330
275
100
AcDbEntity
  8
0
  6
Continuous
 62
     0
370
    18
100
AcDbLine
 10
0.0
 20
-5.0
 30
0.0
 11
0.0
 21
-25.6672444219
 31
0.0
  0
LINE
  5
27F
330
275
100
AcDbEntity
  8
0
  6
Continuous
 62
     0
370
    18
100
AcDbLine
 10
5.0
 20
0.0
 30
0.0
 11
10.75
 21
0.0
 31
0.0
  0
ENDBLK
  5
277
330
275
100
AcDbEntity
  8
0
100
AcDbBlockEnd
  0
ENDSEC
  0
SECTION
  2
ENTITIES
  0
LINE
  5
63
330
1F
100
AcDbEntity
  8
0
  6
Continuous
 62
     7
370
    25
100
AcDbLine
 10
45.8153605016
 20
48.2074326019
 30
0.0
 11
43.0653605016
 21
48.2074326019
 31
0.0
  0
LINE
  5
64
330
1F
100
AcDbEntity
  8
0
  6
Continuous
 62
     7
370
    25
100
AcDbLine
 10
43.0653605016
 20
32.2074326019
 30
0.0
 11
45.8153605016
 21
32.2074326019
 31
0.0
  0
LINE
  5
65
330
1F
100
AcDbEntity
  8
0
  6
Continuous
 62
     7
370
    25
100
AcDbLine
 10
43.0653605016
 20
48.2074326019
 30
0.0
 11
42.8653605016
 21
48.0074326019
 31
0.0
  0
LINE
  5
66
330
1F
100
AcDbEntity
  8
0
  6
Continuous
 62
     7
370
    25
100
AcDbLine
 10
42.8653605016
 20
32.4074326019
 30
0.0
 11
43.0653605016
 21
32.2074326019
 31
0.0
  0
LINE
  5
67
330
1F
100
AcDbEntity
  8
0
  6
Continuous
 62
     7
370
    25
100
AcDbLine
 10
42.8653605016
 20
46.7859326019
 30
0.0
 11
38.8768341725
 21
46.7859326019
 31
0.0
  0
LINE
  5
68
330
1F
100
AcDbEntity
  8
0
  6
Continuous
 62
     7
370
    25
100
AcDbLine
 10
38.8768341725
 20
33.6289326019
 30
0.0
 11
42.8653605016
 21
33.6289326019
 31
0.0
  0
LINE
  5
69
330
1F
100
AcDbEntity
  8
0
  6
Continuous
 62
     7
370
    25
100
AcDbLine
 10
26.7803611184
 20
50.0223871781
 30
0.0
 11
25.8768341725
 21
48.4574326019
 31
0.0
  0
LINE
  5
6A
330
1F
100
AcDbEntity
  8
0
  6
Continuous
 62
     7
370
    25
100
AcDbLine
 10
25.8768341725
 20
31.9574326019
 30
0.0
 11
26.7803611184
 21
30.3924780257
 31
0.0
  0
LINE
  5
6B
330
1F
100
AcDbEntity
  8
0
  6
Continuous
 62
     7
370
    25
100
AcDbLine
 10
37.9733072267
 20
30.3924780257
 30
0.0
 11
38.8768341725
 21
31.9574326019
 31
0.0
  0
LINE
  5
6C
330
1F
100
AcDbEntity
  8
0
  6
Continuous
 62
     7
370
    25
100
AcDbLine
 10
38.8768341725
 20
48.4574326019
 30
0.0
 11
37.9733072267
 21
50.0223871781
 31
0.0
  0
LINE
  5
6D
330
1F
100
AcDbEntity
  8
0
  6
Continuous
 62
     7
370
    25
100
AcDbLine
 10
64.3153605016
 20
50.7074326019
 30
0.0
 11
64.7653605016
 21
58.7074326019
 31
0.0
  0
LINE
  5
6E
330
1F
100
AcDbEntity
  8
0
  6
Continuous
 62
     7
370
    25
100
AcDbLine
 10
64.7653605016
 20
58.7074326019
 30
0.0
 11
62.8153605016
 21
66.7074326019
 31
0.0
  0
LINE
  5
6F
330
1F
100
AcDbEntity
  8
0
  6
Continuous
 62
     7
370
    25
100
AcDbLine
 10
50.246615084
 20
51.9295733591
 30
0.0
 11
50.3153605016
 21
50.7074326019
 31
0.0
  0
LINE
  5
70
330
1F
100
AcDbEntity
  8
0
  6
Continuous
 62
     7
370
    25
100
AcDbLine
 10
51.8153605016
 20
66.7074326019
 30
0.0
 11
51.562128967
 21
65.6685339987
 31
0.0
  0
LINE
  5
71
330
1F
100
AcDbEntity
  8
0
  6
Continuous
 62
     7
370
    25
100
AcDbLine
 10
68.4564917545
 20
30.4698282948
 30
0.0
 11
69.3153605016
 21
31.9574326019
 31
0.0
  0
LINE
  5
72
330
1F
100
AcDbEntity
  8
0
  6
Continuous
 62
     7
370
    25
100
AcDbLine
 10
69.3153605016
 20
48.4574326019
 30
0.0
 11
68.4564917545
 21
49.9450369089
 31
0.0
  0
SPLINE
  5
73
330
1F
100
AcDbEntity
  8
0
  6
Continuous
 62
     7
370
    25
100
AcDbSpline
210
0.0
220
0.0
230
1.0
 70
     8
 71
     3
 72
    11
 73
     7
 74
     0
 42
0.00000001
 43
0.00000001
 40
0.0
 40
0.0
 40
0.0
 40
0.0
 40
0.2043614079987766
 40
0.5571700627595104
 40
0.8635018458206164
 40
1.0
 40
1.0
 40
1.0
 40
1.0
 10
63.48523549727801
 20
48.99619896038323
 30
0.0
 10
63.44715838335122
 20
49.03430684620846
 30
0.0
 10
63.34334510390649
 20
49.1382040220246
 30
0.0
 10
63.24759974270827
 20
49.34826467897867
 30
0.0
 10
63.19523066002204
 20
49.55312159564906
 30
0.0
 10
63.20093387105769
 20
49.66946087016414
 30
0.0
 10
63.20269183210275
 20
49.70532135495618
 30
0.0
  0
SPLINE
  5
74
330
1F
100
AcDbEntity
  8
0
  6
Continuous
 62
     7
370
    25
100
AcDbSpline
210
0.0
220
0.0
230
1.0
 70
     8
 71
     3
 72
    11
 73
     7
 74
     0
 42
0.00000001
 43
0.00000001
 40
0.0
 40
0.0
 40
0.0
 40
0.0
 40
0.1576039554856749
 40
0.4834067624522631
 40
0.8197106976718591
 40
1.0
 40
1.0
 40
1.0
 40
1.0
 10
51.42253571691089
 20
49.70693585663545
 30
0.0
 10
51.4243363713336
 20
49.66561842036871
 30
0.0
 10
51.42985938325355
 20
49.53888855475725
 30
0.0
 10
51.3700745816142
 20
49.32980617088466
 30
0.0
 10
51.27294980692682
 20
49.12749304524281
 30
0.0
 10
51.17481819166033
 20
49.0337074156997
 30
0.0
 10
51.1405705880008
 20
49.00097654643978
 30
0.0
  0
LINE
  5
75
330
1F
100
AcDbEntity
  8
0
  6
Continuous
 62
     7
370
    25
100
AcDbLine
 10
63.2153605016
 20
49.7029017818
 30
0.0
 11
63.2153605016
 21
50.7074326019
 31
0.0
  0
LINE
  5
76
330
1F
100
AcDbEntity
  8
0
  6
Continuous
 62
     7
370
    25
100
AcDbLine
 10
51.4153605016
 20
50.7074326019
 30
0.0
 11
51.4153605016
 21
49.7074326019
 31
0.0
  0
LINE
  5
77
330
1F
100
AcDbEntity
  8
0
  6
Continuous
 62
     7
370
    25
100
AcDbLine
 10
52.2160480016
 20
28.2074326019
 30
0.0
 11
52.5330808747
 21
18.0623806613
 31
0.0
  0
LINE
  5
78
330
1F
100
AcDbEntity
  8
0
  6
Continuous
 62
     7
370
    25
100
AcDbLine
 10
62.0976401284
 20
18.0623806613
 30
0.0
 11
62.4146730016
 21
28.2074326019
 31
0.0
  0
LINE
  5
79
330
1F
100
AcDbEntity
  8
0
  6
Continuous
 62
     7
370
    25
100
AcDbLine
 10
52.5330808747
 20
18.0623806613
 30
0.0
 11
53.3153605016
 21
16.7074326019
 31
0.0
  0
LINE
  5
7A
330
1F
100
AcDbEntity
  8
0
  6
Continuous
 62
     7
370
    25
100
AcDbLine
 10
61.3153605016
 20
16.7074326019
 30
0.0
 11
62.0976401284
 21
18.0623806613
 31
0.0
  0
LINE
  5
7B
330
1F
100
AcDbEntity
  8
0
  6
Continuous
 62
     7
370
    25
100
AcDbLine
 10
51.1451935942
 20
49.0021703312
 30
0.0
 11
50.6008293218
 21
49.9450369089
 31
0.0
  0
LINE
  5
7C
330
1F
100
AcDbEntity
  8
0
  6
Continuous
 62
     7
370
    25
100
AcDbLine
 10
65.8153605016
 20
28.2074326019
 30
0.0
 11
67.0529648086
 21
28.9219637817
 31
0.0
  0
LINE
  5
7D
330
1F
100
AcDbEntity
  8
0
  6
Continuous
 62
     7
370
    25
100
AcDbLine
 10
64.0298916814
 20
49.9450369089
 30
0.0
 11
63.4855274089
 21
49.0021703312
 31
0.0
  0
LINE
  5
7E
330
1F
100
AcDbEntity
  8
0
  6
Continuous
 62
     7
370
    25
100
AcDbLine
 10
46.5298916814
 20
49.9450369089
 30
0.0
 11
45.8153605016
 21
48.7074326019
 31
0.0
  0
LINE
  5
7F
330
1F
100
AcDbEntity
  8
0
  6
Continuous
 62
     7
370
    25
100
AcDbLine
 10
47.5777561945
 20
28.9219637817
 30
0.0
 11
48.8153605016
 21
28.2074326019
 31
0.0
  0
LINE
  5
80
330
1F
100
AcDbEntity
  8
0
  6
Continuous
 62
     7
370
    25
100
AcDbLine
 10
45.8153605016
 20
31.7074326019
 30
0.0
 11
46.5298916814
 21
30.4698282948
 31
0.0
  0
LINE
  5
81
330
1F
100
AcDbEntity
  8
0
  6
Continuous
 62
     7
370
    25
100
AcDbLine
 10
67.0529648086
 20
28.9194034004
 30
0.0
 11
67.0529648086
 21
30.4698282948
 31
0.0
  0
LINE
  5
82
330
1F
100
AcDbEntity
  8
0
  6
Continuous
 62
     7
370
    25
100
AcDbLine
 10
67.0529648086
 20
30.4698282948
 30
0.0
 11
68.4590598099
 21
30.4698282948
 31
0.0
  0
LINE
  5
83
330
1F
100
AcDbEntity
  8
0
  6
Continuous
 62
     7
370
    25
100
AcDbLine
 10
50.6033973772
 20
49.9450369089
 30
0.0
 11
46.5273313001
 21
49.9450369089
 31
0.0
  0
LINE
  5
84
330
1F
100
AcDbEntity
  8
0
  6
Continuous
 62
     7
370
    25
100
AcDbLine
 10
68.4590598099
 20
49.9450369089
 30
0.0
 11
64.0273236259
 21
49.9450369089
 31
0.0
  0
LINE
  5
85
330
1F
100
AcDbEntity
  8
0
  6
Continuous
 62
     7
370
    25
100
AcDbLine
 10
47.5777561945
 20
30.4698282948
 30
0.0
 11
47.5777561945
 21
28.9194034004
 31
0.0
  0
LINE
  5
86
330
1F
100
AcDbEntity
  8
0
  6
Continuous
 62
     7
370
    25
100
AcDbLine
 10
46.5273313001
 20
30.4698282948
 30
0.0
 11
47.5777561945
 21
30.4698282948
 31
0.0
  0
LINE
  5
87
330
1F
100
AcDbEntity
  8
0
  6
Continuous
 62
     7
370
    25
100
AcDbLine
 10
43.0653605016
 20
37.108705454
 30
0.0
 11
43.0653605016
 21
32.2074326019
 31
0.0
  0
LINE
  5
88
330
1F
100
AcDbEntity
  8
0
  6
Continuous
 62
     7
370
    25
100
AcDbLine
 10
43.0653605016
 20
48.2074326019
 30
0.0
 11
43.0653605016
 21
37.108705454
 31
0.0
  0
LINE
  5
89
330
1F
100
AcDbEntity
  8
0
  6
Continuous
 62
     7
370
    25
100
AcDbLine
 10
42.8653605016
 20
37.1861736327
 30
0.0
 11
42.8653605016
 21
48.0074326019
 31
0.0
  0
LINE
  5
8A
330
1F
100
AcDbEntity
  8
0
  6
Continuous
 62
     7
370
    25
100
AcDbLine
 10
42.8653605016
 20
32.4074326019
 30
0.0
 11
42.8653605016
 21
37.1861736327
 31
0.0
  0
SPLINE
  5
8B
330
1F
100
AcDbEntity
  8
0
  6
Continuous
 62
     7
370
    25
100
AcDbSpline
210
0.0
220
0.0
230
1.0
 70
     8
 71
     3
 72
    14
 73
    10
 74
     0
 42
0.00000001
 43
0.00000001
 40
0.0
 40
0.0
 40
0.0
 40
0.0
 40
0.132317364830439
 40
0.2645973188387831
 40
0.3998364273285068
 40
0.5350511314348789
 40
0.6502525552916444
 40
0.7654719494863401
 40
1.0
 40
1.0
 40
1.0
 40
1.0
 10
26.78036111839449
 20
45.11490988999272
 30
0.0
 10
26.66479294219722
 20
45.32693216598206
 30
0.0
 10
26.43368926503382
 20
45.75091677172722
 30
0.0
 10
26.18499950770651
 20
46.40382040087758
 30
0.0
 10
26.03559085599701
 20
47.06901155725382
 30
0.0
 10
26.00560485942707
 20
47.71017820862412
 30
0.0
 10
26.08363079665603
 20
48.31647341975489
 30
0.0
 10
26.28827597948657
 20
49.08267141238888
 30
0.0
 10
26.58283825587744
 20
49.64518548408773
 30
0.0
 10
26.7803611183945
 20
50.02238717810452
 30
0.0
  0
SPLINE
  5
8C
330
1F
100
AcDbEntity
  8
0
  6
Continuous
 62
     7
370
    25
100
AcDbSpline
210
0.0
220
0.0
230
1.0
 70
     8
 71
     3
 72
    14
 73
    10
 74
     0
 42
0.00000001
 43
0.00000001
 40
0.0
 40
0.0
 40
0.0
 40
0.0
 40
0.1885762799860081
 40
0.378895556583529
 40
0.5044823954484108
 40
0.6300701228213249
 40
0.7590052913537331
 40
0.887976329628691
 40
1.0
 40
1.0
 40
1.0
 40
1.0
 10
26.7803611183945
 20
35.29995531376906
 30
0.0
 10
26.61931207930513
 20
35.90549370630452
 30
0.0
 10
26.29572543676699
 20
37.1221674379607
 30
0.0
 10
26.06226571669417
 20
38.78625198934603
 30
0.0
 10
26.00402866152156
 20
40.25250452363441
 30
0.0
 10
26.060894403079
 20
41.5151450440279
 30
0.0
 10
26.22597843425075
 20
42.77908365451346
 30
0.0
 10
26.46942721939843
 20
43.98438124444246
 30
0.0
 10
26.68169215757343
 20
44.75615811993789
 30
0.0
 10
26.78036111839449
 20
45.11490988999272
 30
0.0
  0
SPLINE
  5
8D
330
1F
100
AcDbEntity
  8
0
  6
Continuous
 62
     7
370
    25
100
AcDbSpline
210
0.0
220
0.0
230
1.0
 70
     8
 71
     3
 72
    14
 73
    10
 74
     0
 42
0.00000001
 43
0.00000001
 40
0.0
 40
0.0
 40
0.0
 40
0.0
 40
0.132317364830439
 40
0.2645973188387832
 40
0.3998364273285067
 40
0.5350511314348788
 40
0.6502525552916443
 40
0.76547194948634
 40
0.9999999999999999
 40
0.9999999999999999
 40
0.9999999999999999
 40
0.9999999999999999
 10
26.7803611183945
 20
30.39247802565722
 30
0.0
 10
26.66479294219722
 20
30.60450030164655
 30
0.0
 10
26.43368926503383
 20
31.02848490739171
 30
0.0
 10
26.1849995077065
 20
31.68138853654209
 30
0.0
 10
26.03559085599703
 20
32.34657969291833
 30
0.0
 10
26.00560485942706
 20
32.98774634428865
 30
0.0
 10
26.08363079665603
 20
33.59404155541942
 30
0.0
 10
26.28827597948657
 20
34.36023954805341
 30
0.0
 10
26.58283825587744
 20
34.92275361975227
 30
0.0
 10
26.7803611183945
 20
35.29995531376906
 30
0.0
  0
LINE
  5
8E
330
1F
100
AcDbEntity
  8
0
  6
Continuous
 62
     7
370
    25
100
AcDbLine
 10
25.8768341725
 20
31.9574326019
 30
0.0
 11
25.8768341725
 21
48.4574326019
 31
0.0
  0
SPLINE
  5
8F
330
1F
100
AcDbEntity
  8
0
  6
Continuous
 62
     7
370
    25
100
AcDbSpline
210
0.0
220
0.0
230
1.0
 70
     8
 71
     3
 72
    14
 73
    10
 74
     0
 42
0.00000001
 43
0.00000001
 40
0.0
 40
0.0
 40
0.0
 40
0.0
 40
0.132317364830439
 40
0.2645973188387832
 40
0.3998364273285067
 40
0.5350511314348788
 40
0.6502525552916443
 40
0.76547194948634
 40
0.9999999999999999
 40
0.9999999999999999
 40
0.9999999999999999
 40
0.9999999999999999
 10
37.97330722668998
 20
30.39247802565722
 30
0.0
 10
38.08887540288725
 20
30.60450030164655
 30
0.0
 10
38.31997908005065
 20
31.02848490739171
 30
0.0
 10
38.56866883737796
 20
31.68138853654209
 30
0.0
 10
38.71807748908746
 20
32.34657969291833
 30
0.0
 10
38.7480634856574
 20
32.98774634428865
 30
0.0
 10
38.67003754842845
 20
33.59404155541942
 30
0.0
 10
38.4653923655979
 20
34.36023954805341
 30
0.0
 10
38.17083008920703
 20
34.92275361975227
 30
0.0
 10
37.97330722668998
 20
35.29995531376906
 30
0.0
  0
SPLINE
  5
90
330
1F
100
AcDbEntity
  8
0
  6
Continuous
 62
     7
370
    25
100
AcDbSpline
210
0.0
220
0.0
230
1.0
 70
     8
 71
     3
 72
    14
 73
    10
 74
     0
 42
0.00000001
 43
0.00000001
 40
0.0
 40
0.0
 40
0.0
 40
0.0
 40
0.1885762799860081
 40
0.378895556583529
 40
0.5044823954484109
 40
0.630070122821325
 40
0.7590052913537332
 40
0.887976329628691
 40
1.0
 40
1.0
 40
1.0
 40
1.0
 10
37.97330722668998
 20
35.29995531376906
 30
0.0
 10
38.13435626577934
 20
35.90549370630452
 30
0.0
 10
38.45794290831748
 20
37.1221674379607
 30
0.0
 10
38.6914026283903
 20
38.78625198934603
 30
0.0
 10
38.74963968356293
 20
40.25250452363441
 30
0.0
 10
38.69277394200547
 20
41.5151450440279
 30
0.0
 10
38.52768991083372
 20
42.77908365451346
 30
0.0
 10
38.28424112568603
 20
43.98438124444246
 30
0.0
 10
38.07197618751104
 20
44.75615811993789
 30
0.0
 10
37.97330722668998
 20
45.11490988999272
 30
0.0
  0
SPLINE
  5
91
330
1F
100
AcDbEntity
  8
0
  6
Continuous
 62
     7
370
    25
100
AcDbSpline
210
0.0
220
0.0
230
1.0
 70
     8
 71
     3
 72
    14
 73
    10
 74
     0
 42
0.00000001
 43
0.00000001
 40
0.0
 40
0.0
 40
0.0
 40
0.0
 40
0.132317364830439
 40
0.2645973188387831
 40
0.3998364273285068
 40
0.5350511314348789
 40
0.6502525552916444
 40
0.7654719494863401
 40
1.0
 40
1.0
 40
1.0
 40
1.0
 10
37.97330722668998
 20
45.11490988999272
 30
0.0
 10
38.08887540288725
 20
45.32693216598206
 30
0.0
 10
38.31997908005065
 20
45.75091677172722
 30
0.0
 10
38.56866883737796
 20
46.40382040087758
 30
0.0
 10
38.71807748908745
 20
47.06901155725382
 30
0.0
 10
38.74806348565742
 20
47.71017820862412
 30
0.0
 10
38.67003754842845
 20
48.31647341975489
 30
0.0
 10
38.4653923655979
 20
49.08267141238888
 30
0.0
 10
38.17083008920703
 20
49.64518548408773
 30
0.0
 10
37.97330722668998
 20
50.02238717810452
 30
0.0
  0
LINE
  5
92
330
1F
100
AcDbEntity
  8
0
  6
Continuous
 62
     7
370
    25
100
AcDbLine
 10
38.8768341725
 20
31.9574326019
 30
0.0
 11
38.8768341725
 21
48.4574326019
 31
0.0
  0
LINE
  5
93
330
1F
100
AcDbEntity
  8
0
  6
Continuous
 62
     7
370
    25
100
AcDbLine
 10
26.7803611184
 20
35.2999553138
 30
0.0
 11
37.9733072267
 21
35.2999553138
 31
0.0
  0
LINE
  5
94
330
1F
100
AcDbEntity
  8
0
  6
Continuous
 62
     7
370
    25
100
AcDbLine
 10
26.7803611184
 20
30.3924780257
 30
0.0
 11
37.9733072267
 21
30.3924780257
 31
0.0
  0
LINE
  5
95
330
1F
100
AcDbEntity
  8
0
  6
Continuous
 62
     7
370
    25
100
AcDbLine
 10
26.7803611184
 20
45.11490989
 30
0.0
 11
37.9733072267
 21
45.11490989
 31
0.0
  0
LINE
  5
96
330
1F
100
AcDbEntity
  8
0
  6
Continuous
 62
     7
370
    25
100
AcDbLine
 10
26.7803611184
 20
50.0223871781
 30
0.0
 11
37.9733072267
 21
50.0223871781
 31
0.0
  0
SPLINE
  5
97
330
1F
100
AcDbEntity
  8
0
  6
Continuous
 62
     7
370
    25
100
AcDbSpline
210
0.0
220
0.0
230
1.0
 70
     8
 71
     3
 72
    15
 73
    11
 74
     0
 42
0.00000001
 43
0.00000001
 40
0.0
 40
0.0
 40
0.0
 40
0.0
 40
0.0081667445812695
 40
0.3321939991490083
 40
0.4756279600585602
 40
0.6866830973284899
 40
0.8457435502264811
 40
0.8967566214763185
 40
0.9909540928118029
 40
1.0
 40
1.0
 40
1.0
 40
1.0
 10
52.21634098797458
 20
67.55743260188086
 30
0.0
 10
52.2158534538317
 20
67.55742992553509
 30
0.0
 10
52.19602230629962
 20
67.55732106134823
 30
0.0
 10
52.16774152629036
 20
67.54777504907885
 30
0.0
 10
52.12991222780153
 20
67.5104126658243
 30
0.0
 10
52.10332833123404
 20
67.46554715108962
 30
0.0
 10
52.08615850747907
 20
67.40767085151272
 30
0.0
 10
52.0783415112626
 20
67.35699481154079
 30
0.0
 10
52.07634582482672
 20
67.32830053202078
 30
0.0
 10
52.07628086087593
 20
67.30911370046529
 30
0.0
 10
52.07627516890926
 20
67.30743260188086
 30
0.0
  0
LINE
  5
98
330
1F
100
AcDbEntity
  8
0
  6
Continuous
 62
     7
370
    25
100
AcDbLine
 10
52.216340988
 20
67.5574326019
 30
0.0
 11
62.4143800152
 21
67.5574326019
 31
0.0
  0
SPLINE
  5
99
330
1F
100
AcDbEntity
  8
0
  6
Continuous
 62
     7
370
    25
100
AcDbSpline
210
0.0
220
0.0
230
1.0
 70
     8
 71
     3
 72
    15
 73
    11
 74
     0
 42
0.00000001
 43
0.00000001
 40
0.0
 40
0.0
 40
0.0
 40
0.0
 40
0.0090459071881971
 40
0.1032433785236875
 40
0.1542564497735192
 40
0.3133169026715101
 40
0.5243720399414421
 40
0.66780600085099
 40
0.9918332554187291
 40
1.0
 40
1.0
 40
1.0
 40
1.0
 10
62.55444583422548
 20
67.30743260188086
 30
0.0
 10
62.55444014225881
 20
67.30911370046529
 30
0.0
 10
62.55437517830801
 20
67.32830053202079
 30
0.0
 10
62.55237949187214
 20
67.35699481154082
 30
0.0
 10
62.54456249565568
 20
67.4076708515127
 30
0.0
 10
62.5273926719007
 20
67.46554715108964
 30
0.0
 10
62.50080877533322
 20
67.5104126658243
 30
0.0
 10
62.46297947684439
 20
67.54777504907885
 30
0.0
 10
62.43469869683511
 20
67.55732106134832
 30
0.0
 10
62.41486754930305
 20
67.55742992553509
 30
0.0
 10
62.41438001516016
 20
67.55743260188086
 30
0.0
  0
LINE
  5
9A
330
1F
100
AcDbEntity
  8
0
  6
Continuous
 62
     7
370
    25
100
AcDbLine
 10
62.5544458342
 20
67.3074326019
 30
0.0
 11
52.0762751689
 21
67.3074326019
 31
0.0
  0
LINE
  5
9B
330
1F
100
AcDbEntity
  8
0
  6
Continuous
 62
     7
370
    25
100
AcDbLine
 10
52.0762751689
 20
67.3074326019
 30
0.0
 11
52.0762751689
 21
66.7074326019
 31
0.0
  0
LINE
  5
9C
330
1F
100
AcDbEntity
  8
0
  6
Continuous
 62
     7
370
    25
100
AcDbLine
 10
62.5544458342
 20
66.7074326019
 30
0.0
 11
62.5544458342
 21
67.3074326019
 31
0.0
  0
LINE
  5
9D
330
1F
100
AcDbEntity
  8
0
  6
Continuous
 62
     7
370
    25
100
AcDbLine
 10
52.0762751689
 20
66.7074326019
 30
0.0
 11
62.5544458342
 21
66.7074326019
 31
0.0
  0
LINE
  5
9E
330
1F
100
AcDbEntity
  8
0
  6
Continuous
 62
     7
370
    25
100
AcDbLine
 10
51.8381349265
 20
67.3074326019
 30
0.0
 11
52.0762751689
 21
67.3074326019
 31
0.0
  0
SPLINE
  5
9F
330
1F
100
AcDbEntity
  8
0
  6
Continuous
 62
     7
370
    25
100
AcDbSpline
210
0.0
220
0.0
230
1.0
 70
     8
 71
     3
 72
    15
 73
    11
 74
     0
 42
0.00000001
 43
0.00000001
 40
0.0
 40
0.0
 40
0.0
 40
0.0
 40
0.0089557228015919
 40
0.0999003359608148
 40
0.153163246058169
 40
0.3125636920784848
 40
0.5249666935695
 40
0.6689893599352452
 40
0.9919152533810159
 40
1.0
 40
1.0
 40
1.0
 40
1.0
 10
51.83813492651571
 20
67.30743260188086
 30
0.0
 10
51.83815068209431
 20
67.30911372745378
 30
0.0
 10
51.83832643425087
 20
67.32786654207823
 30
0.0
 10
51.84375545027039
 20
67.35662877118568
 30
0.0
 10
51.86529093397771
 20
67.40751584465403
 30
0.0
 10
51.91299636224254
 20
67.46565149478667
 30
0.0
 10
51.98538730723444
 20
67.5103593679701
 30
0.0
 10
52.08730641925223
 20
67.54764119143182
 30
0.0
 10
52.16266151070668
 20
67.55732034626948
 30
0.0
 10
52.21506115643044
 20
67.55742992547117
 30
0.0
 10
52.21634098797458
 20
67.55743260188086
 30
0.0
  0
LINE
  5
A0
330
1F
100
AcDbEntity
  8
0
  6
Continuous
 62
     7
370
    25
100
AcDbLine
 10
62.5544458342
 20
67.3074326019
 30
0.0
 11
62.7925860766
 21
67.3074326019
 31
0.0
  0
SPLINE
  5
A1
330
1F
100
AcDbEntity
  8
0
  6
Continuous
 62
     7
370
    25
100
AcDbSpline
210
0.0
220
0.0
230
1.0
 70
     8
 71
     3
 72
    15
 73
    11
 74
     0
 42
0.00000001
 43
0.00000001
 40
0.0
 40
0.0
 40
0.0
 40
0.0
 40
0.0080847466189818
 40
0.3310106400647568
 40
0.4750333064304975
 40
0.6874363079215144
 40
0.846836753941831
 40
0.9000996640391853
 40
0.991044277198408
 40
1.0
 40
1.0
 40
1.0
 40
1.0
 10
62.41438001516016
 20
67.55743260188086
 30
0.0
 10
62.41565984670429
 20
67.55742992547118
 30
0.0
 10
62.46805949242809
 20
67.55732034626938
 30
0.0
 10
62.5434145838825
 20
67.54764119143184
 30
0.0
 10
62.64533369590031
 20
67.5103593679701
 30
0.0
 10
62.7177246408922
 20
67.46565149478666
 30
0.0
 10
62.76543006915703
 20
67.40751584465401
 30
0.0
 10
62.78696555286434
 20
67.3566287711857
 30
0.0
 10
62.79239456888387
 20
67.32786654207825
 30
0.0
 10
62.79257032104042
 20
67.30911372745376
 30
0.0
 10
62.79258607661903
 20
67.30743260188086
 30
0.0
  0
LINE
  5
A2
330
1F
100
AcDbEntity
  8
0
  6
Continuous
 62
     7
370
    25
100
AcDbLine
 10
51.8381349265
 20
66.7074326019
 30
0.0
 11
51.8381349265
 21
67.3074326019
 31
0.0
  0
LINE
  5
A3
330
1F
100
AcDbEntity
  8
0
  6
Continuous
 62
     7
370
    25
100
AcDbLine
 10
52.0762751689
 20
66.7074326019
 30
0.0
 11
51.8381349265
 21
66.7074326019
 31
0.0
  0
LINE
  5
A4
330
1F
100
AcDbEntity
  8
0
  6
Continuous
 62
     7
370
    25
100
AcDbLine
 10
62.7925860766
 20
67.3074326019
 30
0.0
 11
62.7925860766
 21
66.7074326019
 31
0.0
  0
LINE
  5
A5
330
1F
100
AcDbEntity
  8
0
  6
Continuous
 62
     7
370
    25
100
AcDbLine
 10
62.7925860766
 20
66.7074326019
 30
0.0
 11
62.5544458342
 21
66.7074326019
 31
0.0
  0
LINE
  5
A6
330
1F
100
AcDbEntity
  8
0
  6
Continuous
 62
     7
370
    25
100
AcDbLine
 10
51.5653605016
 20
67.5574326019
 30
0.0
 11
51.5653605016
 21
67.3074326019
 31
0.0
  0
LINE
  5
A7
330
1F
100
AcDbEntity
  8
0
  6
Continuous
 62
     7
370
    25
100
AcDbLine
 10
51.8381349265
 20
67.3074326019
 30
0.0
 11
51.5653605016
 21
67.3074326019
 31
0.0
  0
LINE
  5
A8
330
1F
100
AcDbEntity
  8
0
  6
Continuous
 62
     7
370
    25
100
AcDbLine
 10
51.5653605016
 20
67.5574326019
 30
0.0
 11
52.216340988
 21
67.5574326019
 31
0.0
  0
LINE
  5
A9
330
1F
100
AcDbEntity
  8
0
  6
Continuous
 62
     7
370
    25
100
AcDbLine
 10
51.3153605016
 20
67.3074326019
 30
0.0
 11
51.5653605016
 21
67.3074326019
 31
0.0
  0
ARC
  5
AA
330
1F
100
AcDbEntity
  8
0
  6
Continuous
 62
     7
370
    25
100
AcDbCircle
 10
51.5653605016
 20
67.3074326019
 30
0.0
 40
0.25
100
AcDbArc
 50
90.0
 51
180.0
  0
LINE
  5
AB
330
1F
100
AcDbEntity
  8
0
  6
Continuous
 62
     7
370
    25
100
AcDbLine
 10
51.3153605016
 20
66.7074326019
 30
0.0
 11
51.3153605016
 21
67.3074326019
 31
0.0
  0
LINE
  5
AC
330
1F
100
AcDbEntity
  8
0
  6
Continuous
 62
     7
370
    25
100
AcDbLine
 10
51.5653605016
 20
67.3074326019
 30
0.0
 11
51.5653605016
 21
66.7074326019
 31
0.0
  0
LINE
  5
AD
330
1F
100
AcDbEntity
  8
0
  6
Continuous
 62
     7
370
    25
100
AcDbLine
 10
51.5653605016
 20
66.7074326019
 30
0.0
 11
51.3153605016
 21
66.7074326019
 31
0.0
  0
LINE
  5
AE
330
1F
100
AcDbEntity
  8
0
  6
Continuous
 62
     7
370
    25
100
AcDbLine
 10
51.8381349265
 20
66.7074326019
 30
0.0
 11
51.5653605016
 21
66.7074326019
 31
0.0
  0
LINE
  5
AF
330
1F
100
AcDbEntity
  8
0
  6
Continuous
 62
     7
370
    25
100
AcDbLine
 10
63.0653605016
 20
67.3074326019
 30
0.0
 11
63.0653605016
 21
67.5574326019
 31
0.0
  0
LINE
  5
B0
330
1F
100
AcDbEntity
  8
0
  6
Continuous
 62
     7
370
    25
100
AcDbLine
 10
63.0653605016
 20
67.3074326019
 30
0.0
 11
62.7925860766
 21
67.3074326019
 31
0.0
  0
LINE
  5
B1
330
1F
100
AcDbEntity
  8
0
  6
Continuous
 62
     7
370
    25
100
AcDbLine
 10
62.4143800152
 20
67.5574326019
 30
0.0
 11
63.0653605016
 21
67.5574326019
 31
0.0
  0
LINE
  5
B2
330
1F
100
AcDbEntity
  8
0
  6
Continuous
 62
     7
370
    25
100
AcDbLine
 10
63.0653605016
 20
66.7074326019
 30
0.0
 11
63.0653605016
 21
67.3074326019
 31
0.0
  0
LINE
  5
B3
330
1F
100
AcDbEntity
  8
0
  6
Continuous
 62
     7
370
    25
100
AcDbLine
 10
63.0653605016
 20
67.3074326019
 30
0.0
 11
63.3153605016
 21
67.3074326019
 31
0.0
  0
LINE
  5
B4
330
1F
100
AcDbEntity
  8
0
  6
Continuous
 62
     7
370
    25
100
AcDbLine
 10
63.3153605016
 20
67.3074326019
 30
0.0
 11
63.3153605016
 21
66.7074326019
 31
0.0
  0
LINE
  5
B5
330
1F
100
AcDbEntity
  8
0
  6
Continuous
 62
     7
370
    25
100
AcDbLine
 10
63.3153605016
 20
66.7074326019
 30
0.0
 11
63.0653605016
 21
66.7074326019
 31
0.0
  0
ARC
  5
B6
330
1F
100
AcDbEntity
  8
0
  6
Continuous
 62
     7
370
    25
100
AcDbCircle
 10
63.0653605016
 20
67.3074326019
 30
0.0
 40
0.25
100
AcDbArc
 50
0.0
 51
90.0
  0
LINE
  5
B7
330
1F
100
AcDbEntity
  8
0
  6
Continuous
 62
     7
370
    25
100
AcDbLine
 10
63.0653605016
 20
66.7074326019
 30
0.0
 11
62.7925860766
 21
66.7074326019
 31
0.0
  0
LINE
  5
B8
330
1F
100
AcDbEntity
  8
0
  6
Continuous
 62
     7
370
    25
100
AcDbLine
 10
62.3153605016
 20
67.5574326019
 30
0.0
 11
62.3153605016
 21
67.5674326019
 31
0.0
  0
LINE
  5
B9
330
1F
100
AcDbEntity
  8
0
  6
Continuous
 62
     7
370
    25
100
AcDbLine
 10
52.3153605016
 20
67.5674326019
 30
0.0
 11
62.3153605016
 21
67.5674326019
 31
0.0
  0
LINE
  5
BA
330
1F
100
AcDbEntity
  8
0
  6
Continuous
 62
     7
370
    25
100
AcDbLine
 10
52.3153605016
 20
67.5574326019
 30
0.0
 11
52.3153605016
 21
67.5674326019
 31
0.0
  0
LINE
  5
BB
330
1F
100
AcDbEntity
  8
0
  6
Continuous
 62
     7
370
    25
100
AcDbLine
 10
55.3153605016
 20
50.7074326019
 30
0.0
 11
64.3153605016
 21
50.7074326019
 31
0.0
  0
LINE
  5
BC
330
1F
100
AcDbEntity
  8
0
  6
Continuous
 62
     7
370
    25
100
AcDbLine
 10
55.3153605016
 20
50.7452495257
 30
0.0
 11
55.3153605016
 21
50.7074326019
 31
0.0
  0
SPLINE
  5
BD
330
1F
100
AcDbEntity
  8
0
  6
Continuous
 62
     7
370
    25
100
AcDbSpline
210
0.0
220
0.0
230
1.0
 70
     8
 71
     3
 72
     9
 73
     5
 74
     0
 42
0.00000001
 43
0.00000001
 40
0.0
 40
0.0
 40
0.0
 40
0.0
 40
0.4875141023677128
 40
0.9999999999999999
 40
0.9999999999999999
 40
0.9999999999999999
 40
0.9999999999999999
 10
55.15941525114017
 20
50.70743260188093
 30
0.0
 10
55.18572182506276
 20
50.70915994785263
 30
0.0
 10
55.23968246701101
 20
50.71270311914411
 30
0.0
 10
55.28971799770576
 20
50.73422160509342
 30
0.0
 10
55.31536050156737
 20
50.74524952568085
 30
0.0
  0
SPLINE
  5
BE
330
1F
100
AcDbEntity
  8
0
  6
Continuous
 62
     7
370
    25
100
AcDbSpline
210
0.0
220
0.0
230
1.0
 70
     8
 71
     3
 72
    17
 73
    13
 74
     0
 42
0.00000001
 43
0.00000001
 40
0.0
 40
0.0
 40
0.0
 40
0.0
 40
0.3241697628029873
 40
0.542275846362072
 40
0.689509052693928
 40
0.7894036290694506
 40
0.8577090008137827
 40
0.9049823971474139
 40
0.9551712229700868
 40
0.9753097783197817
 40
0.9919572060138849
 40
1.0
 40
1.0
 40
1.0
 40
1.0
 10
52.84081361748521
 20
58.7074326018785
 30
0.0
 10
52.98352897750239
 20
57.79481909927282
 30
0.0
 10
53.22226528644436
 20
56.26818609301148
 30
0.0
 10
53.60185248089601
 20
54.34141319073051
 30
0.0
 10
53.91098668924308
 20
53.05377771979774
 30
0.0
 10
54.1671002174432
 20
52.194625753076
 30
0.0
 10
54.38141122033819
 20
51.62115786469859
 30
0.0
 10
54.5846454413661
 20
51.19962571066863
 30
0.0
 10
54.7691907059087
 20
50.91913316787319
 30
0.0
 10
54.95526179227684
 20
50.76358449929254
 30
0.0
 10
55.07047239153275
 20
50.71297390009504
 30
0.0
 10
55.13756119700565
 20
50.7087941482904
 30
0.0
 10
55.15941525114017
 20
50.70743260188093
 30
0.0
  0
LINE
  5
BF
330
1F
100
AcDbEntity
  8
0
  6
Continuous
 62
     7
370
    25
100
AcDbLine
 10
52.8408136175
 20
58.7074326019
 30
0.0
 11
64.7653605016
 21
58.7074326019
 31
0.0
  0
LINE
  5
C0
330
1F
100
AcDbEntity
  8
0
  6
Continuous
 62
     7
370
    25
100
AcDbLine
 10
53.6010243732
 20
59.7021761798
 30
0.0
 11
52.8408136175
 21
58.7074326019
 31
0.0
  0
LINE
  5
C1
330
1F
100
AcDbEntity
  8
0
  6
Continuous
 62
     7
370
    25
100
AcDbLine
 10
52.0915583272
 20
66.7074326019
 30
0.0
 11
50.3634196632
 21
59.7021761798
 31
0.0
  0
LINE
  5
C2
330
1F
100
AcDbEntity
  8
0
  6
Continuous
 62
     7
370
    25
100
AcDbLine
 10
62.5544458342
 20
66.7074326018
 30
0.0
 11
52.0915583272
 21
66.7074326019
 31
0.0
  0
SPLINE
  5
C3
330
1F
100
AcDbEntity
  8
0
  6
Continuous
 62
     7
370
    25
100
AcDbSpline
210
0.0
220
0.0
230
1.0
 70
     8
 71
     3
 72
    14
 73
    10
 74
     0
 42
0.00000001
 43
0.00000001
 40
0.0
 40
0.0
 40
0.0
 40
0.0
 40
0.1576095309202821
 40
0.3152382602707094
 40
0.4726926441579496
 40
0.6301650083177254
 40
0.7907313191165902
 40
0.9513050385928076
 40
1.0
 40
1.0
 40
1.0
 40
1.0
 10
50.81536050156738
 20
50.70743260188087
 30
0.0
 10
50.74878948678534
 20
50.92093439035827
 30
0.0
 10
50.6156393482004
 20
51.34796397398378
 30
0.0
 10
50.28707238644972
 20
51.93321105284009
 30
0.0
 10
49.87368274571769
 20
52.45536559366251
 30
0.0
 10
49.37800782677305
 20
52.90434372108238
 30
0.0
 10
48.81171812148854
 20
53.26362545288876
 30
0.0
 10
48.33546746509551
 20
53.46819163198995
 30
0.0
 10
48.05527289690274
 20
53.54898618034125
 30
0.0
 10
47.99007411212972
 20
53.56778635338802
 30
0.0
  0
LINE
  5
C4
330
1F
100
AcDbEntity
  8
0
  6
Continuous
 62
     7
370
    25
100
AcDbLine
 10
47.9900741121
 20
53.5677863534
 30
0.0
 11
42.2103172623
 21
55.1364077939
 31
0.0
  0
SPLINE
  5
C5
330
1F
100
AcDbEntity
  8
0
  6
Continuous
 62
     7
370
    25
100
AcDbSpline
210
0.0
220
0.0
230
1.0
 70
     8
 71
     3
 72
    11
 73
     7
 74
     0
 42
0.00000001
 43
0.00000001
 40
0.0
 40
0.0
 40
0.0
 40
0.0
 40
0.2488466353289361
 40
0.4976946020535204
 40
0.7488461225871278
 40
1.0
 40
1.0
 40
1.0
 40
1.0
 10
35.13992364003072
 20
56.45960829485641
 30
0.0
 10
35.73435968916698
 20
56.39008391836278
 30
0.0
 10
36.92323496783037
 20
56.2510347934016
 30
0.0
 10
38.69795963853942
 20
55.95070605527632
 30
0.0
 10
40.46454028028179
 20
55.58879643702117
 30
0.0
 10
41.62838978130147
 20
55.28720447995661
 30
0.0
 10
42.21031726227445
 20
55.13640779387089
 30
0.0
  0
LINE
  5
C6
330
1F
100
AcDbEntity
  8
0
  6
Continuous
 62
     7
370
    25
100
AcDbLine
 10
35.13992364
 20
56.4596082949
 30
0.0
 11
35.13992364
 21
59.7021761799
 31
0.0
  0
LINE
  5
C7
330
1F
100
AcDbEntity
  8
0
  6
Continuous
 62
     7
370
    25
100
AcDbLine
 10
35.13992364
 20
59.7021761799
 30
0.0
 11
53.6010243732
 21
59.7021761798
 31
0.0
  0
LINE
  5
C8
330
1F
100
AcDbEntity
  8
0
  6
Continuous
 62
     7
370
    25
100
AcDbLine
 10
55.1594152511
 20
50.7074326019
 30
0.0
 11
50.8153605016
 21
50.7074326019
 31
0.0
  0
LINE
  5
C9
330
1F
100
AcDbEntity
  8
0
  6
Continuous
 62
     7
370
    25
100
AcDbLine
 10
55.3153605016
 20
50.7452495257
 30
0.0
 11
55.3085611437
 21
50.7074326019
 31
0.0
  0
LINE
  5
CA
330
1F
100
AcDbEntity
  8
0
  6
Continuous
 62
     7
370
    25
100
AcDbLine
 10
55.3153605016
 20
50.7074326019
 30
0.0
 11
55.3085611437
 21
50.7074326019
 31
0.0
  0
LINE
  5
CB
330
1F
100
AcDbEntity
  8
0
  6
Continuous
 62
     7
370
    25
100
AcDbLine
 10
55.3085611437
 20
50.7074326019
 30
0.0
 11
55.1594152511
 21
50.7074326019
 31
0.0
  0
LINE
  5
CC
330
1F
100
AcDbEntity
  8
0
  6
Continuous
 62
     7
370
    25
100
AcDbLine
 10
17.3153605016
 20
68.7074326019
 30
0.0
 11
35.13992364
 21
68.7074326019
 31
0.0
  0
LINE
  5
CD
330
1F
100
AcDbEntity
  8
0
  6
Continuous
 62
     7
370
    25
100
AcDbLine
 10
35.13992364
 20
68.7074326019
 30
0.0
 11
35.13992364
 21
59.7021761799
 31
0.0
  0
LINE
  5
CE
330
1F
100
AcDbEntity
  8
0
  6
Continuous
 62
     7
370
    25
100
AcDbLine
 10
30.4236926438
 20
56.7074326019
 30
0.0
 11
22.3153605016
 21
56.7074326019
 31
0.0
  0
ARC
  5
CF
330
1F
100
AcDbEntity
  8
0
  6
Continuous
 62
     7
370
    25
100
AcDbCircle
 10
22.3153605016
 20
61.7074326019
 30
0.0
 40
5.0
100
AcDbArc
 50
180.0
 51
270.0
  0
LINE
  5
D0
330
1F
100
AcDbEntity
  8
0
  6
Continuous
 62
     7
370
    25
100
AcDbLine
 10
17.3153605016
 20
61.7074326019
 30
0.0
 11
17.3153605016
 21
68.7074326019
 31
0.0
  0
ARC
  5
D1
330
1F
100
AcDbEntity
  8
0
  6
Continuous
 62
     7
370
    25
100
AcDbCircle
 10
30.4236926438
 20
11.7073033477
 30
0.0
 40
45.00012925418374
100
AcDbArc
 50
83.9840777705
 51
90.0
  0
LINE
  5
D2
330
1F
100
AcDbEntity
  8
0
  6
Continuous
 62
     7
370
    25
100
AcDbLine
 10
37.3153605016
 20
68.7074326019
 30
0.0
 11
37.3153605016
 21
66.7263881253
 31
0.0
  0
ARC
  5
D3
330
1F
100
AcDbEntity
  8
0
  6
Continuous
 62
     7
370
    25
100
AcDbCircle
 10
43.3153605016
 20
66.7263881253
 30
0.0
 40
6.000000000000003
100
AcDbArc
 50
180.0
 51
275.5801667845
  0
ARC
  5
D4
330
1F
100
AcDbEntity
  8
0
  6
Continuous
 62
     7
370
    25
100
AcDbCircle
 10
42.9264069373
 20
70.7074326019
 30
0.0
 40
10.00000000000847
100
AcDbArc
 50
275.5801667845
 51
336.4218215217
  0
LINE
  5
D5
330
1F
100
AcDbEntity
  8
0
  6
Continuous
 62
     7
370
    25
100
AcDbLine
 10
35.13992364
 20
68.7074326019
 30
0.0
 11
37.3153605016
 21
68.7074326019
 31
0.0
  0
LINE
  5
D6
330
1F
100
AcDbEntity
  8
0
  6
Continuous
 62
     7
370
    25
100
AcDbLine
 10
50.8153605016
 20
50.7074326019
 30
0.0
 11
50.3153605016
 21
50.7074326019
 31
0.0
  0
LINE
  5
D7
330
1F
100
AcDbEntity
  8
0
  6
Continuous
 62
     7
370
    25
100
AcDbLine
 10
52.0762751689
 20
66.7074326018
 30
0.0
 11
52.0915583272
 21
66.7074326019
 31
0.0
  0
SPLINE
  5
D8
330
1F
100
AcDbEntity
  8
0
  6
Continuous
 62
     7
370
    25
100
AcDbSpline
210
0.0
220
0.0
230
1.0
 70
     8
 71
     3
 72
    10
 73
     6
 74
     0
 42
0.00000001
 43
0.00000001
 40
0.0
 40
0.0
 40
0.0
 40
0.0
 40
0.5
 40
0.5
 40
1.0
 40
1.0
 40
1.0
 40
1.0
 10
52.69655834805036
 20
28.88515400714102
 30
0.0
 10
53.44723704754618
 20
28.67822395360833
 30
0.0
 10
54.21151799176883
 20
28.50641834323463
 30
0.0
 10
55.76609272585638
 20
28.26946783670326
 30
0.0
 10
56.54166769337252
 20
28.20743260188086
 30
0.0
 10
57.31536050156737
 20
28.20743260188086
 30
0.0
  0
LINE
  5
D9
330
1F
100
AcDbEntity
  8
0
  6
Continuous
 62
     7
370
    25
100
AcDbLine
 10
52.6965583481
 20
32.241036062
 30
0.0
 11
52.6965583481
 21
28.8851540071
 31
0.0
  0
SPLINE
  5
DA
330
1F
100
AcDbEntity
  8
0
  6
Continuous
 62
     7
370
    25
100
AcDbSpline
210
0.0
220
0.0
230
1.0
 70
     8
 71
     3
 72
     8
 73
     4
 74
     0
 42
0.00000001
 43
0.00000001
 40
0.0
 40
0.0
 40
0.0
 40
0.0
 40
1.0
 40
1.0
 40
1.0
 40
1.0
 10
52.69655834805035
 20
32.24103606202587
 30
0.0
 10
52.90174417059364
 20
32.29759702915009
 30
0.0
 10
53.10796737130094
 20
32.35153710056392
 30
0.0
 10
53.31536050156738
 20
32.40252139030689
 30
0.0
  0
LINE
  5
DB
330
1F
100
AcDbEntity
  8
0
  6
Continuous
 62
     7
370
    25
100
AcDbLine
 10
53.3153605016
 20
32.4025213903
 30
0.0
 11
53.3153605016
 21
36.2074326019
 31
0.0
  0
LINE
  5
DC
330
1F
100
AcDbEntity
  8
0
  6
Continuous
 62
     7
370
    25
100
AcDbLine
 10
53.3153605016
 20
36.2074326019
 30
0.0
 11
50.7991244246
 21
36.2074326019
 31
0.0
  0
SPLINE
  5
DD
330
1F
100
AcDbEntity
  8
0
  6
Continuous
 62
     7
370
    25
100
AcDbSpline
210
0.0
220
0.0
230
1.0
 70
     8
 71
     3
 72
     8
 73
     4
 74
     0
 42
0.00000001
 43
0.00000001
 40
0.0
 40
0.0
 40
0.0
 40
0.0
 40
1.0
 40
1.0
 40
1.0
 40
1.0
 10
50.63763909630719
 20
35.58863044836383
 30
0.0
 10
50.69420246577542
 20
35.79382498587359
 30
0.0
 10
50.74814238859667
 20
36.00004863939076
 30
0.0
 10
50.7991244245882
 20
36.20743260188086
 30
0.0
  0
LINE
  5
DE
330
1F
100
AcDbEntity
  8
0
  6
Continuous
 62
     7
370
    25
100
AcDbLine
 10
46.4930819068
 20
35.5886304484
 30
0.0
 11
50.6376390963
 21
35.5886304484
 31
0.0
  0
SPLINE
  5
DF
330
1F
100
AcDbEntity
  8
0
  6
Continuous
 62
     7
370
    25
100
AcDbSpline
210
0.0
220
0.0
230
1.0
 70
     8
 71
     3
 72
    10
 73
     6
 74
     0
 42
0.00000001
 43
0.00000001
 40
0.0
 40
0.0
 40
0.0
 40
0.0
 40
0.5
 40
0.5
 40
1.0
 40
1.0
 40
1.0
 40
1.0
 10
46.49308190682756
 20
35.58863044836385
 30
0.0
 10
46.28501323059634
 20
36.34343972141314
 30
0.0
 10
46.11461422457181
 20
37.10418610864504
 30
0.0
 10
45.87945424487296
 20
38.6423284862683
 30
0.0
 10
45.81536050156737
 20
39.41982963879312
 30
0.0
 10
45.81536050156737
 20
40.20743260188087
 30
0.0
  0
SPLINE
  5
E0
330
1F
100
AcDbEntity
  8
0
  6
Continuous
 62
     7
370
    25
100
AcDbSpline
210
0.0
220
0.0
230
1.0
 70
     8
 71
     3
 72
    12
 73
     8
 74
     0
 42
0.00000001
 43
0.00000001
 40
0.0
 40
0.0
 40
0.0
 40
0.0
 40
0.2500000000000001
 40
0.2500000000000001
 40
0.5000000000000001
 40
0.5000000000000001
 40
1.0
 40
1.0
 40
1.0
 40
1.0
 10
45.81536050156737
 20
40.20743260188087
 30
0.0
 10
45.81536050156737
 20
40.60175068255271
 30
0.0
 10
45.83135930654844
 20
40.99540972650314
 30
0.0
 10
45.89312944486283
 20
41.77494572604848
 30
0.0
 10
45.93887156916443
 20
42.1618989141739
 30
0.0
 10
46.11554171651127
 20
43.31528547702791
 30
0.0
 10
46.28579678199157
 20
44.07426796623294
 30
0.0
 10
46.49308190682756
 20
44.82623475539788
 30
0.0
  0
LINE
  5
E1
330
1F
100
AcDbEntity
  8
0
  6
Continuous
 62
     7
370
    25
100
AcDbLine
 10
50.6376390963
 20
44.8262347554
 30
0.0
 11
46.4930819068
 21
44.8262347554
 31
0.0
  0
SPLINE
  5
E2
330
1F
100
AcDbEntity
  8
0
  6
Continuous
 62
     7
370
    25
100
AcDbSpline
210
0.0
220
0.0
230
1.0
 70
     8
 71
     3
 72
     8
 73
     4
 74
     0
 42
0.00000001
 43
0.00000001
 40
0.0
 40
0.0
 40
0.0
 40
0.0
 40
1.0
 40
1.0
 40
1.0
 40
1.0
 10
50.7991244245882
 20
44.20743260188087
 30
0.0
 10
50.74822570766568
 20
44.41447764030986
 30
0.0
 10
50.69429157141492
 20
44.6207169699865
 30
0.0
 10
50.63763909630718
 20
44.82623475539788
 30
0.0
  0
LINE
  5
E3
330
1F
100
AcDbEntity
  8
0
  6
Continuous
 62
     7
370
    25
100
AcDbLine
 10
63.8315965785
 20
44.2074326019
 30
0.0
 11
50.7991244246
 21
44.2074326019
 31
0.0
  0
SPLINE
  5
E4
330
1F
100
AcDbEntity
  8
0
  6
Continuous
 62
     7
370
    25
100
AcDbSpline
210
0.0
220
0.0
230
1.0
 70
     8
 71
     3
 72
     8
 73
     4
 74
     0
 42
0.00000001
 43
0.00000001
 40
0.0
 40
0.0
 40
0.0
 40
0.0
 40
1.0
 40
1.0
 40
1.0
 40
1.0
 10
63.83159657854656
 20
44.20743260188093
 30
0.0
 10
63.88249281180164
 20
44.41446753728469
 30
0.0
 10
63.93642676676528
 20
44.62070730234969
 30
0.0
 10
63.99308190682756
 20
44.82623475539788
 30
0.0
  0
LINE
  5
E5
330
1F
100
AcDbEntity
  8
0
  6
Continuous
 62
     7
370
    25
100
AcDbLine
 10
68.493301529
 20
44.8262347554
 30
0.0
 11
63.9930819068
 21
44.8262347554
 31
0.0
  0
SPLINE
  5
E6
330
1F
100
AcDbEntity
  8
0
  6
Continuous
 62
     7
370
    25
100
AcDbSpline
210
0.0
220
0.0
230
1.0
 70
     8
 71
     3
 72
    14
 73
    10
 74
     0
 42
0.00000001
 43
0.00000001
 40
0.0
 40
0.0
 40
0.0
 40
0.0
 40
0.25
 40
0.25
 40
0.5
 40
0.5
 40
0.75
 40
0.75
 40
1.0
 40
1.0
 40
1.0
 40
1.0
 10
68.49330152900978
 20
35.58863044836382
 30
0.0
 10
68.70125188971555
 20
36.3430105090138
 30
0.0
 10
68.87347369840442
 20
37.1124516764793
 30
0.0
 10
69.10810882115533
 20
38.65296303742046
 30
0.0
 10
69.171052879783
 20
39.42781741742748
 30
0.0
 10
69.17099296705153
 20
40.98817837231304
 30
0.0
 10
69.10637830075943
 20
41.77863456509806
 30
0.0
 10
68.8698189613582
 20
43.32091422790653
 30
0.0
 10
68.69947382127876
 20
44.07830498110771
 30
0.0
 10
68.49330152900977
 20
44.82623475539788
 30
0.0
  0
LINE
  5
E7
330
1F
100
AcDbEntity
  8
0
  6
Continuous
 62
     7
370
    25
100
AcDbLine
 10
63.9930819068
 20
35.5886304484
 30
0.0
 11
68.493301529
 21
35.5886304484
 31
0.0
  0
SPLINE
  5
E8
330
1F
100
AcDbEntity
  8
0
  6
Continuous
 62
     7
370
    25
100
AcDbSpline
210
0.0
220
0.0
230
1.0
 70
     8
 71
     3
 72
     8
 73
     4
 74
     0
 42
0.00000001
 43
0.00000001
 40
0.0
 40
0.0
 40
0.0
 40
0.0
 40
1.0
 40
1.0
 40
1.0
 40
1.0
 10
63.99308190682755
 20
35.58863044836384
 30
0.0
 10
63.93652006339061
 20
35.79381944990065
 30
0.0
 10
63.88258004613423
 20
36.00004281596534
 30
0.0
 10
63.83159657854656
 20
36.2074326018808
 30
0.0
  0
LINE
  5
E9
330
1F
100
AcDbEntity
  8
0
  6
Continuous
 62
     7
370
    25
100
AcDbLine
 10
63.8315965785
 20
36.2074326019
 30
0.0
 11
61.3153605016
 21
36.2074326019
 31
0.0
  0
LINE
  5
EA
330
1F
100
AcDbEntity
  8
0
  6
Continuous
 62
     7
370
    25
100
AcDbLine
 10
61.3153605016
 20
32.4025213903
 30
0.0
 11
61.3153605016
 21
36.2074326019
 31
0.0
  0
SPLINE
  5
EB
330
1F
100
AcDbEntity
  8
0
  6
Continuous
 62
     7
370
    25
100
AcDbSpline
210
0.0
220
0.0
230
1.0
 70
     8
 71
     3
 72
     8
 73
     4
 74
     0
 42
0.00000001
 43
0.00000001
 40
0.0
 40
0.0
 40
0.0
 40
0.0
 40
1.0
 40
1.0
 40
1.0
 40
1.0
 10
61.31536050156737
 20
32.40252139030688
 30
0.0
 10
61.52238956490276
 20
32.35162660060606
 30
0.0
 10
61.72862958217211
 20
32.29769275124462
 30
0.0
 10
61.93416265508438
 20
32.24103606202586
 30
0.0
  0
LINE
  5
EC
330
1F
100
AcDbEntity
  8
0
  6
Continuous
 62
     7
370
    25
100
AcDbLine
 10
61.9341626551
 20
28.8851540071
 30
0.0
 11
61.9341626551
 21
32.241036062
 31
0.0
  0
SPLINE
  5
ED
330
1F
100
AcDbEntity
  8
0
  6
Continuous
 62
     7
370
    25
100
AcDbSpline
210
0.0
220
0.0
230
1.0
 70
     8
 71
     3
 72
    10
 73
     6
 74
     0
 42
0.00000001
 43
0.00000001
 40
0.0
 40
0.0
 40
0.0
 40
0.0
 40
0.5
 40
0.5
 40
1.0
 40
1.0
 40
1.0
 40
1.0
 10
57.31536050156737
 20
28.20743260188086
 30
0.0
 10
58.09094043817434
 20
28.20743260188086
 30
0.0
 10
58.86463065690075
 20
28.26971696385938
 30
0.0
 10
60.40866519923363
 20
28.50456508186641
 30
0.0
 10
61.18197387538846
 20
28.67780768899761
 30
0.0
 10
61.93416265508438
 20
28.88515400714105
 30
0.0
  0
ARC
  5
EE
330
1F
100
AcDbEntity
  8
0
  6
Continuous
 62
     7
370
    25
100
AcDbCircle
 10
58.8660918573
 20
39.6305136086
 30
0.0
 40
0.889000000000007
100
AcDbArc
 50
45.0
 51
315.0
  0
LINE
  5
EF
330
1F
100
AcDbEntity
  8
0
  6
Continuous
 62
     7
370
    25
100
AcDbLine
 10
59.4947097858
 20
40.259131537
 30
0.0
 11
59.9613201714
 21
40.7257419227
 31
0.0
  0
ARC
  5
F0
330
1F
100
AcDbEntity
  8
0
  6
Continuous
 62
     7
370
    25
100
AcDbCircle
 10
58.8660918573
 20
39.6305136086
 30
0.0
 40
1.548886735692399
100
AcDbArc
 50
45.0
 51
315.0
  0
LINE
  5
F1
330
1F
100
AcDbEntity
  8
0
  6
Continuous
 62
     7
370
    25
100
AcDbLine
 10
59.9613201714
 20
38.5352852945
 30
0.0
 11
59.4947097858
 21
39.0018956801
 31
0.0
  0
ARC
  5
F2
330
1F
100
AcDbEntity
  8
0
  6
Continuous
 62
     7
370
    25
100
AcDbCircle
 10
62.2082364536
 20
39.6305136086
 30
0.0
 40
0.8889999999999919
100
AcDbArc
 50
45.0
 51
159.0751675724
  0
LINE
  5
F3
330
1F
100
AcDbEntity
  8
0
  6
Continuous
 62
     7
370
    25
100
AcDbLine
 10
62.8368543821
 20
40.259131537
 30
0.0
 11
63.3034647677
 21
40.7257419227
 31
0.0
  0
ARC
  5
F4
330
1F
100
AcDbEntity
  8
0
  6
Continuous
 62
     7
370
    25
100
AcDbCircle
 10
62.2082364536
 20
39.6305136086
 30
0.0
 40
1.548886735692379
100
AcDbArc
 50
45.0
 51
315.0
  0
LINE
  5
F5
330
1F
100
AcDbEntity
  8
0
  6
Continuous
 62
     7
370
    25
100
AcDbLine
 10
63.3034647677
 20
38.5352852945
 30
0.0
 11
62.8368543821
 21
39.0018956801
 31
0.0
  0
ARC
  5
F6
330
1F
100
AcDbEntity
  8
0
  6
Continuous
 62
     7
370
    25
100
AcDbCircle
 10
62.2082364536
 20
39.6305136086
 30
0.0
 40
0.8890000000000073
100
AcDbArc
 50
200.9248324276
 51
315.0
  0
LINE
  5
F7
330
1F
100
AcDbEntity
  8
0
  6
Continuous
 62
     7
370
    25
100
AcDbLine
 10
61.3778662049
 20
39.3130136086
 30
0.0
 11
63.3034647677
 21
39.3130136086
 31
0.0
  0
LINE
  5
F8
330
1F
100
AcDbEntity
  8
0
  6
Continuous
 62
     7
370
    25
100
AcDbLine
 10
63.3034647677
 20
39.3130136086
 30
0.0
 11
63.3034647677
 21
39.9480136086
 31
0.0
  0
LINE
  5
F9
330
1F
100
AcDbEntity
  8
0
  6
Continuous
 62
     7
370
    25
100
AcDbLine
 10
63.3034647677
 20
39.9480136086
 30
0.0
 11
61.3778662049
 21
39.9480136086
 31
0.0
  0
LINE
  5
FA
330
1F
100
AcDbEntity
  8
0
  6
Continuous
 62
     7
370
    25
100
AcDbLine
 10
56.4136015876
 20
38.7850595843
 30
0.0
 11
56.3719512683
 21
38.7612546544
 31
0.0
  0
ELLIPSE
  5
FB
330
1F
100
AcDbEntity
  8
0
  6
Continuous
 62
     7
370
    25
100
AcDbEllipse
 10
56.0231080888
 20
39.3159371257
 30
0.0
 11
0.6784129479252599
 21
6.110667527536862E-13
 31
0.0
210
0.0
220
0.0
230
1.0
 40
0.9533039403
 41
3.470145824140265
 42
5.2524691805363
  0
LINE
  5
FC
330
1F
100
AcDbEntity
  8
0
  6
Continuous
 62
     7
370
    25
100
AcDbLine
 10
55.3809833218
 20
39.1072530107
 30
0.0
 11
54.1213291168
 21
42.6296974073
 31
0.0
  0
ELLIPSE
  5
FD
330
1F
100
AcDbEntity
  8
0
  6
Continuous
 62
     7
370
    25
100
AcDbEllipse
 10
53.5303465589
 20
42.3673581713
 30
0.0
 11
0.6519124952381503
 21
6.110667527536862E-13
 31
0.0
210
0.0
220
0.0
230
1.0
 40
0.9533023292
 41
0.4357905044354867
 42
2.70580011636152
  0
LINE
  5
FE
330
1F
100
AcDbEntity
  8
0
  6
Continuous
 62
     7
370
    25
100
AcDbLine
 10
52.9393645604
 20
42.6296985526
 30
0.0
 11
51.6799997587
 21
39.1080751509
 31
0.0
  0
ELLIPSE
  5
FF
330
1F
100
AcDbEntity
  8
0
  6
Continuous
 62
     7
370
    25
100
AcDbEllipse
 10
51.0378785747
 20
39.3167579845
 30
0.0
 11
-0.6784085062757725
 21
3.268496584496461E-13
 31
0.0
210
0.0
220
0.0
230
1.0
 40
0.9533122623
 41
1.047193771187948
 42
2.813042320199945
  0
LINE
  5
100
330
1F
100
AcDbEntity
  8
0
  6
Continuous
 62
     7
370
    25
100
AcDbLine
 10
50.6986721008
 20
38.7566701393
 30
0.0
 11
50.6470915302
 21
38.7850595843
 31
0.0
  0
LINE
  5
101
330
1F
100
AcDbEntity
  8
0
  6
Continuous
 62
     7
370
    25
100
AcDbLine
 10
50.6470915302
 20
38.7850595843
 30
0.0
 11
51.4433601898
 21
37.2668874829
 31
0.0
  0
ELLIPSE
  5
102
330
1F
100
AcDbEntity
  8
0
  6
Continuous
 62
     7
370
    25
100
AcDbEllipse
 10
51.5192090632
 20
37.3030409978
 30
0.0
 11
0.08480161849065837
 21
-2.131628207280301E-14
 31
0.0
210
0.0
220
0.0
230
1.0
 40
0.9533039403
 41
3.605240262590902
 42
5.462183310215417
  0
ELLIPSE
  5
103
330
1F
100
AcDbEntity
  8
0
  6
Continuous
 62
     7
370
    25
100
AcDbEllipse
 10
53.5303465589
 20
35.2441923773
 30
0.0
 11
2.866293551216202
 21
-1.492139745096210E-12
 31
0.0
210
0.0
220
0.0
230
1.0
 40
0.9533046568
 41
0.8210016221243784
 42
2.320591031466444
  0
ELLIPSE
  5
104
330
1F
100
AcDbEntity
  8
0
  6
Continuous
 62
     7
370
    25
100
AcDbEllipse
 10
55.5414840546
 20
37.3030409978
 30
0.0
 11
0.08480161849060863
 21
-7.105427357601002E-15
 31
0.0
210
0.0
220
0.0
230
1.0
 40
0.9533039403
 41
3.962594650556593
 42
5.81953769817726
  0
LINE
  5
105
330
1F
100
AcDbEntity
  8
0
  6
Continuous
 62
     7
370
    25
100
AcDbLine
 10
55.6173329281
 20
37.2668874829
 30
0.0
 11
56.4136015876
 21
38.7850595843
 31
0.0
  0
SPLINE
  5
106
330
1F
100
AcDbEntity
  8
0
  6
Continuous
 62
     7
370
    25
100
AcDbSpline
210
0.0
220
0.0
230
1.0
 70
     8
 71
     3
 72
    10
 73
     6
 74
     0
 42
0.00000001
 43
0.00000001
 40
0.0
 40
0.0
 40
0.0
 40
0.0
 40
0.5
 40
0.5
 40
1.0
 40
1.0
 40
1.0
 40
1.0
 10
52.26354564615818
 20
28.88515400714059
 30
0.0
 10
51.88479649876689
 20
28.67634408247433
 30
0.0
 10
51.50359122235558
 20
28.50580994272707
 30
0.0
 10
50.7343606011678
 20
28.27102413770816
 30
0.0
 10
50.34629289636948
 20
28.20743260188086
 30
0.0
 10
49.95414456939965
 20
28.20743260188086
 30
0.0
  0
SPLINE
  5
107
330
1F
100
AcDbEntity
  8
0
  6
Continuous
 62
     7
370
    25
100
AcDbSpline
210
0.0
220
0.0
230
1.0
 70
     8
 71
     3
 72
    10
 73
     6
 74
     0
 42
0.00000001
 43
0.00000001
 40
0.0
 40
0.0
 40
0.0
 40
0.0
 40
0.5
 40
0.5
 40
1.0
 40
1.0
 40
1.0
 40
1.0
 10
52.26354564615815
 20
28.88515400714105
 30
0.0
 10
52.30648345525738
 20
28.90882624705261
 30
0.0
 10
52.36992404514958
 20
28.92192023698788
 30
0.0
 10
52.52241319065843
 20
28.92200710444932
 30
0.0
 10
52.61064257986174
 20
28.90883731468996
 30
0.0
 10
52.69655834805037
 20
28.88515400714105
 30
0.0
  0
LINE
  5
108
330
1F
100
AcDbEntity
  8
0
  6
Continuous
 62
     7
370
    25
100
AcDbLine
 10
49.9541445694
 20
28.2074326019
 30
0.0
 11
57.3153605016
 21
28.2074326019
 31
0.0
  0
SPLINE
  5
109
330
1F
100
AcDbEntity
  8
0
  6
Continuous
 62
     7
370
    25
100
AcDbSpline
210
0.0
220
0.0
230
1.0
 70
     8
 71
     3
 72
    10
 73
     6
 74
     0
 42
0.00000001
 43
0.00000001
 40
0.0
 40
0.0
 40
0.0
 40
0.0
 40
0.5
 40
0.5
 40
1.0
 40
1.0
 40
1.0
 40
1.0
 10
61.93416265508438
 20
28.88515400714105
 30
0.0
 10
62.02004429759083
 20
28.90882790769701
 30
0.0
 10
62.10745350355626
 20
28.92192046487615
 30
0.0
 10
62.2600959886312
 20
28.92200687885842
 30
0.0
 10
62.32421897371357
 20
28.9088364872598
 30
0.0
 10
62.3671753569766
 20
28.88515400714105
 30
0.0
  0
SPLINE
  5
10A
330
1F
100
AcDbEntity
  8
0
  6
Continuous
 62
     7
370
    25
100
AcDbSpline
210
0.0
220
0.0
230
1.0
 70
     8
 71
     3
 72
    12
 73
     8
 74
     0
 42
0.00000001
 43
0.00000001
 40
0.0
 40
0.0
 40
0.0
 40
0.0
 40
0.2499999999999998
 40
0.2499999999999998
 40
0.4999999999999996
 40
0.4999999999999996
 40
1.0
 40
1.0
 40
1.0
 40
1.0
 10
64.6765764337351
 20
28.20743260188086
 30
0.0
 10
64.4815729537293
 20
28.20743260188086
 30
0.0
 10
64.28503829470489
 20
28.22317893190282
 30
0.0
 10
63.89561860709934
 20
28.28462395648825
 30
0.0
 10
63.70213391403909
 20
28.33021271574198
 30
0.0
 10
63.12495031528348
 20
28.50666371799858
 30
0.0
 10
62.74451453350052
 20
28.67712141996207
 30
0.0
 10
62.36717535697658
 20
28.88515400714091
 30
0.0
  0
LINE
  5
10B
330
1F
100
AcDbEntity
  8
0
  6
Continuous
 62
     7
370
    25
100
AcDbLine
 10
57.3153605016
 20
28.2074326019
 30
0.0
 11
64.6765764337
 21
28.2074326019
 31
0.0
  0
LINE
  5
10C
330
1F
100
AcDbEntity
  8
0
  6
Continuous
 62
     7
370
    25
100
AcDbLine
 10
51.3153605016
 20
47.568648534
 30
0.0
 11
51.3153605016
 21
44.2074326019
 31
0.0
  0
SPLINE
  5
10D
330
1F
100
AcDbEntity
  8
0
  6
Continuous
 62
     7
370
    25
100
AcDbSpline
210
0.0
220
0.0
230
1.0
 70
     8
 71
     3
 72
    10
 73
     6
 74
     0
 42
0.00000001
 43
0.00000001
 40
0.0
 40
0.0
 40
0.0
 40
0.0
 40
0.5
 40
0.5
 40
1.0
 40
1.0
 40
1.0
 40
1.0
 10
50.63763909630718
 20
45.25924745729009
 30
0.0
 10
50.6139637018828
 20
45.21630392638887
 30
0.0
 10
50.60087259199815
 20
45.15286148176475
 30
0.0
 10
50.60078627070987
 20
45.00038264464578
 30
0.0
 10
50.61395520465371
 20
44.91215264253851
 30
0.0
 10
50.63763909630718
 20
44.82623475539788
 30
0.0
  0
SPLINE
  5
10E
330
1F
100
AcDbEntity
  8
0
  6
Continuous
 62
     7
370
    25
100
AcDbSpline
210
0.0
220
0.0
230
1.0
 70
     8
 71
     3
 72
    12
 73
     8
 74
     0
 42
0.00000001
 43
0.00000001
 40
0.0
 40
0.0
 40
0.0
 40
0.0
 40
0.2500000000000001
 40
0.2500000000000001
 40
0.5000000000000002
 40
0.5000000000000002
 40
1.0
 40
1.0
 40
1.0
 40
1.0
 10
51.31536050156738
 20
47.56864853404859
 30
0.0
 10
51.31536050156738
 20
47.37290627116909
 30
0.0
 10
51.29951756547842
 20
47.17623966197852
 30
0.0
 10
51.23801470524074
 20
46.78697143465023
 30
0.0
 10
51.19241106419706
 20
46.59356740169732
 30
0.0
 10
51.01596004670785
 20
46.01663835044057
 30
0.0
 10
50.84556267945599
 20
45.63638891723755
 30
0.0
 10
50.63763909630718
 20
45.25924745729009
 30
0.0
  0
SPLINE
  5
10F
330
1F
100
AcDbEntity
  8
0
  6
Continuous
 62
     7
370
    25
100
AcDbSpline
210
0.0
220
0.0
230
1.0
 70
     8
 71
     3
 72
    10
 73
     6
 74
     0
 42
0.00000001
 43
0.00000001
 40
0.0
 40
0.0
 40
0.0
 40
0.0
 40
0.5
 40
0.5
 40
1.0
 40
1.0
 40
1.0
 40
1.0
 10
50.63763909630712
 20
35.58863044836386
 30
0.0
 10
50.61396370188274
 20
35.50274338656141
 30
0.0
 10
50.60087259199815
 20
35.41533617758127
 30
0.0
 10
50.60078627070988
 20
35.26269973498754
 30
0.0
 10
50.61395520465371
 20
35.19857669004195
 30
0.0
 10
50.63763909630718
 20
35.15561774647164
 30
0.0
  0
LINE
  5
110
330
1F
100
AcDbEntity
  8
0
  6
Continuous
 62
     7
370
    25
100
AcDbLine
 10
50.6376390963
 20
35.1556177465
 30
0.0
 11
46.4930819068
 21
35.1556177465
 31
0.0
  0
SPLINE
  5
111
330
1F
100
AcDbEntity
  8
0
  6
Continuous
 62
     7
370
    25
100
AcDbSpline
210
0.0
220
0.0
230
1.0
 70
     8
 71
     3
 72
    10
 73
     6
 74
     0
 42
0.00000001
 43
0.00000001
 40
0.0
 40
0.0
 40
0.0
 40
0.0
 40
0.5
 40
0.5
 40
1.0
 40
1.0
 40
1.0
 40
1.0
 10
46.49308190682756
 20
35.58863044836385
 30
0.0
 10
46.51675580738351
 20
35.50274880585739
 30
0.0
 10
46.52984836456265
 20
35.41533959989196
 30
0.0
 10
46.52993477854493
 20
35.26269711481704
 30
0.0
 10
46.51676438694631
 20
35.19857412973467
 30
0.0
 10
46.49308190682756
 20
35.15561774647164
 30
0.0
  0
SPLINE
  5
112
330
1F
100
AcDbEntity
  8
0
  6
Continuous
 62
     7
370
    25
100
AcDbSpline
210
0.0
220
0.0
230
1.0
 70
     8
 71
     3
 72
    10
 73
     6
 74
     0
 42
0.00000001
 43
0.00000001
 40
0.0
 40
0.0
 40
0.0
 40
0.0
 40
0.5
 40
0.5
 40
1.0
 40
1.0
 40
1.0
 40
1.0
 10
46.49308190682756
 20
45.25924745729009
 30
0.0
 10
46.51675414673912
 20
45.21630964819086
 30
0.0
 10
46.52984813667438
 20
45.15286905829866
 30
0.0
 10
46.52993500413582
 20
45.00037991278982
 30
0.0
 10
46.51676521437647
 20
44.9121505235865
 30
0.0
 10
46.49308190682756
 20
44.82623475539788
 30
0.0
  0
LINE
  5
113
330
1F
100
AcDbEntity
  8
0
  6
Continuous
 62
     7
370
    25
100
AcDbLine
 10
46.4930819068
 20
45.2592474573
 30
0.0
 11
50.6376390963
 21
45.2592474573
 31
0.0
  0
SPLINE
  5
114
330
1F
100
AcDbEntity
  8
0
  6
Continuous
 62
     7
370
    25
100
AcDbSpline
210
0.0
220
0.0
230
1.0
 70
     8
 71
     3
 72
    10
 73
     6
 74
     0
 42
0.00000001
 43
0.00000001
 40
0.0
 40
0.0
 40
0.0
 40
0.0
 40
0.5
 40
0.5
 40
1.0
 40
1.0
 40
1.0
 40
1.0
 10
61.93416265508438
 20
32.24103606202584
 30
0.0
 10
62.02004971688692
 20
32.21736066760143
 30
0.0
 10
62.10745692586713
 20
32.20426955771681
 30
0.0
 10
62.260093368461
 20
32.20418323642858
 30
0.0
 10
62.32421641340675
 20
32.21735217037253
 30
0.0
 10
62.36717535697699
 20
32.24103606202608
 30
0.0
  0
LINE
  5
115
330
1F
100
AcDbEntity
  8
0
  6
Continuous
 62
     7
370
    25
100
AcDbLine
 10
62.367175357
 20
32.241036062
 30
0.0
 11
62.367175357
 21
28.8851540071
 31
0.0
  0
SPLINE
  5
116
330
1F
100
AcDbEntity
  8
0
  6
Continuous
 62
     7
370
    25
100
AcDbSpline
210
0.0
220
0.0
230
1.0
 70
     8
 71
     3
 72
    10
 73
     6
 74
     0
 42
0.00000001
 43
0.00000001
 40
0.0
 40
0.0
 40
0.0
 40
0.0
 40
0.5
 40
0.5
 40
1.0
 40
1.0
 40
1.0
 40
1.0
 10
63.99308190682758
 20
44.82623475539788
 30
0.0
 10
64.01675730125196
 20
44.91212181720033
 30
0.0
 10
64.0298484111366
 20
44.99952902618043
 30
0.0
 10
64.02993473242488
 20
45.15216546877416
 30
0.0
 10
64.01676579848103
 20
45.21628851371975
 30
0.0
 10
63.99308190682758
 20
45.25924745729007
 30
0.0
  0
LINE
  5
117
330
1F
100
AcDbEntity
  8
0
  6
Continuous
 62
     7
370
    25
100
AcDbLine
 10
63.9930819068
 20
45.2592474573
 30
0.0
 11
68.493301529
 21
45.2592474573
 31
0.0
  0
SPLINE
  5
118
330
1F
100
AcDbEntity
  8
0
  6
Continuous
 62
     7
370
    25
100
AcDbSpline
210
0.0
220
0.0
230
1.0
 70
     8
 71
     3
 72
    10
 73
     6
 74
     0
 42
0.00000001
 43
0.00000001
 40
0.0
 40
0.0
 40
0.0
 40
0.0
 40
0.5
 40
0.5
 40
1.0
 40
1.0
 40
1.0
 40
1.0
 10
68.49330152900977
 20
45.25924745729009
 30
0.0
 10
68.46962613458538
 20
45.21630392638887
 30
0.0
 10
68.45653502470074
 20
45.15286148176475
 30
0.0
 10
68.45644870341248
 20
45.00038264464578
 30
0.0
 10
68.46961763735631
 20
44.9121526425385
 30
0.0
 10
68.49330152900977
 20
44.82623475539788
 30
0.0
  0
SPLINE
  5
119
330
1F
100
AcDbEntity
  8
0
  6
Continuous
 62
     7
370
    25
100
AcDbSpline
210
0.0
220
0.0
230
1.0
 70
     8
 71
     3
 72
    10
 73
     6
 74
     0
 42
0.00000001
 43
0.00000001
 40
0.0
 40
0.0
 40
0.0
 40
0.0
 40
0.5
 40
0.5
 40
1.0
 40
1.0
 40
1.0
 40
1.0
 10
52.26354564615815
 20
32.24103606202586
 30
0.0
 10
52.30648917705937
 20
32.21736066760148
 30
0.0
 10
52.3699316216835
 20
32.20426955771684
 30
0.0
 10
52.52241045880246
 20
32.20418323642856
 30
0.0
 10
52.61064046090973
 20
32.21735217037239
 30
0.0
 10
52.69655834805036
 20
32.24103606202586
 30
0.0
  0
LINE
  5
11A
330
1F
100
AcDbEntity
  8
0
  6
Continuous
 62
     7
370
    25
100
AcDbLine
 10
52.2635456462
 20
28.8851540071
 30
0.0
 11
52.2635456462
 21
32.241036062
 31
0.0
  0
LINE
  5
11B
330
1F
100
AcDbEntity
  8
0
  6
Continuous
 62
     7
370
    25
100
AcDbLine
 10
45.8153605016
 20
40.2074326019
 30
0.0
 11
45.8153605016
 21
32.8462166697
 31
0.0
  0
SPLINE
  5
11C
330
1F
100
AcDbEntity
  8
0
  6
Continuous
 62
     7
370
    25
100
AcDbSpline
210
0.0
220
0.0
230
1.0
 70
     8
 71
     3
 72
    12
 73
     8
 74
     0
 42
0.00000001
 43
0.00000001
 40
0.0
 40
0.0
 40
0.0
 40
0.0
 40
0.2499999999999999
 40
0.2499999999999999
 40
0.4999999999999998
 40
0.4999999999999998
 40
1.0
 40
1.0
 40
1.0
 40
1.0
 10
45.81536050156737
 20
32.84621666971313
 30
0.0
 10
45.81536050156737
 20
33.04122014971892
 30
0.0
 10
45.83110683158933
 20
33.23775480874334
 30
0.0
 10
45.89255185617476
 20
33.62717449634889
 30
0.0
 10
45.93814061542849
 20
33.82065918940915
 30
0.0
 10
46.11459161768509
 20
34.39784278816475
 30
0.0
 10
46.28504931964857
 20
34.77827856994771
 30
0.0
 10
46.49308190682742
 20
35.15561774647166
 30
0.0
  0
LINE
  5
11D
330
1F
100
AcDbEntity
  8
0
  6
Continuous
 62
     7
370
    25
100
AcDbLine
 10
45.8153605016
 20
40.2074326019
 30
0.0
 11
45.8153605016
 21
47.568648534
 31
0.0
  0
SPLINE
  5
11E
330
1F
100
AcDbEntity
  8
0
  6
Continuous
 62
     7
370
    25
100
AcDbSpline
210
0.0
220
0.0
230
1.0
 70
     8
 71
     3
 72
    10
 73
     6
 74
     0
 42
0.00000001
 43
0.00000001
 40
0.0
 40
0.0
 40
0.0
 40
0.0
 40
0.5
 40
0.5
 40
1.0
 40
1.0
 40
1.0
 40
1.0
 10
46.49308190682709
 20
45.25924745729007
 30
0.0
 10
46.28427198216084
 20
45.63799660468135
 30
0.0
 10
46.11373784241358
 20
46.01920188109266
 30
0.0
 10
45.87895203739466
 20
46.78843250228044
 30
0.0
 10
45.81536050156737
 20
47.17650020707876
 30
0.0
 10
45.81536050156737
 20
47.56864853404859
 30
0.0
  0
LINE
  5
11F
330
1F
100
AcDbEntity
  8
0
  6
Continuous
 62
     7
370
    25
100
AcDbLine
 10
51.3153605016
 20
36.2074326019
 30
0.0
 11
51.3153605016
 21
34.2074326019
 31
0.0
  0
SPLINE
  5
120
330
1F
100
AcDbEntity
  8
0
  6
Continuous
 62
     7
370
    25
100
AcDbSpline
210
0.0
220
0.0
230
1.0
 70
     8
 71
     3
 72
     8
 73
     4
 74
     0
 42
0.00000001
 43
0.00000001
 40
0.0
 40
0.0
 40
0.0
 40
0.0
 40
1.0
 40
1.0
 40
1.0
 40
1.0
 10
51.31536050156737
 20
34.20743260188086
 30
0.0
 10
51.2755818433772
 20
34.07004751288076
 30
0.0
 10
51.23509288054896
 20
33.93334343106899
 30
0.0
 10
51.19397701007121
 20
33.79731106855562
 30
0.0
  0
SPLINE
  5
121
330
1F
100
AcDbEntity
  8
0
  6
Continuous
 62
     7
370
    25
100
AcDbSpline
210
0.0
220
0.0
230
1.0
 70
     8
 71
     3
 72
     8
 73
     4
 74
     0
 42
0.00000001
 43
0.00000001
 40
0.0
 40
0.0
 40
0.0
 40
0.0
 40
1.0
 40
1.0
 40
1.0
 40
1.0
 10
50.63763909630718
 20
35.15561774647164
 30
0.0
 10
50.88481287719112
 20
34.70728245342031
 30
0.0
 10
51.0785345454951
 20
34.25510796267672
 30
0.0
 10
51.19397701007121
 20
33.79731106855562
 30
0.0
  0
LINE
  5
122
330
1F
100
AcDbEntity
  8
0
  6
Continuous
 62
     7
370
    25
100
AcDbLine
 10
63.3153605016
 20
47.568648534
 30
0.0
 11
63.3153605016
 21
44.2074326019
 31
0.0
  0
SPLINE
  5
123
330
1F
100
AcDbEntity
  8
0
  6
Continuous
 62
     7
370
    25
100
AcDbSpline
210
0.0
220
0.0
230
1.0
 70
     8
 71
     3
 72
    10
 73
     6
 74
     0
 42
0.00000001
 43
0.00000001
 40
0.0
 40
0.0
 40
0.0
 40
0.0
 40
0.5
 40
0.5
 40
1.0
 40
1.0
 40
1.0
 40
1.0
 10
63.99308190682758
 20
45.25924745729007
 30
0.0
 10
63.78466115401014
 20
45.63729070669223
 30
0.0
 10
63.61419731873272
 20
46.01806021148808
 30
0.0
 10
63.37921488379433
 20
46.78720873704562
 30
0.0
 10
63.31536050156737
 20
47.17563546522087
 30
0.0
 10
63.31536050156735
 20
47.56864853404859
 30
0.0
  0
SPLINE
  5
124
330
1F
100
AcDbEntity
  8
0
  6
Continuous
 62
     7
370
    25
100
AcDbSpline
210
0.0
220
0.0
230
1.0
 70
     8
 71
     3
 72
    10
 73
     6
 74
     0
 42
0.00000001
 43
0.00000001
 40
0.0
 40
0.0
 40
0.0
 40
0.0
 40
0.5
 40
0.5
 40
1.0
 40
1.0
 40
1.0
 40
1.0
 10
68.49330152900964
 20
35.58863044836386
 30
0.0
 10
68.46962613458527
 20
35.5027433865614
 30
0.0
 10
68.45653502470074
 20
35.41533617758126
 30
0.0
 10
68.45644870341248
 20
35.26269973498753
 30
0.0
 10
68.46961763735631
 20
35.19857669004195
 30
0.0
 10
68.49330152900977
 20
35.15561774647164
 30
0.0
  0
SPLINE
  5
125
330
1F
100
AcDbEntity
  8
0
  6
Continuous
 62
     7
370
    25
100
AcDbSpline
210
0.0
220
0.0
230
1.0
 70
     8
 71
     3
 72
    16
 73
    12
 74
     0
 42
0.00000001
 43
0.00000001
 40
0.0
 40
0.0
 40
0.0
 40
0.0
 40
0.2500000000000001
 40
0.2500000000000001
 40
0.5000000000000001
 40
0.5000000000000001
 40
0.6250000000000001
 40
0.6250000000000001
 40
0.7500000000000002
 40
0.7500000000000002
 40
1.0
 40
1.0
 40
1.0
 40
1.0
 10
68.49330152900977
 20
49.8780496108071
 30
0.0
 10
68.70131697711552
 20
49.50074152193061
 30
0.0
 10
68.8715232820885
 20
49.1207177915564
 30
0.0
 10
69.1064593136561
 20
48.35309447614571
 30
0.0
 10
69.17053144531975
 20
47.96544765935691
 30
0.0
 10
69.17126439424077
 20
47.37712710746906
 30
0.0
 10
69.15560491415773
 20
47.18005391491342
 30
0.0
 10
69.0943297875208
 20
46.78999693735931
 30
0.0
 10
69.04877351502167
 20
46.59620403677128
 30
0.0
 10
68.8722874822654
 20
46.01812305200785
 30
0.0
 10
68.70163102877972
 20
45.63712518767303
 30
0.0
 10
68.49330152900977
 20
45.25924745729009
 30
0.0
  0
SPLINE
  5
126
330
1F
100
AcDbEntity
  8
0
  6
Continuous
 62
     7
370
    25
100
AcDbSpline
210
0.0
220
0.0
230
1.0
 70
     8
 71
     3
 72
    10
 73
     6
 74
     0
 42
0.00000001
 43
0.00000001
 40
0.0
 40
0.0
 40
0.0
 40
0.0
 40
0.1601790552921226
 40
0.7197651707803578
 40
1.0
 40
1.0
 40
1.0
 40
1.0
 10
68.45907209589286
 20
49.94032788955685
 30
0.0
 10
68.45830930579962
 20
49.94172011758322
 30
0.0
 10
68.45488170572588
 20
49.94797609931154
 30
0.0
 10
68.46938917052417
 20
49.92146883458364
 30
0.0
 10
68.487318723642
 20
49.88891297943847
 30
0.0
 10
68.49330152900977
 20
49.8780496108071
 30
0.0
  0
SPLINE
  5
127
330
1F
100
AcDbEntity
  8
0
  6
Continuous
 62
     7
370
    25
100
AcDbSpline
210
0.0
220
0.0
230
1.0
 70
     8
 71
     3
 72
     9
 73
     5
 74
     0
 42
0.00000001
 43
0.00000001
 40
0.0
 40
0.0
 40
0.0
 40
0.0
 40
0.5797912171256352
 40
1.0
 40
1.0
 40
1.0
 40
1.0
 10
68.49330152900977
 20
30.53681559295463
 30
0.0
 10
68.48094292566331
 20
30.5143419447135
 30
0.0
 10
68.45962731586891
 20
30.47558032229268
 30
0.0
 10
68.45923637336612
 20
30.47484591753447
 30
0.0
 10
68.45907209589286
 20
30.47453731420489
 30
0.0
  0
SPLINE
  5
128
330
1F
100
AcDbEntity
  8
0
  6
Continuous
 62
     7
370
    25
100
AcDbSpline
210
0.0
220
0.0
230
1.0
 70
     8
 71
     3
 72
    16
 73
    12
 74
     0
 42
0.00000001
 43
0.00000001
 40
0.0
 40
0.0
 40
0.0
 40
0.0
 40
0.2500000000000001
 40
0.2500000000000001
 40
0.5000000000000002
 40
0.5000000000000002
 40
0.6250000000000001
 40
0.6250000000000001
 40
0.7500000000000001
 40
0.7500000000000001
 40
1.0
 40
1.0
 40
1.0
 40
1.0
 10
68.49330152900977
 20
35.15561774647164
 30
0.0
 10
68.70131697711552
 20
34.77830965759514
 30
0.0
 10
68.8715232820885
 20
34.39828592722094
 30
0.0
 10
69.1064593136561
 20
33.63066261181024
 30
0.0
 10
69.17053144531977
 20
33.24301579502145
 30
0.0
 10
69.17126439424078
 20
32.6546952431336
 30
0.0
 10
69.15560491415775
 20
32.45762205057795
 30
0.0
 10
69.0943297875208
 20
32.06756507302385
 30
0.0
 10
69.04877351502167
 20
31.87377217243582
 30
0.0
 10
68.87228748226539
 20
31.29569118767239
 30
0.0
 10
68.7016310287797
 20
30.91469332333757
 30
0.0
 10
68.49330152900977
 20
30.53681559295463
 30
0.0
  0
LINE
  5
129
330
1F
100
AcDbEntity
  8
0
  6
Continuous
 62
     7
370
    25
100
AcDbLine
 10
69.3153605016
 20
48.4574326019
 30
0.0
 11
69.3153605016
 21
31.9574326019
 31
0.0
  0
SPLINE
  5
12A
330
1F
100
AcDbEntity
  8
0
  6
Continuous
 62
     7
370
    25
100
AcDbSpline
210
0.0
220
0.0
230
1.0
 70
     8
 71
     3
 72
     8
 73
     4
 74
     0
 42
0.00000001
 43
0.00000001
 40
0.0
 40
0.0
 40
0.0
 40
0.0
 40
1.0
 40
1.0
 40
1.0
 40
1.0
 10
63.43674399306354
 20
33.79731106855562
 30
0.0
 10
63.39562871742227
 20
33.93334146304517
 30
0.0
 10
63.35513973455442
 20
34.07004552768261
 30
0.0
 10
63.31536050156737
 20
34.20743260188086
 30
0.0
  0
LINE
  5
12B
330
1F
100
AcDbEntity
  8
0
  6
Continuous
 62
     7
370
    25
100
AcDbLine
 10
63.3153605016
 20
36.2074326019
 30
0.0
 11
63.3153605016
 21
34.2074326019
 31
0.0
  0
SPLINE
  5
12C
330
1F
100
AcDbEntity
  8
0
  6
Continuous
 62
     7
370
    25
100
AcDbSpline
210
0.0
220
0.0
230
1.0
 70
     8
 71
     3
 72
    10
 73
     6
 74
     0
 42
0.00000001
 43
0.00000001
 40
0.0
 40
0.0
 40
0.0
 40
0.0
 40
0.5
 40
0.5
 40
1.0
 40
1.0
 40
1.0
 40
1.0
 10
63.99308190682429
 20
35.15561774647164
 30
0.0
 10
64.01675730124865
 20
35.1985612773728
 30
0.0
 10
64.02984841113656
 20
35.26200372199659
 30
0.0
 10
64.0299347324249
 20
35.41448255911568
 30
0.0
 10
64.01676579848106
 20
35.5027125612231
 30
0.0
 10
63.99308190682756
 20
35.58863044836385
 30
0.0
  0
SPLINE
  5
12D
330
1F
100
AcDbEntity
  8
0
  6
Continuous
 62
     7
370
    25
100
AcDbSpline
210
0.0
220
0.0
230
1.0
 70
     8
 71
     3
 72
     8
 73
     4
 74
     0
 42
0.00000001
 43
0.00000001
 40
0.0
 40
0.0
 40
0.0
 40
0.0
 40
1.0
 40
1.0
 40
1.0
 40
1.0
 10
63.43674399306354
 20
33.79731106855562
 30
0.0
 10
63.5523766030926
 20
34.25586200061338
 30
0.0
 10
63.74626600791301
 20
34.70793159637163
 30
0.0
 10
63.99308190682743
 20
35.15561774647139
 30
0.0
  0
SPLINE
  5
12E
330
1F
100
AcDbEntity
  8
0
  6
Continuous
 62
     7
370
    25
100
AcDbSpline
210
0.0
220
0.0
230
1.0
 70
     8
 71
     3
 72
     8
 73
     4
 74
     0
 42
0.00000001
 43
0.00000001
 40
0.0
 40
0.0
 40
0.0
 40
0.0
 40
1.0
 40
1.0
 40
1.0
 40
1.0
 10
63.65792246038124
 20
33.20743260188087
 30
0.0
 10
63.98040178723052
 20
33.11571831414641
 30
0.0
 10
64.29571954355448
 20
33.01906152507851
 30
0.0
 10
64.60473668620197
 20
32.91805641724626
 30
0.0
  0
SPLINE
  5
12F
330
1F
100
AcDbEntity
  8
0
  6
Continuous
 62
     7
370
    25
100
AcDbSpline
210
0.0
220
0.0
230
1.0
 70
     8
 71
     3
 72
    10
 73
     6
 74
     0
 42
0.00000001
 43
0.00000001
 40
0.0
 40
0.0
 40
0.0
 40
0.0
 40
0.5
 40
0.5
 40
1.0
 40
1.0
 40
1.0
 40
1.0
 10
62.36717535697687
 20
32.24103606202602
 30
0.0
 10
62.73369330381741
 20
32.44310274757694
 30
0.0
 10
63.10277352928323
 20
32.60949551984758
 30
0.0
 10
63.84802587751064
 20
32.84354249371764
 30
0.0
 10
64.2242386494584
 20
32.91063074767646
 30
0.0
 10
64.60473668620197
 20
32.91805641724626
 30
0.0
  0
LINE
  5
130
330
1F
100
AcDbEntity
  8
0
  6
Continuous
 62
     7
370
    25
100
AcDbLine
 10
68.493301529
 20
35.1556177465
 30
0.0
 11
63.9930819068
 21
35.1556177465
 31
0.0
  0
LINE
  5
131
330
1F
100
AcDbEntity
  8
0
  6
Continuous
 62
     7
370
    25
100
AcDbLine
 10
53.9488090922
 20
39.7410324742
 30
0.0
 11
53.6451349145
 21
40.5516150913
 31
0.0
  0
ELLIPSE
  5
132
330
1F
100
AcDbEntity
  8
0
  6
Continuous
 62
     7
370
    25
100
AcDbEllipse
 10
53.5652736762
 20
40.5244250795
 30
0.0
 11
0.08480161849065837
 21
0.0
 31
0.0
210
0.0
220
0.0
230
1.0
 40
0.9533039403
 41
0.3430239404205823
 42
2.798568713169156
  0
LINE
  5
133
330
1F
100
AcDbEntity
  8
0
  6
Continuous
 62
     7
370
    25
100
AcDbLine
 10
53.2615994951
 20
39.6330007454
 30
0.0
 11
53.8689478538
 21
39.6330007454
 31
0.0
  0
ELLIPSE
  5
134
330
1F
100
AcDbEntity
  8
0
  6
Continuous
 62
     7
370
    25
100
AcDbEllipse
 10
53.2615994951
 20
39.7138424625
 30
0.0
 11
0.08480161849065126
 21
-7.105427357601002E-15
 31
0.0
210
0.0
220
0.0
230
1.0
 40
0.9533039403
 41
2.79856871130838
 42
4.712388980384699
  0
LINE
  5
135
330
1F
100
AcDbEntity
  8
0
  6
Continuous
 62
     7
370
    25
100
AcDbLine
 10
53.4854124379
 20
40.5516150913
 30
0.0
 11
53.1817382568
 21
39.7410324744
 31
0.0
  0
ELLIPSE
  5
136
330
1F
100
AcDbEntity
  8
0
  6
Continuous
 62
     7
370
    25
100
AcDbEllipse
 10
53.8689478538
 20
39.7138424625
 30
0.0
 11
-0.08480161849066548
 21
-4.973799150320701E-14
 31
0.0
210
0.0
220
0.0
230
1.0
 40
0.9533039403
 41
1.570796326794337
 42
3.484616592149223
  0
SPLINE
  5
137
330
1F
100
AcDbEntity
  8
0
  6
Continuous
 62
     7
370
    25
100
AcDbSpline
210
0.0
220
0.0
230
1.0
 70
     8
 71
     3
 72
     8
 73
     4
 74
     0
 42
0.00000001
 43
0.00000001
 40
0.0
 40
0.0
 40
0.0
 40
0.0
 40
1.0
 40
1.0
 40
1.0
 40
1.0
 10
50.02598431695075
 20
32.91805641725213
 30
0.0
 10
50.3350014595925
 20
33.01906152508226
 30
0.0
 10
50.65031921591049
 20
33.11571831414819
 30
0.0
 10
50.97279854275351
 20
33.20743260188087
 30
0.0
  0
SPLINE
  5
138
330
1F
100
AcDbEntity
  8
0
  6
Continuous
 62
     7
370
    25
100
AcDbSpline
210
0.0
220
0.0
230
1.0
 70
     8
 71
     3
 72
    12
 73
     8
 74
     0
 42
0.00000001
 43
0.00000001
 40
0.0
 40
0.0
 40
0.0
 40
0.0
 40
0.2500000000000002
 40
0.2500000000000002
 40
0.5000000000000004
 40
0.5000000000000004
 40
1.0
 40
1.0
 40
1.0
 40
1.0
 10
50.0259843169455
 20
32.918056417246
 30
0.0
 10
50.21601049224872
 20
32.91434793138957
 30
0.0
 10
50.40622555493454
 20
32.8957654285519
 30
0.0
 10
50.78316231406694
 20
32.83089839158575
 30
0.0
 10
50.97048510532644
 20
32.78463283833548
 30
0.0
 10
51.52939506164053
 20
32.60890830802852
 30
0.0
 10
51.89793071975086
 20
32.44260489925177
 30
0.0
 10
52.26354564615815
 20
32.24103606202586
 30
0.0
  0
SPLINE
  5
139
330
1F
100
AcDbEntity
  8
0
  6
Continuous
 62
     7
370
    25
100
AcDbSpline
210
0.0
220
0.0
230
1.0
 70
     8
 71
     3
 72
    12
 73
     8
 74
     0
 42
0.00000001
 43
0.00000001
 40
0.0
 40
0.0
 40
0.0
 40
0.0
 40
0.2499999999999999
 40
0.2499999999999999
 40
0.4999999999999998
 40
0.4999999999999998
 40
1.0
 40
1.0
 40
1.0
 40
1.0
 10
63.31536050156735
 20
47.56864853404859
 30
0.0
 10
63.31536050156735
 20
47.76439079692811
 30
0.0
 10
63.33120343765633
 20
47.96105740611867
 30
0.0
 10
63.39270629789399
 20
48.35032563344696
 30
0.0
 10
63.43830993893768
 20
48.54372966639988
 30
0.0
 10
63.6147609564269
 20
49.12065871765663
 30
0.0
 10
63.78515832367876
 20
49.50090815085964
 30
0.0
 10
63.99308190682756
 20
49.8780496108071
 30
0.0
  0
LINE
  5
13A
330
1F
100
AcDbEntity
  8
0
  6
Continuous
 62
     7
370
    25
100
AcDbLine
 10
68.493301529
 20
49.8780496108
 30
0.0
 11
63.9930819068
 21
49.8780496108
 31
0.0
  0
ELLIPSE
  5
13B
330
1F
100
AcDbEntity
  8
0
  6
Continuous
 62
     7
370
    25
100
AcDbEllipse
 10
57.3153605016
 20
30.3924780257
 30
0.0
 11
8.5
 21
0.0
 31
0.0
210
0.0
220
0.0
230
1.0
 40
0.5773502692
 41
2.374833212873086
 42
2.530692279913059
  0
LINE
  5
13C
330
1F
100
AcDbEntity
  8
0
  6
Continuous
 62
     7
370
    25
100
AcDbLine
 10
50.0259843169
 20
32.9180564172
 30
0.0
 11
47.6447434926
 21
30.536815593
 31
0.0
  0
LINE
  5
13D
330
1F
100
AcDbEntity
  8
0
  6
Continuous
 62
     7
370
    25
100
AcDbLine
 10
46.4930819068
 20
30.536815593
 30
0.0
 11
47.6447434926
 21
30.536815593
 31
0.0
  0
SPLINE
  5
13E
330
1F
100
AcDbEntity
  8
0
  6
Continuous
 62
     7
370
    25
100
AcDbSpline
210
0.0
220
0.0
230
1.0
 70
     8
 71
     3
 72
    10
 73
     6
 74
     0
 42
0.00000001
 43
0.00000001
 40
0.0
 40
0.0
 40
0.0
 40
0.0
 40
0.5
 40
0.5
 40
1.0
 40
1.0
 40
1.0
 40
1.0
 10
46.49308190682709
 20
30.5368155929546
 30
0.0
 10
46.28427198216083
 20
30.91556474034589
 30
0.0
 10
46.11373784241358
 20
31.29677001675719
 30
0.0
 10
45.87895203739466
 20
32.06600063794497
 30
0.0
 10
45.81536050156737
 20
32.4540683427433
 30
0.0
 10
45.81536050156737
 20
32.84621666971313
 30
0.0
  0
ELLIPSE
  5
13F
330
1F
100
AcDbEntity
  8
0
  6
Continuous
 62
     7
370
    25
100
AcDbEllipse
 10
57.3153605016
 20
30.3924780257
 30
0.0
 11
8.5
 21
0.0
 31
0.0
210
0.0
220
0.0
230
1.0
 40
0.5773502692
 41
0.6109003736767342
 42
0.7667594407167074
  0
LINE
  5
140
330
1F
100
AcDbEntity
  8
0
  6
Continuous
 62
     7
370
    25
100
AcDbLine
 10
66.9859775105
 20
30.536815593
 30
0.0
 11
68.493301529
 21
30.536815593
 31
0.0
  0
LINE
  5
141
330
1F
100
AcDbEntity
  8
0
  6
Continuous
 62
     7
370
    25
100
AcDbLine
 10
66.9859775105
 20
30.536815593
 30
0.0
 11
64.6047366862
 21
32.9180564172
 31
0.0
  0
SPLINE
  5
142
330
1F
100
AcDbEntity
  8
0
  6
Continuous
 62
     7
370
    25
100
AcDbSpline
210
0.0
220
0.0
230
1.0
 70
     8
 71
     3
 72
    12
 73
     8
 74
     0
 42
0.00000001
 43
0.00000001
 40
0.0
 40
0.0
 40
0.0
 40
0.0
 40
0.2499999999999996
 40
0.2499999999999996
 40
0.4999999999999993
 40
0.4999999999999993
 40
1.0
 40
1.0
 40
1.0
 40
1.0
 10
49.95414456939965
 20
28.20743260188086
 30
0.0
 10
49.75914108939384
 20
28.20743260188086
 30
0.0
 10
49.56260643036943
 20
28.22317893190282
 30
0.0
 10
49.17318674276389
 20
28.28462395648825
 30
0.0
 10
48.97970204970363
 20
28.33021271574198
 30
0.0
 10
48.40251845094802
 20
28.50666371799857
 30
0.0
 10
48.02208266916507
 20
28.67712141996207
 30
0.0
 10
47.64474349264113
 20
28.88515400714091
 30
0.0
  0
LINE
  5
143
330
1F
100
AcDbEntity
  8
0
  6
Continuous
 62
     7
370
    25
100
AcDbLine
 10
47.6447434926
 20
30.536815593
 30
0.0
 11
47.6447434926
 21
28.8851540071
 31
0.0
  0
SPLINE
  5
144
330
1F
100
AcDbEntity
  8
0
  6
Continuous
 62
     7
370
    25
100
AcDbSpline
210
0.0
220
0.0
230
1.0
 70
     8
 71
     3
 72
    12
 73
     8
 74
     0
 42
0.00000001
 43
0.00000001
 40
0.0
 40
0.0
 40
0.0
 40
0.0
 40
0.2499999999999999
 40
0.2499999999999999
 40
0.5
 40
0.5
 40
1.0
 40
1.0
 40
1.0
 40
1.0
 10
45.81536050156737
 20
47.56864853404859
 30
0.0
 10
45.81536050156737
 20
47.76365201405439
 30
0.0
 10
45.83110683158933
 20
47.9601866730788
 30
0.0
 10
45.89255185617476
 20
48.34960636068435
 30
0.0
 10
45.93814061542849
 20
48.54309105374461
 30
0.0
 10
46.11459161768508
 20
49.12027465250021
 30
0.0
 10
46.28504931964857
 20
49.50071043428318
 30
0.0
 10
46.49308190682742
 20
49.87804961080711
 30
0.0
  0
LINE
  5
145
330
1F
100
AcDbEntity
  8
0
  6
Continuous
 62
     7
370
    25
100
AcDbLine
 10
50.6376390963
 20
49.8780496108
 30
0.0
 11
46.4930819068
 21
49.8780496108
 31
0.0
  0
SPLINE
  5
146
330
1F
100
AcDbEntity
  8
0
  6
Continuous
 62
     7
370
    25
100
AcDbSpline
210
0.0
220
0.0
230
1.0
 70
     8
 71
     3
 72
    10
 73
     6
 74
     0
 42
0.00000001
 43
0.00000001
 40
0.0
 40
0.0
 40
0.0
 40
0.0
 40
0.5
 40
0.5
 40
1.0
 40
1.0
 40
1.0
 40
1.0
 10
50.63763909630717
 20
49.87804961080712
 30
0.0
 10
50.84605984912459
 20
49.50000636140496
 30
0.0
 10
51.01652368440202
 20
49.11923685660911
 30
0.0
 10
51.25150611934041
 20
48.35008833105157
 30
0.0
 10
51.31536050156738
 20
47.96166160287633
 30
0.0
 10
51.31536050156738
 20
47.56864853404859
 30
0.0
  0
LINE
  5
147
330
1F
100
AcDbEntity
  8
0
  6
Continuous
 62
     7
370
    25
100
AcDbLine
 10
66.9859775105
 20
28.8851540071
 30
0.0
 11
66.9859775105
 21
30.536815593
 31
0.0
  0
SPLINE
  5
148
330
1F
100
AcDbEntity
  8
0
  6
Continuous
 62
     7
370
    25
100
AcDbSpline
210
0.0
220
0.0
230
1.0
 70
     8
 71
     3
 72
    10
 73
     6
 74
     0
 42
0.00000001
 43
0.00000001
 40
0.0
 40
0.0
 40
0.0
 40
0.0
 40
0.5
 40
0.5
 40
1.0
 40
1.0
 40
1.0
 40
1.0
 10
66.98597751049364
 20
28.88515400714059
 30
0.0
 10
66.60722836310235
 20
28.67634408247433
 30
0.0
 10
66.22602308669104
 20
28.50580994272707
 30
0.0
 10
65.45679246550326
 20
28.27102413770816
 30
0.0
 10
65.06872476070494
 20
28.20743260188086
 30
0.0
 10
64.6765764337351
 20
28.20743260188086
 30
0.0
  0
LINE
  5
149
330
1F
100
AcDbEntity
  8
0
  6
Continuous
 62
     7
370
    25
100
AcDbLine
 10
63.3153605016
 20
34.2074326019
 30
0.0
 11
61.3153605016
 21
36.2074326019
 31
0.0
  0
LINE
  5
14A
330
1F
100
AcDbEntity
  8
0
  6
Continuous
 62
     7
370
    25
100
AcDbLine
 10
61.3153605016
 20
33.2074326019
 30
0.0
 11
64.2779815742
 21
33.2074326019
 31
0.0
  0
LINE
  5
14B
330
1F
100
AcDbEntity
  8
0
  6
Continuous
 62
     7
370
    25
100
AcDbLine
 10
53.3153605016
 20
36.2074326019
 30
0.0
 11
51.3153605016
 21
34.2074326019
 31
0.0
  0
LINE
  5
14C
330
1F
100
AcDbEntity
  8
0
  6
Continuous
 62
     7
370
    25
100
AcDbLine
 10
50.3527394289
 20
33.2074326019
 30
0.0
 11
53.3153605016
 21
33.2074326019
 31
0.0
  0
LINE
  5
14D
330
1F
100
AcDbEntity
  8
0
  6
Continuous
 62
     7
370
    25
100
AcDbLine
 10
51.3153605016
 20
48.1418870801
 30
0.0
 11
51.3153605016
 21
47.568648534
 31
0.0
  0
SPLINE
  5
14E
330
1F
100
AcDbEntity
  8
0
  6
Continuous
 62
     7
370
    25
100
AcDbSpline
210
0.0
220
0.0
230
1.0
 70
     8
 71
     3
 72
    32
 73
    28
 74
     0
 42
0.00000001
 43
0.00000001
 40
0.0
 40
0.0
 40
0.0
 40
0.0
 40
0.0625000000000001
 40
0.0625000000000001
 40
0.1250000000000001
 40
0.1250000000000001
 40
0.1875000000000002
 40
0.1875000000000002
 40
0.2500000000000003
 40
0.2500000000000003
 40
0.3750000000000003
 40
0.3750000000000003
 40
0.4375000000000003
 40
0.4375000000000003
 40
0.5000000000000002
 40
0.5000000000000002
 40
0.5625000000000002
 40
0.5625000000000002
 40
0.6250000000000001
 40
0.6250000000000001
 40
0.7500000000000001
 40
0.7500000000000001
 40
0.8750000000000002
 40
0.8750000000000002
 40
0.9375000000000001
 40
0.9375000000000001
 40
1.0
 40
1.0
 40
1.0
 40
1.0
 10
63.31536050155889
 20
48.14188708010152
 30
0.0
 10
63.15850416564201
 20
48.04693010220582
 30
0.0
 10
62.98550573148637
 20
47.94417692758064
 30
0.0
 10
62.60880114486056
 20
47.72746572593238
 30
0.0
 10
62.40594836440388
 20
47.61404701544236
 30
0.0
 10
61.97996710160128
 20
47.38595687874419
 30
0.0
 10
61.75578914131326
 20
47.27064999629234
 30
0.0
 10
61.28443804773687
 20
47.04232689391756
 30
0.0
 10
61.03575253237177
 20
46.92867687778381
 30
0.0
 10
60.26518004768014
 20
46.60561284654977
 30
0.0
 10
59.71954263759797
 20
46.41271432238626
 30
0.0
 10
58.83676288910163
 20
46.20112039711256
 30
0.0
 10
58.53812378922878
 20
46.14547801099482
 30
0.0
 10
57.93162218851301
 20
46.06980994163098
 30
0.0
 10
57.62147494984709
 20
46.04983669585467
 30
0.0
 10
57.00138946116332
 20
46.05017046210791
 30
0.0
 10
56.69481842369528
 20
46.0701694274307
 30
0.0
 10
56.0881636763871
 20
46.14620821362717
 30
0.0
 10
55.78579061176178
 20
46.20286131375872
 30
0.0
 10
54.90915430900883
 20
46.41363986380456
 30
0.0
 10
54.36110017703191
 20
46.60718569437631
 30
0.0
 10
53.33060290978864
 20
47.03980498765211
 30
0.0
 10
52.86304287450917
 20
47.27228163234253
 30
0.0
 10
52.22482927088124
 20
47.61401963326158
 30
0.0
 10
52.0216195326914
 20
47.72763714868996
 30
0.0
 10
51.64528260629697
 20
47.94413954104621
 30
0.0
 10
51.47230399780548
 20
48.04687733749059
 30
0.0
 10
51.31536050156738
 20
48.14188708010667
 30
0.0
  0
LINE
  5
14F
330
1F
100
AcDbEntity
  8
0
  6
Continuous
 62
     7
370
    25
100
AcDbLine
 10
63.3153605016
 20
48.1418870801
 30
0.0
 11
63.3153605016
 21
47.568648534
 31
0.0
  0
SPLINE
  5
150
330
1F
100
AcDbEntity
  8
0
  6
Continuous
 62
     7
370
    25
100
AcDbSpline
210
0.0
220
0.0
230
1.0
 70
     8
 71
     3
 72
    12
 73
     8
 74
     0
 42
0.00000001
 43
0.00000001
 40
0.0
 40
0.0
 40
0.0
 40
0.0
 40
0.0860276384484858
 40
0.3125921905364371
 40
0.5444262578673806
 40
0.772029644149985
 40
1.0
 40
1.0
 40
1.0
 40
1.0
 10
63.48870768903439
 20
49.00033419558198
 30
0.0
 10
63.48991793812625
 20
49.0043641192238
 30
0.0
 10
63.49431552966242
 20
49.01900735111541
 30
0.0
 10
63.46179313637116
 20
48.91142992484217
 30
0.0
 10
63.40576496018671
 20
48.70528110900145
 30
0.0
 10
63.33757213239107
 20
48.4220406315908
 30
0.0
 10
63.32276835337654
 20
48.23532173195975
 30
0.0
 10
63.31536050156737
 20
48.14188708009954
 30
0.0
  0
SPLINE
  5
151
330
1F
100
AcDbEntity
  8
0
  6
Continuous
 62
     7
370
    25
100
AcDbSpline
210
0.0
220
0.0
230
1.0
 70
     8
 71
     3
 72
    11
 73
     7
 74
     0
 42
0.00000001
 43
0.00000001
 40
0.0
 40
0.0
 40
0.0
 40
0.0
 40
0.317628839631401
 40
0.6359447965803814
 40
0.865668887048117
 40
1.0
 40
1.0
 40
1.0
 40
1.0
 10
51.31536050156737
 20
48.14188708010658
 30
0.0
 10
51.30172176924534
 20
48.27315162583279
 30
0.0
 10
51.2744148003246
 20
48.53596467809513
 30
0.0
 10
51.18640981225328
 20
48.8476103622356
 30
0.0
 10
51.141848747225
 20
49.00135923340466
 30
0.0
 10
51.14219781365622
 20
48.99984463916607
 30
0.0
 10
51.14232661412868
 20
48.9992857757634
 30
0.0
  0
LINE
  5
152
330
1F
100
AcDbEntity
  8
0
  6
Continuous
 62
     7
370
    25
100
AcDbLine
 10
63.2101416849
 20
49.7029017818
 30
0.0
 11
63.2127735349
 21
49.7051265137
 31
0.0
  0
LINE
  5
153
330
1F
100
AcDbEntity
  8
0
  6
Continuous
 62
     7
370
    25
100
AcDbLine
 10
52.5330808747
 20
18.0623806613
 30
0.0
 11
62.0976401284
 21
18.0623806613
 31
0.0
  0
LINE
  5
154
330
1F
100
AcDbEntity
  8
0
  6
Continuous
 62
     7
370
    25
100
AcDbLine
 10
61.3153605016
 20
16.7074326019
 30
0.0
 11
53.3153605016
 21
16.7074326019
 31
0.0
  0
SPLINE
  5
155
330
1F
100
AcDbEntity
  8
0
  6
Continuous
 62
     7
370
    25
100
AcDbSpline
210
0.0
220
0.0
230
1.0
 70
     8
 71
     3
 72
    10
 73
     6
 74
     0
 42
0.00000001
 43
0.00000001
 40
0.0
 40
0.0
 40
0.0
 40
0.0
 40
0.1601790552921523
 40
0.7197651707804853
 40
1.0
 40
1.0
 40
1.0
 40
1.0
 10
50.60340966319027
 20
49.94032788955685
 30
0.0
 10
50.60264687309703
 20
49.94172011758322
 30
0.0
 10
50.59921927302329
 20
49.94797609931155
 30
0.0
 10
50.61372673782157
 20
49.92146883458364
 30
0.0
 10
50.6316562909394
 20
49.88891297943848
 30
0.0
 10
50.63763909630717
 20
49.87804961080712
 30
0.0
  0
SPLINE
  5
156
330
1F
100
AcDbEntity
  8
0
  6
Continuous
 62
     7
370
    25
100
AcDbSpline
210
0.0
220
0.0
230
1.0
 70
     8
 71
     3
 72
     9
 73
     5
 74
     0
 42
0.00000001
 43
0.00000001
 40
0.0
 40
0.0
 40
0.0
 40
0.0
 40
0.5789479223911438
 40
1.0
 40
1.0
 40
1.0
 40
1.0
 10
66.9859775104936
 20
28.88515400714105
 30
0.0
 10
67.00841887768624
 20
28.89749489745547
 30
0.0
 10
67.04718120211079
 20
28.91881096032937
 30
0.0
 10
67.0479471049699
 20
28.91921913424376
 30
0.0
 10
67.04826958995994
 20
28.91939099671844
 30
0.0
  0
LINE
  5
157
330
1F
100
AcDbEntity
  8
0
  6
Continuous
 62
     7
370
    25
100
AcDbLine
 10
64.6765764337
 20
28.2074326019
 30
0.0
 11
65.8153605016
 21
28.2074326019
 31
0.0
  0
SPLINE
  5
158
330
1F
100
AcDbEntity
  8
0
  6
Continuous
 62
     7
370
    25
100
AcDbSpline
210
0.0
220
0.0
230
1.0
 70
     8
 71
     3
 72
     9
 73
     5
 74
     0
 42
0.00000001
 43
0.00000001
 40
0.0
 40
0.0
 40
0.0
 40
0.0
 40
0.5797912171256431
 40
1.0
 40
1.0
 40
1.0
 40
1.0
 10
63.99308190682756
 20
49.8780496108071
 30
0.0
 10
64.00544051017404
 20
49.90052325904824
 30
0.0
 10
64.02675611996843
 20
49.93928488146906
 30
0.0
 10
64.02714706247122
 20
49.94001928622727
 30
0.0
 10
64.02731133994448
 20
49.94032788955685
 30
0.0
  0
SPLINE
  5
159
330
1F
100
AcDbEntity
  8
0
  6
Continuous
 62
     7
370
    25
100
AcDbSpline
210
0.0
220
0.0
230
1.0
 70
     8
 71
     3
 72
    10
 73
     6
 74
     0
 42
0.00000001
 43
0.00000001
 40
0.0
 40
0.0
 40
0.0
 40
0.0
 40
0.1593935212994522
 40
0.7189934545690309
 40
1.0
 40
1.0
 40
1.0
 40
1.0
 10
46.52731889640501
 20
49.94034169027356
 30
0.0
 10
46.52808042340246
 20
49.94173160910017
 30
0.0
 10
46.53151552491838
 20
49.94800126504712
 30
0.0
 10
46.51702090245189
 20
49.92151732322331
 30
0.0
 10
46.49907953195918
 20
49.88893991917645
 30
0.0
 10
46.49308190682756
 20
49.8780496108071
 30
0.0
  0
LINE
  5
15A
330
1F
100
AcDbEntity
  8
0
  6
Continuous
 62
     7
370
    25
100
AcDbLine
 10
45.8153605016
 20
48.7074326019
 30
0.0
 11
45.8153605016
 21
47.568648534
 31
0.0
  0
SPLINE
  5
15B
330
1F
100
AcDbEntity
  8
0
  6
Continuous
 62
     7
370
    25
100
AcDbSpline
210
0.0
220
0.0
230
1.0
 70
     8
 71
     3
 72
    10
 73
     6
 74
     0
 42
0.00000001
 43
0.00000001
 40
0.0
 40
0.0
 40
0.0
 40
0.0
 40
0.1593935213061672
 40
0.7189934545756304
 40
1.0
 40
1.0
 40
1.0
 40
1.0
 10
47.58245141317479
 20
28.91939099671844
 30
0.0
 10
47.58106149434816
 20
28.9201525237159
 30
0.0
 10
47.57479183840135
 20
28.92358762523176
 30
0.0
 10
47.60127578022534
 20
28.90909300276516
 30
0.0
 10
47.63385318427202
 20
28.89115163227255
 30
0.0
 10
47.64474349264114
 20
28.88515400714105
 30
0.0
  0
LINE
  5
15C
330
1F
100
AcDbEntity
  8
0
  6
Continuous
 62
     7
370
    25
100
AcDbLine
 10
48.8153605016
 20
28.2074326019
 30
0.0
 11
49.9541445694
 21
28.2074326019
 31
0.0
  0
SPLINE
  5
15D
330
1F
100
AcDbEntity
  8
0
  6
Continuous
 62
     7
370
    25
100
AcDbSpline
210
0.0
220
0.0
230
1.0
 70
     8
 71
     3
 72
     9
 73
     5
 74
     0
 42
0.00000001
 43
0.00000001
 40
0.0
 40
0.0
 40
0.0
 40
0.0
 40
0.5789479223839474
 40
0.9999999999999999
 40
0.9999999999999999
 40
0.9999999999999999
 40
0.9999999999999999
 10
46.49308190682756
 20
30.53681559295463
 30
0.0
 10
46.50542279714183
 20
30.51437422576226
 30
0.0
 10
46.52673886001574
 20
30.4756119013377
 30
0.0
 10
46.52714703393027
 20
30.47484599847835
 30
0.0
 10
46.52731889640501
 20
30.47452351348817
 30
0.0
  0
LINE
  5
15E
330
1F
100
AcDbEntity
  8
0
  6
Continuous
 62
     7
370
    25
100
AcDbLine
 10
45.8153605016
 20
32.8462166697
 30
0.0
 11
45.8153605016
 21
31.7074326019
 31
0.0
  0
LINE
  5
15F
330
1F
100
AcDbEntity
  8
0
  6
Continuous
 62
     7
370
    25
100
AcDbLine
 10
67.0529648086
 20
30.4698282948
 30
0.0
 11
66.9859775105
 21
30.536815593
 31
0.0
  0
LINE
  5
160
330
1F
100
AcDbEntity
  8
0
  6
Continuous
 62
     7
370
    25
100
AcDbLine
 10
47.6447434926
 20
30.536815593
 30
0.0
 11
47.5777561945
 21
30.4698282948
 31
0.0
  0
SPLINE
  5
161
330
1F
100
AcDbEntity
  8
0
  6
Continuous
 62
     7
370
    25
100
AcDbSpline
210
0.0
220
0.0
230
1.0
 70
     8
 71
     3
 72
    30
 73
    26
 74
     0
 42
0.00000001
 43
0.00000001
 40
0.0
 40
0.0
 40
0.0
 40
0.0
 40
0.0110569947995957
 40
0.0534018586163523
 40
0.0957739243294413
 40
0.152560285963683
 40
0.2094465507836707
 40
0.2166929089147469
 40
0.2775705853057713
 40
0.3384474861342897
 40
0.3856607907517328
 40
0.4327791182719195
 40
0.4698641362073264
 40
0.5069103241819656
 40
0.5439143354842868
 40
0.5809675385159896
 40
0.6306181182252716
 40
0.6803606635267528
 40
0.7335199301453341
 40
0.786670493119384
 40
0.8314134775104652
 40
0.876121580665438
 40
0.9187009688159357
 40
0.961245266880381
 40
1.0
 40
1.0
 40
1.0
 40
1.0
 10
51.41536050156736
 20
49.70743260188087
 30
0.0
 10
51.41618454891361
 20
49.70673476998316
 30
0.0
 10
51.42016444224582
 20
49.70336445815657
 30
0.0
 10
51.49094615117502
 20
49.64301481455123
 30
0.0
 10
51.71223488127429
 20
49.4574847188933
 30
0.0
 10
52.10279789667082
 20
49.13693877395169
 30
0.0
 10
52.50603998275697
 20
48.82326187041129
 30
0.0
 10
52.97285422184598
 20
48.47687258252148
 30
0.0
 10
53.50848205592033
 20
48.09644763551493
 30
0.0
 10
54.32423243393804
 20
47.59842408526713
 30
0.0
 10
55.16579223965841
 20
47.186306212156
 30
0.0
 10
55.9491991584287
 20
46.90930709606244
 30
0.0
 10
56.72218403510463
 20
46.75788994323772
 30
0.0
 10
57.45277434089119
 20
46.71974047398064
 30
0.0
 10
58.17749679770152
 20
46.79907236564281
 30
0.0
 10
58.9508664109049
 20
46.99157556877249
 30
0.0
 10
59.74126126210982
 20
47.30873506224223
 30
0.0
 10
60.53806569274928
 20
47.73401350186715
 30
0.0
 10
61.26543326070686
 20
48.19647460253065
 30
0.0
 10
61.87963744338155
 20
48.6368865791794
 30
0.0
 10
62.37310091072656
 20
49.01535019461777
 30
0.0
 10
62.74815072623595
 20
49.31710544582829
 30
0.0
 10
63.01840565547892
 20
49.54075080534636
 30
0.0
 10
63.18738045585563
 20
49.6836781348917
 30
0.0
 10
63.20279409890381
 20
49.69669616792507
 30
0.0
 10
63.21014168489633
 20
49.7029017818002
 30
0.0
  0
LINE
  5
162
330
1F
100
AcDbEntity
  8
0
  6
Continuous
 62
     7
370
    18
100
AcDbLine
 10
52.6886105016
 20
27.7074326019
 30
0.0
 11
53.0161661312
 21
17.2256524526
 31
0.0
  0
LINE
  5
163
330
1F
100
AcDbEntity
  8
0
  6
Continuous
 62
     7
370
    18
100
AcDbLine
 10
61.6145548719
 20
17.2256524526
 30
0.0
 11
61.9421105016
 21
27.7074326019
 31
0.0
  0
LINE
  5
164
330
1F
100
AcDbEntity
  8
0
  6
Continuous
 62
     7
370
    18
100
AcDbLine
 10
42.3653605016
 20
45.9299326019
 30
0.0
 11
38.8768341725
 21
45.9299326019
 31
0.0
  0
LINE
  5
165
330
1F
100
AcDbEntity
  8
0
  6
Continuous
 62
     7
370
    18
100
AcDbLine
 10
38.8768341725
 20
34.4849326019
 30
0.0
 11
42.3653605016
 21
34.4849326019
 31
0.0
  0
LINE
  5
166
330
1F
100
AcDbEntity
  8
0
  6
Continuous
 62
     7
370
    25
100
AcDbLine
 10
42.3653605016
 20
46.7859326019
 30
0.0
 11
42.3653605016
 21
46.7762846649
 31
0.0
  0
SPLINE
  5
167
330
1F
100
AcDbEntity
  8
0
  6
Continuous
 62
     7
370
     0
100
AcDbSpline
210
0.0
220
0.0
230
1.0
 70
     8
 71
     3
 72
    36
 73
    32
 74
     0
 42
0.00000001
 43
0.00000001
 40
0.0
 40
0.0
 40
0.0
 40
0.0
 40
0.0350874934883703
 40
0.070174986965384
 40
0.1052624804423977
 40
0.1403499739194114
 40
0.1754374673964252
 40
0.210524960873439
 40
0.2456124543504528
 40
0.2806999478274666
 40
0.3157874413044803
 40
0.350874934781494
 40
0.3859624282585076
 40
0.4210499217355213
 40
0.4561374152125354
 40
0.491224908689549
 40
0.5263124021665628
 40
0.5613998956435766
 40
0.59648738912059
 40
0.6315748825976037
 40
0.6666623760746176
 40
0.7017498695516313
 40
0.736837363028645
 40
0.7719248565056589
 40
0.8070123499826725
 40
0.8420998434596862
 40
0.8771873369367
 40
0.9122748304137138
 40
0.9473623238907275
 40
0.9824498173677413
 40
1.0
 40
1.0
 40
1.0
 40
1.0
 10
42.36534237861633
 20
46.77628466490048
 30
0.0
 10
42.36536050156737
 20
46.69927088042029
 30
0.0
 10
42.36536050156737
 20
46.54614622766857
 30
0.0
 10
42.36536050156737
 20
46.31870595319562
 30
0.0
 10
42.36536050156737
 20
46.01961658626902
 30
0.0
 10
42.36536050156737
 20
45.65238467625596
 30
0.0
 10
42.36536050156737
 20
45.221315681538
 30
0.0
 10
42.36536050156737
 20
44.73146349194808
 30
0.0
 10
42.36536050156737
 20
44.18857117653302
 30
0.0
 10
42.36536050156737
 20
43.59900365131987
 30
0.0
 10
42.36536050156737
 20
42.96967305649503
 30
0.0
 10
42.36536050156737
 20
42.30795771788037
 30
0.0
 10
42.36536050156737
 20
41.62161564280905
 30
0.0
 10
42.36536050156737
 20
40.91869356458272
 30
0.0
 10
42.36536050156737
 20
40.20743260188082
 30
0.0
 10
42.36536050156737
 20
39.49617163917892
 30
0.0
 10
42.36536050156737
 20
38.79324956095259
 30
0.0
 10
42.36536050156737
 20
38.10690748588127
 30
0.0
 10
42.36536050156737
 20
37.44519214726662
 30
0.0
 10
42.36536050156737
 20
36.81586155244178
 30
0.0
 10
42.36536050156737
 20
36.22629402722863
 30
0.0
 10
42.36536050156737
 20
35.68340171181357
 30
0.0
 10
42.36536050156737
 20
35.19354952222366
 30
0.0
 10
42.36536050156737
 20
34.76248052750572
 30
0.0
 10
42.36536050156737
 20
34.39524861749267
 30
0.0
 10
42.36536050156737
 20
34.09615925056607
 30
0.0
 10
42.36536050156737
 20
33.86871897609313
 30
0.0
 10
42.36536050156737
 20
33.71559432334142
 30
0.0
 10
42.36536050156737
 20
33.63858053886123
 30
0.0
 10
42.36536050156737
 20
33.62893260188086
 30
0.0
 10
42.36536050156737
 20
33.63087987900929
 30
0.0
 10
42.36536050156737
 20
33.62893260188087
 30
0.0
  0
LINE
  5
168
330
1F
100
AcDbEntity
  8
0
  6
CENTERX2
 62
     7
370
    18
100
AcDbLine
 10
57.3153605016
 20
14.4332594693
 30
0.0
 11
57.3153605016
 21
70.0217099096
 31
0.0
  0
LINE
  5
169
330
1F
100
AcDbEntity
  8
0
  6
CENTERX2
 62
     7
370
    18
100
AcDbLine
 10
23.5680548172
 20
40.2074326019
 30
0.0
 11
71.7519134046
 21
40.2074326019
 31
0.0
  0
LINE
  5
16A
330
1F
100
AcDbEntity
  8
0
  6
Continuous
 62
     7
370
    25
100
AcDbLine
 10
45.8153605016
 20
110.3431583561
 30
0.0
 11
43.0653605016
 21
110.3431583561
 31
0.0
  0
LINE
  5
16B
330
1F
100
AcDbEntity
  8
0
  6
Continuous
 62
     7
370
    25
100
AcDbLine
 10
43.0653605016
 20
94.3431583561
 30
0.0
 11
45.8153605016
 21
94.3431583561
 31
0.0
  0
LINE
  5
16C
330
1F
100
AcDbEntity
  8
0
  6
Continuous
 62
     7
370
    25
100
AcDbLine
 10
43.0653605016
 20
110.3431583561
 30
0.0
 11
42.8653605016
 21
110.1431583561
 31
0.0
  0
LINE
  5
16D
330
1F
100
AcDbEntity
  8
0
  6
Continuous
 62
     7
370
    25
100
AcDbLine
 10
42.8653605016
 20
94.5431583561
 30
0.0
 11
43.0653605016
 21
94.3431583561
 31
0.0
  0
LINE
  5
16E
330
1F
100
AcDbEntity
  8
0
  6
Continuous
 62
     7
370
    25
100
AcDbLine
 10
42.8653605016
 20
108.9216583561
 30
0.0
 11
38.8768341725
 21
108.9216583561
 31
0.0
  0
LINE
  5
16F
330
1F
100
AcDbEntity
  8
0
  6
Continuous
 62
     7
370
    25
100
AcDbLine
 10
38.8768341725
 20
95.7646583561
 30
0.0
 11
42.8653605016
 21
95.7646583561
 31
0.0
  0
LINE
  5
170
330
1F
100
AcDbEntity
  8
0
  6
Continuous
 62
     7
370
    25
100
AcDbLine
 10
26.0211717398
 20
110.8431583561
 30
0.0
 11
25.8768341725
 21
110.5931583561
 31
0.0
  0
LINE
  5
171
330
1F
100
AcDbEntity
  8
0
  6
Continuous
 62
     7
370
    25
100
AcDbLine
 10
25.8768341725
 20
94.0931583561
 30
0.0
 11
26.0211717398
 21
93.8431583561
 31
0.0
  0
LINE
  5
172
330
1F
100
AcDbEntity
  8
0
  6
Continuous
 62
     7
370
    25
100
AcDbLine
 10
38.7324966052
 20
93.8431583561
 30
0.0
 11
38.8768341725
 21
94.0931583561
 31
0.0
  0
LINE
  5
173
330
1F
100
AcDbEntity
  8
0
  6
Continuous
 62
     7
370
    25
100
AcDbLine
 10
38.8768341725
 20
110.5931583561
 30
0.0
 11
38.7324966052
 21
110.8431583561
 31
0.0
  0
LINE
  5
174
330
1F
100
AcDbEntity
  8
0
  6
Continuous
 62
     7
370
    25
100
AcDbLine
 10
69.1710229343
 20
93.8431583561
 30
0.0
 11
69.3153605016
 21
94.0931583561
 31
0.0
  0
LINE
  5
175
330
1F
100
AcDbEntity
  8
0
  6
Continuous
 62
     7
370
    25
100
AcDbLine
 10
69.3153605016
 20
110.5931583561
 30
0.0
 11
69.1710229343
 21
110.8431583561
 31
0.0
  0
LINE
  5
176
330
1F
100
AcDbEntity
  8
0
  6
Continuous
 62
     7
370
    25
100
AcDbLine
 10
43.0653605016
 20
110.3431583561
 30
0.0
 11
43.0653605016
 21
106.3281411077
 31
0.0
  0
LINE
  5
177
330
1F
100
AcDbEntity
  8
0
  6
Continuous
 62
     7
370
    25
100
AcDbLine
 10
43.0653605016
 20
98.3581756044
 30
0.0
 11
43.0653605016
 21
94.3431583561
 31
0.0
  0
LINE
  5
178
330
1F
100
AcDbEntity
  8
0
  6
Continuous
 62
     7
370
    25
100
AcDbLine
 10
42.8653605016
 20
94.5431583561
 30
0.0
 11
42.8653605016
 21
98.3824303174
 31
0.0
  0
LINE
  5
179
330
1F
100
AcDbEntity
  8
0
  6
Continuous
 62
     7
370
    25
100
AcDbLine
 10
42.8653605016
 20
106.3038863947
 30
0.0
 11
42.8653605016
 21
110.1431583561
 31
0.0
  0
SPLINE
  5
17A
330
1F
100
AcDbEntity
  8
0
  6
Continuous
 62
     7
370
    25
100
AcDbSpline
210
0.0
220
0.0
230
1.0
 70
    24
 71
     3
 72
    12
 73
     8
 74
     0
 42
0.00000001
 43
0.00000001
 40
0.0
 40
0.0
 40
0.0
 40
0.0
 40
0.2240472152784959
 40
0.4755446893836405
 40
0.726977096642082
 40
0.9845929397980183
 40
0.9999999999999999
 40
0.9999999999999999
 40
0.9999999999999999
 40
0.9999999999999999
 10
26.78036111839449
 20
110.8431583560653
 30
0.0
 10
26.68182247219531
 20
110.8431583560653
 30
0.0
 10
26.47267222749881
 20
110.8431583560653
 30
0.0
 10
26.2301104069336
 20
110.8431583560652
 30
0.0
 10
26.07215968474088
 20
110.8431583560652
 30
0.0
 10
26.0056853669589
 20
110.8431583560652
 30
0.0
 10
26.0237598787353
 20
110.8431583560652
 30
0.0
 10
26.02477984844346
 20
110.8431583560652
 30
0.0
  0
SPLINE
  5
17B
330
1F
100
AcDbEntity
  8
0
  6
Continuous
 62
     7
370
    25
100
AcDbSpline
210
0.0
220
0.0
230
1.0
 70
     8
 71
     3
 72
    11
 73
     7
 74
     0
 42
0.00000001
 43
0.00000001
 40
0.0
 40
0.0
 40
0.0
 40
0.0
 40
0.2078428791078484
 40
0.4041174254395385
 40
0.6004225887532643
 40
1.0
 40
1.0
 40
1.0
 40
1.0
 10
26.05246763904829
 20
105.8431583560652
 30
0.0
 10
26.03566622545883
 20
106.19395057474
 30
0.0
 10
26.00299854864132
 20
106.876010257918
 30
0.0
 10
26.08501215242496
 20
107.888496037909
 30
0.0
 10
26.28749306753691
 20
109.2154849402445
 30
0.0
 10
26.58252399519943
 20
110.1898106182138
 30
0.0
 10
26.78036111839449
 20
110.8431583560653
 30
0.0
  0
SPLINE
  5
17C
330
1F
100
AcDbEntity
  8
0
  6
Continuous
 62
     7
370
    25
100
AcDbSpline
210
0.0
220
0.0
230
1.0
 70
     8
 71
     3
 72
    12
 73
     8
 74
     0
 42
0.00000001
 43
0.00000001
 40
0.0
 40
0.0
 40
0.0
 40
0.0
 40
0.2253923253478569
 40
0.4507209242740461
 40
0.6810902123832189
 40
0.9114179295261066
 40
0.9999999999999999
 40
0.9999999999999999
 40
0.9999999999999999
 40
0.9999999999999999
 10
26.78036111839449
 20
93.84315835606523
 30
0.0
 10
26.66487402906051
 20
94.21038775581148
 30
0.0
 10
26.43393250269756
 20
94.94474272649994
 30
0.0
 10
26.18401781235632
 20
96.07566472457745
 30
0.0
 10
26.0393640470942
 20
97.22757770851037
 30
0.0
 10
26.00010617082769
 20
98.15681484698474
 30
0.0
 10
26.04504505664228
 20
98.69395849382609
 30
0.0
 10
26.05752751941019
 20
98.84315835606512
 30
0.0
  0
SPLINE
  5
17D
330
1F
100
AcDbEntity
  8
0
  6
Continuous
 62
     7
370
    25
100
AcDbSpline
210
0.0
220
0.0
230
1.0
 70
    24
 71
     3
 72
    12
 73
     8
 74
     0
 42
0.00000001
 43
0.00000001
 40
0.0
 40
0.0
 40
0.0
 40
0.0
 40
0.0089637253647342
 40
0.260139450167069
 40
0.5180100644865338
 40
0.7759524183682305
 40
1.0
 40
1.0
 40
1.0
 40
1.0
 10
26.02343810941414
 20
93.84315835606522
 30
0.0
 10
26.02284129431842
 20
93.84315835606522
 30
0.0
 10
26.00552091193994
 20
93.84315835606525
 30
0.0
 10
26.06862344035203
 20
93.8431583560652
 30
0.0
 10
26.22388402741756
 20
93.84315835606523
 30
0.0
 10
26.46987140885479
 20
93.84315835606523
 30
0.0
 10
26.68183311265169
 20
93.84315835606523
 30
0.0
 10
26.78036111839449
 20
93.84315835606523
 30
0.0
  0
LINE
  5
17E
330
1F
100
AcDbEntity
  8
0
  6
Continuous
 62
     7
370
    25
100
AcDbLine
 10
25.8768341725
 20
94.0931583561
 30
0.0
 11
25.8768341725
 21
98.8431583561
 31
0.0
  0
LINE
  5
17F
330
1F
100
AcDbEntity
  8
0
  6
Continuous
 62
     7
370
    25
100
AcDbLine
 10
25.8768341725
 20
105.8431583561
 30
0.0
 11
25.8768341725
 21
110.5931583561
 31
0.0
  0
LINE
  5
180
330
1F
100
AcDbEntity
  8
0
  6
Continuous
 62
     7
370
    25
100
AcDbLine
 10
26.7803611184
 20
110.8431583561
 30
0.0
 11
37.9733072267
 21
110.8431583561
 31
0.0
  0
SPLINE
  5
181
330
1F
100
AcDbEntity
  8
0
  6
Continuous
 62
     7
370
    25
100
AcDbSpline
210
0.0
220
0.0
230
1.0
 70
     8
 71
     3
 72
    11
 73
     7
 74
     0
 42
0.00000001
 43
0.00000001
 40
0.0
 40
0.0
 40
0.0
 40
0.0
 40
0.1879664709170573
 40
0.3891658394809295
 40
0.5903965932527566
 40
1.0
 40
1.0
 40
1.0
 40
1.0
 10
38.70439950221065
 20
105.9670763526232
 30
0.0
 10
38.7188341725039
 20
106.2765536763779
 30
0.0
 10
38.7487197183403
 20
106.9172956231289
 30
0.0
 10
38.66828250030095
 20
107.8884934816238
 30
0.0
 10
38.46638707542008
 20
109.215486389072
 30
0.0
 10
38.17122936550277
 20
110.1898111997728
 30
0.0
 10
37.97330722668998
 20
110.8431583560653
 30
0.0
  0
SPLINE
  5
182
330
1F
100
AcDbEntity
  8
0
  6
Continuous
 62
     7
370
    25
100
AcDbSpline
210
0.0
220
0.0
230
1.0
 70
    24
 71
     3
 72
    12
 73
     8
 74
     0
 42
0.00000001
 43
0.00000001
 40
0.0
 40
0.0
 40
0.0
 40
0.0
 40
0.0089637253647342
 40
0.260139450167069
 40
0.5180100644865338
 40
0.7759524183682304
 40
1.0
 40
1.0
 40
1.0
 40
1.0
 10
38.73023023567033
 20
93.84315835606522
 30
0.0
 10
38.73082705076605
 20
93.84315835606522
 30
0.0
 10
38.74814743314455
 20
93.8431583560652
 30
0.0
 10
38.68504490473243
 20
93.84315835606522
 30
0.0
 10
38.52978431766692
 20
93.84315835606522
 30
0.0
 10
38.28379693622968
 20
93.84315835606523
 30
0.0
 10
38.0718352324328
 20
93.84315835606523
 30
0.0
 10
37.97330722668998
 20
93.84315835606523
 30
0.0
  0
SPLINE
  5
183
330
1F
100
AcDbEntity
  8
0
  6
Continuous
 62
     7
370
    25
100
AcDbSpline
210
0.0
220
0.0
230
1.0
 70
     8
 71
     3
 72
    12
 73
     8
 74
     0
 42
0.00000001
 43
0.00000001
 40
0.0
 40
0.0
 40
0.0
 40
0.0
 40
0.2313366576795561
 40
0.4626079082634103
 40
0.6990527874798864
 40
0.9354549993678185
 40
0.9999999999999999
 40
0.9999999999999999
 40
0.9999999999999999
 40
0.9999999999999999
 10
37.97330722668998
 20
93.84315835606523
 30
0.0
 10
38.08877437786163
 20
94.21038705855311
 30
0.0
 10
38.31967603353714
 20
94.94474063492201
 30
0.0
 10
38.56989191832942
 20
96.07567316608397
 30
0.0
 10
38.71337652136226
 20
97.22754526319295
 30
0.0
 10
38.75412281630894
 20
98.11342842869648
 30
0.0
 10
38.71407643093286
 20
98.60733714686043
 30
0.0
 10
38.70548756929242
 20
98.71326714787016
 30
0.0
  0
SPLINE
  5
184
330
1F
100
AcDbEntity
  8
0
  6
Continuous
 62
     7
370
    25
100
AcDbSpline
210
0.0
220
0.0
230
1.0
 70
    24
 71
     3
 72
    12
 73
     8
 74
     0
 42
0.00000001
 43
0.00000001
 40
0.0
 40
0.0
 40
0.0
 40
0.0
 40
0.2240472152784959
 40
0.4755446893836405
 40
0.726977096642082
 40
0.9845929397980183
 40
0.9999999999999999
 40
0.9999999999999999
 40
0.9999999999999999
 40
0.9999999999999999
 10
37.97330722668998
 20
110.8431583560653
 30
0.0
 10
38.07184587288914
 20
110.8431583560653
 30
0.0
 10
38.28099611758564
 20
110.8431583560653
 30
0.0
 10
38.5235579381509
 20
110.8431583560652
 30
0.0
 10
38.68150866034356
 20
110.8431583560652
 30
0.0
 10
38.74798297812558
 20
110.8431583560652
 30
0.0
 10
38.72990846634917
 20
110.8431583560652
 30
0.0
 10
38.72888849664101
 20
110.8431583560652
 30
0.0
  0
LINE
  5
185
330
1F
100
AcDbEntity
  8
0
  6
Continuous
 62
     7
370
    25
100
AcDbLine
 10
38.8768341725
 20
94.0931583561
 30
0.0
 11
38.8768341725
 21
98.7356502151
 31
0.0
  0
LINE
  5
186
330
1F
100
AcDbEntity
  8
0
  6
Continuous
 62
     7
370
    25
100
AcDbLine
 10
38.8768341725
 20
105.9506664971
 30
0.0
 11
38.8768341725
 21
110.5931583561
 31
0.0
  0
LINE
  5
187
330
1F
100
AcDbEntity
  8
0
  6
Continuous
 62
     7
370
    25
100
AcDbLine
 10
26.7803611184
 20
93.8431583561
 30
0.0
 11
37.9733072267
 21
93.8431583561
 31
0.0
  0
SPLINE
  5
188
330
1F
100
AcDbEntity
  8
0
  6
Continuous
 62
     7
370
    25
100
AcDbSpline
210
0.0
220
0.0
230
1.0
 70
     8
 71
     3
 72
    15
 73
    11
 74
     0
 42
0.00000001
 43
0.00000001
 40
0.0
 40
0.0
 40
0.0
 40
0.0
 40
0.0090459071881971
 40
0.1032433785236876
 40
0.1542564497735193
 40
0.3133169026715103
 40
0.524372039941443
 40
0.6678060008509185
 40
0.9918332554187027
 40
0.9999999999999999
 40
0.9999999999999999
 40
0.9999999999999999
 40
0.9999999999999999
 10
52.07627516890926
 20
104.0170713995435
 30
0.0
 10
52.07628086087593
 20
104.017053753819
 30
0.0
 10
52.07634582482672
 20
104.0168523584065
 30
0.0
 10
52.07834151126261
 20
104.0106627377403
 30
0.0
 10
52.08615850747907
 20
103.9864608058961
 30
0.0
 10
52.10332833123403
 20
103.9334418138945
 30
0.0
 10
52.12991222780157
 20
103.8520709266979
 30
0.0
 10
52.16774152629019
 20
103.7374918546754
 30
0.0
 10
52.19602230630045
 20
103.6530666769562
 30
0.0
 10
52.21585345383171
 20
103.5945958190042
 30
0.0
 10
52.21634098797458
 20
103.5931583560652
 30
0.0
  0
ARC
  5
189
330
1F
100
AcDbEntity
  8
0
  6
Continuous
 62
     7
370
    25
100
AcDbCircle
 10
57.3153605016
 20
102.3431583561
 30
0.0
 40
5.500000000000004
100
AcDbArc
 50
17.7189318734
 51
162.2810681266
  0
SPLINE
  5
18A
330
1F
100
AcDbEntity
  8
0
  6
Continuous
 62
     7
370
    25
100
AcDbSpline
210
0.0
220
0.0
230
1.0
 70
     8
 71
     3
 72
    15
 73
    11
 74
     0
 42
0.00000001
 43
0.00000001
 40
0.0
 40
0.0
 40
0.0
 40
0.0
 40
0.0081667445812973
 40
0.3321939991490806
 40
0.4756279600585563
 40
0.6866830973284896
 40
0.8457435502264806
 40
0.8967566214763123
 40
0.9909540928118028
 40
1.0
 40
1.0
 40
1.0
 40
1.0
 10
62.41438001516016
 20
103.5931583560652
 30
0.0
 10
62.41486754930303
 20
103.5945958190042
 30
0.0
 10
62.4346986968343
 20
103.6530666769563
 30
0.0
 10
62.46297947684454
 20
103.7374918546754
 30
0.0
 10
62.50080877533318
 20
103.8520709266979
 30
0.0
 10
62.52739267190071
 20
103.9334418138945
 30
0.0
 10
62.54456249565568
 20
103.9864608058961
 30
0.0
 10
62.55237949187214
 20
104.0106627377403
 30
0.0
 10
62.55437517830801
 20
104.0168523584065
 30
0.0
 10
62.55444014225881
 20
104.017053753819
 30
0.0
 10
62.55444583422548
 20
104.0170713995435
 30
0.0
  0
ARC
  5
18B
330
1F
100
AcDbEntity
  8
0
  6
Continuous
 62
     7
370
    25
100
AcDbCircle
 10
57.3153605016
 20
102.3431583561
 30
0.0
 40
5.250000000000002
100
AcDbArc
 50
13.774146998
 51
166.225853002
  0
SPLINE
  5
18C
330
1F
100
AcDbEntity
  8
0
  6
Continuous
 62
     7
370
    25
100
AcDbSpline
210
0.0
220
0.0
230
1.0
 70
     8
 71
     3
 72
    15
 73
    11
 74
     0
 42
0.00000001
 43
0.00000001
 40
0.0
 40
0.0
 40
0.0
 40
0.0
 40
0.0089557228015919
 40
0.099900335960821
 40
0.1531632460581752
 40
0.3125636920784863
 40
0.5249666935695052
 40
0.6689893599351772
 40
0.991915253381045
 40
1.0
 40
1.0
 40
1.0
 40
1.0
 10
62.79258607661903
 20
103.8431583560652
 30
0.0
 10
62.79257032104042
 20
103.8431475717021
 30
0.0
 10
62.79239456888386
 20
103.8430272730366
 30
0.0
 10
62.78696555286434
 20
103.8393088221185
 30
0.0
 10
62.76543006915703
 20
103.8245977810522
 30
0.0
 10
62.7177246408922
 20
103.7921489195936
 30
0.0
 10
62.64533369590028
 20
103.7435648792502
 30
0.0
 10
62.54341458388262
 20
103.6761944069818
 30
0.0
 10
62.46805949242759
 20
103.627380842248
 30
0.0
 10
62.41565984670427
 20
103.5939742920535
 30
0.0
 10
62.41438001516016
 20
103.5931583560652
 30
0.0
  0
ARC
  5
18D
330
1F
100
AcDbEntity
  8
0
  6
Continuous
 62
     7
370
    25
100
AcDbCircle
 10
62.7925860766
 20
104.0931583561
 30
0.0
 40
0.25
100
AcDbArc
 50
197.7189318734
 51
270.0
  0
SPLINE
  5
18E
330
1F
100
AcDbEntity
  8
0
  6
Continuous
 62
     7
370
    25
100
AcDbSpline
210
0.0
220
0.0
230
1.0
 70
     8
 71
     3
 72
    15
 73
    11
 74
     0
 42
0.00000001
 43
0.00000001
 40
0.0
 40
0.0
 40
0.0
 40
0.0
 40
0.0080847466189581
 40
0.3310106400648244
 40
0.4750333064304946
 40
0.6874363079215134
 40
0.8468367539418247
 40
0.900099664039179
 40
0.9910442771984082
 40
1.0
 40
1.0
 40
1.0
 40
1.0
 10
52.21634098797458
 20
103.5931583560652
 30
0.0
 10
52.21506115643046
 20
103.5939742920535
 30
0.0
 10
52.16266151070722
 20
103.627380842248
 30
0.0
 10
52.08730641925212
 20
103.6761944069818
 30
0.0
 10
51.98538730723447
 20
103.7435648792502
 30
0.0
 10
51.91299636224254
 20
103.7921489195936
 30
0.0
 10
51.86529093397772
 20
103.8245977810522
 30
0.0
 10
51.84375545027039
 20
103.8393088221184
 30
0.0
 10
51.83832643425088
 20
103.8430272730366
 30
0.0
 10
51.83815068209431
 20
103.8431475717021
 30
0.0
 10
51.83813492651571
 20
103.8431583560652
 30
0.0
  0
ARC
  5
18F
330
1F
100
AcDbEntity
  8
0
  6
Continuous
 62
     7
370
    25
100
AcDbCircle
 10
51.8381349265
 20
104.0931583561
 30
0.0
 40
0.2500000000000142
100
AcDbArc
 50
270.0
 51
342.2810681266
  0
SPLINE
  5
190
330
1F
100
AcDbEntity
  8
0
  6
Continuous
 62
     7
370
    25
100
AcDbSpline
210
0.0
220
0.0
230
1.0
 70
     8
 71
     3
 72
    15
 73
    11
 74
     0
 42
0.00000001
 43
0.00000001
 40
0.0
 40
0.0
 40
0.0
 40
0.0
 40
0.0081667445812695
 40
0.3321939991490083
 40
0.4756279600585602
 40
0.6866830973284899
 40
0.8457435502264811
 40
0.8967566214763185
 40
0.9909540928118029
 40
1.0
 40
1.0
 40
1.0
 40
1.0
 10
52.21634098797458
 20
101.0931583560652
 30
0.0
 10
52.2158534538317
 20
101.0917208931262
 30
0.0
 10
52.19602230629962
 20
101.0332500351745
 30
0.0
 10
52.16774152629036
 20
100.948824857455
 30
0.0
 10
52.12991222780153
 20
100.8342457854326
 30
0.0
 10
52.10332833123404
 20
100.752874898236
 30
0.0
 10
52.08615850747907
 20
100.6998559062343
 30
0.0
 10
52.0783415112626
 20
100.6756539743902
 30
0.0
 10
52.07634582482672
 20
100.669464353724
 30
0.0
 10
52.07628086087593
 20
100.6692629583114
 30
0.0
 10
52.07627516890926
 20
100.669245312587
 30
0.0
  0
ARC
  5
191
330
1F
100
AcDbEntity
  8
0
  6
Continuous
 62
     7
370
    25
100
AcDbCircle
 10
57.3153605016
 20
102.3431583561
 30
0.0
 40
5.250000000000002
100
AcDbArc
 50
193.774146998
 51
346.225853002
  0
SPLINE
  5
192
330
1F
100
AcDbEntity
  8
0
  6
Continuous
 62
     7
370
    25
100
AcDbSpline
210
0.0
220
0.0
230
1.0
 70
     8
 71
     3
 72
    15
 73
    11
 74
     0
 42
0.00000001
 43
0.00000001
 40
0.0
 40
0.0
 40
0.0
 40
0.0
 40
0.0090459071881971
 40
0.1032433785236875
 40
0.1542564497735192
 40
0.3133169026715101
 40
0.5243720399414421
 40
0.66780600085099
 40
0.9918332554187291
 40
1.0
 40
1.0
 40
1.0
 40
1.0
 10
62.55444583422548
 20
100.669245312587
 30
0.0
 10
62.55444014225881
 20
100.6692629583114
 30
0.0
 10
62.55437517830801
 20
100.669464353724
 30
0.0
 10
62.55237949187214
 20
100.6756539743902
 30
0.0
 10
62.54456249565568
 20
100.6998559062343
 30
0.0
 10
62.5273926719007
 20
100.752874898236
 30
0.0
 10
62.50080877533322
 20
100.8342457854326
 30
0.0
 10
62.46297947684439
 20
100.948824857455
 30
0.0
 10
62.43469869683511
 20
101.0332500351745
 30
0.0
 10
62.41486754930305
 20
101.0917208931262
 30
0.0
 10
62.41438001516016
 20
101.0931583560652
 30
0.0
  0
ARC
  5
193
330
1F
100
AcDbEntity
  8
0
  6
Continuous
 62
     7
370
    25
100
AcDbCircle
 10
57.3153605016
 20
102.3431583561
 30
0.0
 40
5.5
100
AcDbArc
 50
197.7189318734
 51
342.2810681266
  0
ARC
  5
194
330
1F
100
AcDbEntity
  8
0
  6
Continuous
 62
     7
370
    25
100
AcDbCircle
 10
51.8381349265
 20
100.5931583561
 30
0.0
 40
0.2500000000000077
100
AcDbArc
 50
17.7189318734
 51
90.0
  0
SPLINE
  5
195
330
1F
100
AcDbEntity
  8
0
  6
Continuous
 62
     7
370
    25
100
AcDbSpline
210
0.0
220
0.0
230
1.0
 70
     8
 71
     3
 72
    15
 73
    11
 74
     0
 42
0.00000001
 43
0.00000001
 40
0.0
 40
0.0
 40
0.0
 40
0.0
 40
0.0089557228015919
 40
0.0999003359608148
 40
0.153163246058169
 40
0.3125636920784848
 40
0.5249666935695
 40
0.6689893599352452
 40
0.9919152533810159
 40
1.0
 40
1.0
 40
1.0
 40
1.0
 10
51.83813492651571
 20
100.8431583560652
 30
0.0
 10
51.83815068209431
 20
100.8431691404284
 30
0.0
 10
51.83832643425087
 20
100.8432894390939
 30
0.0
 10
51.84375545027039
 20
100.847007890012
 30
0.0
 10
51.86529093397771
 20
100.8617189310783
 30
0.0
 10
51.91299636224254
 20
100.8941677925368
 30
0.0
 10
51.98538730723444
 20
100.9427518328803
 30
0.0
 10
52.08730641925223
 20
101.0101223051484
 30
0.0
 10
52.16266151070668
 20
101.0589358698832
 30
0.0
 10
52.21506115643044
 20
101.0923424200769
 30
0.0
 10
52.21634098797458
 20
101.0931583560652
 30
0.0
  0
ARC
  5
196
330
1F
100
AcDbEntity
  8
0
  6
Continuous
 62
     7
370
    25
100
AcDbCircle
 10
62.7925860766
 20
100.5931583561
 30
0.0
 40
0.2500000000000009
100
AcDbArc
 50
90.0
 51
162.2810681266
  0
SPLINE
  5
197
330
1F
100
AcDbEntity
  8
0
  6
Continuous
 62
     7
370
    25
100
AcDbSpline
210
0.0
220
0.0
230
1.0
 70
     8
 71
     3
 72
    15
 73
    11
 74
     0
 42
0.00000001
 43
0.00000001
 40
0.0
 40
0.0
 40
0.0
 40
0.0
 40
0.0080847466189818
 40
0.3310106400647568
 40
0.4750333064304975
 40
0.6874363079215144
 40
0.846836753941831
 40
0.9000996640391853
 40
0.991044277198408
 40
1.0
 40
1.0
 40
1.0
 40
1.0
 10
62.41438001516016
 20
101.0931583560652
 30
0.0
 10
62.41565984670429
 20
101.0923424200769
 30
0.0
 10
62.46805949242809
 20
101.0589358698833
 30
0.0
 10
62.5434145838825
 20
101.0101223051484
 30
0.0
 10
62.64533369590031
 20
100.9427518328803
 30
0.0
 10
62.7177246408922
 20
100.8941677925368
 30
0.0
 10
62.76543006915703
 20
100.8617189310783
 30
0.0
 10
62.78696555286434
 20
100.847007890012
 30
0.0
 10
62.79239456888387
 20
100.8432894390939
 30
0.0
 10
62.79257032104042
 20
100.8431691404284
 30
0.0
 10
62.79258607661903
 20
100.8431583560652
 30
0.0
  0
LINE
  5
198
330
1F
100
AcDbEntity
  8
0
  6
Continuous
 62
     7
370
    25
100
AcDbLine
 10
52.3153605016
 20
101.7431583561
 30
0.0
 11
62.3153605016
 21
101.7431583561
 31
0.0
  0
LINE
  5
199
330
1F
100
AcDbEntity
  8
0
  6
Continuous
 62
     7
370
    25
100
AcDbLine
 10
62.3153605016
 20
102.9431583561
 30
0.0
 11
52.3153605016
 21
102.9431583561
 31
0.0
  0
LINE
  5
19A
330
1F
100
AcDbEntity
  8
0
  6
Continuous
 62
     7
370
    25
100
AcDbLine
 10
52.3153605016
 20
102.9431583561
 30
0.0
 11
52.3153605016
 21
101.7431583561
 31
0.0
  0
LINE
  5
19B
330
1F
100
AcDbEntity
  8
0
  6
Continuous
 62
     7
370
    25
100
AcDbLine
 10
62.3153605016
 20
101.7431583561
 30
0.0
 11
62.3153605016
 21
102.9431583561
 31
0.0
  0
LINE
  5
19C
330
1F
100
AcDbEntity
  8
0
  6
Continuous
 62
     7
370
    25
100
AcDbLine
 10
51.5653605016
 20
101.0931583561
 30
0.0
 11
52.216340988
 21
101.0931583561
 31
0.0
  0
LINE
  5
19D
330
1F
100
AcDbEntity
  8
0
  6
Continuous
 62
     7
370
    25
100
AcDbLine
 10
51.5653605016
 20
103.5931583561
 30
0.0
 11
51.5653605016
 21
101.0931583561
 31
0.0
  0
LINE
  5
19E
330
1F
100
AcDbEntity
  8
0
  6
Continuous
 62
     7
370
    25
100
AcDbLine
 10
52.216340988
 20
103.5931583561
 30
0.0
 11
51.5653605016
 21
103.5931583561
 31
0.0
  0
LINE
  5
19F
330
1F
100
AcDbEntity
  8
0
  6
Continuous
 62
     7
370
    25
100
AcDbLine
 10
63.0653605016
 20
103.5931583561
 30
0.0
 11
62.4143800152
 21
103.5931583561
 31
0.0
  0
LINE
  5
1A0
330
1F
100
AcDbEntity
  8
0
  6
Continuous
 62
     7
370
    25
100
AcDbLine
 10
63.0653605016
 20
101.0931583561
 30
0.0
 11
63.0653605016
 21
103.5931583561
 31
0.0
  0
LINE
  5
1A1
330
1F
100
AcDbEntity
  8
0
  6
Continuous
 62
     7
370
    25
100
AcDbLine
 10
62.4143800152
 20
101.0931583561
 30
0.0
 11
63.0653605016
 21
101.0931583561
 31
0.0
  0
LINE
  5
1A2
330
1F
100
AcDbEntity
  8
0
  6
Continuous
 62
     7
370
    25
100
AcDbLine
 10
62.7925860766
 20
103.8431583561
 30
0.0
 11
63.0653605016
 21
103.8431583561
 31
0.0
  0
LINE
  5
1A3
330
1F
100
AcDbEntity
  8
0
  6
Continuous
 62
     7
370
    25
100
AcDbLine
 10
63.0653605016
 20
103.5931583561
 30
0.0
 11
63.0653605016
 21
103.8431583561
 31
0.0
  0
ARC
  5
1A4
330
1F
100
AcDbEntity
  8
0
  6
Continuous
 62
     7
370
    25
100
AcDbCircle
 10
51.5653605016
 20
103.5931583561
 30
0.0
 40
0.25
100
AcDbArc
 50
90.0
 51
180.0
  0
LINE
  5
1A5
330
1F
100
AcDbEntity
  8
0
  6
Continuous
 62
     7
370
    25
100
AcDbLine
 10
51.5653605016
 20
103.8431583561
 30
0.0
 11
51.5653605016
 21
103.5931583561
 31
0.0
  0
LINE
  5
1A6
330
1F
100
AcDbEntity
  8
0
  6
Continuous
 62
     7
370
    25
100
AcDbLine
 10
51.5653605016
 20
103.5931583561
 30
0.0
 11
51.3153605016
 21
103.5931583561
 31
0.0
  0
LINE
  5
1A7
330
1F
100
AcDbEntity
  8
0
  6
Continuous
 62
     7
370
    25
100
AcDbLine
 10
51.5653605016
 20
103.8431583561
 30
0.0
 11
51.8381349265
 21
103.8431583561
 31
0.0
  0
LINE
  5
1A8
330
1F
100
AcDbEntity
  8
0
  6
Continuous
 62
     7
370
    25
100
AcDbLine
 10
63.3153605016
 20
103.5931583561
 30
0.0
 11
63.0653605016
 21
103.5931583561
 31
0.0
  0
ARC
  5
1A9
330
1F
100
AcDbEntity
  8
0
  6
Continuous
 62
     7
370
    25
100
AcDbCircle
 10
63.0653605016
 20
103.5931583561
 30
0.0
 40
0.25
100
AcDbArc
 50
0.0
 51
90.0
  0
LINE
  5
1AA
330
1F
100
AcDbEntity
  8
0
  6
Continuous
 62
     7
370
    25
100
AcDbLine
 10
63.3153605016
 20
103.5931583561
 30
0.0
 11
63.3153605016
 21
101.0931583561
 31
0.0
  0
LINE
  5
1AB
330
1F
100
AcDbEntity
  8
0
  6
Continuous
 62
     7
370
    25
100
AcDbLine
 10
63.0653605016
 20
101.0931583561
 30
0.0
 11
63.3153605016
 21
101.0931583561
 31
0.0
  0
LINE
  5
1AC
330
1F
100
AcDbEntity
  8
0
  6
Continuous
 62
     7
370
    25
100
AcDbLine
 10
51.3153605016
 20
101.0931583561
 30
0.0
 11
51.5653605016
 21
101.0931583561
 31
0.0
  0
LINE
  5
1AD
330
1F
100
AcDbEntity
  8
0
  6
Continuous
 62
     7
370
    25
100
AcDbLine
 10
51.3153605016
 20
101.0931583561
 30
0.0
 11
51.3153605016
 21
103.5931583561
 31
0.0
  0
LINE
  5
1AE
330
1F
100
AcDbEntity
  8
0
  6
Continuous
 62
     7
370
    25
100
AcDbLine
 10
63.0653605016
 20
100.8431583561
 30
0.0
 11
63.0653605016
 21
101.0931583561
 31
0.0
  0
ARC
  5
1AF
330
1F
100
AcDbEntity
  8
0
  6
Continuous
 62
     7
370
    25
100
AcDbCircle
 10
63.0653605016
 20
101.0931583561
 30
0.0
 40
0.25
100
AcDbArc
 50
270.0
 51
0.0
  0
LINE
  5
1B0
330
1F
100
AcDbEntity
  8
0
  6
Continuous
 62
     7
370
    25
100
AcDbLine
 10
63.0653605016
 20
100.8431583561
 30
0.0
 11
62.7925860766
 21
100.8431583561
 31
0.0
  0
ARC
  5
1B1
330
1F
100
AcDbEntity
  8
0
  6
Continuous
 62
     7
370
    25
100
AcDbCircle
 10
51.5653605016
 20
101.0931583561
 30
0.0
 40
0.25
100
AcDbArc
 50
180.0
 51
270.0
  0
LINE
  5
1B2
330
1F
100
AcDbEntity
  8
0
  6
Continuous
 62
     7
370
    25
100
AcDbLine
 10
51.5653605016
 20
101.0931583561
 30
0.0
 11
51.5653605016
 21
100.8431583561
 31
0.0
  0
LINE
  5
1B3
330
1F
100
AcDbEntity
  8
0
  6
Continuous
 62
     7
370
    25
100
AcDbLine
 10
51.8381349265
 20
100.8431583561
 30
0.0
 11
51.5653605016
 21
100.8431583561
 31
0.0
  0
LINE
  5
1B4
330
1F
100
AcDbEntity
  8
0
  6
Continuous
 62
     7
370
    25
100
AcDbLine
 10
37.3153605016
 20
99.071459092
 30
0.0
 11
37.3153605016
 21
105.6148576201
 31
0.0
  0
LINE
  5
1B5
330
1F
100
AcDbEntity
  8
0
  6
Continuous
 62
     7
370
    25
100
AcDbLine
 10
35.13992364
 20
98.8431583561
 30
0.0
 11
37.3153605016
 21
99.071459092
 31
0.0
  0
LINE
  5
1B6
330
1F
100
AcDbEntity
  8
0
  6
Continuous
 62
     7
370
    25
100
AcDbLine
 10
17.3153605016
 20
98.8431583561
 30
0.0
 11
35.13992364
 21
98.8431583561
 31
0.0
  0
LINE
  5
1B7
330
1F
100
AcDbEntity
  8
0
  6
Continuous
 62
     7
370
    25
100
AcDbLine
 10
17.3153605016
 20
105.8431583561
 30
0.0
 11
17.3153605016
 21
98.8431583561
 31
0.0
  0
LINE
  5
1B8
330
1F
100
AcDbEntity
  8
0
  6
Continuous
 62
     7
370
    25
100
AcDbLine
 10
35.13992364
 20
105.8431583561
 30
0.0
 11
17.3153605016
 21
105.8431583561
 31
0.0
  0
LINE
  5
1B9
330
1F
100
AcDbEntity
  8
0
  6
Continuous
 62
     7
370
    25
100
AcDbLine
 10
37.3153605016
 20
105.6148576201
 30
0.0
 11
35.13992364
 21
105.8431583561
 31
0.0
  0
LINE
  5
1BA
330
1F
100
AcDbEntity
  8
0
  6
Continuous
 62
     7
370
    25
100
AcDbLine
 10
52.0915583272
 20
104.0641728369
 30
0.0
 11
51.9949940099
 21
103.9047735166
 31
0.0
  0
LINE
  5
1BB
330
1F
100
AcDbEntity
  8
0
  6
Continuous
 62
     7
370
    25
100
AcDbLine
 10
51.9727166293
 20
100.7979406887
 30
0.0
 11
52.0915583272
 21
100.6221438753
 31
0.0
  0
LINE
  5
1BC
330
1F
100
AcDbEntity
  8
0
  6
Continuous
 62
     7
370
    25
100
AcDbLine
 10
43.898790848
 20
104.9239609916
 30
0.0
 11
43.898790848
 21
99.7623557205
 31
0.0
  0
LINE
  5
1BD
330
1F
100
AcDbEntity
  8
0
  6
Continuous
 62
     7
370
    25
100
AcDbLine
 10
52.0915583272
 20
100.6221438752
 30
0.0
 11
43.898790848
 21
99.7623557205
 31
0.0
  0
LINE
  5
1BE
330
1F
100
AcDbEntity
  8
0
  6
Continuous
 62
     7
370
    25
100
AcDbLine
 10
43.898790848
 20
104.9239609916
 30
0.0
 11
52.0915583272
 21
104.0641728369
 31
0.0
  0
LINE
  5
1BF
330
1F
100
AcDbEntity
  8
0
  6
Continuous
 62
     7
370
    25
100
AcDbLine
 10
43.898790848
 20
99.7623557205
 30
0.0
 11
37.3153605016
 21
99.071459092
 31
0.0
  0
LINE
  5
1C0
330
1F
100
AcDbEntity
  8
0
  6
Continuous
 62
     7
370
    25
100
AcDbLine
 10
37.3153605016
 20
105.6148576201
 30
0.0
 11
43.898790848
 21
104.9239609916
 31
0.0
  0
ARC
  5
1C1
330
1F
100
AcDbEntity
  8
0
  6
Continuous
 62
     7
370
    25
100
AcDbCircle
 10
57.3153605016
 20
102.3431583561
 30
0.0
 40
7.450000000000649
100
AcDbArc
 50
233.0863788866
 51
126.9136211134
  0
ARC
  5
1C2
330
1F
100
AcDbEntity
  8
0
  6
Continuous
 62
     7
370
    25
100
AcDbCircle
 10
57.3153605016
 20
102.3431583561
 30
0.0
 40
7.207531252870791
100
AcDbArc
 50
195.3041237151
 51
238.9797515565
  0
ARC
  5
1C3
330
1F
100
AcDbEntity
  8
0
  6
Continuous
 62
     7
370
    25
100
AcDbCircle
 10
57.3153605016
 20
102.3431583561
 30
0.0
 40
7.207531252872437
100
AcDbArc
 50
121.0202484435
 51
164.6958762849
  0
ARC
  5
1C4
330
1F
100
AcDbEntity
  8
0
  6
Continuous
 62
     7
370
    25
100
AcDbCircle
 10
35.13992364
 20
170.8431583561
 30
0.0
 40
64.99999999999999
100
AcDbArc
 50
270.0
 51
286.5000949923
  0
ARC
  5
1C5
330
1F
100
AcDbEntity
  8
0
  6
Continuous
 62
     7
370
    25
100
AcDbCircle
 10
35.13992364
 20
33.8431583561
 30
0.0
 40
64.99999999999999
100
AcDbArc
 50
73.4999050077
 51
90.0
  0
SPLINE
  5
1C6
330
1F
100
AcDbEntity
  8
0
  6
Continuous
 62
     7
370
    25
100
AcDbSpline
210
0.0
220
0.0
230
1.0
 70
    24
 71
     3
 72
    10
 73
     6
 74
     0
 42
0.00000001
 43
0.00000001
 40
0.0
 40
0.0
 40
0.0
 40
0.0
 40
0.3696208360552755
 40
0.742287247190789
 40
0.9999999999999999
 40
0.9999999999999999
 40
0.9999999999999999
 40
0.9999999999999999
 10
68.49330152900977
 20
93.84315835606522
 30
0.0
 10
68.63450428402417
 20
93.84315835606522
 30
0.0
 10
68.91807326631964
 20
93.84315835606522
 30
0.0
 10
69.13721168224983
 20
93.84315835606522
 30
0.0
 10
69.15960264904919
 20
93.84315835606522
 30
0.0
 10
69.16875656469546
 20
93.84315835606522
 30
0.0
  0
SPLINE
  5
1C7
330
1F
100
AcDbEntity
  8
0
  6
Continuous
 62
     7
370
    25
100
AcDbSpline
210
0.0
220
0.0
230
1.0
 70
     8
 71
     3
 72
    10
 73
     6
 74
     0
 42
0.00000001
 43
0.00000001
 40
0.0
 40
0.0
 40
0.0
 40
0.0
 40
0.5
 40
0.5
 40
1.0
 40
1.0
 40
1.0
 40
1.0
 10
68.49330152900977
 20
94.09315835606522
 30
0.0
 10
68.46962613458538
 20
94.01877797868788
 30
0.0
 10
68.45653502470074
 20
93.95447733990211
 30
0.0
 10
68.45644870341248
 20
93.86626165511917
 30
0.0
 10
68.46961763735631
 20
93.84315835606522
 30
0.0
 10
68.49330152900977
 20
93.84315835606522
 30
0.0
  0
SPLINE
  5
1C8
330
1F
100
AcDbEntity
  8
0
  6
Continuous
 62
     7
370
    25
100
AcDbSpline
210
0.0
220
0.0
230
1.0
 70
     8
 71
     3
 72
    16
 73
    12
 74
     0
 42
0.00000001
 43
0.00000001
 40
0.0
 40
0.0
 40
0.0
 40
0.0
 40
0.2500000000000001
 40
0.2500000000000001
 40
0.5000000000000001
 40
0.5000000000000001
 40
0.6250000000000001
 40
0.6250000000000001
 40
0.7500000000000002
 40
0.7500000000000002
 40
1.0
 40
1.0
 40
1.0
 40
1.0
 10
68.49330152900977
 20
102.0931583560652
 30
0.0
 10
68.70131697711552
 20
101.4396415760244
 30
0.0
 10
68.8715232820885
 20
100.7814211669344
 30
0.0
 10
69.1064593136561
 20
99.45185858356864
 30
0.0
 10
69.17053144531975
 20
98.7804346014981
 30
0.0
 10
69.17126439424077
 20
97.76143351449139
 30
0.0
 10
69.15560491415773
 20
97.4200927321752
 30
0.0
 10
69.0943297875208
 20
96.74449422920473
 30
0.0
 10
69.04877351502167
 20
96.40883507924012
 30
0.0
 10
68.8722874822654
 20
95.40756944274042
 30
0.0
 10
68.70163102877972
 20
94.74766178413726
 30
0.0
 10
68.49330152900977
 20
94.09315835606522
 30
0.0
  0
SPLINE
  5
1C9
330
1F
100
AcDbEntity
  8
0
  6
Continuous
 62
     7
370
    25
100
AcDbSpline
210
0.0
220
0.0
230
1.0
 70
     8
 71
     3
 72
    10
 73
     6
 74
     0
 42
0.00000001
 43
0.00000001
 40
0.0
 40
0.0
 40
0.0
 40
0.0
 40
0.5
 40
0.5
 40
1.0
 40
1.0
 40
1.0
 40
1.0
 10
68.49330152900977
 20
102.5931583560652
 30
0.0
 10
68.46962613458538
 20
102.5187779786879
 30
0.0
 10
68.45653502470074
 20
102.4316848905723
 30
0.0
 10
68.45644870341248
 20
102.2555265016963
 30
0.0
 10
68.46961763735631
 20
102.1675654289685
 30
0.0
 10
68.49330152900977
 20
102.0931583560652
 30
0.0
  0
SPLINE
  5
1CA
330
1F
100
AcDbEntity
  8
0
  6
Continuous
 62
     7
370
    25
100
AcDbSpline
210
0.0
220
0.0
230
1.0
 70
     8
 71
     3
 72
    16
 73
    12
 74
     0
 42
0.00000001
 43
0.00000001
 40
0.0
 40
0.0
 40
0.0
 40
0.0
 40
0.2499999999999997
 40
0.2499999999999997
 40
0.4999999999999993
 40
0.4999999999999993
 40
0.6249999999999993
 40
0.6249999999999993
 40
0.7499999999999996
 40
0.7499999999999996
 40
1.0
 40
1.0
 40
1.0
 40
1.0
 10
68.49330152900977
 20
110.5931583560652
 30
0.0
 10
68.70131697711552
 20
109.9396415760244
 30
0.0
 10
68.8715232820885
 20
109.2814211669344
 30
0.0
 10
69.1064593136561
 20
107.9518585835687
 30
0.0
 10
69.17053144531975
 20
107.2804346014981
 30
0.0
 10
69.17126439424077
 20
106.2614335144914
 30
0.0
 10
69.15560491415773
 20
105.9200927321752
 30
0.0
 10
69.0943297875208
 20
105.2444942292047
 30
0.0
 10
69.04877351502167
 20
104.9088350792401
 30
0.0
 10
68.87228748226539
 20
103.9075694427404
 30
0.0
 10
68.70163102877972
 20
103.2476617841373
 30
0.0
 10
68.49330152900977
 20
102.5931583560652
 30
0.0
  0
SPLINE
  5
1CB
330
1F
100
AcDbEntity
  8
0
  6
Continuous
 62
     7
370
    25
100
AcDbSpline
210
0.0
220
0.0
230
1.0
 70
     8
 71
     3
 72
    10
 73
     6
 74
     0
 42
0.00000001
 43
0.00000001
 40
0.0
 40
0.0
 40
0.0
 40
0.0
 40
0.5
 40
0.5
 40
1.0
 40
1.0
 40
1.0
 40
1.0
 10
68.49330152900977
 20
110.8431583560652
 30
0.0
 10
68.46962613458538
 20
110.8431583560652
 30
0.0
 10
68.45653502470074
 20
110.8203659067354
 30
0.0
 10
68.45644870341248
 20
110.7324232026424
 30
0.0
 10
68.46961763735631
 20
110.6675654289685
 30
0.0
 10
68.49330152900977
 20
110.5931583560652
 30
0.0
  0
SPLINE
  5
1CC
330
1F
100
AcDbEntity
  8
0
  6
Continuous
 62
     7
370
    25
100
AcDbSpline
210
0.0
220
0.0
230
1.0
 70
    24
 71
     3
 72
    10
 73
     6
 74
     0
 42
0.00000001
 43
0.00000001
 40
0.0
 40
0.0
 40
0.0
 40
0.0
 40
0.2577089844074629
 40
0.6270767457727902
 40
1.0
 40
1.0
 40
1.0
 40
1.0
 10
69.16741482565646
 20
110.8431583560652
 30
0.0
 10
69.15881133368504
 20
110.8431583560652
 30
0.0
 10
69.13787667453785
 20
110.8431583560652
 30
0.0
 10
68.91890758427148
 20
110.8431583560652
 30
0.0
 10
68.63562251560606
 20
110.8431583560652
 30
0.0
 10
68.49330152900977
 20
110.8431583560652
 30
0.0
  0
LINE
  5
1CD
330
1F
100
AcDbEntity
  8
0
  6
Continuous
 62
     7
370
    25
100
AcDbLine
 10
69.3153605016
 20
110.5931583561
 30
0.0
 11
69.3153605016
 21
94.0931583561
 31
0.0
  0
SPLINE
  5
1CE
330
1F
100
AcDbEntity
  8
0
  6
Continuous
 62
     7
370
    25
100
AcDbSpline
210
0.0
220
0.0
230
1.0
 70
     8
 71
     3
 72
    10
 73
     6
 74
     0
 42
0.00000001
 43
0.00000001
 40
0.0
 40
0.0
 40
0.0
 40
0.0
 40
0.0476067770808104
 40
0.5198744872214788
 40
1.0
 40
1.0
 40
1.0
 40
1.0
 10
63.3169301607808
 20
106.7079047993342
 30
0.0
 10
63.31759241251081
 20
106.770393851065
 30
0.0
 10
63.32482431938757
 20
107.4527854288518
 30
0.0
 10
63.47125728952965
 20
108.7663261140313
 30
0.0
 10
63.81818624527897
 20
109.9808740311837
 30
0.0
 10
63.99308190682756
 20
110.5931583560652
 30
0.0
  0
LINE
  5
1CF
330
1F
100
AcDbEntity
  8
0
  6
Continuous
 62
     7
370
    25
100
AcDbLine
 10
68.493301529
 20
110.5931583561
 30
0.0
 11
63.9930819068
 21
110.5931583561
 31
0.0
  0
SPLINE
  5
1D0
330
1F
100
AcDbEntity
  8
0
  6
Continuous
 62
     7
370
    25
100
AcDbSpline
210
0.0
220
0.0
230
1.0
 70
     8
 71
     3
 72
    10
 73
     6
 74
     0
 42
0.00000001
 43
0.00000001
 40
0.0
 40
0.0
 40
0.0
 40
0.0
 40
0.0842308817642982
 40
0.5388033927700486
 40
1.0
 40
1.0
 40
1.0
 40
1.0
 10
45.81920820726883
 20
106.764035589944
 30
0.0
 10
45.82103715317261
 20
106.8730272003817
 30
0.0
 10
45.83273645202252
 20
107.5702186372662
 30
0.0
 10
45.99687028289848
 20
108.8627775750964
 30
0.0
 10
46.32688233250862
 20
110.0135900119593
 30
0.0
 10
46.49308190682756
 20
110.5931583560652
 30
0.0
  0
LINE
  5
1D1
330
1F
100
AcDbEntity
  8
0
  6
Continuous
 62
     7
370
    25
100
AcDbLine
 10
50.6376390963
 20
110.5931583561
 30
0.0
 11
46.4930819068
 21
110.5931583561
 31
0.0
  0
SPLINE
  5
1D2
330
1F
100
AcDbEntity
  8
0
  6
Continuous
 62
     7
370
    25
100
AcDbSpline
210
0.0
220
0.0
230
1.0
 70
     8
 71
     3
 72
     9
 73
     5
 74
     0
 42
0.00000001
 43
0.00000001
 40
0.0
 40
0.0
 40
0.0
 40
0.0
 40
0.7348585409108271
 40
1.0
 40
1.0
 40
1.0
 40
1.0
 10
50.63763909630717
 20
110.5931583560653
 30
0.0
 10
50.82950542163461
 20
109.9427458262023
 30
0.0
 10
51.09059829141281
 20
109.0576604748681
 30
0.0
 10
51.19932059170569
 20
108.150557637315
 30
0.0
 10
51.22814738104087
 20
107.9100470674222
 30
0.0
  0
SPLINE
  5
1D3
330
1F
100
AcDbEntity
  8
0
  6
Continuous
 62
     7
370
    25
100
AcDbSpline
210
0.0
220
0.0
230
1.0
 70
     8
 71
     3
 72
     9
 73
     5
 74
     0
 42
0.00000001
 43
0.00000001
 40
0.0
 40
0.0
 40
0.0
 40
0.0
 40
0.3105646641032131
 40
1.0
 40
1.0
 40
1.0
 40
1.0
 10
51.20193621113239
 20
96.78726009841793
 30
0.0
 10
51.17738240860785
 20
96.50375150058682
 30
0.0
 10
51.09832060485939
 20
95.59087044681411
 30
0.0
 10
50.82563688695451
 20
94.70435407123831
 30
0.0
 10
50.63763909630718
 20
94.09315835606522
 30
0.0
  0
LINE
  5
1D4
330
1F
100
AcDbEntity
  8
0
  6
Continuous
 62
     7
370
    25
100
AcDbLine
 10
46.4930819068
 20
94.0931583561
 30
0.0
 11
50.6376390963
 21
94.0931583561
 31
0.0
  0
SPLINE
  5
1D5
330
1F
100
AcDbEntity
  8
0
  6
Continuous
 62
     7
370
    25
100
AcDbSpline
210
0.0
220
0.0
230
1.0
 70
     8
 71
     3
 72
    10
 73
     6
 74
     0
 42
0.00000001
 43
0.00000001
 40
0.0
 40
0.0
 40
0.0
 40
0.0
 40
0.5170969822414088
 40
0.780236907652229
 40
1.0
 40
1.0
 40
1.0
 40
1.0
 10
46.49308190682756
 20
94.09315835606522
 30
0.0
 10
46.30827911755245
 20
94.74416541736211
 30
0.0
 10
46.0294340231477
 20
95.72645646490282
 30
0.0
 10
45.85031446020971
 20
97.01491135092937
 30
0.0
 10
45.83165015676118
 20
97.64030006062679
 30
0.0
 10
45.82315626690849
 20
97.92490660005245
 30
0.0
  0
LINE
  5
1D6
330
1F
100
AcDbEntity
  8
0
  6
Continuous
 62
     7
370
    25
100
AcDbLine
 10
63.9930819068
 20
94.0931583561
 30
0.0
 11
68.493301529
 21
94.0931583561
 31
0.0
  0
SPLINE
  5
1D7
330
1F
100
AcDbEntity
  8
0
  6
Continuous
 62
     7
370
    25
100
AcDbSpline
210
0.0
220
0.0
230
1.0
 70
     8
 71
     3
 72
    10
 73
     6
 74
     0
 42
0.00000001
 43
0.00000001
 40
0.0
 40
0.0
 40
0.0
 40
0.0
 40
0.5070320270788455
 40
0.7650501056375338
 40
0.9999999999999999
 40
0.9999999999999999
 40
0.9999999999999999
 40
0.9999999999999999
 10
63.99308190682758
 20
94.09315835606517
 30
0.0
 10
63.80809852623132
 20
94.74415692477119
 30
0.0
 10
63.52898094132902
 20
95.72643515801771
 30
0.0
 10
63.3475618191206
 20
97.04052588212618
 30
0.0
 10
63.32861547010028
 20
97.6916453066602
 30
0.0
 10
63.31958558794687
 20
98.00197061867817
 30
0.0
  0
LINE
  5
1D8
330
1F
100
AcDbEntity
  8
0
  6
Continuous
 62
     7
370
    25
100
AcDbLine
 10
63.3153605016
 20
97.9269948627
 30
0.0
 11
63.3153605016
 21
94.8431583561
 31
0.0
  0
LINE
  5
1D9
330
1F
100
AcDbEntity
  8
0
  6
Continuous
 62
     7
370
    25
100
AcDbLine
 10
63.3153605016
 20
94.8431583561
 30
0.0
 11
51.3153605016
 21
94.8431583561
 31
0.0
  0
LINE
  5
1DA
330
1F
100
AcDbEntity
  8
0
  6
Continuous
 62
     7
370
    25
100
AcDbLine
 10
51.3153605016
 20
96.7983427521
 30
0.0
 11
51.3153605016
 21
94.8431583561
 31
0.0
  0
LINE
  5
1DB
330
1F
100
AcDbEntity
  8
0
  6
Continuous
 62
     7
370
    25
100
AcDbLine
 10
51.3153605016
 20
109.8431583561
 30
0.0
 11
51.3153605016
 21
107.88797396
 31
0.0
  0
LINE
  5
1DC
330
1F
100
AcDbEntity
  8
0
  6
Continuous
 62
     7
370
    25
100
AcDbLine
 10
51.3153605016
 20
109.8431583561
 30
0.0
 11
63.3153605016
 21
109.8431583561
 31
0.0
  0
LINE
  5
1DD
330
1F
100
AcDbEntity
  8
0
  6
Continuous
 62
     7
370
    25
100
AcDbLine
 10
63.3153605016
 20
109.8431583561
 30
0.0
 11
63.3153605016
 21
106.7593218494
 31
0.0
  0
SPLINE
  5
1DE
330
1F
100
AcDbEntity
  8
0
  6
Continuous
 62
     7
370
    25
100
AcDbSpline
210
0.0
220
0.0
230
1.0
 70
     8
 71
     3
 72
     8
 73
     4
 74
     0
 42
0.00000001
 43
0.00000001
 40
0.0
 40
0.0
 40
0.0
 40
0.0
 40
1.0
 40
1.0
 40
1.0
 40
1.0
 10
50.7991244245882
 20
110.8431583560652
 30
0.0
 10
50.97282750080797
 20
110.5106469339297
 30
0.0
 10
51.14512971987067
 20
110.1773198340309
 30
0.0
 10
51.31536050156738
 20
109.8431583560652
 30
0.0
  0
SPLINE
  5
1DF
330
1F
100
AcDbEntity
  8
0
  6
Continuous
 62
     7
370
    25
100
AcDbSpline
210
0.0
220
0.0
230
1.0
 70
     8
 71
     3
 72
    10
 73
     6
 74
     0
 42
0.00000001
 43
0.00000001
 40
0.0
 40
0.0
 40
0.0
 40
0.0
 40
0.5
 40
0.5
 40
1.0
 40
1.0
 40
1.0
 40
1.0
 10
50.63763909631283
 20
110.8431583560652
 30
0.0
 10
50.61396370188852
 20
110.8431583560652
 30
0.0
 10
50.60087259199821
 20
110.8203659067357
 30
0.0
 10
50.60078627070981
 20
110.7324232026427
 30
0.0
 10
50.61395520465364
 20
110.6675654289687
 30
0.0
 10
50.63763909630716
 20
110.5931583560653
 30
0.0
  0
SPLINE
  5
1E0
330
1F
100
AcDbEntity
  8
0
  6
Continuous
 62
     7
370
    25
100
AcDbSpline
210
0.0
220
0.0
230
1.0
 70
    24
 71
     3
 72
     8
 73
     4
 74
     0
 42
0.00000001
 43
0.00000001
 40
0.0
 40
0.0
 40
0.0
 40
0.0
 40
1.0
 40
1.0
 40
1.0
 40
1.0
 10
50.79912442458819
 20
110.8431583560652
 30
0.0
 10
50.74822570766578
 20
110.8431583560652
 30
0.0
 10
50.69429157141516
 20
110.8431583560652
 30
0.0
 10
50.63763909630757
 20
110.8431583560652
 30
0.0
  0
SPLINE
  5
1E1
330
1F
100
AcDbEntity
  8
0
  6
Continuous
 62
     7
370
    25
100
AcDbSpline
210
0.0
220
0.0
230
1.0
 70
     8
 71
     3
 72
     8
 73
     4
 74
     0
 42
0.00000001
 43
0.00000001
 40
0.0
 40
0.0
 40
0.0
 40
0.0
 40
1.0
 40
1.0
 40
1.0
 40
1.0
 10
63.31536050156737
 20
109.8431583560652
 30
0.0
 10
63.48563810891108
 20
110.1774117523506
 30
0.0
 10
63.65790985753677
 20
110.5106782419195
 30
0.0
 10
63.83159657854642
 20
110.843158356065
 30
0.0
  0
SPLINE
  5
1E2
330
1F
100
AcDbEntity
  8
0
  6
Continuous
 62
     7
370
    25
100
AcDbSpline
210
0.0
220
0.0
230
1.0
 70
    24
 71
     3
 72
     8
 73
     4
 74
     0
 42
0.00000001
 43
0.00000001
 40
0.0
 40
0.0
 40
0.0
 40
0.0
 40
1.0
 40
1.0
 40
1.0
 40
1.0
 10
63.83159657854602
 20
110.8431583560652
 30
0.0
 10
63.88249281180125
 20
110.8431583560652
 30
0.0
 10
63.93642676676509
 20
110.8431583560652
 30
0.0
 10
63.99308190682756
 20
110.8431583560652
 30
0.0
  0
SPLINE
  5
1E3
330
1F
100
AcDbEntity
  8
0
  6
Continuous
 62
     7
370
    25
100
AcDbSpline
210
0.0
220
0.0
230
1.0
 70
     8
 71
     3
 72
    10
 73
     6
 74
     0
 42
0.00000001
 43
0.00000001
 40
0.0
 40
0.0
 40
0.0
 40
0.0
 40
0.5
 40
0.5
 40
1.0
 40
1.0
 40
1.0
 40
1.0
 10
63.99308190682756
 20
110.5931583560652
 30
0.0
 10
64.01675730125194
 20
110.6675387334426
 30
0.0
 10
64.0298484111366
 20
110.7318393722283
 30
0.0
 10
64.02993473242486
 20
110.8200550570113
 30
0.0
 10
64.01676579848103
 20
110.8431583560652
 30
0.0
 10
63.99308190682756
 20
110.8431583560652
 30
0.0
  0
SPLINE
  5
1E4
330
1F
100
AcDbEntity
  8
0
  6
Continuous
 62
     7
370
    25
100
AcDbSpline
210
0.0
220
0.0
230
1.0
 70
     8
 71
     3
 72
    10
 73
     6
 74
     0
 42
0.00000001
 43
0.00000001
 40
0.0
 40
0.0
 40
0.0
 40
0.0
 40
0.5
 40
0.5
 40
1.0
 40
1.0
 40
1.0
 40
1.0
 10
46.49308190682756
 20
110.8431583560652
 30
0.0
 10
46.5167558073835
 20
110.8431583560652
 30
0.0
 10
46.52984836456265
 20
110.8203677844178
 30
0.0
 10
46.52993477854493
 20
110.732421787119
 30
0.0
 10
46.51676438694631
 20
110.6675609943862
 30
0.0
 10
46.49308190682756
 20
110.5931583560652
 30
0.0
  0
SPLINE
  5
1E5
330
1F
100
AcDbEntity
  8
0
  6
Continuous
 62
     7
370
    25
100
AcDbSpline
210
0.0
220
0.0
230
1.0
 70
    24
 71
     3
 72
    12
 73
     8
 74
     0
 42
0.00000001
 43
0.00000001
 40
0.0
 40
0.0
 40
0.0
 40
0.0
 40
0.2499999999999999
 40
0.2499999999999999
 40
0.4999999999999998
 40
0.4999999999999998
 40
1.0
 40
1.0
 40
1.0
 40
1.0
 10
45.81536050156737
 20
110.8431583560652
 30
0.0
 10
45.81536050156737
 20
110.8431583560652
 30
0.0
 10
45.83135930654844
 20
110.8431583560652
 30
0.0
 10
45.89312944486283
 20
110.8431583560652
 30
0.0
 10
45.93887156916443
 20
110.8431583560652
 30
0.0
 10
46.11554171651127
 20
110.8431583560652
 30
0.0
 10
46.28579678199157
 20
110.8431583560652
 30
0.0
 10
46.49308190682756
 20
110.8431583560652
 30
0.0
  0
LINE
  5
1E6
330
1F
100
AcDbEntity
  8
0
  6
Continuous
 62
     7
370
    25
100
AcDbLine
 10
45.8153605016
 20
110.8431583561
 30
0.0
 11
45.8153605016
 21
106.7258046379
 31
0.0
  0
SPLINE
  5
1E7
330
1F
100
AcDbEntity
  8
0
  6
Continuous
 62
     7
370
    25
100
AcDbSpline
210
0.0
220
0.0
230
1.0
 70
     8
 71
     3
 72
     8
 73
     4
 74
     0
 42
0.00000001
 43
0.00000001
 40
0.0
 40
0.0
 40
0.0
 40
0.0
 40
1.0
 40
1.0
 40
1.0
 40
1.0
 10
51.31536050156737
 20
94.84315835606522
 30
0.0
 10
51.14508289422361
 20
94.50890495977981
 30
0.0
 10
50.9728111455979
 20
94.1756384702108
 30
0.0
 10
50.7991244245882
 20
93.84315835606522
 30
0.0
  0
SPLINE
  5
1E8
330
1F
100
AcDbEntity
  8
0
  6
Continuous
 62
     7
370
    25
100
AcDbSpline
210
0.0
220
0.0
230
1.0
 70
    24
 71
     3
 72
     8
 73
     4
 74
     0
 42
0.00000001
 43
0.00000001
 40
0.0
 40
0.0
 40
0.0
 40
0.0
 40
1.0
 40
1.0
 40
1.0
 40
1.0
 10
50.7991244245882
 20
93.84315835606522
 30
0.0
 10
50.74822570766568
 20
93.84315835606522
 30
0.0
 10
50.69429157141492
 20
93.84315835606522
 30
0.0
 10
50.63763909630718
 20
93.84315835606522
 30
0.0
  0
SPLINE
  5
1E9
330
1F
100
AcDbEntity
  8
0
  6
Continuous
 62
     7
370
    25
100
AcDbSpline
210
0.0
220
0.0
230
1.0
 70
     8
 71
     3
 72
    10
 73
     6
 74
     0
 42
0.00000001
 43
0.00000001
 40
0.0
 40
0.0
 40
0.0
 40
0.0
 40
0.5
 40
0.5
 40
1.0
 40
1.0
 40
1.0
 40
1.0
 10
50.63763909630718
 20
94.09315835606522
 30
0.0
 10
50.6139637018828
 20
94.01877797868788
 30
0.0
 10
50.60087259199815
 20
93.95447733990211
 30
0.0
 10
50.60078627070987
 20
93.86626165511917
 30
0.0
 10
50.61395520465371
 20
93.84315835606522
 30
0.0
 10
50.63763909630718
 20
93.84315835606522
 30
0.0
  0
SPLINE
  5
1EA
330
1F
100
AcDbEntity
  8
0
  6
Continuous
 62
     7
370
    25
100
AcDbSpline
210
0.0
220
0.0
230
1.0
 70
     8
 71
     3
 72
     8
 73
     4
 74
     0
 42
0.00000001
 43
0.00000001
 40
0.0
 40
0.0
 40
0.0
 40
0.0
 40
1.0
 40
1.0
 40
1.0
 40
1.0
 10
63.83159657854655
 20
93.84315835606522
 30
0.0
 10
63.65789350232679
 20
94.17566977820071
 30
0.0
 10
63.48559128326407
 20
94.50899687809958
 30
0.0
 10
63.31536050156737
 20
94.84315835606522
 30
0.0
  0
SPLINE
  5
1EB
330
1F
100
AcDbEntity
  8
0
  6
Continuous
 62
     7
370
    25
100
AcDbSpline
210
0.0
220
0.0
230
1.0
 70
     8
 71
     3
 72
    10
 73
     6
 74
     0
 42
0.00000001
 43
0.00000001
 40
0.0
 40
0.0
 40
0.0
 40
0.0
 40
0.5
 40
0.5
 40
1.0
 40
1.0
 40
1.0
 40
1.0
 10
63.99308190682758
 20
93.84315835606522
 30
0.0
 10
64.01675730125196
 20
93.84315835606522
 30
0.0
 10
64.0298484111366
 20
93.865950805395
 30
0.0
 10
64.02993473242488
 20
93.95389350948805
 30
0.0
 10
64.01676579848103
 20
94.0187512831619
 30
0.0
 10
63.99308190682758
 20
94.09315835606516
 30
0.0
  0
SPLINE
  5
1EC
330
1F
100
AcDbEntity
  8
0
  6
Continuous
 62
     7
370
    25
100
AcDbSpline
210
0.0
220
0.0
230
1.0
 70
    24
 71
     3
 72
     8
 73
     4
 74
     0
 42
0.00000001
 43
0.00000001
 40
0.0
 40
0.0
 40
0.0
 40
0.0
 40
1.0
 40
1.0
 40
1.0
 40
1.0
 10
63.83159657854656
 20
93.84315835606522
 30
0.0
 10
63.88249281180164
 20
93.84315835606522
 30
0.0
 10
63.93642676676528
 20
93.84315835606522
 30
0.0
 10
63.99308190682756
 20
93.84315835606522
 30
0.0
  0
SPLINE
  5
1ED
330
1F
100
AcDbEntity
  8
0
  6
Continuous
 62
     7
370
    25
100
AcDbSpline
210
0.0
220
0.0
230
1.0
 70
     8
 71
     3
 72
    10
 73
     6
 74
     0
 42
0.00000001
 43
0.00000001
 40
0.0
 40
0.0
 40
0.0
 40
0.0
 40
0.5
 40
0.5
 40
1.0
 40
1.0
 40
1.0
 40
1.0
 10
46.49308190682756
 20
94.09315835606522
 30
0.0
 10
46.51675414673912
 20
94.01878788913966
 30
0.0
 10
46.52984813667438
 20
93.9544822928518
 30
0.0
 10
46.52993500413582
 20
93.86625950504596
 30
0.0
 10
46.51676521437647
 20
93.84315835606522
 30
0.0
 10
46.49308190682756
 20
93.84315835606522
 30
0.0
  0
SPLINE
  5
1EE
330
1F
100
AcDbEntity
  8
0
  6
Continuous
 62
     7
370
    25
100
AcDbSpline
210
0.0
220
0.0
230
1.0
 70
    24
 71
     3
 72
    12
 73
     8
 74
     0
 42
0.00000001
 43
0.00000001
 40
0.0
 40
0.0
 40
0.0
 40
0.0
 40
0.2500000000000001
 40
0.2500000000000001
 40
0.5000000000000001
 40
0.5000000000000001
 40
1.0
 40
1.0
 40
1.0
 40
1.0
 10
45.81536050156737
 20
93.84315835606522
 30
0.0
 10
45.81536050156737
 20
93.84315835606522
 30
0.0
 10
45.83135930654844
 20
93.84315835606522
 30
0.0
 10
45.89312944486283
 20
93.84315835606522
 30
0.0
 10
45.93887156916443
 20
93.84315835606522
 30
0.0
 10
46.11554171651127
 20
93.84315835606522
 30
0.0
 10
46.28579678199157
 20
93.84315835606522
 30
0.0
 10
46.49308190682756
 20
93.84315835606522
 30
0.0
  0
LINE
  5
1EF
330
1F
100
AcDbEntity
  8
0
  6
Continuous
 62
     7
370
    25
100
AcDbLine
 10
45.8153605016
 20
93.8431583561
 30
0.0
 11
45.8153605016
 21
97.9605120742
 31
0.0
  0
LINE
  5
1F0
330
1F
100
AcDbEntity
  8
0
  6
Continuous
 62
     7
370
    25
100
AcDbLine
 10
63.9930819068
 20
110.8431583561
 30
0.0
 11
68.493301529
 21
110.8431583561
 31
0.0
  0
LINE
  5
1F1
330
1F
100
AcDbEntity
  8
0
  6
Continuous
 62
     7
370
    25
100
AcDbLine
 10
46.4930819068
 20
110.8431583561
 30
0.0
 11
50.6376390963
 21
110.8431583561
 31
0.0
  0
LINE
  5
1F2
330
1F
100
AcDbEntity
  8
0
  6
Continuous
 62
     7
370
    25
100
AcDbLine
 10
68.493301529
 20
93.8431583561
 30
0.0
 11
63.9930819068
 21
93.8431583561
 31
0.0
  0
LINE
  5
1F3
330
1F
100
AcDbEntity
  8
0
  6
Continuous
 62
     7
370
    25
100
AcDbLine
 10
50.6376390963
 20
93.8431583561
 30
0.0
 11
46.4930819068
 21
93.8431583561
 31
0.0
  0
LINE
  5
1F4
330
1F
100
AcDbEntity
  8
0
  6
Continuous
 62
     7
370
    25
100
AcDbLine
 10
63.8315965785
 20
110.8431583561
 30
0.0
 11
50.7991244246
 21
110.8431583561
 31
0.0
  0
LINE
  5
1F5
330
1F
100
AcDbEntity
  8
0
  6
Continuous
 62
     7
370
    25
100
AcDbLine
 10
63.8315965785
 20
93.8431583561
 30
0.0
 11
50.7991244246
 21
93.8431583561
 31
0.0
  0
LINE
  5
1F6
330
1F
100
AcDbEntity
  8
0
  6
Continuous
 62
     7
370
    25
100
AcDbLine
 10
68.493301529
 20
102.0931583561
 30
0.0
 11
64.7611646892
 21
102.0931583561
 31
0.0
  0
LINE
  5
1F7
330
1F
100
AcDbEntity
  8
0
  6
Continuous
 62
     7
370
    25
100
AcDbLine
 10
64.7611646892
 20
102.5931583561
 30
0.0
 11
68.493301529
 21
102.5931583561
 31
0.0
  0
MTEXT
  5
1F9
330
1F
100
AcDbEntity
  8
0
  6
Continuous
 62
     7
370
     0
100
AcDbMText
 10
60.8563197597
 20
85.2797018686
 30
0.0
 40
3.5
 41
0.0
 71
     1
 72
     1
  1
エースボール　アングル型
  7
SLDTEXTSTYLE0
 73
     1
 44
1.0
  0
MTEXT
  5
1FA
330
1F
100
AcDbEntity
  8
0
  6
Continuous
 62
     7
370
     0
100
AcDbMText
 10
60.8563197597
 20
80.7540073381
 30
0.0
 40
3.5
 41
0.0
 71
     1
 72
     1
  1
BR-3106
  7
SLDTEXTSTYLE0
 73
     1
 44
1.0
  0
INSERT
  5
206
330
1F
100
AcDbEntity
  8
0
  6
Continuous
 62
     7
370
    18
100
AcDbBlockReference
  2
SW_CENTERMARKSYMBOL_0
 10
57.3153605016
 20
102.3431583561
 30
0.0
  0
ARC
  5
207
330
1F
100
AcDbEntity
  8
0
  6
Continuous
 62
     7
370
    25
100
AcDbCircle
 10
109.0838273495
 20
67.3074326019
 30
0.0
 40
0.25
100
AcDbArc
 50
0.0
 51
90.0
  0
ARC
  5
208
330
1F
100
AcDbEntity
  8
0
  6
Continuous
 62
     7
370
    25
100
AcDbCircle
 10
98.5838273495
 20
67.3074326019
 30
0.0
 40
0.25
100
AcDbArc
 50
90.0
 51
180.0
  0
LINE
  5
209
330
1F
100
AcDbEntity
  8
0
  6
Continuous
 62
     7
370
    25
100
AcDbLine
 10
98.3338273495
 20
67.3074326019
 30
0.0
 11
98.3338273495
 21
66.7074326019
 31
0.0
  0
LINE
  5
20A
330
1F
100
AcDbEntity
  8
0
  6
Continuous
 62
     7
370
    25
100
AcDbLine
 10
109.3338273495
 20
66.7074326019
 30
0.0
 11
109.3338273495
 21
67.3074326019
 31
0.0
  0
LINE
  5
20B
330
1F
100
AcDbEntity
  8
0
  6
Continuous
 62
     7
370
    25
100
AcDbLine
 10
111.2838273495
 20
58.7074326019
 30
0.0
 11
109.3338273495
 21
66.7074326019
 31
0.0
  0
LINE
  5
20C
330
1F
100
AcDbEntity
  8
0
  6
Continuous
 62
     7
370
    25
100
AcDbLine
 10
98.3338273496
 20
66.7074326019
 30
0.0
 11
96.3838273495
 21
58.7074326019
 31
0.0
  0
LINE
  5
20D
330
1F
100
AcDbEntity
  8
0
  6
Continuous
 62
     7
370
    25
100
AcDbLine
 10
96.3838273495
 20
58.7074326019
 30
0.0
 11
96.8338273495
 21
50.7074326019
 31
0.0
  0
LINE
  5
20E
330
1F
100
AcDbEntity
  8
0
  6
Continuous
 62
     7
370
    25
100
AcDbLine
 10
110.8338273495
 20
50.7074326019
 30
0.0
 11
111.2838273495
 21
58.7074326019
 31
0.0
  0
LINE
  5
20F
330
1F
100
AcDbEntity
  8
0
  6
Continuous
 62
     7
370
    25
100
AcDbLine
 10
97.9337983514
 20
46.7473916689
 30
0.0
 11
97.9238537167
 21
46.6102623103
 31
0.0
  0
LINE
  5
210
330
1F
100
AcDbEntity
  8
0
  6
Continuous
 62
     7
370
    25
100
AcDbLine
 10
109.7338273495
 20
46.7406588551
 30
0.0
 11
109.7338273495
 21
50.7074326019
 31
0.0
  0
LINE
  5
211
330
1F
100
AcDbEntity
  8
0
  6
Continuous
 62
     7
370
    25
100
AcDbLine
 10
97.9338273495
 20
50.7074326019
 30
0.0
 11
97.9338273495
 21
46.7459612658
 31
0.0
  0
LINE
  5
212
330
1F
100
AcDbEntity
  8
0
  6
Continuous
 62
     7
370
    25
100
AcDbLine
 10
98.7345148495
 20
28.2074326019
 30
0.0
 11
99.0515477227
 21
18.0623806613
 31
0.0
  0
LINE
  5
213
330
1F
100
AcDbEntity
  8
0
  6
Continuous
 62
     7
370
    25
100
AcDbLine
 10
108.6161069764
 20
18.0623806613
 30
0.0
 11
108.9331398495
 21
28.2074326019
 31
0.0
  0
LINE
  5
214
330
1F
100
AcDbEntity
  8
0
  6
Continuous
 62
     7
370
    25
100
AcDbLine
 10
99.0515477227
 20
18.0623806613
 30
0.0
 11
99.8338273495
 21
16.7074326019
 31
0.0
  0
LINE
  5
215
330
1F
100
AcDbEntity
  8
0
  6
Continuous
 62
     7
370
    25
100
AcDbLine
 10
107.8338273495
 20
16.7074326019
 30
0.0
 11
108.6161069764
 21
18.0623806613
 31
0.0
  0
LINE
  5
216
330
1F
100
AcDbEntity
  8
0
  6
Continuous
 62
     7
370
    25
100
AcDbLine
 10
95.3338273495
 20
44.9124103748
 30
0.0
 11
95.3338273495
 21
45.11490989
 31
0.0
  0
LINE
  5
217
330
1F
100
AcDbEntity
  8
0
  6
Continuous
 62
     7
370
    25
100
AcDbLine
 10
95.3338273495
 20
45.11490989
 30
0.0
 11
95.509197074
 21
45.2161596476
 31
0.0
  0
LINE
  5
218
330
1F
100
AcDbEntity
  8
0
  6
Continuous
 62
     7
370
    25
100
AcDbLine
 10
112.1584576251
 20
45.2161596476
 30
0.0
 11
112.3338273495
 21
45.11490989
 31
0.0
  0
LINE
  5
219
330
1F
100
AcDbEntity
  8
0
  6
Continuous
 62
     7
370
    25
100
AcDbLine
 10
112.3338273495
 20
45.11490989
 30
0.0
 11
112.3338273495
 21
44.9124103748
 31
0.0
  0
LINE
  5
21A
330
1F
100
AcDbEntity
  8
0
  6
Continuous
 62
     7
370
    25
100
AcDbLine
 10
105.0838273495
 20
67.3074326019
 30
0.0
 11
105.0838273495
 21
67.5574326019
 31
0.0
  0
LINE
  5
21B
330
1F
100
AcDbEntity
  8
0
  6
Continuous
 62
     7
370
    25
100
AcDbLine
 10
105.0838273495
 20
67.3074326019
 30
0.0
 11
102.5838273495
 21
67.3074326019
 31
0.0
  0
LINE
  5
21C
330
1F
100
AcDbEntity
  8
0
  6
Continuous
 62
     7
370
    25
100
AcDbLine
 10
102.5838273495
 20
67.5574326019
 30
0.0
 11
102.5838273495
 21
67.3074326019
 31
0.0
  0
LINE
  5
21D
330
1F
100
AcDbEntity
  8
0
  6
Continuous
 62
     7
370
    25
100
AcDbLine
 10
102.5838273495
 20
67.5574326019
 30
0.0
 11
105.0838273495
 21
67.5574326019
 31
0.0
  0
ARC
  5
21E
330
1F
100
AcDbEntity
  8
0
  6
Continuous
 62
     7
370
    25
100
AcDbCircle
 10
105.0838273495
 20
67.3074326019
 30
0.0
 40
0.25
100
AcDbArc
 50
0.0
 51
90.0
  0
LINE
  5
21F
330
1F
100
AcDbEntity
  8
0
  6
Continuous
 62
     7
370
    25
100
AcDbLine
 10
105.0838273495
 20
67.3074326019
 30
0.0
 11
105.3338273495
 21
67.3074326019
 31
0.0
  0
LINE
  5
220
330
1F
100
AcDbEntity
  8
0
  6
Continuous
 62
     7
370
    25
100
AcDbLine
 10
105.0838273495
 20
66.7074326019
 30
0.0
 11
105.0838273495
 21
67.3074326019
 31
0.0
  0
LINE
  5
221
330
1F
100
AcDbEntity
  8
0
  6
Continuous
 62
     7
370
    25
100
AcDbLine
 10
105.3338273495
 20
67.3074326019
 30
0.0
 11
105.3338273495
 21
66.7074326019
 31
0.0
  0
LINE
  5
222
330
1F
100
AcDbEntity
  8
0
  6
Continuous
 62
     7
370
    25
100
AcDbLine
 10
105.3338273495
 20
66.7074326019
 30
0.0
 11
105.0838273495
 21
66.7074326019
 31
0.0
  0
LINE
  5
223
330
1F
100
AcDbEntity
  8
0
  6
Continuous
 62
     7
370
    25
100
AcDbLine
 10
102.5838273495
 20
67.3074326019
 30
0.0
 11
102.5838273495
 21
66.7074326019
 31
0.0
  0
LINE
  5
224
330
1F
100
AcDbEntity
  8
0
  6
Continuous
 62
     7
370
    25
100
AcDbLine
 10
105.0838273495
 20
66.7074326019
 30
0.0
 11
102.5838273495
 21
66.7074326019
 31
0.0
  0
LINE
  5
225
330
1F
100
AcDbEntity
  8
0
  6
Continuous
 62
     7
370
    25
100
AcDbLine
 10
102.3338273495
 20
66.7074326019
 30
0.0
 11
102.3338273495
 21
67.3074326019
 31
0.0
  0
LINE
  5
226
330
1F
100
AcDbEntity
  8
0
  6
Continuous
 62
     7
370
    25
100
AcDbLine
 10
102.3338273495
 20
67.3074326019
 30
0.0
 11
102.5838273495
 21
67.3074326019
 31
0.0
  0
LINE
  5
227
330
1F
100
AcDbEntity
  8
0
  6
Continuous
 62
     7
370
    25
100
AcDbLine
 10
102.5838273495
 20
66.7074326019
 30
0.0
 11
102.3338273495
 21
66.7074326019
 31
0.0
  0
ARC
  5
228
330
1F
100
AcDbEntity
  8
0
  6
Continuous
 62
     7
370
    25
100
AcDbCircle
 10
102.5838273495
 20
67.3074326019
 30
0.0
 40
0.25
100
AcDbArc
 50
90.0
 51
180.0
  0
SPLINE
  5
229
330
1F
100
AcDbEntity
  8
0
  6
Continuous
 62
     7
370
    25
100
AcDbSpline
210
0.0
220
0.0
230
1.0
 70
     8
 71
     3
 72
    15
 73
    11
 74
     0
 42
0.00000001
 43
0.00000001
 40
0.0
 40
0.0
 40
0.0
 40
0.0
 40
0.0081667445812973
 40
0.3321939991490806
 40
0.4756279600585563
 40
0.6866830973284896
 40
0.8457435502264806
 40
0.8967566214763123
 40
0.9909540928118028
 40
1.0
 40
1.0
 40
1.0
 40
1.0
 10
105.0838273495463
 20
67.55743260188086
 30
0.0
 10
105.0852648124853
 20
67.55742992553508
 30
0.0
 10
105.1437356704373
 20
67.55732106134835
 30
0.0
 10
105.2281608481564
 20
67.54777504907885
 30
0.0
 10
105.342739920179
 20
67.51041266582429
 30
0.0
 10
105.4241108073755
 20
67.46554715108962
 30
0.0
 10
105.4771297993772
 20
67.40767085151272
 30
0.0
 10
105.5013317312213
 20
67.3569948115408
 30
0.0
 10
105.5075213518875
 20
67.32830053202082
 30
0.0
 10
105.5077227473001
 20
67.30911370046529
 30
0.0
 10
105.5077403930245
 20
67.30743260188086
 30
0.0
  0
LINE
  5
22A
330
1F
100
AcDbEntity
  8
0
  6
Continuous
 62
     7
370
    25
100
AcDbLine
 10
105.3338273495
 20
67.3074326019
 30
0.0
 11
105.507740393
 21
67.3074326019
 31
0.0
  0
LINE
  5
22B
330
1F
100
AcDbEntity
  8
0
  6
Continuous
 62
     7
370
    25
100
AcDbLine
 10
102.1599143061
 20
67.3074326019
 30
0.0
 11
102.3338273495
 21
67.3074326019
 31
0.0
  0
SPLINE
  5
22C
330
1F
100
AcDbEntity
  8
0
  6
Continuous
 62
     7
370
    25
100
AcDbSpline
210
0.0
220
0.0
230
1.0
 70
     8
 71
     3
 72
    15
 73
    11
 74
     0
 42
0.00000001
 43
0.00000001
 40
0.0
 40
0.0
 40
0.0
 40
0.0
 40
0.0090459071881971
 40
0.1032433785236875
 40
0.1542564497735192
 40
0.3133169026715101
 40
0.5243720399414421
 40
0.66780600085099
 40
0.9918332554187291
 40
1.0
 40
1.0
 40
1.0
 40
1.0
 10
102.159914306068
 20
67.30743260188086
 30
0.0
 10
102.1599319517925
 20
67.30911370046529
 30
0.0
 10
102.160133347205
 20
67.32830053202079
 30
0.0
 10
102.1663229678712
 20
67.35699481154082
 30
0.0
 10
102.1905248997154
 20
67.4076708515127
 30
0.0
 10
102.243543891717
 20
67.46554715108964
 30
0.0
 10
102.3249147789136
 20
67.5104126658243
 30
0.0
 10
102.4394938509361
 20
67.54777504907885
 30
0.0
 10
102.5239190286555
 20
67.55732106134832
 30
0.0
 10
102.5823898866073
 20
67.55742992553509
 30
0.0
 10
102.5838273495463
 20
67.55743260188086
 30
0.0
  0
LINE
  5
22D
330
1F
100
AcDbEntity
  8
0
  6
Continuous
 62
     7
370
    25
100
AcDbLine
 10
102.1599143061
 20
66.7074326019
 30
0.0
 11
102.1599143061
 21
67.3074326019
 31
0.0
  0
LINE
  5
22E
330
1F
100
AcDbEntity
  8
0
  6
Continuous
 62
     7
370
    25
100
AcDbLine
 10
102.3338273495
 20
66.7074326019
 30
0.0
 11
102.1599143061
 21
66.7074326019
 31
0.0
  0
LINE
  5
22F
330
1F
100
AcDbEntity
  8
0
  6
Continuous
 62
     7
370
    25
100
AcDbLine
 10
105.507740393
 20
67.3074326019
 30
0.0
 11
105.507740393
 21
66.7074326019
 31
0.0
  0
LINE
  5
230
330
1F
100
AcDbEntity
  8
0
  6
Continuous
 62
     7
370
    25
100
AcDbLine
 10
105.507740393
 20
66.7074326019
 30
0.0
 11
105.3338273495
 21
66.7074326019
 31
0.0
  0
LINE
  5
231
330
1F
100
AcDbEntity
  8
0
  6
Continuous
 62
     7
370
    25
100
AcDbLine
 10
105.0838273495
 20
67.5574326019
 30
0.0
 11
109.0838273495
 21
67.5574326019
 31
0.0
  0
LINE
  5
232
330
1F
100
AcDbEntity
  8
0
  6
Continuous
 62
     7
370
    25
100
AcDbLine
 10
98.5838273495
 20
67.5574326019
 30
0.0
 11
102.5838273495
 21
67.5574326019
 31
0.0
  0
LINE
  5
233
330
1F
100
AcDbEntity
  8
0
  6
Continuous
 62
     7
370
    25
100
AcDbLine
 10
98.3338273495
 20
66.7074326019
 30
0.0
 11
102.1599143061
 21
66.7074326019
 31
0.0
  0
LINE
  5
234
330
1F
100
AcDbEntity
  8
0
  6
Continuous
 62
     7
370
    25
100
AcDbLine
 10
105.507740393
 20
66.7074326019
 30
0.0
 11
109.3338273495
 21
66.7074326019
 31
0.0
  0
LINE
  5
235
330
1F
100
AcDbEntity
  8
0
  6
Continuous
 62
     7
370
    25
100
AcDbLine
 10
103.2338273495
 20
67.5674326019
 30
0.0
 11
104.4338273495
 21
67.5674326019
 31
0.0
  0
LINE
  5
236
330
1F
100
AcDbEntity
  8
0
  6
Continuous
 62
     7
370
    25
100
AcDbLine
 10
103.2338273495
 20
67.5574326019
 30
0.0
 11
103.2338273495
 21
67.5674326019
 31
0.0
  0
LINE
  5
237
330
1F
100
AcDbEntity
  8
0
  6
Continuous
 62
     7
370
    25
100
AcDbLine
 10
104.4338273495
 20
67.5574326019
 30
0.0
 11
104.4338273495
 21
67.5674326019
 31
0.0
  0
LINE
  5
238
330
1F
100
AcDbEntity
  8
0
  6
Continuous
 62
     7
370
    25
100
AcDbLine
 10
96.3838273495
 20
58.7074326019
 30
0.0
 11
111.2838273496
 21
58.7074326019
 31
0.0
  0
LINE
  5
239
330
1F
100
AcDbEntity
  8
0
  6
Continuous
 62
     7
370
    25
100
AcDbLine
 10
96.8338273495
 20
50.7074326019
 30
0.0
 11
110.8338273495
 21
50.7074326019
 31
0.0
  0
LINE
  5
23A
330
1F
100
AcDbEntity
  8
0
  6
Continuous
 62
     7
370
    25
100
AcDbLine
 10
100.3338273495
 20
68.7074326019
 30
0.0
 11
100.3338273495
 21
67.5574326019
 31
0.0
  0
LINE
  5
23B
330
1F
100
AcDbEntity
  8
0
  6
Continuous
 62
     7
370
    25
100
AcDbLine
 10
100.3338273495
 20
68.7074326019
 30
0.0
 11
100.5621280855
 21
68.7074326019
 31
0.0
  0
LINE
  5
23C
330
1F
100
AcDbEntity
  8
0
  6
Continuous
 62
     7
370
    25
100
AcDbLine
 10
100.5621280855
 20
68.7074326019
 30
0.0
 11
100.5621280855
 21
67.5574326019
 31
0.0
  0
LINE
  5
23D
330
1F
100
AcDbEntity
  8
0
  6
Continuous
 62
     7
370
    25
100
AcDbLine
 10
107.1055266136
 20
68.7074326019
 30
0.0
 11
107.1055266136
 21
67.5574326019
 31
0.0
  0
LINE
  5
23E
330
1F
100
AcDbEntity
  8
0
  6
Continuous
 62
     7
370
    25
100
AcDbLine
 10
107.1055266136
 20
68.7074326019
 30
0.0
 11
107.3338273495
 21
68.7074326019
 31
0.0
  0
LINE
  5
23F
330
1F
100
AcDbEntity
  8
0
  6
Continuous
 62
     7
370
    25
100
AcDbLine
 10
107.3338273495
 20
67.5574326019
 30
0.0
 11
107.3338273495
 21
68.7074326019
 31
0.0
  0
LINE
  5
240
330
1F
100
AcDbEntity
  8
0
  6
Continuous
 62
     7
370
    25
100
AcDbLine
 10
100.5621280855
 20
68.7074326019
 30
0.0
 11
107.1055266136
 21
68.7074326019
 31
0.0
  0
SPLINE
  5
241
330
1F
100
AcDbEntity
  8
0
  6
Continuous
 62
     7
370
    25
100
AcDbSpline
210
0.0
220
0.0
230
1.0
 70
     8
 71
     3
 72
    10
 73
     6
 74
     0
 42
0.00000001
 43
0.00000001
 40
0.0
 40
0.0
 40
0.0
 40
0.0
 40
0.5
 40
0.5
 40
1.0
 40
1.0
 40
1.0
 40
1.0
 10
95.33382734954627
 20
35.58863044836386
 30
0.0
 10
95.33382734954627
 20
35.5027433865614
 30
0.0
 10
95.35661979887608
 20
35.41533617758126
 30
0.0
 10
95.44456250296915
 20
35.26269973498753
 30
0.0
 10
95.50942027664301
 20
35.19857669004195
 30
0.0
 10
95.58382734954627
 20
35.15561774647164
 30
0.0
  0
SPLINE
  5
242
330
1F
100
AcDbEntity
  8
0
  6
Continuous
 62
     7
370
    25
100
AcDbSpline
210
0.0
220
0.0
230
1.0
 70
    24
 71
     3
 72
    14
 73
    10
 74
     0
 42
0.00000001
 43
0.00000001
 40
0.0
 40
0.0
 40
0.0
 40
0.0
 40
0.25
 40
0.25
 40
0.5
 40
0.5
 40
0.75
 40
0.75
 40
1.0
 40
1.0
 40
1.0
 40
1.0
 10
95.33382734954627
 20
35.58863044836382
 30
0.0
 10
95.33382734954627
 20
36.3430105090138
 30
0.0
 10
95.33382734954627
 20
37.1124516764793
 30
0.0
 10
95.33382734954627
 20
38.65296303742046
 30
0.0
 10
95.33382734954627
 20
39.42781741742748
 30
0.0
 10
95.33382734954627
 20
40.98817837231304
 30
0.0
 10
95.33382734954627
 20
41.77863456509806
 30
0.0
 10
95.33382734954627
 20
43.32091422790653
 30
0.0
 10
95.33382734954627
 20
44.07830498110771
 30
0.0
 10
95.33382734954627
 20
44.82623475539788
 30
0.0
  0
SPLINE
  5
243
330
1F
100
AcDbEntity
  8
0
  6
Continuous
 62
     7
370
    25
100
AcDbSpline
210
0.0
220
0.0
230
1.0
 70
     8
 71
     3
 72
    10
 73
     6
 74
     0
 42
0.00000001
 43
0.00000001
 40
0.0
 40
0.0
 40
0.0
 40
0.0
 40
0.5
 40
0.5
 40
1.0
 40
1.0
 40
1.0
 40
1.0
 10
95.58382734954627
 20
45.25924745729009
 30
0.0
 10
95.50944697216894
 20
45.21630392638887
 30
0.0
 10
95.44514633338316
 20
45.15286148176475
 30
0.0
 10
95.35693064860024
 20
45.00038264464578
 30
0.0
 10
95.33382734954627
 20
44.9121526425385
 30
0.0
 10
95.33382734954627
 20
44.82623475539788
 30
0.0
  0
SPLINE
  5
244
330
1F
100
AcDbEntity
  8
0
  6
Continuous
 62
     7
370
    25
100
AcDbSpline
210
0.0
220
0.0
230
1.0
 70
    24
 71
     3
 72
    16
 73
    12
 74
     0
 42
0.00000001
 43
0.00000001
 40
0.0
 40
0.0
 40
0.0
 40
0.0
 40
0.2500000000000001
 40
0.2500000000000001
 40
0.5000000000000001
 40
0.5000000000000001
 40
0.6250000000000001
 40
0.6250000000000001
 40
0.7500000000000002
 40
0.7500000000000002
 40
1.0
 40
1.0
 40
1.0
 40
1.0
 10
103.5838273495463
 20
49.8780496108071
 30
0.0
 10
102.9303105695055
 20
49.50074152193061
 30
0.0
 10
102.2720901604155
 20
49.1207177915564
 30
0.0
 10
100.9425275770497
 20
48.35309447614571
 30
0.0
 10
100.2711035949792
 20
47.96544765935691
 30
0.0
 10
99.25210250797244
 20
47.37712710746906
 30
0.0
 10
98.91076172565626
 20
47.18005391491342
 30
0.0
 10
98.2351632226858
 20
46.78999693735931
 30
0.0
 10
97.89950407272117
 20
46.59620403677128
 30
0.0
 10
96.89823843622148
 20
46.01812305200785
 30
0.0
 10
96.23833077761833
 20
45.63712518767303
 30
0.0
 10
95.58382734954628
 20
45.25924745729009
 30
0.0
  0
SPLINE
  5
245
330
1F
100
AcDbEntity
  8
0
  6
Continuous
 62
     7
370
    25
100
AcDbSpline
210
0.0
220
0.0
230
1.0
 70
     8
 71
     3
 72
    10
 73
     6
 74
     0
 42
0.00000001
 43
0.00000001
 40
0.0
 40
0.0
 40
0.0
 40
0.0
 40
0.5
 40
0.5
 40
1.0
 40
1.0
 40
1.0
 40
1.0
 10
104.0838273495463
 20
49.8780496108071
 30
0.0
 10
104.0094469721689
 20
49.92099314170833
 30
0.0
 10
103.9223538840534
 20
49.94495790606431
 30
0.0
 10
103.7461954951774
 20
49.94511551153909
 30
0.0
 10
103.6582344224495
 20
49.92100855437742
 30
0.0
 10
103.5838273495463
 20
49.87804961080711
 30
0.0
  0
SPLINE
  5
246
330
1F
100
AcDbEntity
  8
0
  6
Continuous
 62
     7
370
    25
100
AcDbSpline
210
0.0
220
0.0
230
1.0
 70
    24
 71
     3
 72
    16
 73
    12
 74
     0
 42
0.00000001
 43
0.00000001
 40
0.0
 40
0.0
 40
0.0
 40
0.0
 40
0.2499999999999997
 40
0.2499999999999997
 40
0.4999999999999993
 40
0.4999999999999993
 40
0.6249999999999993
 40
0.6249999999999993
 40
0.7499999999999996
 40
0.7499999999999996
 40
1.0
 40
1.0
 40
1.0
 40
1.0
 10
112.0838273495463
 20
45.25924745729009
 30
0.0
 10
111.4303105695055
 20
45.63655554616659
 30
0.0
 10
110.7720901604155
 20
46.0165792765408
 30
0.0
 10
109.4425275770497
 20
46.78420259195148
 30
0.0
 10
108.7711035949792
 20
47.17184940874029
 30
0.0
 10
107.7521025079724
 20
47.76016996062814
 30
0.0
 10
107.4107617256563
 20
47.95724315318378
 30
0.0
 10
106.7351632226858
 20
48.34730013073789
 30
0.0
 10
106.3995040727212
 20
48.54109303132592
 30
0.0
 10
105.3982384362215
 20
49.11917401608935
 30
0.0
 10
104.7383307776183
 20
49.50017188042418
 30
0.0
 10
104.0838273495463
 20
49.8780496108071
 30
0.0
  0
SPLINE
  5
247
330
1F
100
AcDbEntity
  8
0
  6
Continuous
 62
     7
370
    25
100
AcDbSpline
210
0.0
220
0.0
230
1.0
 70
     8
 71
     3
 72
    10
 73
     6
 74
     0
 42
0.00000001
 43
0.00000001
 40
0.0
 40
0.0
 40
0.0
 40
0.0
 40
0.5
 40
0.5
 40
1.0
 40
1.0
 40
1.0
 40
1.0
 10
112.3338273495463
 20
44.82623475539788
 30
0.0
 10
112.3338273495463
 20
44.91212181720034
 30
0.0
 10
112.3110349002165
 20
44.99952902618044
 30
0.0
 10
112.2230921961234
 20
45.15216546877419
 30
0.0
 10
112.1582344224495
 20
45.21628851371978
 30
0.0
 10
112.0838273495463
 20
45.25924745729009
 30
0.0
  0
SPLINE
  5
248
330
1F
100
AcDbEntity
  8
0
  6
Continuous
 62
     7
370
    25
100
AcDbSpline
210
0.0
220
0.0
230
1.0
 70
    24
 71
     3
 72
    14
 73
    10
 74
     0
 42
0.00000001
 43
0.00000001
 40
0.0
 40
0.0
 40
0.0
 40
0.0
 40
0.25
 40
0.25
 40
0.5
 40
0.5
 40
0.75
 40
0.75
 40
1.0
 40
1.0
 40
1.0
 40
1.0
 10
112.3338273495463
 20
35.58863044836381
 30
0.0
 10
112.3338273495463
 20
36.34301050901379
 30
0.0
 10
112.3338273495463
 20
37.11245167647929
 30
0.0
 10
112.3338273495463
 20
38.65296303742045
 30
0.0
 10
112.3338273495463
 20
39.42781741742747
 30
0.0
 10
112.3338273495463
 20
40.98817837231303
 30
0.0
 10
112.3338273495463
 20
41.77863456509806
 30
0.0
 10
112.3338273495463
 20
43.32091422790653
 30
0.0
 10
112.3338273495463
 20
44.07830498110771
 30
0.0
 10
112.3338273495463
 20
44.82623475539788
 30
0.0
  0
SPLINE
  5
249
330
1F
100
AcDbEntity
  8
0
  6
Continuous
 62
     7
370
    25
100
AcDbSpline
210
0.0
220
0.0
230
1.0
 70
     8
 71
     3
 72
    10
 73
     6
 74
     0
 42
0.00000001
 43
0.00000001
 40
0.0
 40
0.0
 40
0.0
 40
0.0
 40
0.5
 40
0.5
 40
1.0
 40
1.0
 40
1.0
 40
1.0
 10
112.0838273495463
 20
35.15561774647164
 30
0.0
 10
112.1582077269234
 20
35.19856127737277
 30
0.0
 10
112.2225083657089
 20
35.26200372199644
 30
0.0
 10
112.3107240504922
 20
35.41448255911556
 30
0.0
 10
112.3338273495463
 20
35.50271256122305
 30
0.0
 10
112.3338273495463
 20
35.58863044836384
 30
0.0
  0
SPLINE
  5
24A
330
1F
100
AcDbEntity
  8
0
  6
Continuous
 62
     7
370
    25
100
AcDbSpline
210
0.0
220
0.0
230
1.0
 70
    24
 71
     3
 72
    16
 73
    12
 74
     0
 42
0.00000001
 43
0.00000001
 40
0.0
 40
0.0
 40
0.0
 40
0.0
 40
0.2500000000000002
 40
0.2500000000000002
 40
0.5000000000000004
 40
0.5000000000000004
 40
0.6250000000000003
 40
0.6250000000000003
 40
0.7500000000000002
 40
0.7500000000000002
 40
1.0
 40
1.0
 40
1.0
 40
1.0
 10
104.0838273495463
 20
30.53681559295463
 30
0.0
 10
104.737344129587
 20
30.9141236818311
 30
0.0
 10
105.395564538677
 20
31.29414741220528
 30
0.0
 10
106.7251271220426
 20
32.06177072761592
 30
0.0
 10
107.3965511041131
 20
32.44941754440468
 30
0.0
 10
108.4155521911198
 20
33.03773809629247
 30
0.0
 10
108.7568929734359
 20
33.23481128884811
 30
0.0
 10
109.4324914764063
 20
33.62486826640218
 30
0.0
 10
109.7681506263709
 20
33.8186611669902
 30
0.0
 10
110.7694162628706
 20
34.39674215175359
 30
0.0
 10
111.4293239214737
 20
34.77774001608838
 30
0.0
 10
112.0838273495457
 20
35.15561774647129
 30
0.0
  0
SPLINE
  5
24B
330
1F
100
AcDbEntity
  8
0
  6
Continuous
 62
     7
370
    25
100
AcDbSpline
210
0.0
220
0.0
230
1.0
 70
     8
 71
     3
 72
    10
 73
     6
 74
     0
 42
0.00000001
 43
0.00000001
 40
0.0
 40
0.0
 40
0.0
 40
0.0
 40
0.5
 40
0.5
 40
1.0
 40
1.0
 40
1.0
 40
1.0
 10
103.5838273495463
 20
30.53681559295463
 30
0.0
 10
103.6582077269236
 20
30.4938720620534
 30
0.0
 10
103.7453008150392
 20
30.46990729769742
 30
0.0
 10
103.9214592039152
 20
30.46974969222264
 30
0.0
 10
104.009420276643
 20
30.49385664938432
 30
0.0
 10
104.0838273495463
 20
30.53681559295463
 30
0.0
  0
SPLINE
  5
24C
330
1F
100
AcDbEntity
  8
0
  6
Continuous
 62
     7
370
    25
100
AcDbSpline
210
0.0
220
0.0
230
1.0
 70
    24
 71
     3
 72
    16
 73
    12
 74
     0
 42
0.00000001
 43
0.00000001
 40
0.0
 40
0.0
 40
0.0
 40
0.0
 40
0.2500000000000001
 40
0.2500000000000001
 40
0.5000000000000002
 40
0.5000000000000002
 40
0.6250000000000001
 40
0.6250000000000001
 40
0.7500000000000001
 40
0.7500000000000001
 40
1.0
 40
1.0
 40
1.0
 40
1.0
 10
95.58382734954627
 20
35.15561774647164
 30
0.0
 10
96.23734412958709
 20
34.77830965759514
 30
0.0
 10
96.89556453867705
 20
34.39828592722094
 30
0.0
 10
98.22512712204285
 20
33.63066261181024
 30
0.0
 10
98.89655110411339
 20
33.24301579502145
 30
0.0
 10
99.9155521911201
 20
32.6546952431336
 30
0.0
 10
100.2568929734363
 20
32.45762205057795
 30
0.0
 10
100.9324914764068
 20
32.06756507302385
 30
0.0
 10
101.2681506263714
 20
31.87377217243582
 30
0.0
 10
102.2694162628711
 20
31.29569118767239
 30
0.0
 10
102.9293239214742
 20
30.91469332333757
 30
0.0
 10
103.5838273495463
 20
30.53681559295463
 30
0.0
  0
CIRCLE
  5
24D
330
1F
100
AcDbEntity
  8
0
  6
Continuous
 62
     7
370
    25
100
AcDbCircle
 10
103.8338273495
 20
40.2074326019
 30
0.0
 40
8.250000000000014
  0
SPLINE
  5
24E
330
1F
100
AcDbEntity
  8
0
  6
Continuous
 62
     7
370
    25
100
AcDbSpline
210
0.0
220
0.0
230
1.0
 70
     8
 71
     3
 72
    10
 73
     6
 74
     0
 42
0.00000001
 43
0.00000001
 40
0.0
 40
0.0
 40
0.0
 40
0.0
 40
0.5
 40
0.5
 40
1.0
 40
1.0
 40
1.0
 40
1.0
 10
103.5838273495463
 20
28.88515400714105
 30
0.0
 10
103.6582021035363
 20
28.90882761163217
 30
0.0
 10
103.7452958351022
 20
28.9219203874254
 30
0.0
 10
103.9214616636467
 20
28.92200695552635
 30
0.0
 10
104.009422687537
 20
28.90883713140307
 30
0.0
 10
104.0838273495463
 20
28.88515400714105
 30
0.0
  0
SPLINE
  5
24F
330
1F
100
AcDbEntity
  8
0
  6
Continuous
 62
     7
370
    25
100
AcDbSpline
210
0.0
220
0.0
230
1.0
 70
     8
 71
     3
 72
    12
 73
     8
 74
     0
 42
0.00000001
 43
0.00000001
 40
0.0
 40
0.0
 40
0.0
 40
0.0
 40
0.2500000000000002
 40
0.2500000000000002
 40
0.5000000000000001
 40
0.5000000000000001
 40
1.0
 40
1.0
 40
1.0
 40
1.0
 10
108.0838273495463
 20
28.20743260188086
 30
0.0
 10
107.7460714145235
 20
28.20743260188086
 30
0.0
 10
107.405663399645
 20
28.22317893190282
 30
0.0
 10
106.7311687152446
 20
28.28462395648825
 30
0.0
 10
106.3960433963773
 20
28.33021271574198
 30
0.0
 10
105.3963320780372
 20
28.50666371799858
 30
0.0
 10
104.7373979749719
 20
28.67712141996207
 30
0.0
 10
104.0838273495462
 20
28.88515400714091
 30
0.0
  0
LINE
  5
250
330
1F
100
AcDbEntity
  8
0
  6
Continuous
 62
     7
370
    25
100
AcDbLine
 10
99.5838273495
 20
28.2074326019
 30
0.0
 11
108.0838273495
 21
28.2074326019
 31
0.0
  0
SPLINE
  5
251
330
1F
100
AcDbEntity
  8
0
  6
Continuous
 62
     7
370
    25
100
AcDbSpline
210
0.0
220
0.0
230
1.0
 70
     8
 71
     3
 72
    10
 73
     6
 74
     0
 42
0.00000001
 43
0.00000001
 40
0.0
 40
0.0
 40
0.0
 40
0.0
 40
0.5
 40
0.5
 40
1.0
 40
1.0
 40
1.0
 40
1.0
 10
103.5838273495463
 20
28.88515400714059
 30
0.0
 10
102.9278145829412
 20
28.67634408247433
 30
0.0
 10
102.2675476760835
 20
28.50580994272707
 30
0.0
 10
100.9352011574485
 20
28.27102413770816
 30
0.0
 10
100.2630481759612
 20
28.20743260188086
 30
0.0
 10
99.58382734954627
 20
28.20743260188086
 30
0.0
  0
LINE
  5
252
330
1F
100
AcDbEntity
  8
0
  6
Continuous
 62
     7
370
    25
100
AcDbLine
 10
104.0838273495
 20
30.536815593
 30
0.0
 11
104.0838273495
 21
28.8851540071
 31
0.0
  0
LINE
  5
253
330
1F
100
AcDbEntity
  8
0
  6
Continuous
 62
     7
370
    25
100
AcDbLine
 10
103.5838273495
 20
28.8851540071
 30
0.0
 11
103.5838273495
 21
30.536815593
 31
0.0
  0
SPLINE
  5
254
330
1F
100
AcDbEntity
  8
0
  6
Continuous
 62
     7
370
    25
100
AcDbSpline
210
0.0
220
0.0
230
1.0
 70
     8
 71
     3
 72
    12
 73
     8
 74
     0
 42
0.00000001
 43
0.00000001
 40
0.0
 40
0.0
 40
0.0
 40
0.0
 40
0.2499999999999998
 40
0.2499999999999998
 40
0.4999999999999996
 40
0.4999999999999996
 40
1.0
 40
1.0
 40
1.0
 40
1.0
 10
99.58382734954627
 20
28.20743260188086
 30
0.0
 10
99.24607141452348
 20
28.20743260188086
 30
0.0
 10
98.905663399645
 20
28.22317893190282
 30
0.0
 10
98.23116871524458
 20
28.28462395648825
 30
0.0
 10
97.89604339637734
 20
28.33021271574198
 30
0.0
 10
96.89633207803719
 20
28.50666371799858
 30
0.0
 10
96.23739797497191
 20
28.67712141996207
 30
0.0
 10
95.58382734954625
 20
28.88515400714091
 30
0.0
  0
LINE
  5
255
330
1F
100
AcDbEntity
  8
0
  6
Continuous
 62
     7
370
    25
100
AcDbLine
 10
95.5838273495
 20
32.241036062
 30
0.0
 11
95.5838273495
 21
28.8851540071
 31
0.0
  0
SPLINE
  5
256
330
1F
100
AcDbEntity
  8
0
  6
Continuous
 62
     7
370
    25
100
AcDbSpline
210
0.0
220
0.0
230
1.0
 70
     8
 71
     3
 72
    10
 73
     6
 74
     0
 42
0.00000001
 43
0.00000001
 40
0.0
 40
0.0
 40
0.0
 40
0.0
 40
0.5
 40
0.5
 40
1.0
 40
1.0
 40
1.0
 40
1.0
 10
95.58382734954675
 20
32.24103606202602
 30
0.0
 10
96.2186550553604
 20
32.44310274757694
 30
0.0
 10
96.85792075793617
 20
32.60949551984758
 30
0.0
 10
98.14873568952606
 20
32.84354249371764
 30
0.0
 10
98.80035532499589
 20
32.91063074767646
 30
0.0
 10
99.45939725681599
 20
32.91805641724626
 30
0.0
  0
SPLINE
  5
257
330
1F
100
AcDbEntity
  8
0
  6
Continuous
 62
     7
370
    25
100
AcDbSpline
210
0.0
220
0.0
230
1.0
 70
     8
 71
     3
 72
    12
 73
     8
 74
     0
 42
0.00000001
 43
0.00000001
 40
0.0
 40
0.0
 40
0.0
 40
0.0
 40
0.2499999999999999
 40
0.2499999999999999
 40
0.4999999999999998
 40
0.4999999999999998
 40
1.0
 40
1.0
 40
1.0
 40
1.0
 10
108.2082574422986
 20
32.918056417246
 30
0.0
 10
108.5373924326918
 20
32.91434793138957
 30
0.0
 10
108.8668545856285
 20
32.8957654285519
 30
0.0
 10
109.5197282036862
 20
32.83089839158575
 30
0.0
 10
109.8441807955633
 20
32.78463283833548
 30
0.0
 10
110.8122412367554
 20
32.60890830802852
 30
0.0
 10
111.4505637210033
 20
32.44260489925176
 30
0.0
 10
112.0838273495463
 20
32.24103606202586
 30
0.0
  0
LINE
  5
258
330
1F
100
AcDbEntity
  8
0
  6
Continuous
 62
     7
370
    25
100
AcDbLine
 10
112.0838273495
 20
28.8851540071
 30
0.0
 11
112.0838273495
 21
32.241036062
 31
0.0
  0
SPLINE
  5
259
330
1F
100
AcDbEntity
  8
0
  6
Continuous
 62
     7
370
    25
100
AcDbSpline
210
0.0
220
0.0
230
1.0
 70
     8
 71
     3
 72
    10
 73
     6
 74
     0
 42
0.00000001
 43
0.00000001
 40
0.0
 40
0.0
 40
0.0
 40
0.0
 40
0.5
 40
0.5
 40
1.0
 40
1.0
 40
1.0
 40
1.0
 10
112.0838273495463
 20
28.88515400714059
 30
0.0
 10
111.4278145829412
 20
28.67634408247433
 30
0.0
 10
110.7675476760835
 20
28.50580994272708
 30
0.0
 10
109.4352011574485
 20
28.27102413770816
 30
0.0
 10
108.7630481759612
 20
28.20743260188086
 30
0.0
 10
108.0838273495463
 20
28.20743260188086
 30
0.0
  0
SPLINE
  5
25A
330
1F
100
AcDbEntity
  8
0
  6
Continuous
 62
     7
370
    25
100
AcDbSpline
210
0.0
220
0.0
230
1.0
 70
     8
 71
     3
 72
    10
 73
     6
 74
     0
 42
0.00000001
 43
0.00000001
 40
0.0
 40
0.0
 40
0.0
 40
0.0
 40
0.5
 40
0.5
 40
1.0
 40
1.0
 40
1.0
 40
1.0
 10
112.0838273495463
 20
28.88515400714105
 30
0.0
 10
112.1581978164719
 20
28.90882624705262
 30
0.0
 10
112.2225034127597
 20
28.92192023698788
 30
0.0
 10
112.3107262005655
 20
28.92200710444932
 30
0.0
 10
112.3338273495463
 20
28.90883731468996
 30
0.0
 10
112.3338273495463
 20
28.88515400714105
 30
0.0
  0
LINE
  5
25B
330
1F
100
AcDbEntity
  8
0
  6
Continuous
 62
     7
370
    25
100
AcDbLine
 10
108.0838273495
 20
28.2074326019
 30
0.0
 11
112.3338273495
 21
28.2074326019
 31
0.0
  0
SPLINE
  5
25C
330
1F
100
AcDbEntity
  8
0
  6
Continuous
 62
     7
370
    25
100
AcDbSpline
210
0.0
220
0.0
230
1.0
 70
    24
 71
     3
 72
    10
 73
     6
 74
     0
 42
0.00000001
 43
0.00000001
 40
0.0
 40
0.0
 40
0.0
 40
0.0
 40
0.5
 40
0.5
 40
1.0
 40
1.0
 40
1.0
 40
1.0
 10
112.3338273495463
 20
28.20743260188086
 30
0.0
 10
112.3338273495463
 20
28.20743260188086
 30
0.0
 10
112.3338273495463
 20
28.26971696385938
 30
0.0
 10
112.3338273495463
 20
28.50456508186641
 30
0.0
 10
112.3338273495463
 20
28.67780768899761
 30
0.0
 10
112.3338273495463
 20
28.88515400714105
 30
0.0
  0
SPLINE
  5
25D
330
1F
100
AcDbEntity
  8
0
  6
Continuous
 62
     7
370
    25
100
AcDbSpline
210
0.0
220
0.0
230
1.0
 70
     8
 71
     3
 72
    10
 73
     6
 74
     0
 42
0.00000001
 43
0.00000001
 40
0.0
 40
0.0
 40
0.0
 40
0.0
 40
0.5
 40
0.5
 40
1.0
 40
1.0
 40
1.0
 40
1.0
 10
95.33382734954627
 20
28.88515400714105
 30
0.0
 10
95.33382734954627
 20
28.90882790769701
 30
0.0
 10
95.3566179211937
 20
28.92192046487615
 30
0.0
 10
95.44456391849252
 20
28.92200687885842
 30
0.0
 10
95.50942471122531
 20
28.9088364872598
 30
0.0
 10
95.58382734954627
 20
28.88515400714105
 30
0.0
  0
LINE
  5
25E
330
1F
100
AcDbEntity
  8
0
  6
Continuous
 62
     7
370
    25
100
AcDbLine
 10
95.3338273495
 20
28.2074326019
 30
0.0
 11
99.5838273495
 21
28.2074326019
 31
0.0
  0
SPLINE
  5
25F
330
1F
100
AcDbEntity
  8
0
  6
Continuous
 62
     7
370
    25
100
AcDbSpline
210
0.0
220
0.0
230
1.0
 70
    24
 71
     3
 72
    10
 73
     6
 74
     0
 42
0.00000001
 43
0.00000001
 40
0.0
 40
0.0
 40
0.0
 40
0.0
 40
0.5
 40
0.5
 40
1.0
 40
1.0
 40
1.0
 40
1.0
 10
95.33382734954627
 20
28.20743260188086
 30
0.0
 10
95.33382734954627
 20
28.20743260188086
 30
0.0
 10
95.33382734954627
 20
28.26971696385938
 30
0.0
 10
95.33382734954627
 20
28.50456508186641
 30
0.0
 10
95.33382734954627
 20
28.67780768899761
 30
0.0
 10
95.33382734954627
 20
28.88515400714105
 30
0.0
  0
SPLINE
  5
260
330
1F
100
AcDbEntity
  8
0
  6
Continuous
 62
     7
370
    25
100
AcDbSpline
210
0.0
220
0.0
230
1.0
 70
     8
 71
     3
 72
     8
 73
     4
 74
     0
 42
0.00000001
 43
0.00000001
 40
0.0
 40
0.0
 40
0.0
 40
0.0
 40
1.0
 40
1.0
 40
1.0
 40
1.0
 10
95.33382734954627
 20
32.40252139030688
 30
0.0
 10
95.8556335008481
 20
32.67511152597623
 30
0.0
 10
96.37928696970428
 20
32.94426402709763
 30
0.0
 10
96.90562411927075
 20
33.20743260188087
 30
0.0
  0
SPLINE
  5
261
330
1F
100
AcDbEntity
  8
0
  6
Continuous
 62
     7
370
    25
100
AcDbSpline
210
0.0
220
0.0
230
1.0
 70
     8
 71
     3
 72
    10
 73
     6
 74
     0
 42
0.00000001
 43
0.00000001
 40
0.0
 40
0.0
 40
0.0
 40
0.0
 40
0.5
 40
0.5
 40
1.0
 40
1.0
 40
1.0
 40
1.0
 10
95.33382734954627
 20
32.24103606202584
 30
0.0
 10
95.33382734954627
 20
32.21736066760143
 30
0.0
 10
95.35661979887611
 20
32.20426955771681
 30
0.0
 10
95.44456250296938
 20
32.20418323642858
 30
0.0
 10
95.50942027664354
 20
32.21735217037253
 30
0.0
 10
95.58382734954694
 20
32.24103606202608
 30
0.0
  0
SPLINE
  5
262
330
1F
100
AcDbEntity
  8
0
  6
Continuous
 62
     7
370
    25
100
AcDbSpline
210
0.0
220
0.0
230
1.0
 70
    24
 71
     3
 72
     8
 73
     4
 74
     0
 42
0.00000001
 43
0.00000001
 40
0.0
 40
0.0
 40
0.0
 40
0.0
 40
1.0
 40
1.0
 40
1.0
 40
1.0
 10
95.33382734954627
 20
32.40252139030688
 30
0.0
 10
95.33382734954627
 20
32.35162660060606
 30
0.0
 10
95.33382734954627
 20
32.29769275124462
 30
0.0
 10
95.33382734954627
 20
32.24103606202586
 30
0.0
  0
SPLINE
  5
263
330
1F
100
AcDbEntity
  8
0
  6
Continuous
 62
     7
370
    25
100
AcDbSpline
210
0.0
220
0.0
230
1.0
 70
     8
 71
     3
 72
     8
 73
     4
 74
     0
 42
0.00000001
 43
0.00000001
 40
0.0
 40
0.0
 40
0.0
 40
0.0
 40
1.0
 40
1.0
 40
1.0
 40
1.0
 10
110.7620305798218
 20
33.20743260188086
 30
0.0
 10
111.288451441031
 20
32.94422217127626
 30
0.0
 10
111.8119958977447
 20
32.67512474288956
 30
0.0
 10
112.3338273495463
 20
32.4025213903069
 30
0.0
  0
SPLINE
  5
264
330
1F
100
AcDbEntity
  8
0
  6
Continuous
 62
     7
370
    25
100
AcDbSpline
210
0.0
220
0.0
230
1.0
 70
     8
 71
     3
 72
    10
 73
     6
 74
     0
 42
0.00000001
 43
0.00000001
 40
0.0
 40
0.0
 40
0.0
 40
0.0
 40
0.5
 40
0.5
 40
1.0
 40
1.0
 40
1.0
 40
1.0
 10
112.0838273495463
 20
32.24103606202586
 30
0.0
 10
112.1582077269236
 20
32.21736066760148
 30
0.0
 10
112.2225083657094
 20
32.20426955771684
 30
0.0
 10
112.3107240504923
 20
32.20418323642856
 30
0.0
 10
112.3338273495463
 20
32.21735217037239
 30
0.0
 10
112.3338273495463
 20
32.24103606202586
 30
0.0
  0
SPLINE
  5
265
330
1F
100
AcDbEntity
  8
0
  6
Continuous
 62
     7
370
    25
100
AcDbSpline
210
0.0
220
0.0
230
1.0
 70
    24
 71
     3
 72
     8
 73
     4
 74
     0
 42
0.00000001
 43
0.00000001
 40
0.0
 40
0.0
 40
0.0
 40
0.0
 40
1.0
 40
1.0
 40
1.0
 40
1.0
 10
112.3338273495463
 20
32.40252139030688
 30
0.0
 10
112.3338273495463
 20
32.35162660060606
 30
0.0
 10
112.3338273495463
 20
32.29769275124462
 30
0.0
 10
112.3338273495463
 20
32.24103606202586
 30
0.0
  0
LINE
  5
266
330
1F
100
AcDbEntity
  8
0
  6
Continuous
 62
     7
370
    25
100
AcDbLine
 10
111.3338273495
 20
34.7226050446
 30
0.0
 11
111.3338273495
 21
33.2074326019
 31
0.0
  0
LINE
  5
267
330
1F
100
AcDbEntity
  8
0
  6
Continuous
 62
     7
370
    25
100
AcDbLine
 10
108.7094716966
 20
33.2074326019
 30
0.0
 11
111.3338273495
 21
33.2074326019
 31
0.0
  0
LINE
  5
268
330
1F
100
AcDbEntity
  8
0
  6
Continuous
 62
     7
370
    25
100
AcDbLine
 10
96.3338273495
 20
33.2074326019
 30
0.0
 11
96.3338273495
 21
34.7226050446
 31
0.0
  0
LINE
  5
269
330
1F
100
AcDbEntity
  8
0
  6
Continuous
 62
     7
370
    25
100
AcDbLine
 10
96.3338273495
 20
33.2074326019
 30
0.0
 11
98.9581830025
 21
33.2074326019
 31
0.0
  0
LINE
  5
26A
330
1F
100
AcDbEntity
  8
0
  6
Continuous
 62
     7
370
    25
100
AcDbLine
 10
103.8338273495
 20
18.0623806613
 30
0.0
 11
108.6161069764
 21
18.0623806613
 31
0.0
  0
LINE
  5
26B
330
1F
100
AcDbEntity
  8
0
  6
Continuous
 62
     7
370
    25
100
AcDbLine
 10
99.0515477227
 20
18.0623806613
 30
0.0
 11
103.8338273495
 21
18.0623806613
 31
0.0
  0
LINE
  5
26C
330
1F
100
AcDbEntity
  8
0
  6
Continuous
 62
     7
370
    25
100
AcDbLine
 10
95.3338273495
 20
28.8851540071
 30
0.0
 11
95.3338273495
 21
32.241036062
 31
0.0
  0
LINE
  5
26D
330
1F
100
AcDbEntity
  8
0
  6
Continuous
 62
     7
370
    25
100
AcDbLine
 10
112.3338273495
 20
32.241036062
 30
0.0
 11
112.3338273495
 21
28.8851540071
 31
0.0
  0
LINE
  5
26E
330
1F
100
AcDbEntity
  8
0
  6
Continuous
 62
     7
370
    25
100
AcDbLine
 10
107.8338273495
 20
16.7074326019
 30
0.0
 11
99.8338273495
 21
16.7074326019
 31
0.0
  0
LINE
  5
26F
330
1F
100
AcDbEntity
  8
0
  6
Continuous
 62
     7
370
    25
100
AcDbLine
 10
95.3338273495
 20
32.4025213903
 30
0.0
 11
95.3338273495
 21
35.5455326387
 31
0.0
  0
LINE
  5
270
330
1F
100
AcDbEntity
  8
0
  6
Continuous
 62
     7
370
    25
100
AcDbLine
 10
112.3338273495
 20
32.4025213903
 30
0.0
 11
112.3338273495
 21
35.5455326387
 31
0.0
  0
LINE
  5
271
330
1F
100
AcDbEntity
  8
0
  6
Continuous
 62
     7
370
    25
100
AcDbLine
 10
109.3338273495
 20
67.3074326019
 30
0.0
 11
105.507740393
 21
67.3074326019
 31
0.0
  0
LINE
  5
272
330
1F
100
AcDbEntity
  8
0
  6
Continuous
 62
     7
370
    25
100
AcDbLine
 10
102.1599143061
 20
67.3074326019
 30
0.0
 11
98.3338273495
 21
67.3074326019
 31
0.0
  0
SPLINE
  5
273
330
1F
100
AcDbEntity
  8
0
  6
Continuous
 62
     7
370
    25
100
AcDbSpline
210
0.0
220
0.0
230
1.0
 70
     8
 71
     3
 72
    19
 73
    15
 74
     0
 42
0.00000001
 43
0.00000001
 40
0.0
 40
0.0
 40
0.0
 40
0.0
 40
0.0167779822178224
 40
0.0954944563933543
 40
0.1743155732646166
 40
0.2799343545247099
 40
0.3857487688231852
 40
0.4988313750245641
 40
0.6118954664707618
 40
0.7070746065532273
 40
0.80217954581733
 40
0.8927561938562508
 40
0.9832581968025093
 40
1.0
 40
1.0
 40
1.0
 40
1.0
 10
97.94147493187876
 20
46.74684131601642
 30
0.0
 10
97.93894844911738
 20
46.74370546962712
 30
0.0
 10
97.92456858539173
 20
46.7258573194508
 30
0.0
 10
97.988013914627
 20
46.80492030888379
 30
0.0
 10
98.14312015151391
 20
46.98940559585942
 30
0.0
 10
98.43141757621358
 20
47.30938440361302
 30
0.0
 10
98.86385152795064
 20
47.73383271198313
 30
0.0
 10
99.4182842738315
 20
48.19649727929561
 30
0.0
 10
100.0611798308352
 20
48.63697727734932
 30
0.0
 10
100.7606167553004
 20
49.01503821028487
 30
0.0
 10
101.4826170754676
 20
49.31826174041079
 30
0.0
 10
102.2603364646911
 20
49.53666085852923
 30
0.0
 10
102.8483849374612
 20
49.65806061832231
 30
0.0
 10
103.1779751159748
 20
49.67136044567069
 30
0.0
 10
103.2294273545974
 20
49.67343667832257
 30
0.0
  0
SPLINE
  5
274
330
1F
100
AcDbEntity
  8
0
  6
Continuous
 62
     7
370
    25
100
AcDbSpline
210
0.0
220
0.0
230
1.0
 70
     8
 71
     3
 72
    19
 73
    15
 74
     0
 42
0.00000001
 43
0.00000001
 40
0.0
 40
0.0
 40
0.0
 40
0.0
 40
0.0313541771201542
 40
0.0973968326268581
 40
0.197410416082172
 40
0.2975362649463057
 40
0.4181239157794888
 40
0.5388080093849368
 40
0.6564391198131798
 40
0.7739038358150022
 40
0.850438442705721
 40
0.926872340067583
 40
0.9967392709328209
 40
0.9999999999999999
 40
0.9999999999999999
 40
0.9999999999999999
 40
0.9999999999999999
 10
104.4460245594873
 20
49.6689349541479
 30
0.0
 10
104.5418964811098
 20
49.66371491461561
 30
0.0
 10
104.8397075659963
 20
49.64749968068734
 30
0.0
 10
105.4225929679534
 20
49.53312721580573
 30
0.0
 10
106.1718373064149
 20
49.32385471030499
 30
0.0
 10
106.9923020320882
 20
48.97953281792189
 30
0.0
 10
107.7594487185858
 20
48.54393377636156
 30
0.0
 10
108.4407393121299
 20
48.04853488310603
 30
0.0
 10
108.9914494116747
 20
47.55813884437698
 30
0.0
 10
109.3601869537844
 20
47.17518283686216
 30
0.0
 10
109.5882123195562
 20
46.91443089315853
 30
0.0
 10
109.6993181673002
 20
46.77997413694357
 30
0.0
 10
109.743294404268
 20
46.72607624902523
 30
0.0
 10
109.7323693364203
 20
46.73940976854705
 30
0.0
 10
109.7318821926183
 20
46.74000430411284
 30
0.0
  0
INSERT
  5
280
330
1F
100
AcDbEntity
  8
0
  6
Continuous
 62
     7
370
    18
100
AcDbBlockReference
  2
SW_CENTERMARKSYMBOL_1
 10
103.8338273495
 20
40.2074326019
 30
0.0
  0
LINE
  5
281
330
1F
100
AcDbEntity
  8
0
  6
Continuous
 62
     7
370
    18
100
AcDbLine
 10
99.2070773495
 20
27.7074326019
 30
0.0
 11
99.5346329792
 21
17.2256524526
 31
0.0
  0
LINE
  5
282
330
1F
100
AcDbEntity
  8
0
  6
Continuous
 62
     7
370
    18
100
AcDbLine
 10
108.1330217199
 20
17.2256524526
 30
0.0
 11
108.4605773495
 21
27.7074326019
 31
0.0
  0
ENDSEC
  0
SECTION
  2
OBJECTS
  0
DICTIONARY
  5
C
330
0
100
AcDbDictionary
281
     1
  3
ACAD_GROUP
350
D
  3
ACAD_LAYOUT
350
1A
  3
ACAD_MLINESTYLE
350
17
  3
ACAD_PLOTSETTINGS
350
19
  3
ACAD_PLOTSTYLENAME
350
E
  3
ACAD_SCALELIST
350
47
  3
DWGPROPS
350
283
  0
DICTIONARY
  5
D
102
{ACAD_REACTORS
330
C
102
}
330
C
100
AcDbDictionary
281
     1
  0
DICTIONARY
  5
1A
102
{ACAD_REACTORS
330
C
102
}
330
C
100
AcDbDictionary
281
     1
  3
Layout1
350
1E
  3
Layout2
350
26
  3
Model
350
22
  0
DICTIONARY
  5
17
102
{ACAD_REACTORS
330
C
102
}
330
C
100
AcDbDictionary
281
     1
  3
Standard
350
18
  0
DICTIONARY
  5
19
102
{ACAD_REACTORS
330
C
102
}
330
C
100
AcDbDictionary
281
     1
  0
ACDBDICTIONARYWDFLT
  5
E
102
{ACAD_REACTORS
330
C
102
}
330
C
100
AcDbDictionary
281
     1
  3
Normal
350
F
100
AcDbDictionaryWithDefault
340
F
  0
DICTIONARY
  5
47
102
{ACAD_REACTORS
330
C
102
}
330
C
100
AcDbDictionary
281
     1
  3
A0
350
48
  3
A1
350
49
  3
A2
350
4A
  3
A3
350
4B
  3
A4
350
4C
  3
A5
350
4D
  3
A6
350
4E
  3
A7
350
4F
  3
A8
350
50
  3
A9
350
51
  3
B0
350
52
  3
B1
350
53
  3
B2
350
54
  3
B3
350
55
  3
B4
350
56
  3
B5
350
57
  3
B6
350
58
  0
XRECORD
  5
283
102
{ACAD_REACTORS
330
C
102
}
330
C
100
AcDbXrecord
280
     1
  1
DWGPROPS COOKIE
  2

  3

  4

  6

  7

  8
user52
  9

300
=
301
=
302
=
303
=
304
=
305
=
306
=
307
=
308
=
309
=
 40
0.0
 41
2460339.16765831
 42
2460339.167658738
  1

 90
        0
  0
LAYOUT
  5
1E
102
{ACAD_REACTORS
330
1A
102
}
330
1A
100
AcDbPlotSettings
  1

  2
none_device
  4

  6

 40
0.0
 41
0.0
 42
0.0
 43
0.0
 44
0.0
 45
0.0
 46
0.0
 47
0.0
 48
0.0
 49
0.0
140
0.0
141
0.0
142
1.0
143
1.0
 70
   688
 72
     1
 73
     0
 74
     5
  7

 75
    16
147
1.0
148
0.0
149
0.0
100
AcDbLayout
  1
Layout1
 70
     1
 71
     1
 10
0.0
 20
0.0
 11
420.0
 21
297.0
 12
0.0
 22
0.0
 32
0.0
 14
1.0000000000E+20
 24
1.0000000000E+20
 34
1.0000000000E+20
 15
-1.0000000000E+20
 25
-1.0000000000E+20
 35
-1.0000000000E+20
146
0.0
 13
0.0
 23
0.0
 33
0.0
 16
1.0
 26
0.0
 36
0.0
 17
0.0
 27
1.0
 37
0.0
 76
     0
330
1B
  0
LAYOUT
  5
26
102
{ACAD_REACTORS
330
1A
102
}
330
1A
100
AcDbPlotSettings
  1

  2
none_device
  4

  6

 40
0.0
 41
0.0
 42
0.0
 43
0.0
 44
0.0
 45
0.0
 46
0.0
 47
0.0
 48
0.0
 49
0.0
140
0.0
141
0.0
142
1.0
143
1.0
 70
   688
 72
     1
 73
     0
 74
     5
  7

 75
    16
147
1.0
148
0.0
149
0.0
100
AcDbLayout
  1
Layout2
 70
     1
 71
     2
 10
0.0
 20
0.0
 11
0.0
 21
0.0
 12
0.0
 22
0.0
 32
0.0
 14
0.0
 24
0.0
 34
0.0
 15
0.0
 25
0.0
 35
0.0
146
0.0
 13
0.0
 23
0.0
 33
0.0
 16
1.0
 26
0.0
 36
0.0
 17
0.0
 27
1.0
 37
0.0
 76
     0
330
23
  0
LAYOUT
  5
22
102
{ACAD_REACTORS
330
1A
102
}
330
1A
100
AcDbPlotSettings
  1

  2
none_device
  4
Letter_(8.50_x_11.00_Inches)
  6

 40
6.35
 41
6.35
 42
6.35000508
 43
6.35000508
 44
215.9
 45
279.4
 46
0.0
 47
0.0
 48
0.0
 49
0.0
140
0.0
141
0.0
142
1.0
143
1.0
 70
  1712
 72
     1
 73
     0
 74
     0
  7

 75
     0
147
1.0
148
0.0
149
0.0
100
AcDbLayout
  1
Model
 70
     1
 71
     0
 10
0.0
 20
0.0
 11
431.8
 21
279.4
 12
0.0
 22
0.0
 32
0.0
 14
0.0
 24
0.0
 34
0.0
 15
431.8
 25
279.4
 35
0.0
146
0.0
 13
0.0
 23
0.0
 33
0.0
 16
1.0
 26
0.0
 36
0.0
 17
0.0
 27
1.0
 37
0.0
 76
     0
330
1F
331
29
  0
MLINESTYLE
  5
18
102
{ACAD_REACTORS
330
17
102
}
330
17
100
AcDbMlineStyle
  2
Standard
 70
     0
  3

 62
   256
 51
90.0
 52
90.0
 71
     2
 49
0.5
 62
   256
  6
BYLAYER
 49
-0.5
 62
   256
  6
BYLAYER
  0
ACDBPLACEHOLDER
  5
F
102
{ACAD_REACTORS
330
E
102
}
330
E
  0
SCALE
  5
48
102
{ACAD_REACTORS
330
47
102
}
330
47
100
AcDbScale
 70
     0
300
1:1
140
1.0
141
1.0
290
     1
  0
SCALE
  5
49
102
{ACAD_REACTORS
330
47
102
}
330
47
100
AcDbScale
 70
     0
300
1:2
140
1.0
141
2.0
290
     0
  0
SCALE
  5
4A
102
{ACAD_REACTORS
330
47
102
}
330
47
100
AcDbScale
 70
     0
300
1:4
140
1.0
141
4.0
290
     0
  0
SCALE
  5
4B
102
{ACAD_REACTORS
330
47
102
}
330
47
100
AcDbScale
 70
     0
300
1:5
140
1.0
141
5.0
290
     0
  0
SCALE
  5
4C
102
{ACAD_REACTORS
330
47
102
}
330
47
100
AcDbScale
 70
     0
300
1:8
140
1.0
141
8.0
290
     0
  0
SCALE
  5
4D
102
{ACAD_REACTORS
330
47
102
}
330
47
100
AcDbScale
 70
     0
300
1:10
140
1.0
141
10.0
290
     0
  0
SCALE
  5
4E
102
{ACAD_REACTORS
330
47
102
}
330
47
100
AcDbScale
 70
     0
300
1:16
140
1.0
141
16.0
290
     0
  0
SCALE
  5
4F
102
{ACAD_REACTORS
330
47
102
}
330
47
100
AcDbScale
 70
     0
300
1:20
140
1.0
141
20.0
290
     0
  0
SCALE
  5
50
102
{ACAD_REACTORS
330
47
102
}
330
47
100
AcDbScale
 70
     0
300
1:30
140
1.0
141
30.0
290
     0
  0
SCALE
  5
51
102
{ACAD_REACTORS
330
47
102
}
330
47
100
AcDbScale
 70
     0
300
1:40
140
1.0
141
40.0
290
     0
  0
SCALE
  5
52
102
{ACAD_REACTORS
330
47
102
}
330
47
100
AcDbScale
 70
     0
300
1:50
140
1.0
141
50.0
290
     0
  0
SCALE
  5
53
102
{ACAD_REACTORS
330
47
102
}
330
47
100
AcDbScale
 70
     0
300
1:100
140
1.0
141
100.0
290
     0
  0
SCALE
  5
54
102
{ACAD_REACTORS
330
47
102
}
330
47
100
AcDbScale
 70
     0
300
2:1
140
2.0
141
1.0
290
     0
  0
SCALE
  5
55
102
{ACAD_REACTORS
330
47
102
}
330
47
100
AcDbScale
 70
     0
300
4:1
140
4.0
141
1.0
290
     0
  0
SCALE
  5
56
102
{ACAD_REACTORS
330
47
102
}
330
47
100
AcDbScale
 70
     0
300
8:1
140
8.0
141
1.0
290
     0
  0
SCALE
  5
57
102
{ACAD_REACTORS
330
47
102
}
330
47
100
AcDbScale
 70
     0
300
10:1
140
10.0
141
1.0
290
     0
  0
SCALE
  5
58
102
{ACAD_REACTORS
330
47
102
}
330
47
100
AcDbScale
 70
     0
300
100:1
140
100.0
141
1.0
290
     0
  0
ENDSEC
  0
EOF
