  0
SECTION
  2
HEADER
  9
$ACADVER
  1
AC1015
  9
$ACADMAINTVER
 70
     6
  9
$DWGCODEPAGE
  3
DOS932
  9
$INSBASE
 10
0.0
 20
0.0
 30
0.0
  9
$EXTMIN
 10
0.0
 20
0.0
 30
0.0
  9
$EXTMAX
 10
297.0
 20
210.0
 30
0.0
  9
$LIMMIN
 10
0.0
 20
0.0
  9
$LIMMAX
 10
297.0
 20
210.0
  9
$ORTHOMODE
 70
     0
  9
$REGENMODE
 70
     1
  9
$FILLMODE
 70
     1
  9
$QTEXTMODE
 70
     0
  9
$MIRRTEXT
 70
     1
  9
$LTSCALE
 40
1.0
  9
$ATTMODE
 70
     1
  9
$TEXTSIZE
 40
3.5277777778
  9
$TRACEWID
 40
1.0
  9
$TEXTSTYLE
  7
Standard
  9
$CLAYER
  8
0
  9
$CELTYPE
  6
ByLayer
  9
$CECOLOR
 62
   256
  9
$CELTSCALE
 40
1.0
  9
$DISPSILH
 70
     0
  9
$DIMSCALE
 40
1.0
  9
$DIMASZ
 40
2.728515625
  9
$DIMEXO
 40
1.0
  9
$DIMDLI
 40
3.75
  9
$DIMRND
 40
0.0
  9
$DIMDLE
 40
0.0
  9
$DIMEXE
 40
1.0
  9
$DIMTP
 40
0.0
  9
$DIMTM
 40
0.0
  9
$DIMTXT
 40
3.5277777778
  9
$DIMCEN
 40
2.5
  9
$DIMTSZ
 40
0.0
  9
$DIMTOL
 70
     0
  9
$DIMLIM
 70
     0
  9
$DIMTIH
 70
     1
  9
$DIMTOH
 70
     1
  9
$DIMSE1
 70
     0
  9
$DIMSE2
 70
     0
  9
$DIMTAD
 70
     1
  9
$DIMZIN
 70
     0
  9
$DIMBLK
  1

  9
$DIMASO
 70
     1
  9
$DIMSHO
 70
     1
  9
$DIMPOST
  1

  9
$DIMAPOST
  1

  9
$DIMALT
 70
     0
  9
$DIMALTD
 70
     3
  9
$DIMALTF
 40
0.0393700787
  9
$DIMLFAC
 40
1.0
  9
$DIMTOFL
 70
     1
  9
$DIMTVP
 40
0.0
  9
$DIMTIX
 70
     0
  9
$DIMSOXD
 70
     0
  9
$DIMSAH
 70
     0
  9
$DIMBLK1
  1

  9
$DIMBLK2
  1

  9
$DIMSTYLE
  2
ISO-25
  9
$DIMCLRD
 70
     0
  9
$DIMCLRE
 70
     0
  9
$DIMCLRT
 70
     0
  9
$DIMTFAC
 40
1.0
  9
$DIMGAP
 40
1.524
  9
$DIMJUST
 70
     0
  9
$DIMSD1
 70
     0
  9
$DIMSD2
 70
     0
  9
$DIMTOLJ
 70
     0
  9
$DIMTZIN
 70
     0
  9
$DIMALTZ
 70
     0
  9
$DIMALTTZ
 70
     0
  9
$DIMUPT
 70
     0
  9
$DIMDEC
 70
     2
  9
$DIMTDEC
 70
     2
  9
$DIMALTU
 70
     2
  9
$DIMALTTD
 70
     3
  9
$DIMTXSTY
  7
Standard
  9
$DIMAUNIT
 70
     0
  9
$DIMADEC
 70
     2
  9
$DIMALTRND
 40
0.0
  9
$DIMAZIN
 70
     0
  9
$DIMDSEP
 70
    44
  9
$DIMATFIT
 70
     3
  9
$DIMFRAC
 70
     0
  9
$DIMLDRBLK
  1

  9
$DIMLUNIT
 70
     2
  9
$DIMLWD
 70
    -2
  9
$DIMLWE
 70
    -2
  9
$DIMTMOVE
 70
     0
  9
$LUNITS
 70
     2
  9
$LUPREC
 70
     2
  9
$SKETCHINC
 40
1.0
  9
$FILLETRAD
 40
0.0
  9
$AUNITS
 70
     0
  9
$AUPREC
 70
     2
  9
$MENU
  1
.
  9
$ELEVATION
 40
0.0
  9
$PELEVATION
 40
0.0
  9
$THICKNESS
 40
0.0
  9
$LIMCHECK
 70
     0
  9
$CHAMFERA
 40
0.0
  9
$CHAMFERB
 40
0.0
  9
$CHAMFERC
 40
0.0
  9
$CHAMFERD
 40
0.0
  9
$SKPOLY
 70
     0
  9
$TDCREATE
 40
2460326.68731765
  9
$TDUCREATE
 40
2460326.31231765
  9
$TDUPDATE
 40
2460326.687318368
  9
$TDUUPDATE
 40
2460326.312318368
  9
$TDINDWG
 40
0.0000000116
  9
$TDUSRTIMER
 40
0.0000000116
  9
$USRTIMER
 70
     1
  9
$ANGBASE
 50
0.0
  9
$ANGDIR
 70
     0
  9
$PDMODE
 70
     0
  9
$PDSIZE
 40
-1.0
  9
$PLINEWID
 40
0.0
  9
$SPLFRAME
 70
     0
  9
$SPLINETYPE
 70
     6
  9
$SPLINESEGS
 70
     8
  9
$HANDSEED
  5
25F
  9
$SURFTAB1
 70
     6
  9
$SURFTAB2
 70
     6
  9
$SURFTYPE
 70
     6
  9
$SURFU
 70
     6
  9
$SURFV
 70
     6
  9
$UCSBASE
  2

  9
$UCSNAME
  2

  9
$UCSORG
 10
0.0
 20
0.0
 30
0.0
  9
$UCSXDIR
 10
1.0
 20
0.0
 30
0.0
  9
$UCSYDIR
 10
0.0
 20
1.0
 30
0.0
  9
$UCSORTHOREF
  2

  9
$UCSORTHOVIEW
 70
     0
  9
$UCSORGTOP
 10
0.0
 20
0.0
 30
0.0
  9
$UCSORGBOTTOM
 10
0.0
 20
0.0
 30
0.0
  9
$UCSORGLEFT
 10
0.0
 20
0.0
 30
0.0
  9
$UCSORGRIGHT
 10
0.0
 20
0.0
 30
0.0
  9
$UCSORGFRONT
 10
0.0
 20
0.0
 30
0.0
  9
$UCSORGBACK
 10
0.0
 20
0.0
 30
0.0
  9
$PUCSBASE
  2

  9
$PUCSNAME
  2

  9
$PUCSORG
 10
0.0
 20
0.0
 30
0.0
  9
$PUCSXDIR
 10
1.0
 20
0.0
 30
0.0
  9
$PUCSYDIR
 10
0.0
 20
1.0
 30
0.0
  9
$PUCSORTHOREF
  2

  9
$PUCSORTHOVIEW
 70
     0
  9
$PUCSORGTOP
 10
0.0
 20
0.0
 30
0.0
  9
$PUCSORGBOTTOM
 10
0.0
 20
0.0
 30
0.0
  9
$PUCSORGLEFT
 10
0.0
 20
0.0
 30
0.0
  9
$PUCSORGRIGHT
 10
0.0
 20
0.0
 30
0.0
  9
$PUCSORGFRONT
 10
0.0
 20
0.0
 30
0.0
  9
$PUCSORGBACK
 10
0.0
 20
0.0
 30
0.0
  9
$USERI1
 70
     0
  9
$USERI2
 70
     0
  9
$USERI3
 70
     0
  9
$USERI4
 70
     0
  9
$USERI5
 70
     0
  9
$USERR1
 40
0.0
  9
$USERR2
 40
0.0
  9
$USERR3
 40
0.0
  9
$USERR4
 40
0.0
  9
$USERR5
 40
0.0
  9
$WORLDVIEW
 70
     1
  9
$SHADEDGE
 70
     3
  9
$SHADEDIF
 70
    70
  9
$TILEMODE
 70
     1
  9
$MAXACTVP
 70
    64
  9
$PINSBASE
 10
0.0
 20
0.0
 30
0.0
  9
$PLIMCHECK
 70
     0
  9
$PEXTMIN
 10
1.0000000000E+20
 20
1.0000000000E+20
 30
1.0000000000E+20
  9
$PEXTMAX
 10
-1.0000000000E+20
 20
-1.0000000000E+20
 30
-1.0000000000E+20
  9
$PLIMMIN
 10
0.0
 20
0.0
  9
$PLIMMAX
 10
420.0
 20
297.0
  9
$UNITMODE
 70
     0
  9
$VISRETAIN
 70
     1
  9
$PLINEGEN
 70
     0
  9
$PSLTSCALE
 70
     1
  9
$TREEDEPTH
 70
  3020
  9
$CMLSTYLE
  2
Standard
  9
$CMLJUST
 70
     0
  9
$CMLSCALE
 40
20.0
  9
$PROXYGRAPHICS
 70
     1
  9
$MEASUREMENT
 70
     1
  9
$CELWEIGHT
370
    -1
  9
$ENDCAPS
280
     0
  9
$JOINSTYLE
280
     0
  9
$LWDISPLAY
290
     1
  9
$INSUNITS
 70
     4
  9
$HYPERLINKBASE
  1

  9
$STYLESHEET
  1

  9
$XEDIT
290
     1
  9
$CEPSNTYPE
380
     0
  9
$PSTYLEMODE
290
     1
  9
$FINGERPRINTGUID
  2
{8c4ea8b5-0f4b-4f2f-9e52-003afa693856}
  9
$VERSIONGUID
  2
{FAEB1C32-E019-11D5-929B-00C0DF256EC4}
  9
$EXTNAMES
290
     1
  9
$PSVPSCALE
 40
0.0
  9
$OLESTARTUP
290
     0
  0
ENDSEC
  0
SECTION
  2
CLASSES
  0
CLASS
  1
ACDBDICTIONARYWDFLT
  2
AcDbDictionaryWithDefault
  3
ObjectDBX Classes
 90
        0
280
     0
281
     0
  0
CLASS
  1
VISUALSTYLE
  2
AcDbVisualStyle
  3
ObjectDBX Classes
 90
     4095
280
     0
281
     0
  0
CLASS
  1
MATERIAL
  2
AcDbMaterial
  3
ObjectDBX Classes
 90
     1153
280
     0
281
     0
  0
CLASS
  1
SCALE
  2
AcDbScale
  3
ObjectDBX Classes
 90
     1153
280
     0
281
     0
  0
CLASS
  1
TABLESTYLE
  2
AcDbTableStyle
  3
ObjectDBX Classes
 90
     4095
280
     0
281
     0
  0
CLASS
  1
MLEADERSTYLE
  2
AcDbMLeaderStyle
  3
ACDB_MLEADERSTYLE_CLASS
 90
     4095
280
     0
281
     0
  0
CLASS
  1
SUN
  2
AcDbSun
  3
SCENEOE
 90
     1153
280
     0
281
     0
  0
CLASS
  1
ACDBPLACEHOLDER
  2
AcDbPlaceHolder
  3
ObjectDBX Classes
 90
        0
280
     0
281
     0
  0
CLASS
  1
LAYOUT
  2
AcDbLayout
  3
ObjectDBX Classes
 90
        0
280
     0
281
     0
  0
ENDSEC
  0
SECTION
  2
TABLES
  0
TABLE
  2
VPORT
  5
8
330
0
100
AcDbSymbolTable
 70
     1
  0
VPORT
  5
29
330
8
100
AcDbSymbolTableRecord
100
AcDbViewportTableRecord
  2
*Active
 70
     0
 10
0.0
 20
0.0
 11
1.0
 21
1.0
 12
148.5
 22
105.0
 13
0.0
 23
0.0
 14
10.0
 24
10.0
 15
10.0
 25
10.0
 16
0.0
 26
0.0
 36
1.0
 17
0.0
 27
0.0
 37
0.0
 40
210.0
 41
1.4142857143
 42
50.0
 43
0.0
 44
0.0
 50
0.0
 51
0.0
 71
     0
 72
  2000
 73
     1
 74
     3
 75
     0
 76
     0
 77
     0
 78
     0
281
     0
 65
     1
110
0.0
120
0.0
130
0.0
111
1.0
121
0.0
131
0.0
112
0.0
122
1.0
132
0.0
 79
     0
146
0.0
  0
ENDTAB
  0
TABLE
  2
LTYPE
  5
5
330
0
100
AcDbSymbolTable
 70
     6
  0
LTYPE
  5
14
330
5
100
AcDbSymbolTableRecord
100
AcDbLinetypeTableRecord
  2
ByBlock
 70
     0
  3

 72
    65
 73
     0
 40
0.0
  0
LTYPE
  5
15
330
5
100
AcDbSymbolTableRecord
100
AcDbLinetypeTableRecord
  2
ByLayer
 70
     0
  3

 72
    65
 73
     0
 40
0.0
  0
LTYPE
  5
16
330
5
100
AcDbSymbolTableRecord
100
AcDbLinetypeTableRecord
  2
Continuous
 70
     0
  3
Solid line
 72
    65
 73
     0
 40
0.0
  0
LTYPE
  5
5E
330
5
100
AcDbSymbolTableRecord
100
AcDbLinetypeTableRecord
  2
HIDDEN
 70
     0
  3
Hidden __ __ __ __ __ __ __ __ __ __ __ __ __ __
 72
    65
 73
     2
 40
1.905
 49
1.27
 74
     0
 49
-0.635
 74
     0
  0
LTYPE
  5
5F
330
5
100
AcDbSymbolTableRecord
100
AcDbLinetypeTableRecord
  2
PHANTOM
 70
     0
  3
Phantom ______  __  __  ______  __  __  ______
 72
    65
 73
     6
 40
12.7
 49
6.35
 74
     0
 49
-1.27
 74
     0
 49
1.27
 74
     0
 49
-1.27
 74
     0
 49
1.27
 74
     0
 49
-1.27
 74
     0
  0
LTYPE
  5
60
330
5
100
AcDbSymbolTableRecord
100
AcDbLinetypeTableRecord
  2
CENTER
 70
     0
  3
Center ____ _ ____ _ ____ _ ____ _ ____ _ ____
 72
    65
 73
     4
 40
10.16
 49
6.35
 74
     0
 49
-1.27
 74
     0
 49
1.27
 74
     0
 49
-1.27
 74
     0
  0
LTYPE
  5
61
330
5
100
AcDbSymbolTableRecord
100
AcDbLinetypeTableRecord
  2
CENTERX2
 70
     0
  3
Center (2x) ________  __  ________  __  _____
 72
    65
 73
     4
 40
20.32
 49
12.7
 74
     0
 49
-2.54
 74
     0
 49
2.54
 74
     0
 49
-2.54
 74
     0
  0
LTYPE
  5
62
330
5
100
AcDbSymbolTableRecord
100
AcDbLinetypeTableRecord
  2
DOT2
 70
     0
  3
Dot (.5x) ........................................
 72
    65
 73
     2
 40
0.635
 49
0.0
 74
     0
 49
-0.635
 74
     0
  0
ENDTAB
  0
TABLE
  2
LAYER
  5
2
330
0
100
AcDbSymbolTable
 70
     2
  0
LAYER
  5
10
330
2
100
AcDbSymbolTableRecord
100
AcDbLayerTableRecord
  2
0
 70
     0
 62
     7
  6
Continuous
370
    -3
390
F
  0
LAYER
  5
63
330
2
100
AcDbSymbolTableRecord
100
AcDbLayerTableRecord
  2
FORMAT
 70
     0
 62
     7
  6
Continuous
370
    -3
390
F
  0
ENDTAB
  0
TABLE
  2
STYLE
  5
3
330
0
100
AcDbSymbolTable
 70
     2
  0
STYLE
  5
11
330
3
100
AcDbSymbolTableRecord
100
AcDbTextStyleTableRecord
  2
Standard
 70
     0
 40
0.0
 41
1.0
 50
0.0
 71
     0
 42
3.5277777778
  3
txt
  4
bigfont
  0
STYLE
  5
64
330
3
100
AcDbSymbolTableRecord
100
AcDbTextStyleTableRecord
  2
SLDTEXTSTYLE0
 70
     0
 40
0.0
 41
0.7
 50
0.0
 71
     0
 42
3.5277777778
  3
TXT
  4
bigfont
  0
ENDTAB
  0
TABLE
  2
VIEW
  5
6
330
0
100
AcDbSymbolTable
 70
     0
  0
ENDTAB
  0
TABLE
  2
UCS
  5
7
330
0
100
AcDbSymbolTable
 70
     0
  0
ENDTAB
  0
TABLE
  2
APPID
  5
9
330
0
100
AcDbSymbolTable
 70
     1
  0
APPID
  5
12
330
9
100
AcDbSymbolTableRecord
100
AcDbRegAppTableRecord
  2
ACAD
 70
     0
  0
ENDTAB
  0
TABLE
  2
DIMSTYLE
  5
A
330
0
100
AcDbSymbolTable
 70
     1
100
AcDbDimStyleTable
  0
DIMSTYLE
105
27
330
A
100
AcDbSymbolTableRecord
100
AcDbDimStyleTableRecord
  2
ISO-25
 70
     0
 41
2.5
 42
0.625
 43
3.75
 44
1.25
 73
     0
 74
     0
 77
     1
 78
     8
140
2.5
141
2.5
143
0.0393700787
147
0.625
171
     3
172
     1
178
     0
271
     2
272
     2
274
     3
278
    44
283
     0
284
     8
340
11
  0
ENDTAB
  0
TABLE
  2
BLOCK_RECORD
  5
1
330
0
100
AcDbSymbolTable
 70
     3
  0
BLOCK_RECORD
  5
1F
330
1
100
AcDbSymbolTableRecord
100
AcDbBlockTableRecord
  2
*Model_Space
340
22
  0
BLOCK_RECORD
  5
1B
330
1
100
AcDbSymbolTableRecord
100
AcDbBlockTableRecord
  2
*Paper_Space
340
1E
  0
BLOCK_RECORD
  5
23
330
1
100
AcDbSymbolTableRecord
100
AcDbBlockTableRecord
  2
*Paper_Space0
340
26
  0
BLOCK_RECORD
  5
1C6
330
1
100
AcDbSymbolTableRecord
100
AcDbBlockTableRecord
  2
SW_CENTERMARKSYMBOL_0
340
0
102
{BLKREFS
331
1D1
102
}
  0
BLOCK_RECORD
  5
252
330
1
100
AcDbSymbolTableRecord
100
AcDbBlockTableRecord
  2
SW_CENTERMARKSYMBOL_1
340
0
102
{BLKREFS
331
25D
102
}
  0
ENDTAB
  0
ENDSEC
  0
SECTION
  2
BLOCKS
  0
BLOCK
  5
20
330
1F
100
AcDbEntity
  8
0
100
AcDbBlockBegin
  2
*Model_Space
 70
     0
 10
0.0
 20
0.0
 30
0.0
  3
*Model_Space
  1

  0
ENDBLK
  5
21
330
1F
100
AcDbEntity
  8
0
100
AcDbBlockEnd
  0
BLOCK
  5
1C
330
1B
100
AcDbEntity
 67
     1
  8
0
100
AcDbBlockBegin
  2
*Paper_Space
 70
     0
 10
0.0
 20
0.0
 30
0.0
  3
*Paper_Space
  1

  0
ENDBLK
  5
1D
330
1B
100
AcDbEntity
 67
     1
  8
0
100
AcDbBlockEnd
  0
BLOCK
  5
24
330
23
100
AcDbEntity
  8
0
100
AcDbBlockBegin
  2
*Paper_Space0
 70
     0
 10
0.0
 20
0.0
 30
0.0
  3
*Paper_Space0
  1

  0
ENDBLK
  5
25
330
23
100
AcDbEntity
  8
0
100
AcDbBlockEnd
  0
BLOCK
  5
1C7
330
1C6
100
AcDbEntity
  8
0
100
AcDbBlockBegin
  2
SW_CENTERMARKSYMBOL_0
 70
     0
 10
0.0
 20
0.0
 30
0.0
  3
SW_CENTERMARKSYMBOL_0
  1

  0
LINE
  5
1C9
330
1C6
100
AcDbEntity
  8
FORMAT
 62
     0
100
AcDbLine
 10
0.0
 20
0.0
 30
0.0
 11
0.0
 21
2.5
 31
0.0
  0
LINE
  5
1CA
330
1C6
100
AcDbEntity
  8
FORMAT
 62
     0
100
AcDbLine
 10
0.0
 20
0.0
 30
0.0
 11
-2.5
 21
0.0
 31
0.0
  0
LINE
  5
1CB
330
1C6
100
AcDbEntity
  8
FORMAT
 62
     0
100
AcDbLine
 10
0.0
 20
0.0
 30
0.0
 11
0.0
 21
-2.5
 31
0.0
  0
LINE
  5
1CC
330
1C6
100
AcDbEntity
  8
FORMAT
 62
     0
100
AcDbLine
 10
0.0
 20
0.0
 30
0.0
 11
2.5
 21
0.0
 31
0.0
  0
LINE
  5
1CD
330
1C6
100
AcDbEntity
  8
FORMAT
 62
     0
100
AcDbLine
 10
0.0
 20
5.0
 30
0.0
 11
0.0
 21
29.8927543942
 31
0.0
  0
LINE
  5
1CE
330
1C6
100
AcDbEntity
  8
FORMAT
 62
     0
100
AcDbLine
 10
-5.0
 20
0.0
 30
0.0
 11
-10.75
 21
0.0
 31
0.0
  0
LINE
  5
1CF
330
1C6
100
AcDbEntity
  8
FORMAT
 62
     0
100
AcDbLine
 10
0.0
 20
-5.0
 30
0.0
 11
0.0
 21
-25.1293664346
 31
0.0
  0
LINE
  5
1D0
330
1C6
100
AcDbEntity
  8
FORMAT
 62
     0
100
AcDbLine
 10
5.0
 20
0.0
 30
0.0
 11
10.75
 21
0.0
 31
0.0
  0
ENDBLK
  5
1C8
330
1C6
100
AcDbEntity
  8
0
100
AcDbBlockEnd
  0
BLOCK
  5
253
330
252
100
AcDbEntity
  8
0
100
AcDbBlockBegin
  2
SW_CENTERMARKSYMBOL_1
 70
     0
 10
0.0
 20
0.0
 30
0.0
  3
SW_CENTERMARKSYMBOL_1
  1

  0
LINE
  5
255
330
252
100
AcDbEntity
  8
FORMAT
 62
     0
100
AcDbLine
 10
0.0
 20
0.0
 30
0.0
 11
0.0
 21
2.5
 31
0.0
  0
LINE
  5
256
330
252
100
AcDbEntity
  8
FORMAT
 62
     0
100
AcDbLine
 10
0.0
 20
0.0
 30
0.0
 11
-2.5
 21
0.0
 31
0.0
  0
LINE
  5
257
330
252
100
AcDbEntity
  8
FORMAT
 62
     0
100
AcDbLine
 10
0.0
 20
0.0
 30
0.0
 11
0.0
 21
-2.5
 31
0.0
  0
LINE
  5
258
330
252
100
AcDbEntity
  8
FORMAT
 62
     0
100
AcDbLine
 10
0.0
 20
0.0
 30
0.0
 11
2.5
 21
0.0
 31
0.0
  0
LINE
  5
259
330
252
100
AcDbEntity
  8
FORMAT
 62
     0
100
AcDbLine
 10
0.0
 20
5.0
 30
0.0
 11
0.0
 21
9.95
 31
0.0
  0
LINE
  5
25A
330
252
100
AcDbEntity
  8
FORMAT
 62
     0
100
AcDbLine
 10
-5.0
 20
0.0
 30
0.0
 11
-24.4158484284
 21
0.0
 31
0.0
  0
LINE
  5
25B
330
252
100
AcDbEntity
  8
FORMAT
 62
     0
100
AcDbLine
 10
0.0
 20
-5.0
 30
0.0
 11
0.0
 21
-9.95
 31
0.0
  0
LINE
  5
25C
330
252
100
AcDbEntity
  8
FORMAT
 62
     0
100
AcDbLine
 10
5.0
 20
0.0
 30
0.0
 11
40.8360168866
 21
0.0
 31
0.0
  0
ENDBLK
  5
254
330
252
100
AcDbEntity
  8
0
100
AcDbBlockEnd
  0
ENDSEC
  0
SECTION
  2
ENTITIES
  0
MTEXT
  5
65
330
1F
100
AcDbEntity
  8
FORMAT
100
AcDbMText
 10
120.0423080937
 20
83.3696921721
 30
0.0
 40
2.6458333333
 41
0.0
 71
     1
 72
     1
  1
エースボール　アングル型
  7
SLDTEXTSTYLE0
 73
     1
 44
1.0
  0
MTEXT
  5
66
330
1F
100
AcDbEntity
  8
FORMAT
100
AcDbMText
 10
120.0423080937
 20
78.841914273
 30
0.0
 40
2.6458333333
 41
0.0
 71
     1
 72
     1
  1
BM-3022
  7
SLDTEXTSTYLE0
 73
     1
 44
1.0
  0
LINE
  5
67
330
1F
100
AcDbEntity
  8
0
  6
Continuous
 62
     7
370
    25
100
AcDbLine
 10
70.7252545537
 20
47.6876218572
 30
0.0
 11
59.6252545537
 21
47.6876218572
 31
0.0
  0
LINE
  5
68
330
1F
100
AcDbEntity
  8
0
  6
Continuous
 62
     7
370
    25
100
AcDbLine
 10
59.6252545537
 20
31.6876218572
 30
0.0
 11
70.7252545537
 21
31.6876218572
 31
0.0
  0
LINE
  5
69
330
1F
100
AcDbEntity
  8
0
  6
Continuous
 62
     7
370
    25
100
AcDbLine
 10
59.6252545537
 20
47.6876218572
 30
0.0
 11
59.1252545537
 21
47.1876218572
 31
0.0
  0
LINE
  5
6A
330
1F
100
AcDbEntity
  8
0
  6
Continuous
 62
     7
370
    25
100
AcDbLine
 10
59.1252545537
 20
32.1876218572
 30
0.0
 11
59.6252545537
 21
31.6876218572
 31
0.0
  0
LINE
  5
6B
330
1F
100
AcDbEntity
  8
0
  6
Continuous
 62
     7
370
    25
100
AcDbLine
 10
93.3663858066
 20
29.9500175502
 30
0.0
 11
94.2252545537
 21
31.4376218572
 31
0.0
  0
LINE
  5
6C
330
1F
100
AcDbEntity
  8
0
  6
Continuous
 62
     7
370
    25
100
AcDbLine
 10
94.2252545537
 20
47.9376218572
 30
0.0
 11
93.3663858066
 21
49.4252261643
 31
0.0
  0
LINE
  5
6D
330
1F
100
AcDbEntity
  8
0
  6
Continuous
 62
     7
370
    25
100
AcDbLine
 10
75.4670670537
 20
27.6876218572
 30
0.0
 11
75.7607024951
 21
18.2912877311
 31
0.0
  0
LINE
  5
6E
330
1F
100
AcDbEntity
  8
0
  6
Continuous
 62
     7
370
    25
100
AcDbLine
 10
88.6898066122
 20
18.2912877311
 30
0.0
 11
88.9834420537
 21
27.6876218572
 31
0.0
  0
SPLINE
  5
6F
330
1F
100
AcDbEntity
  8
0
  6
Continuous
 62
     7
370
    25
100
AcDbSpline
210
0.0
220
0.0
230
1.0
 70
     8
 71
     3
 72
    12
 73
     8
 74
     0
 42
0.00000001
 43
0.00000001
 40
0.0
 40
0.0
 40
0.0
 40
0.0
 40
0.1011455232963168
 40
0.3672063888117074
 40
0.6403787662657272
 40
0.9162328408610977
 40
1.0
 40
1.0
 40
1.0
 40
1.0
 10
76.33445816472644
 20
49.18737043349806
 30
0.0
 10
76.33603120526922
 20
49.16089889745205
 30
0.0
 10
76.34174209111313
 20
49.06479462273023
 30
0.0
 10
76.30799380117888
 20
48.89761822505731
 30
0.0
 10
76.22853702690969
 20
48.69985105648753
 30
0.0
 10
76.1399048764949
 20
48.55592903751832
 30
0.0
 10
76.06992709978883
 20
48.49270976847302
 30
0.0
 10
76.05362706239488
 20
48.47798400126575
 30
0.0
  0
SPLINE
  5
70
330
1F
100
AcDbEntity
  8
0
  6
Continuous
 62
     7
370
    25
100
AcDbSpline
210
0.0
220
0.0
230
1.0
 70
     8
 71
     3
 72
    12
 73
     8
 74
     0
 42
0.00000001
 43
0.00000001
 40
0.0
 40
0.0
 40
0.0
 40
0.0
 40
0.0830210282043101
 40
0.3917016743883657
 40
0.670571326100379
 40
0.9255211721478849
 40
1.0
 40
1.0
 40
1.0
 40
1.0
 10
88.4106674818361
 20
48.49353840115548
 30
0.0
 10
88.3949411853283
 20
48.50775123655708
 30
0.0
 10
88.32074291523624
 20
48.57480884286511
 30
0.0
 10
88.23011995020263
 20
48.72440658695533
 30
0.0
 10
88.15356695514761
 20
48.92472930651898
 30
0.0
 10
88.12326126074694
 20
49.07934724144084
 30
0.0
 10
88.12718742843295
 20
49.16333310285295
 30
0.0
 10
88.12807507541201
 20
49.18232103259228
 30
0.0
  0
LINE
  5
71
330
1F
100
AcDbEntity
  8
0
  6
Continuous
 62
     7
370
    25
100
AcDbLine
 10
75.7607024951
 20
18.2912877311
 30
0.0
 11
76.9752545537
 21
16.1876218572
 31
0.0
  0
LINE
  5
72
330
1F
100
AcDbEntity
  8
0
  6
Continuous
 62
     7
370
    25
100
AcDbLine
 10
87.4752545537
 20
16.1876218572
 30
0.0
 11
88.6898066122
 21
18.2912877311
 31
0.0
  0
LINE
  5
73
330
1F
100
AcDbEntity
  8
0
  6
Continuous
 62
     7
370
    25
100
AcDbLine
 10
88.1252545537
 20
49.1830910371
 30
0.0
 11
88.1252545537
 21
50.1876218572
 31
0.0
  0
LINE
  5
74
330
1F
100
AcDbEntity
  8
0
  6
Continuous
 62
     7
370
    25
100
AcDbLine
 10
76.3252545537
 20
50.1876218572
 30
0.0
 11
76.3252545537
 21
49.1876218572
 31
0.0
  0
LINE
  5
75
330
1F
100
AcDbEntity
  8
0
  6
Continuous
 62
     7
370
    25
100
AcDbLine
 10
76.0550876463
 20
48.4823595865
 30
0.0
 11
75.5107233739
 21
49.4252261643
 31
0.0
  0
LINE
  5
76
330
1F
100
AcDbEntity
  8
0
  6
Continuous
 62
     7
370
    25
100
AcDbLine
 10
88.9397857335
 20
49.4252261643
 30
0.0
 11
88.395421461
 21
48.4823595865
 31
0.0
  0
LINE
  5
77
330
1F
100
AcDbEntity
  8
0
  6
Continuous
 62
     7
370
    25
100
AcDbLine
 10
71.4397857335
 20
49.4252261643
 30
0.0
 11
70.7252545537
 21
48.1876218572
 31
0.0
  0
LINE
  5
78
330
1F
100
AcDbEntity
  8
0
  6
Continuous
 62
     7
370
    25
100
AcDbLine
 10
90.7252545537
 20
27.6876218572
 30
0.0
 11
91.9628588607
 21
28.402153037
 31
0.0
  0
LINE
  5
79
330
1F
100
AcDbEntity
  8
0
  6
Continuous
 62
     7
370
    25
100
AcDbLine
 10
70.7252545537
 20
31.1876218572
 30
0.0
 11
71.4397857335
 21
29.9500175502
 31
0.0
  0
LINE
  5
7A
330
1F
100
AcDbEntity
  8
0
  6
Continuous
 62
     7
370
    25
100
AcDbLine
 10
72.4876502466
 20
28.402153037
 30
0.0
 11
73.7252545537
 21
27.6876218572
 31
0.0
  0
LINE
  5
7B
330
1F
100
AcDbEntity
  8
0
  6
Continuous
 62
     7
370
    25
100
AcDbLine
 10
91.9628588607
 20
28.3995926557
 30
0.0
 11
91.9628588607
 21
29.9500175502
 31
0.0
  0
LINE
  5
7C
330
1F
100
AcDbEntity
  8
0
  6
Continuous
 62
     7
370
    25
100
AcDbLine
 10
91.9628588607
 20
29.9500175502
 30
0.0
 11
93.368953862
 21
29.9500175502
 31
0.0
  0
LINE
  5
7D
330
1F
100
AcDbEntity
  8
0
  6
Continuous
 62
     7
370
    25
100
AcDbLine
 10
75.5132914293
 20
49.4252261643
 30
0.0
 11
71.4372253522
 21
49.4252261643
 31
0.0
  0
LINE
  5
7E
330
1F
100
AcDbEntity
  8
0
  6
Continuous
 62
     7
370
    25
100
AcDbLine
 10
93.368953862
 20
49.4252261643
 30
0.0
 11
88.937217678
 21
49.4252261643
 31
0.0
  0
LINE
  5
7F
330
1F
100
AcDbEntity
  8
0
  6
Continuous
 62
     7
370
    25
100
AcDbLine
 10
72.4876502466
 20
29.9500175502
 30
0.0
 11
72.4876502466
 21
28.3995926557
 31
0.0
  0
LINE
  5
80
330
1F
100
AcDbEntity
  8
0
  6
Continuous
 62
     7
370
    25
100
AcDbLine
 10
71.4372253522
 20
29.9500175502
 30
0.0
 11
72.4876502466
 21
29.9500175502
 31
0.0
  0
LINE
  5
81
330
1F
100
AcDbEntity
  8
0
  6
Continuous
 62
     7
370
    25
100
AcDbLine
 10
76.7252545537
 20
66.1876218572
 30
0.0
 11
74.7752545537
 21
58.1876218572
 31
0.0
  0
LINE
  5
82
330
1F
100
AcDbEntity
  8
0
  6
Continuous
 62
     7
370
    25
100
AcDbLine
 10
74.7752545537
 20
58.1876218572
 30
0.0
 11
75.2252545537
 21
50.1876218572
 31
0.0
  0
LINE
  5
83
330
1F
100
AcDbEntity
  8
0
  6
Continuous
 62
     7
370
    25
100
AcDbLine
 10
89.2252545537
 20
50.1876218572
 30
0.0
 11
89.2959111794
 21
51.4437396485
 31
0.0
  0
LINE
  5
84
330
1F
100
AcDbEntity
  8
0
  6
Continuous
 62
     7
370
    25
100
AcDbLine
 10
87.9784860882
 20
65.148723254
 30
0.0
 11
87.7252545537
 21
66.1876218572
 31
0.0
  0
LINE
  5
85
330
1F
100
AcDbEntity
  8
0
  6
Continuous
 62
     7
370
    25
100
AcDbLine
 10
59.6252545537
 20
47.6876218572
 30
0.0
 11
59.6252545537
 21
31.6876218572
 31
0.0
  0
LINE
  5
86
330
1F
100
AcDbEntity
  8
0
  6
Continuous
 62
     7
370
    25
100
AcDbLine
 10
59.1252545537
 20
32.1876218572
 30
0.0
 11
59.1252545537
 21
47.1876218572
 31
0.0
  0
SPLINE
  5
87
330
1F
100
AcDbEntity
  8
0
  6
Continuous
 62
     7
370
    25
100
AcDbSpline
210
0.0
220
0.0
230
1.0
 70
     8
 71
     3
 72
    10
 73
     6
 74
     0
 42
0.00000001
 43
0.00000001
 40
0.0
 40
0.0
 40
0.0
 40
0.0
 40
0.5000000000000001
 40
0.5000000000000001
 40
1.0
 40
1.0
 40
1.0
 40
1.0
 10
77.60645240016414
 20
28.36534326248476
 30
0.0
 10
78.35713109965997
 20
28.15841320895207
 30
0.0
 10
79.12141204388263
 20
27.98660759857836
 30
0.0
 10
80.67598677797017
 20
27.74965709204699
 30
0.0
 10
81.4515617454863
 20
27.6876218572246
 30
0.0
 10
82.22525455368115
 20
27.68762185722461
 30
0.0
  0
LINE
  5
88
330
1F
100
AcDbEntity
  8
0
  6
Continuous
 62
     7
370
    25
100
AcDbLine
 10
77.6064524002
 20
31.7212253174
 30
0.0
 11
77.6064524002
 21
28.3653432625
 31
0.0
  0
SPLINE
  5
89
330
1F
100
AcDbEntity
  8
0
  6
Continuous
 62
     7
370
    25
100
AcDbSpline
210
0.0
220
0.0
230
1.0
 70
     8
 71
     3
 72
     8
 73
     4
 74
     0
 42
0.00000001
 43
0.00000001
 40
0.0
 40
0.0
 40
0.0
 40
0.0
 40
1.0
 40
1.0
 40
1.0
 40
1.0
 10
77.60645240016413
 20
31.72122531736961
 30
0.0
 10
77.81163822270743
 20
31.77778628449383
 30
0.0
 10
78.01786142341474
 20
31.83172635590766
 30
0.0
 10
78.22525455368117
 20
31.88271064565063
 30
0.0
  0
LINE
  5
8A
330
1F
100
AcDbEntity
  8
0
  6
Continuous
 62
     7
370
    25
100
AcDbLine
 10
78.2252545537
 20
35.6876218572
 30
0.0
 11
75.7090184767
 21
35.6876218572
 31
0.0
  0
SPLINE
  5
8B
330
1F
100
AcDbEntity
  8
0
  6
Continuous
 62
     7
370
    25
100
AcDbSpline
210
0.0
220
0.0
230
1.0
 70
     8
 71
     3
 72
     8
 73
     4
 74
     0
 42
0.00000001
 43
0.00000001
 40
0.0
 40
0.0
 40
0.0
 40
0.0
 40
1.0
 40
1.0
 40
1.0
 40
1.0
 10
75.54753314842098
 20
35.06881970370757
 30
0.0
 10
75.60409651788922
 20
35.27401424121733
 30
0.0
 10
75.65803644071045
 20
35.48023789473449
 30
0.0
 10
75.70901847670198
 20
35.6876218572246
 30
0.0
  0
LINE
  5
8C
330
1F
100
AcDbEntity
  8
0
  6
Continuous
 62
     7
370
    25
100
AcDbLine
 10
71.4029759589
 20
35.0688197037
 30
0.0
 11
75.5475331484
 21
35.0688197037
 31
0.0
  0
SPLINE
  5
8D
330
1F
100
AcDbEntity
  8
0
  6
Continuous
 62
     7
370
    25
100
AcDbSpline
210
0.0
220
0.0
230
1.0
 70
     8
 71
     3
 72
    10
 73
     6
 74
     0
 42
0.00000001
 43
0.00000001
 40
0.0
 40
0.0
 40
0.0
 40
0.0
 40
0.5
 40
0.5
 40
1.0
 40
1.0
 40
1.0
 40
1.0
 10
71.40297595894135
 20
35.06881970370759
 30
0.0
 10
71.19490728271013
 20
35.82362897675688
 30
0.0
 10
71.02450827668561
 20
36.58437536398878
 30
0.0
 10
70.78934829698676
 20
38.12251774161204
 30
0.0
 10
70.72525455368115
 20
38.90001889413686
 30
0.0
 10
70.72525455368115
 20
39.68762185722461
 30
0.0
  0
SPLINE
  5
8E
330
1F
100
AcDbEntity
  8
0
  6
Continuous
 62
     7
370
    25
100
AcDbSpline
210
0.0
220
0.0
230
1.0
 70
     8
 71
     3
 72
    12
 73
     8
 74
     0
 42
0.00000001
 43
0.00000001
 40
0.0
 40
0.0
 40
0.0
 40
0.0
 40
0.2500000000000001
 40
0.2500000000000001
 40
0.5000000000000001
 40
0.5000000000000001
 40
1.0
 40
1.0
 40
1.0
 40
1.0
 10
70.72525455368115
 20
39.68762185722461
 30
0.0
 10
70.72525455368115
 20
40.08193993789644
 30
0.0
 10
70.74125335866225
 20
40.47559898184688
 30
0.0
 10
70.80302349697662
 20
41.25513498139222
 30
0.0
 10
70.84876562127822
 20
41.64208816951764
 30
0.0
 10
71.02543576862506
 20
42.79547473237164
 30
0.0
 10
71.19569083410536
 20
43.55445722157668
 30
0.0
 10
71.40297595894135
 20
44.30642401074162
 30
0.0
  0
LINE
  5
8F
330
1F
100
AcDbEntity
  8
0
  6
Continuous
 62
     7
370
    25
100
AcDbLine
 10
75.5475331484
 20
44.3064240107
 30
0.0
 11
71.4029759589
 21
44.3064240107
 31
0.0
  0
SPLINE
  5
90
330
1F
100
AcDbEntity
  8
0
  6
Continuous
 62
     7
370
    25
100
AcDbSpline
210
0.0
220
0.0
230
1.0
 70
     8
 71
     3
 72
     8
 73
     4
 74
     0
 42
0.00000001
 43
0.00000001
 40
0.0
 40
0.0
 40
0.0
 40
0.0
 40
1.0
 40
1.0
 40
1.0
 40
1.0
 10
75.70901847670198
 20
43.68762185722461
 30
0.0
 10
75.65811975977947
 20
43.8946668956536
 30
0.0
 10
75.6041856235287
 20
44.10090622533023
 30
0.0
 10
75.54753314842097
 20
44.30642401074162
 30
0.0
  0
SPLINE
  5
91
330
1F
100
AcDbEntity
  8
0
  6
Continuous
 62
     7
370
    25
100
AcDbSpline
210
0.0
220
0.0
230
1.0
 70
     8
 71
     3
 72
     8
 73
     4
 74
     0
 42
0.00000001
 43
0.00000001
 40
0.0
 40
0.0
 40
0.0
 40
0.0
 40
1.0
 40
1.0
 40
1.0
 40
1.0
 10
88.74149063066035
 20
43.68762185722467
 30
0.0
 10
88.79238686391543
 20
43.89465679262843
 30
0.0
 10
88.84632081887908
 20
44.10089655769342
 30
0.0
 10
88.90297595894135
 20
44.30642401074162
 30
0.0
  0
LINE
  5
92
330
1F
100
AcDbEntity
  8
0
  6
Continuous
 62
     7
370
    25
100
AcDbLine
 10
93.4031955811
 20
44.3064240107
 30
0.0
 11
88.9029759589
 21
44.3064240107
 31
0.0
  0
SPLINE
  5
93
330
1F
100
AcDbEntity
  8
0
  6
Continuous
 62
     7
370
    25
100
AcDbSpline
210
0.0
220
0.0
230
1.0
 70
     8
 71
     3
 72
    14
 73
    10
 74
     0
 42
0.00000001
 43
0.00000001
 40
0.0
 40
0.0
 40
0.0
 40
0.0
 40
0.25
 40
0.25
 40
0.5
 40
0.5
 40
0.75
 40
0.75
 40
1.0
 40
1.0
 40
1.0
 40
1.0
 10
93.40319558112357
 20
35.06881970370755
 30
0.0
 10
93.61114594182935
 20
35.82319976435753
 30
0.0
 10
93.78336775051821
 20
36.59264093182303
 30
0.0
 10
94.01800287326911
 20
38.13315229276419
 30
0.0
 10
94.08094693189679
 20
38.90800667277122
 30
0.0
 10
94.08088701916532
 20
40.46836762765678
 30
0.0
 10
94.01627235287322
 20
41.2588238204418
 30
0.0
 10
93.77971301347199
 20
42.80110348325027
 30
0.0
 10
93.60936787339256
 20
43.55849423645145
 30
0.0
 10
93.40319558112355
 20
44.30642401074162
 30
0.0
  0
LINE
  5
94
330
1F
100
AcDbEntity
  8
0
  6
Continuous
 62
     7
370
    25
100
AcDbLine
 10
88.9029759589
 20
35.0688197037
 30
0.0
 11
93.4031955811
 21
35.0688197037
 31
0.0
  0
SPLINE
  5
95
330
1F
100
AcDbEntity
  8
0
  6
Continuous
 62
     7
370
    25
100
AcDbSpline
210
0.0
220
0.0
230
1.0
 70
     8
 71
     3
 72
     8
 73
     4
 74
     0
 42
0.00000001
 43
0.00000001
 40
0.0
 40
0.0
 40
0.0
 40
0.0
 40
1.0
 40
1.0
 40
1.0
 40
1.0
 10
88.90297595894134
 20
35.06881970370758
 30
0.0
 10
88.8464141155044
 20
35.27400870524438
 30
0.0
 10
88.79247409824802
 20
35.48023207130908
 30
0.0
 10
88.74149063066035
 20
35.68762185722454
 30
0.0
  0
LINE
  5
96
330
1F
100
AcDbEntity
  8
0
  6
Continuous
 62
     7
370
    25
100
AcDbLine
 10
88.7414906307
 20
35.6876218572
 30
0.0
 11
86.2252545537
 21
35.6876218572
 31
0.0
  0
LINE
  5
97
330
1F
100
AcDbEntity
  8
0
  6
Continuous
 62
     7
370
    25
100
AcDbLine
 10
86.2252545537
 20
31.8827106457
 30
0.0
 11
86.2252545537
 21
35.6876218572
 31
0.0
  0
SPLINE
  5
98
330
1F
100
AcDbEntity
  8
0
  6
Continuous
 62
     7
370
    25
100
AcDbSpline
210
0.0
220
0.0
230
1.0
 70
     8
 71
     3
 72
     8
 73
     4
 74
     0
 42
0.00000001
 43
0.00000001
 40
0.0
 40
0.0
 40
0.0
 40
0.0
 40
1.0
 40
1.0
 40
1.0
 40
1.0
 10
86.22525455368115
 20
31.88271064565062
 30
0.0
 10
86.43228361701655
 20
31.8318158559498
 30
0.0
 10
86.6385236342859
 20
31.77788200658836
 30
0.0
 10
86.84405670719816
 20
31.7212253173696
 30
0.0
  0
LINE
  5
99
330
1F
100
AcDbEntity
  8
0
  6
Continuous
 62
     7
370
    25
100
AcDbLine
 10
86.8440567072
 20
28.3653432625
 30
0.0
 11
86.8440567072
 21
31.7212253174
 31
0.0
  0
SPLINE
  5
9A
330
1F
100
AcDbEntity
  8
0
  6
Continuous
 62
     7
370
    25
100
AcDbSpline
210
0.0
220
0.0
230
1.0
 70
     8
 71
     3
 72
    10
 73
     6
 74
     0
 42
0.00000001
 43
0.00000001
 40
0.0
 40
0.0
 40
0.0
 40
0.0
 40
0.5
 40
0.5
 40
1.0
 40
1.0
 40
1.0
 40
1.0
 10
82.22525455368115
 20
27.68762185722461
 30
0.0
 10
83.00083449028813
 20
27.68762185722461
 30
0.0
 10
83.77452470901454
 20
27.74990621920313
 30
0.0
 10
85.31855925134744
 20
27.98475433721015
 30
0.0
 10
86.09186792750225
 20
28.15799694434135
 30
0.0
 10
86.84405670719816
 20
28.36534326248479
 30
0.0
  0
ARC
  5
9B
330
1F
100
AcDbEntity
  8
0
  6
Continuous
 62
     7
370
    25
100
AcDbCircle
 10
83.7759859094
 20
39.1107028639
 30
0.0
 40
0.889000000000007
100
AcDbArc
 50
45.0
 51
315.0
  0
LINE
  5
9C
330
1F
100
AcDbEntity
  8
0
  6
Continuous
 62
     7
370
    25
100
AcDbLine
 10
84.4046038379
 20
39.7393207924
 30
0.0
 11
84.8712142235
 21
40.205931178
 31
0.0
  0
ARC
  5
9D
330
1F
100
AcDbEntity
  8
0
  6
Continuous
 62
     7
370
    25
100
AcDbCircle
 10
83.7759859094
 20
39.1107028639
 30
0.0
 40
1.548886735692404
100
AcDbArc
 50
45.0
 51
315.0
  0
LINE
  5
9E
330
1F
100
AcDbEntity
  8
0
  6
Continuous
 62
     7
370
    25
100
AcDbLine
 10
84.8712142235
 20
38.0154745498
 30
0.0
 11
84.4046038379
 21
38.4820849354
 31
0.0
  0
ARC
  5
9F
330
1F
100
AcDbEntity
  8
0
  6
Continuous
 62
     7
370
    25
100
AcDbCircle
 10
87.1181305058
 20
39.1107028639
 30
0.0
 40
0.8889999999999868
100
AcDbArc
 50
45.0
 51
159.0751675724
  0
LINE
  5
A0
330
1F
100
AcDbEntity
  8
0
  6
Continuous
 62
     7
370
    25
100
AcDbLine
 10
87.7467484342
 20
39.7393207924
 30
0.0
 11
88.2133588199
 21
40.205931178
 31
0.0
  0
ARC
  5
A1
330
1F
100
AcDbEntity
  8
0
  6
Continuous
 62
     7
370
    25
100
AcDbCircle
 10
87.1181305058
 20
39.1107028639
 30
0.0
 40
1.548886735692379
100
AcDbArc
 50
45.0
 51
315.0
  0
LINE
  5
A2
330
1F
100
AcDbEntity
  8
0
  6
Continuous
 62
     7
370
    25
100
AcDbLine
 10
88.2133588199
 20
38.0154745498
 30
0.0
 11
87.7467484342
 21
38.4820849354
 31
0.0
  0
ARC
  5
A3
330
1F
100
AcDbEntity
  8
0
  6
Continuous
 62
     7
370
    25
100
AcDbCircle
 10
87.1181305058
 20
39.1107028639
 30
0.0
 40
0.8890000000000007
100
AcDbArc
 50
200.9248324276
 51
315.0
  0
LINE
  5
A4
330
1F
100
AcDbEntity
  8
0
  6
Continuous
 62
     7
370
    25
100
AcDbLine
 10
86.287760257
 20
38.7932028639
 30
0.0
 11
88.2133588199
 21
38.7932028639
 31
0.0
  0
LINE
  5
A5
330
1F
100
AcDbEntity
  8
0
  6
Continuous
 62
     7
370
    25
100
AcDbLine
 10
88.2133588199
 20
38.7932028639
 30
0.0
 11
88.2133588199
 21
39.4282028639
 31
0.0
  0
LINE
  5
A6
330
1F
100
AcDbEntity
  8
0
  6
Continuous
 62
     7
370
    25
100
AcDbLine
 10
88.2133588199
 20
39.4282028639
 30
0.0
 11
86.287760257
 21
39.4282028639
 31
0.0
  0
LINE
  5
A7
330
1F
100
AcDbEntity
  8
0
  6
Continuous
 62
     7
370
    25
100
AcDbLine
 10
81.3234956397
 20
38.2652488396
 30
0.0
 11
81.2818453204
 21
38.2414439098
 31
0.0
  0
ELLIPSE
  5
A8
330
1F
100
AcDbEntity
  8
0
  6
Continuous
 62
     7
370
    25
100
AcDbEllipse
 10
80.9330021409
 20
38.796126381
 30
0.0
 11
0.678412947925267
 21
6.110667527536863E-13
 31
0.0
210
0.0
220
0.0
230
1.0
 40
0.9533039403
 41
3.470145824140278
 42
5.252469180536287
  0
LINE
  5
A9
330
1F
100
AcDbEntity
  8
0
  6
Continuous
 62
     7
370
    25
100
AcDbLine
 10
80.2908773739
 20
38.587442266
 30
0.0
 11
79.0312231689
 21
42.1098866627
 31
0.0
  0
ELLIPSE
  5
AA
330
1F
100
AcDbEntity
  8
0
  6
Continuous
 62
     7
370
    25
100
AcDbEllipse
 10
78.440240611
 20
41.8475474266
 30
0.0
 11
0.6519124952381361
 21
6.039613253960852E-13
 31
0.0
210
0.0
220
0.0
230
1.0
 40
0.9533023292
 41
0.4357905044354942
 42
2.705800116361548
  0
LINE
  5
AB
330
1F
100
AcDbEntity
  8
0
  6
Continuous
 62
     7
370
    25
100
AcDbLine
 10
77.8492586125
 20
42.1098878079
 30
0.0
 11
76.5898938108
 21
38.5882644062
 31
0.0
  0
ELLIPSE
  5
AC
330
1F
100
AcDbEntity
  8
0
  6
Continuous
 62
     7
370
    25
100
AcDbEllipse
 10
75.9477726268
 20
38.7969472399
 30
0.0
 11
-0.6784085062757725
 21
3.268496584496461E-13
 31
0.0
210
0.0
220
0.0
230
1.0
 40
0.9533122623
 41
1.047193771187939
 42
2.813042320199948
  0
LINE
  5
AD
330
1F
100
AcDbEntity
  8
0
  6
Continuous
 62
     7
370
    25
100
AcDbLine
 10
75.6085661529
 20
38.2368593946
 30
0.0
 11
75.5569855823
 21
38.2652488396
 31
0.0
  0
LINE
  5
AE
330
1F
100
AcDbEntity
  8
0
  6
Continuous
 62
     7
370
    25
100
AcDbLine
 10
75.5569855823
 20
38.2652488396
 30
0.0
 11
76.3532542419
 21
36.7470767382
 31
0.0
  0
ELLIPSE
  5
AF
330
1F
100
AcDbEntity
  8
0
  6
Continuous
 62
     7
370
    25
100
AcDbEllipse
 10
76.4291031153
 20
36.7832302532
 30
0.0
 11
0.08480161849065837
 21
-2.131628207280301E-14
 31
0.0
210
0.0
220
0.0
230
1.0
 40
0.9533039403
 41
3.605240262590939
 42
5.462183310215541
  0
ELLIPSE
  5
B0
330
1F
100
AcDbEntity
  8
0
  6
Continuous
 62
     7
370
    25
100
AcDbEllipse
 10
78.440240611
 20
34.7243816326
 30
0.0
 11
2.866293551216202
 21
-1.492139745096210E-12
 31
0.0
210
0.0
220
0.0
230
1.0
 40
0.9533046568
 41
0.8210016221243768
 42
2.320591031466442
  0
ELLIPSE
  5
B1
330
1F
100
AcDbEntity
  8
0
  6
Continuous
 62
     7
370
    25
100
AcDbEllipse
 10
80.4513781068
 20
36.7832302532
 30
0.0
 11
0.08480161849061574
 21
-7.105427357601002E-15
 31
0.0
210
0.0
220
0.0
230
1.0
 40
0.9533039403
 41
3.962594650556758
 42
5.819537698177264
  0
LINE
  5
B2
330
1F
100
AcDbEntity
  8
0
  6
Continuous
 62
     7
370
    25
100
AcDbLine
 10
80.5272269802
 20
36.7470767382
 30
0.0
 11
81.3234956397
 21
38.2652488396
 31
0.0
  0
LINE
  5
B3
330
1F
100
AcDbEntity
  8
0
  6
Continuous
 62
     7
370
    25
100
AcDbLine
 10
78.2252545537
 20
31.8827106457
 30
0.0
 11
78.2252545537
 21
35.6876218572
 31
0.0
  0
LINE
  5
B4
330
1F
100
AcDbEntity
  8
0
  6
Continuous
 62
     7
370
    25
100
AcDbLine
 10
88.7414906307
 20
43.6876218572
 30
0.0
 11
75.7090184767
 21
43.6876218572
 31
0.0
  0
LINE
  5
B5
330
1F
100
AcDbEntity
  8
0
  6
Continuous
 62
     7
370
    25
100
AcDbLine
 10
76.2252545537
 20
47.0488377894
 30
0.0
 11
76.2252545537
 21
43.6876218572
 31
0.0
  0
SPLINE
  5
B6
330
1F
100
AcDbEntity
  8
0
  6
Continuous
 62
     7
370
    25
100
AcDbSpline
210
0.0
220
0.0
230
1.0
 70
     8
 71
     3
 72
    10
 73
     6
 74
     0
 42
0.00000001
 43
0.00000001
 40
0.0
 40
0.0
 40
0.0
 40
0.0
 40
0.5
 40
0.5
 40
1.0
 40
1.0
 40
1.0
 40
1.0
 10
75.54753314842097
 20
44.73943671263383
 30
0.0
 10
75.52385775399658
 20
44.69649318173261
 30
0.0
 10
75.51076664411194
 20
44.63305073710848
 30
0.0
 10
75.51068032282366
 20
44.48057189998951
 30
0.0
 10
75.5238492567675
 20
44.39234189788224
 30
0.0
 10
75.54753314842097
 20
44.30642401074162
 30
0.0
  0
SPLINE
  5
B7
330
1F
100
AcDbEntity
  8
0
  6
Continuous
 62
     7
370
    25
100
AcDbSpline
210
0.0
220
0.0
230
1.0
 70
     8
 71
     3
 72
    12
 73
     8
 74
     0
 42
0.00000001
 43
0.00000001
 40
0.0
 40
0.0
 40
0.0
 40
0.0
 40
0.2500000000000001
 40
0.2500000000000001
 40
0.5000000000000002
 40
0.5000000000000002
 40
1.0
 40
1.0
 40
1.0
 40
1.0
 10
76.22525455368117
 20
47.04883778939233
 30
0.0
 10
76.22525455368117
 20
46.85309552651282
 30
0.0
 10
76.20941161759221
 20
46.65642891732226
 30
0.0
 10
76.14790875735454
 20
46.26716068999397
 30
0.0
 10
76.10230511631086
 20
46.07375665704106
 30
0.0
 10
75.92585409882163
 20
45.4968276057843
 30
0.0
 10
75.75545673156978
 20
45.11657817258129
 30
0.0
 10
75.54753314842097
 20
44.73943671263383
 30
0.0
  0
LINE
  5
B8
330
1F
100
AcDbEntity
  8
0
  6
Continuous
 62
     7
370
    25
100
AcDbLine
 10
74.8640386215
 20
27.6876218572
 30
0.0
 11
82.2252545537
 21
27.6876218572
 31
0.0
  0
SPLINE
  5
B9
330
1F
100
AcDbEntity
  8
0
  6
Continuous
 62
     7
370
    25
100
AcDbSpline
210
0.0
220
0.0
230
1.0
 70
     8
 71
     3
 72
    10
 73
     6
 74
     0
 42
0.00000001
 43
0.00000001
 40
0.0
 40
0.0
 40
0.0
 40
0.0
 40
0.5
 40
0.5
 40
1.0
 40
1.0
 40
1.0
 40
1.0
 10
77.17343969827196
 20
28.36534326248433
 30
0.0
 10
76.79469055088067
 20
28.15653333781807
 30
0.0
 10
76.41348527446937
 20
27.98599919807081
 30
0.0
 10
75.64425465328159
 20
27.75121339305189
 30
0.0
 10
75.25618694848326
 20
27.6876218572246
 30
0.0
 10
74.86403862151343
 20
27.6876218572246
 30
0.0
  0
SPLINE
  5
BA
330
1F
100
AcDbEntity
  8
0
  6
Continuous
 62
     7
370
    25
100
AcDbSpline
210
0.0
220
0.0
230
1.0
 70
     8
 71
     3
 72
    10
 73
     6
 74
     0
 42
0.00000001
 43
0.00000001
 40
0.0
 40
0.0
 40
0.0
 40
0.0
 40
0.5
 40
0.5
 40
1.0
 40
1.0
 40
1.0
 40
1.0
 10
77.17343969827193
 20
28.36534326248479
 30
0.0
 10
77.21637750737118
 20
28.38901550239636
 30
0.0
 10
77.27981809726337
 20
28.40210949233161
 30
0.0
 10
77.43230724277221
 20
28.40219635979306
 30
0.0
 10
77.52053663197553
 20
28.3890265700337
 30
0.0
 10
77.60645240016416
 20
28.36534326248479
 30
0.0
  0
SPLINE
  5
BB
330
1F
100
AcDbEntity
  8
0
  6
Continuous
 62
     7
370
    25
100
AcDbSpline
210
0.0
220
0.0
230
1.0
 70
     8
 71
     3
 72
    10
 73
     6
 74
     0
 42
0.00000001
 43
0.00000001
 40
0.0
 40
0.0
 40
0.0
 40
0.0
 40
0.5
 40
0.5
 40
1.0
 40
1.0
 40
1.0
 40
1.0
 10
86.84405670719816
 20
28.36534326248479
 30
0.0
 10
86.92993834970463
 20
28.38901716304074
 30
0.0
 10
87.01734755567006
 20
28.40210972021989
 30
0.0
 10
87.16999004074499
 20
28.40219613420217
 30
0.0
 10
87.23411302582736
 20
28.38902574260354
 30
0.0
 10
87.27706940909039
 20
28.36534326248479
 30
0.0
  0
SPLINE
  5
BC
330
1F
100
AcDbEntity
  8
0
  6
Continuous
 62
     7
370
    25
100
AcDbSpline
210
0.0
220
0.0
230
1.0
 70
     8
 71
     3
 72
    12
 73
     8
 74
     0
 42
0.00000001
 43
0.00000001
 40
0.0
 40
0.0
 40
0.0
 40
0.0
 40
0.2499999999999998
 40
0.2499999999999998
 40
0.4999999999999996
 40
0.4999999999999996
 40
1.0
 40
1.0
 40
1.0
 40
1.0
 10
89.58647048584889
 20
27.6876218572246
 30
0.0
 10
89.3914670058431
 20
27.6876218572246
 30
0.0
 10
89.19493234681869
 20
27.70336818724656
 30
0.0
 10
88.80551265921314
 20
27.76481321183199
 30
0.0
 10
88.61202796615288
 20
27.81040197108572
 30
0.0
 10
88.03484436739728
 20
27.98685297334232
 30
0.0
 10
87.6544085856143
 20
28.15731067530581
 30
0.0
 10
87.27706940909037
 20
28.36534326248465
 30
0.0
  0
LINE
  5
BD
330
1F
100
AcDbEntity
  8
0
  6
Continuous
 62
     7
370
    25
100
AcDbLine
 10
82.2252545537
 20
27.6876218572
 30
0.0
 11
89.5864704858
 21
27.6876218572
 31
0.0
  0
SPLINE
  5
BE
330
1F
100
AcDbEntity
  8
0
  6
Continuous
 62
     7
370
    25
100
AcDbSpline
210
0.0
220
0.0
230
1.0
 70
     8
 71
     3
 72
    10
 73
     6
 74
     0
 42
0.00000001
 43
0.00000001
 40
0.0
 40
0.0
 40
0.0
 40
0.0
 40
0.5
 40
0.5
 40
1.0
 40
1.0
 40
1.0
 40
1.0
 10
77.17343969827193
 20
31.7212253173696
 30
0.0
 10
77.21638322917316
 20
31.69754992294521
 30
0.0
 10
77.27982567379729
 20
31.68445881306058
 30
0.0
 10
77.43230451091625
 20
31.68437249177229
 30
0.0
 10
77.52053451302352
 20
31.69754142571613
 30
0.0
 10
77.60645240016414
 20
31.72122531736959
 30
0.0
  0
LINE
  5
BF
330
1F
100
AcDbEntity
  8
0
  6
Continuous
 62
     7
370
    25
100
AcDbLine
 10
77.1734396983
 20
28.3653432625
 30
0.0
 11
77.1734396983
 21
31.7212253174
 31
0.0
  0
SPLINE
  5
C0
330
1F
100
AcDbEntity
  8
0
  6
Continuous
 62
     7
370
    25
100
AcDbSpline
210
0.0
220
0.0
230
1.0
 70
     8
 71
     3
 72
    10
 73
     6
 74
     0
 42
0.00000001
 43
0.00000001
 40
0.0
 40
0.0
 40
0.0
 40
0.0
 40
0.5
 40
0.5
 40
1.0
 40
1.0
 40
1.0
 40
1.0
 10
86.84405670719816
 20
31.72122531736958
 30
0.0
 10
86.92994376900072
 20
31.69754992294517
 30
0.0
 10
87.01735097798093
 20
31.68445881306054
 30
0.0
 10
87.16998742057478
 20
31.68437249177232
 30
0.0
 10
87.23411046552054
 20
31.69754142571626
 30
0.0
 10
87.27706940909077
 20
31.72122531736982
 30
0.0
  0
LINE
  5
C1
330
1F
100
AcDbEntity
  8
0
  6
Continuous
 62
     7
370
    25
100
AcDbLine
 10
87.2770694091
 20
31.7212253174
 30
0.0
 11
87.2770694091
 21
28.3653432625
 31
0.0
  0
LINE
  5
C2
330
1F
100
AcDbEntity
  8
0
  6
Continuous
 62
     7
370
    25
100
AcDbLine
 10
78.1714935472
 20
39.1131900007
 30
0.0
 11
78.778841906
 21
39.1131900007
 31
0.0
  0
ELLIPSE
  5
C3
330
1F
100
AcDbEntity
  8
0
  6
Continuous
 62
     7
370
    25
100
AcDbEllipse
 10
78.1714935472
 20
39.1940317178
 30
0.0
 11
0.08480161849065837
 21
-7.105427357601002E-15
 31
0.0
210
0.0
220
0.0
230
1.0
 40
0.9533039403
 41
2.798568711308298
 42
4.712388980384782
  0
LINE
  5
C4
330
1F
100
AcDbEntity
  8
0
  6
Continuous
 62
     7
370
    25
100
AcDbLine
 10
78.39530649
 20
40.0318043467
 30
0.0
 11
78.0916323089
 21
39.2212217298
 31
0.0
  0
ELLIPSE
  5
C5
330
1F
100
AcDbEntity
  8
0
  6
Continuous
 62
     7
370
    25
100
AcDbEllipse
 10
78.4751677283
 20
40.0046143348
 30
0.0
 11
0.08480161849065837
 21
0.0
 31
0.0
210
0.0
220
0.0
230
1.0
 40
0.9533039403
 41
0.3430239404206104
 42
2.798568713169156
  0
LINE
  5
C6
330
1F
100
AcDbEntity
  8
0
  6
Continuous
 62
     7
370
    25
100
AcDbLine
 10
78.8587031443
 20
39.2212217295
 30
0.0
 11
78.5550289666
 21
40.0318043467
 31
0.0
  0
ELLIPSE
  5
C7
330
1F
100
AcDbEntity
  8
0
  6
Continuous
 62
     7
370
    25
100
AcDbEllipse
 10
78.778841906
 20
39.1940317178
 30
0.0
 11
-0.08480161849065837
 21
-4.973799150320702E-14
 31
0.0
210
0.0
220
0.0
230
1.0
 40
0.9533039403
 41
1.570796326794337
 42
3.48461659214914
  0
SPLINE
  5
C8
330
1F
100
AcDbEntity
  8
0
  6
Continuous
 62
     7
370
    25
100
AcDbSpline
210
0.0
220
0.0
230
1.0
 70
     8
 71
     3
 72
    10
 73
     6
 74
     0
 42
0.00000001
 43
0.00000001
 40
0.0
 40
0.0
 40
0.0
 40
0.0
 40
0.5
 40
0.5
 40
1.0
 40
1.0
 40
1.0
 40
1.0
 10
71.40297595894135
 20
44.73943671263383
 30
0.0
 10
71.42664819885292
 20
44.6964989035346
 30
0.0
 10
71.43974218878817
 20
44.63305831364239
 30
0.0
 10
71.43982905624962
 20
44.48056916813356
 30
0.0
 10
71.42665926649026
 20
44.39233977893024
 30
0.0
 10
71.40297595894135
 20
44.30642401074162
 30
0.0
  0
LINE
  5
C9
330
1F
100
AcDbEntity
  8
0
  6
Continuous
 62
     7
370
    25
100
AcDbLine
 10
71.4029759589
 20
44.7394367126
 30
0.0
 11
75.5475331484
 21
44.7394367126
 31
0.0
  0
SPLINE
  5
CA
330
1F
100
AcDbEntity
  8
0
  6
Continuous
 62
     7
370
    25
100
AcDbSpline
210
0.0
220
0.0
230
1.0
 70
     8
 71
     3
 72
     8
 73
     4
 74
     0
 42
0.00000001
 43
0.00000001
 40
0.0
 40
0.0
 40
0.0
 40
0.0
 40
1.0
 40
1.0
 40
1.0
 40
1.0
 10
88.34663804517733
 20
33.27750032389936
 30
0.0
 10
88.30552276953605
 20
33.41353071838891
 30
0.0
 10
88.26503378666821
 20
33.55023478302634
 30
0.0
 10
88.22525455368115
 20
33.6876218572246
 30
0.0
  0
LINE
  5
CB
330
1F
100
AcDbEntity
  8
0
  6
Continuous
 62
     7
370
    25
100
AcDbLine
 10
88.2252545537
 20
35.6876218572
 30
0.0
 11
88.2252545537
 21
33.6876218572
 31
0.0
  0
SPLINE
  5
CC
330
1F
100
AcDbEntity
  8
0
  6
Continuous
 62
     7
370
    25
100
AcDbSpline
210
0.0
220
0.0
230
1.0
 70
     8
 71
     3
 72
    10
 73
     6
 74
     0
 42
0.00000001
 43
0.00000001
 40
0.0
 40
0.0
 40
0.0
 40
0.0
 40
0.5
 40
0.5
 40
1.0
 40
1.0
 40
1.0
 40
1.0
 10
88.90297595893809
 20
34.63580700181538
 30
0.0
 10
88.92665135336243
 20
34.67875053271653
 30
0.0
 10
88.93974246325034
 20
34.74219297734032
 30
0.0
 10
88.93982878453869
 20
34.89467181445941
 30
0.0
 10
88.92665985059486
 20
34.98290181656684
 30
0.0
 10
88.90297595894135
 20
35.06881970370759
 30
0.0
  0
SPLINE
  5
CD
330
1F
100
AcDbEntity
  8
0
  6
Continuous
 62
     7
370
    25
100
AcDbSpline
210
0.0
220
0.0
230
1.0
 70
     8
 71
     3
 72
     8
 73
     4
 74
     0
 42
0.00000001
 43
0.00000001
 40
0.0
 40
0.0
 40
0.0
 40
0.0
 40
1.0
 40
1.0
 40
1.0
 40
1.0
 10
88.34663804517733
 20
33.27750032389936
 30
0.0
 10
88.46227065520638
 20
33.73605125595712
 30
0.0
 10
88.6561600600268
 20
34.18812085171537
 30
0.0
 10
88.90297595894121
 20
34.63580700181512
 30
0.0
  0
SPLINE
  5
CE
330
1F
100
AcDbEntity
  8
0
  6
Continuous
 62
     7
370
    25
100
AcDbSpline
210
0.0
220
0.0
230
1.0
 70
     8
 71
     3
 72
     8
 73
     4
 74
     0
 42
0.00000001
 43
0.00000001
 40
0.0
 40
0.0
 40
0.0
 40
0.0
 40
1.0
 40
1.0
 40
1.0
 40
1.0
 10
74.93587836906454
 20
32.39824567259587
 30
0.0
 10
75.24489551170629
 20
32.499250780426
 30
0.0
 10
75.56021326802427
 20
32.59590756949193
 30
0.0
 10
75.8826925948673
 20
32.68762185722461
 30
0.0
  0
SPLINE
  5
CF
330
1F
100
AcDbEntity
  8
0
  6
Continuous
 62
     7
370
    25
100
AcDbSpline
210
0.0
220
0.0
230
1.0
 70
     8
 71
     3
 72
    12
 73
     8
 74
     0
 42
0.00000001
 43
0.00000001
 40
0.0
 40
0.0
 40
0.0
 40
0.0
 40
0.2500000000000002
 40
0.2500000000000002
 40
0.5000000000000004
 40
0.5000000000000004
 40
1.0
 40
1.0
 40
1.0
 40
1.0
 10
74.9358783690593
 20
32.39824567258974
 30
0.0
 10
75.12590454436253
 20
32.39453718673331
 30
0.0
 10
75.31611960704834
 20
32.37595468389564
 30
0.0
 10
75.69305636618073
 20
32.31108764692949
 30
0.0
 10
75.88037915744023
 20
32.26482209367921
 30
0.0
 10
76.43928911375431
 20
32.08909756337226
 30
0.0
 10
76.80782477186466
 20
31.92279415459551
 30
0.0
 10
77.17343969827193
 20
31.7212253173696
 30
0.0
  0
LINE
  5
D0
330
1F
100
AcDbEntity
  8
0
  6
Continuous
 62
     7
370
    25
100
AcDbLine
 10
76.2252545537
 20
35.6876218572
 30
0.0
 11
76.2252545537
 21
33.6876218572
 31
0.0
  0
SPLINE
  5
D1
330
1F
100
AcDbEntity
  8
0
  6
Continuous
 62
     7
370
    25
100
AcDbSpline
210
0.0
220
0.0
230
1.0
 70
     8
 71
     3
 72
     8
 73
     4
 74
     0
 42
0.00000001
 43
0.00000001
 40
0.0
 40
0.0
 40
0.0
 40
0.0
 40
1.0
 40
1.0
 40
1.0
 40
1.0
 10
76.22525455368117
 20
33.6876218572246
 30
0.0
 10
76.185475895491
 20
33.55023676822449
 30
0.0
 10
76.14498693266275
 20
33.41353268641273
 30
0.0
 10
76.103871062185
 20
33.27750032389935
 30
0.0
  0
SPLINE
  5
D2
330
1F
100
AcDbEntity
  8
0
  6
Continuous
 62
     7
370
    25
100
AcDbSpline
210
0.0
220
0.0
230
1.0
 70
     8
 71
     3
 72
     8
 73
     4
 74
     0
 42
0.00000001
 43
0.00000001
 40
0.0
 40
0.0
 40
0.0
 40
0.0
 40
1.0
 40
1.0
 40
1.0
 40
1.0
 10
75.54753314842097
 20
34.63580700181538
 30
0.0
 10
75.7947069293049
 20
34.18747170876405
 30
0.0
 10
75.98842859760889
 20
33.73529721802046
 30
0.0
 10
76.103871062185
 20
33.27750032389935
 30
0.0
  0
SPLINE
  5
D3
330
1F
100
AcDbEntity
  8
0
  6
Continuous
 62
     7
370
    25
100
AcDbSpline
210
0.0
220
0.0
230
1.0
 70
     8
 71
     3
 72
    10
 73
     6
 74
     0
 42
0.00000001
 43
0.00000001
 40
0.0
 40
0.0
 40
0.0
 40
0.0
 40
0.5
 40
0.5
 40
1.0
 40
1.0
 40
1.0
 40
1.0
 10
75.54753314842091
 20
35.0688197037076
 30
0.0
 10
75.52385775399654
 20
34.98293264190514
 30
0.0
 10
75.51076664411194
 20
34.89552543292501
 30
0.0
 10
75.51068032282367
 20
34.74288899033127
 30
0.0
 10
75.5238492567675
 20
34.67876594538568
 30
0.0
 10
75.54753314842097
 20
34.63580700181538
 30
0.0
  0
SPLINE
  5
D4
330
1F
100
AcDbEntity
  8
0
  6
Continuous
 62
     7
370
    25
100
AcDbSpline
210
0.0
220
0.0
230
1.0
 70
     8
 71
     3
 72
     8
 73
     4
 74
     0
 42
0.00000001
 43
0.00000001
 40
0.0
 40
0.0
 40
0.0
 40
0.0
 40
1.0
 40
1.0
 40
1.0
 40
1.0
 10
88.56781651249503
 20
32.68762185722461
 30
0.0
 10
88.8902958393443
 20
32.59590756949014
 30
0.0
 10
89.20561359566827
 20
32.49925078042224
 30
0.0
 10
89.51463073831579
 20
32.39824567258999
 30
0.0
  0
SPLINE
  5
D5
330
1F
100
AcDbEntity
  8
0
  6
Continuous
 62
     7
370
    25
100
AcDbSpline
210
0.0
220
0.0
230
1.0
 70
     8
 71
     3
 72
    10
 73
     6
 74
     0
 42
0.00000001
 43
0.00000001
 40
0.0
 40
0.0
 40
0.0
 40
0.0
 40
0.5
 40
0.5
 40
1.0
 40
1.0
 40
1.0
 40
1.0
 10
87.27706940909066
 20
31.72122531736975
 30
0.0
 10
87.6435873559312
 20
31.92329200292068
 30
0.0
 10
88.01266758139701
 20
32.08968477519132
 30
0.0
 10
88.75791992962442
 20
32.32373174906137
 30
0.0
 10
89.1341327015722
 20
32.3908200030202
 30
0.0
 10
89.51463073831579
 20
32.39824567258999
 30
0.0
  0
LINE
  5
D6
330
1F
100
AcDbEntity
  8
0
  6
Continuous
 62
     7
370
    25
100
AcDbLine
 10
88.2252545537
 20
47.0488377894
 30
0.0
 11
88.2252545537
 21
43.6876218572
 31
0.0
  0
SPLINE
  5
D7
330
1F
100
AcDbEntity
  8
0
  6
Continuous
 62
     7
370
    25
100
AcDbSpline
210
0.0
220
0.0
230
1.0
 70
     8
 71
     3
 72
    10
 73
     6
 74
     0
 42
0.00000001
 43
0.00000001
 40
0.0
 40
0.0
 40
0.0
 40
0.0
 40
0.5
 40
0.5
 40
1.0
 40
1.0
 40
1.0
 40
1.0
 10
88.90297595894137
 20
44.7394367126338
 30
0.0
 10
88.69455520612394
 20
45.11747996203597
 30
0.0
 10
88.5240913708465
 20
45.49824946683182
 30
0.0
 10
88.28910893590812
 20
46.26739799238936
 30
0.0
 10
88.22525455368115
 20
46.65582472056461
 30
0.0
 10
88.22525455368115
 20
47.04883778939233
 30
0.0
  0
SPLINE
  5
D8
330
1F
100
AcDbEntity
  8
0
  6
Continuous
 62
     7
370
    25
100
AcDbSpline
210
0.0
220
0.0
230
1.0
 70
     8
 71
     3
 72
    10
 73
     6
 74
     0
 42
0.00000001
 43
0.00000001
 40
0.0
 40
0.0
 40
0.0
 40
0.0
 40
0.5
 40
0.5
 40
1.0
 40
1.0
 40
1.0
 40
1.0
 10
88.90297595894137
 20
44.30642401074162
 30
0.0
 10
88.92665135336574
 20
44.39231107254407
 30
0.0
 10
88.93974246325038
 20
44.47971828152417
 30
0.0
 10
88.93982878453866
 20
44.6323547241179
 30
0.0
 10
88.92665985059483
 20
44.69647776906348
 30
0.0
 10
88.90297595894137
 20
44.7394367126338
 30
0.0
  0
LINE
  5
D9
330
1F
100
AcDbEntity
  8
0
  6
Continuous
 62
     7
370
    25
100
AcDbLine
 10
93.4031955811
 20
34.6358070018
 30
0.0
 11
88.9029759589
 21
34.6358070018
 31
0.0
  0
SPLINE
  5
DA
330
1F
100
AcDbEntity
  8
0
  6
Continuous
 62
     7
370
    25
100
AcDbSpline
210
0.0
220
0.0
230
1.0
 70
     8
 71
     3
 72
    10
 73
     6
 74
     0
 42
0.00000001
 43
0.00000001
 40
0.0
 40
0.0
 40
0.0
 40
0.0
 40
0.5
 40
0.5
 40
1.0
 40
1.0
 40
1.0
 40
1.0
 10
93.40319558112344
 20
35.0688197037076
 30
0.0
 10
93.37952018669905
 20
34.98293264190514
 30
0.0
 10
93.36642907681453
 20
34.895525432925
 30
0.0
 10
93.36634275552626
 20
34.74288899033127
 30
0.0
 10
93.37951168947009
 20
34.67876594538568
 30
0.0
 10
93.40319558112355
 20
34.63580700181538
 30
0.0
  0
LINE
  5
DB
330
1F
100
AcDbEntity
  8
0
  6
Continuous
 62
     7
370
    25
100
AcDbLine
 10
88.9029759589
 20
44.7394367126
 30
0.0
 11
93.4031955811
 21
44.7394367126
 31
0.0
  0
SPLINE
  5
DC
330
1F
100
AcDbEntity
  8
0
  6
Continuous
 62
     7
370
    25
100
AcDbSpline
210
0.0
220
0.0
230
1.0
 70
     8
 71
     3
 72
    10
 73
     6
 74
     0
 42
0.00000001
 43
0.00000001
 40
0.0
 40
0.0
 40
0.0
 40
0.0
 40
0.5
 40
0.5
 40
1.0
 40
1.0
 40
1.0
 40
1.0
 10
93.40319558112355
 20
44.73943671263383
 30
0.0
 10
93.37952018669918
 20
44.69649318173261
 30
0.0
 10
93.36642907681453
 20
44.63305073710848
 30
0.0
 10
93.36634275552626
 20
44.48057189998951
 30
0.0
 10
93.37951168947009
 20
44.39234189788223
 30
0.0
 10
93.40319558112355
 20
44.30642401074162
 30
0.0
  0
SPLINE
  5
DD
330
1F
100
AcDbEntity
  8
0
  6
Continuous
 62
     7
370
    25
100
AcDbSpline
210
0.0
220
0.0
230
1.0
 70
     8
 71
     3
 72
    10
 73
     6
 74
     0
 42
0.00000001
 43
0.00000001
 40
0.0
 40
0.0
 40
0.0
 40
0.0
 40
0.5
 40
0.5
 40
1.0
 40
1.0
 40
1.0
 40
1.0
 10
71.40297595894135
 20
35.06881970370759
 30
0.0
 10
71.42664985949732
 20
34.98293806120113
 30
0.0
 10
71.43974241667644
 20
34.8955288552357
 30
0.0
 10
71.43982883065873
 20
34.74288637016077
 30
0.0
 10
71.42665843906009
 20
34.6787633850784
 30
0.0
 10
71.40297595894135
 20
34.63580700181538
 30
0.0
  0
SPLINE
  5
DE
330
1F
100
AcDbEntity
  8
0
  6
Continuous
 62
     7
370
    25
100
AcDbSpline
210
0.0
220
0.0
230
1.0
 70
     8
 71
     3
 72
    12
 73
     8
 74
     0
 42
0.00000001
 43
0.00000001
 40
0.0
 40
0.0
 40
0.0
 40
0.0
 40
0.2499999999999999
 40
0.2499999999999999
 40
0.4999999999999998
 40
0.4999999999999998
 40
1.0
 40
1.0
 40
1.0
 40
1.0
 10
70.72525455368117
 20
32.32640592505687
 30
0.0
 10
70.72525455368117
 20
32.52140940506266
 30
0.0
 10
70.74100088370312
 20
32.71794406408708
 30
0.0
 10
70.80244590828855
 20
33.10736375169262
 30
0.0
 10
70.84803466754228
 20
33.30084844475289
 30
0.0
 10
71.02448566979888
 20
33.87803204350849
 30
0.0
 10
71.19494337176236
 20
34.25846782529145
 30
0.0
 10
71.40297595894121
 20
34.63580700181539
 30
0.0
  0
LINE
  5
DF
330
1F
100
AcDbEntity
  8
0
  6
Continuous
 62
     7
370
    25
100
AcDbLine
 10
70.7252545537
 20
39.6876218572
 30
0.0
 11
70.7252545537
 21
32.3264059251
 31
0.0
  0
SPLINE
  5
E0
330
1F
100
AcDbEntity
  8
0
  6
Continuous
 62
     7
370
    25
100
AcDbSpline
210
0.0
220
0.0
230
1.0
 70
     8
 71
     3
 72
    10
 73
     6
 74
     0
 42
0.00000001
 43
0.00000001
 40
0.0
 40
0.0
 40
0.0
 40
0.0
 40
0.5
 40
0.5
 40
1.0
 40
1.0
 40
1.0
 40
1.0
 10
71.40297595894089
 20
44.7394367126338
 30
0.0
 10
71.19416603427463
 20
45.11818586002509
 30
0.0
 10
71.02363189452737
 20
45.49939113643639
 30
0.0
 10
70.78884608950845
 20
46.26862175762417
 30
0.0
 10
70.72525455368115
 20
46.6566894624225
 30
0.0
 10
70.72525455368115
 20
47.04883778939233
 30
0.0
  0
LINE
  5
E1
330
1F
100
AcDbEntity
  8
0
  6
Continuous
 62
     7
370
    25
100
AcDbLine
 10
70.7252545537
 20
39.6876218572
 30
0.0
 11
70.7252545537
 21
47.0488377894
 31
0.0
  0
LINE
  5
E2
330
1F
100
AcDbEntity
  8
0
  6
Continuous
 62
     7
370
    25
100
AcDbLine
 10
75.5475331484
 20
34.6358070018
 30
0.0
 11
71.4029759589
 21
34.6358070018
 31
0.0
  0
SPLINE
  5
E3
330
1F
100
AcDbEntity
  8
0
  6
Continuous
 62
     7
370
    25
100
AcDbSpline
210
0.0
220
0.0
230
1.0
 70
     8
 71
     3
 72
    16
 73
    12
 74
     0
 42
0.00000001
 43
0.00000001
 40
0.0
 40
0.0
 40
0.0
 40
0.0
 40
0.2500000000000001
 40
0.2500000000000001
 40
0.5000000000000001
 40
0.5000000000000001
 40
0.6250000000000001
 40
0.6250000000000001
 40
0.7500000000000002
 40
0.7500000000000002
 40
1.0
 40
1.0
 40
1.0
 40
1.0
 10
93.40319558112355
 20
49.35823886615083
 30
0.0
 10
93.61121102922931
 20
48.98093077727434
 30
0.0
 10
93.7814173342023
 20
48.60090704690014
 30
0.0
 10
94.0163533657699
 20
47.83328373148944
 30
0.0
 10
94.08042549743354
 20
47.44563691470065
 30
0.0
 10
94.08115844635456
 20
46.8573163628128
 30
0.0
 10
94.06549896627153
 20
46.66024317025715
 30
0.0
 10
94.00422383963459
 20
46.27018619270305
 30
0.0
 10
93.95866756713548
 20
46.07639329211501
 30
0.0
 10
93.7821815343792
 20
45.49831230735159
 30
0.0
 10
93.6115250808935
 20
45.11731444301677
 30
0.0
 10
93.40319558112355
 20
44.73943671263383
 30
0.0
  0
SPLINE
  5
E4
330
1F
100
AcDbEntity
  8
0
  6
Continuous
 62
     7
370
    25
100
AcDbSpline
210
0.0
220
0.0
230
1.0
 70
     8
 71
     3
 72
    10
 73
     6
 74
     0
 42
0.00000001
 43
0.00000001
 40
0.0
 40
0.0
 40
0.0
 40
0.0
 40
0.1601790552921226
 40
0.7197651707803578
 40
1.0
 40
1.0
 40
1.0
 40
1.0
 10
93.36896614800665
 20
49.42051714490058
 30
0.0
 10
93.3682033579134
 20
49.42190937292695
 30
0.0
 10
93.36477575783967
 20
49.42816535465527
 30
0.0
 10
93.37928322263795
 20
49.40165808992737
 30
0.0
 10
93.3972127757558
 20
49.3691022347822
 30
0.0
 10
93.40319558112355
 20
49.35823886615083
 30
0.0
  0
SPLINE
  5
E5
330
1F
100
AcDbEntity
  8
0
  6
Continuous
 62
     7
370
    25
100
AcDbSpline
210
0.0
220
0.0
230
1.0
 70
     8
 71
     3
 72
     9
 73
     5
 74
     0
 42
0.00000001
 43
0.00000001
 40
0.0
 40
0.0
 40
0.0
 40
0.0
 40
0.5797912171256352
 40
1.0
 40
1.0
 40
1.0
 40
1.0
 10
93.40319558112355
 20
30.01700484829837
 30
0.0
 10
93.3908369777771
 20
29.99453120005724
 30
0.0
 10
93.3695213679827
 20
29.95576957763641
 30
0.0
 10
93.36913042547992
 20
29.95503517287821
 30
0.0
 10
93.36896614800665
 20
29.95472656954863
 30
0.0
  0
SPLINE
  5
E6
330
1F
100
AcDbEntity
  8
0
  6
Continuous
 62
     7
370
    25
100
AcDbSpline
210
0.0
220
0.0
230
1.0
 70
     8
 71
     3
 72
    16
 73
    12
 74
     0
 42
0.00000001
 43
0.00000001
 40
0.0
 40
0.0
 40
0.0
 40
0.0
 40
0.2500000000000001
 40
0.2500000000000001
 40
0.5000000000000002
 40
0.5000000000000002
 40
0.6250000000000001
 40
0.6250000000000001
 40
0.7500000000000001
 40
0.7500000000000001
 40
1.0
 40
1.0
 40
1.0
 40
1.0
 10
93.40319558112355
 20
34.63580700181538
 30
0.0
 10
93.61121102922931
 20
34.25849891293888
 30
0.0
 10
93.78141733420232
 20
33.87847518256468
 30
0.0
 10
94.0163533657699
 20
33.11085186715398
 30
0.0
 10
94.08042549743355
 20
32.72320505036519
 30
0.0
 10
94.08115844635456
 20
32.13488449847734
 30
0.0
 10
94.06549896627153
 20
31.93781130592169
 30
0.0
 10
94.00422383963459
 20
31.54775432836759
 30
0.0
 10
93.95866756713546
 20
31.35396142777956
 30
0.0
 10
93.7821815343792
 20
30.77588044301612
 30
0.0
 10
93.61152508089349
 20
30.3948825786813
 30
0.0
 10
93.40319558112355
 20
30.01700484829837
 30
0.0
  0
LINE
  5
E7
330
1F
100
AcDbEntity
  8
0
  6
Continuous
 62
     7
370
    25
100
AcDbLine
 10
94.2252545537
 20
47.9376218572
 30
0.0
 11
94.2252545537
 21
31.4376218572
 31
0.0
  0
SPLINE
  5
E8
330
1F
100
AcDbEntity
  8
0
  6
Continuous
 62
     7
370
    25
100
AcDbSpline
210
0.0
220
0.0
230
1.0
 70
     8
 71
     3
 72
    12
 73
     8
 74
     0
 42
0.00000001
 43
0.00000001
 40
0.0
 40
0.0
 40
0.0
 40
0.0
 40
0.2499999999999999
 40
0.2499999999999999
 40
0.4999999999999998
 40
0.4999999999999998
 40
1.0
 40
1.0
 40
1.0
 40
1.0
 10
88.22525455368115
 20
47.04883778939233
 30
0.0
 10
88.22525455368115
 20
47.24458005227185
 30
0.0
 10
88.24109748977011
 20
47.44124666146241
 30
0.0
 10
88.30260035000778
 20
47.83051488879069
 30
0.0
 10
88.34820399105148
 20
48.02391892174361
 30
0.0
 10
88.52465500854069
 20
48.60084797300037
 30
0.0
 10
88.69505237579254
 20
48.98109740620338
 30
0.0
 10
88.90297595894135
 20
49.35823886615083
 30
0.0
  0
LINE
  5
E9
330
1F
100
AcDbEntity
  8
0
  6
Continuous
 62
     7
370
    25
100
AcDbLine
 10
93.4031955811
 20
49.3582388662
 30
0.0
 11
88.9029759589
 21
49.3582388662
 31
0.0
  0
ELLIPSE
  5
EA
330
1F
100
AcDbEntity
  8
0
  6
Continuous
 62
     7
370
    25
100
AcDbEllipse
 10
82.2252545537
 20
29.872667281
 30
0.0
 11
8.500000000000014
 21
0.0
 31
0.0
210
0.0
220
0.0
230
1.0
 40
0.5773502692
 41
2.374833212873085
 42
2.530692279913057
  0
LINE
  5
EB
330
1F
100
AcDbEntity
  8
0
  6
Continuous
 62
     7
370
    25
100
AcDbLine
 10
74.9358783691
 20
32.3982456726
 30
0.0
 11
72.5546375448
 21
30.0170048483
 31
0.0
  0
LINE
  5
EC
330
1F
100
AcDbEntity
  8
0
  6
Continuous
 62
     7
370
    25
100
AcDbLine
 10
71.4029759589
 20
30.0170048483
 30
0.0
 11
72.5546375448
 21
30.0170048483
 31
0.0
  0
SPLINE
  5
ED
330
1F
100
AcDbEntity
  8
0
  6
Continuous
 62
     7
370
    25
100
AcDbSpline
210
0.0
220
0.0
230
1.0
 70
     8
 71
     3
 72
    10
 73
     6
 74
     0
 42
0.00000001
 43
0.00000001
 40
0.0
 40
0.0
 40
0.0
 40
0.0
 40
0.5
 40
0.5
 40
1.0
 40
1.0
 40
1.0
 40
1.0
 10
71.40297595894089
 20
30.01700484829834
 30
0.0
 10
71.19416603427463
 20
30.39575399568963
 30
0.0
 10
71.02363189452737
 20
30.77695927210093
 30
0.0
 10
70.78884608950845
 20
31.54618989328871
 30
0.0
 10
70.72525455368117
 20
31.93425759808703
 30
0.0
 10
70.72525455368117
 20
32.32640592505687
 30
0.0
  0
ELLIPSE
  5
EE
330
1F
100
AcDbEntity
  8
0
  6
Continuous
 62
     7
370
    25
100
AcDbEllipse
 10
82.2252545537
 20
29.872667281
 30
0.0
 11
8.500000000000014
 21
0.0
 31
0.0
210
0.0
220
0.0
230
1.0
 40
0.5773502692
 41
0.6109003736767337
 42
0.7667594407167073
  0
LINE
  5
EF
330
1F
100
AcDbEntity
  8
0
  6
Continuous
 62
     7
370
    25
100
AcDbLine
 10
91.8958715626
 20
30.0170048483
 30
0.0
 11
93.4031955811
 21
30.0170048483
 31
0.0
  0
LINE
  5
F0
330
1F
100
AcDbEntity
  8
0
  6
Continuous
 62
     7
370
    25
100
AcDbLine
 10
91.8958715626
 20
30.0170048483
 30
0.0
 11
89.5146307383
 21
32.3982456726
 31
0.0
  0
SPLINE
  5
F1
330
1F
100
AcDbEntity
  8
0
  6
Continuous
 62
     7
370
    25
100
AcDbSpline
210
0.0
220
0.0
230
1.0
 70
     8
 71
     3
 72
    12
 73
     8
 74
     0
 42
0.00000001
 43
0.00000001
 40
0.0
 40
0.0
 40
0.0
 40
0.0
 40
0.2499999999999999
 40
0.2499999999999999
 40
0.5
 40
0.5
 40
1.0
 40
1.0
 40
1.0
 40
1.0
 10
70.72525455368115
 20
47.04883778939233
 30
0.0
 10
70.72525455368117
 20
47.24384126939813
 30
0.0
 10
70.74100088370312
 20
47.44037592842254
 30
0.0
 10
70.80244590828855
 20
47.82979561602809
 30
0.0
 10
70.84803466754228
 20
48.02328030908835
 30
0.0
 10
71.02448566979888
 20
48.60046390784395
 30
0.0
 10
71.19494337176236
 20
48.98089968962691
 30
0.0
 10
71.40297595894121
 20
49.35823886615085
 30
0.0
  0
LINE
  5
F2
330
1F
100
AcDbEntity
  8
0
  6
Continuous
 62
     7
370
    25
100
AcDbLine
 10
75.5475331484
 20
49.3582388662
 30
0.0
 11
71.4029759589
 21
49.3582388662
 31
0.0
  0
SPLINE
  5
F3
330
1F
100
AcDbEntity
  8
0
  6
Continuous
 62
     7
370
    25
100
AcDbSpline
210
0.0
220
0.0
230
1.0
 70
     8
 71
     3
 72
    10
 73
     6
 74
     0
 42
0.00000001
 43
0.00000001
 40
0.0
 40
0.0
 40
0.0
 40
0.0
 40
0.5
 40
0.5
 40
1.0
 40
1.0
 40
1.0
 40
1.0
 10
75.54753314842095
 20
49.35823886615086
 30
0.0
 10
75.75595390123837
 20
48.98019561674869
 30
0.0
 10
75.92641773651582
 20
48.59942611195285
 30
0.0
 10
76.1614001714542
 20
47.8302775863953
 30
0.0
 10
76.22525455368117
 20
47.44185085822006
 30
0.0
 10
76.22525455368117
 20
47.04883778939233
 30
0.0
  0
LINE
  5
F4
330
1F
100
AcDbEntity
  8
0
  6
Continuous
 62
     7
370
    25
100
AcDbLine
 10
91.8958715626
 20
28.3653432625
 30
0.0
 11
91.8958715626
 21
30.0170048483
 31
0.0
  0
SPLINE
  5
F5
330
1F
100
AcDbEntity
  8
0
  6
Continuous
 62
     7
370
    25
100
AcDbSpline
210
0.0
220
0.0
230
1.0
 70
     8
 71
     3
 72
    10
 73
     6
 74
     0
 42
0.00000001
 43
0.00000001
 40
0.0
 40
0.0
 40
0.0
 40
0.0
 40
0.5
 40
0.5
 40
1.0
 40
1.0
 40
1.0
 40
1.0
 10
91.89587156260743
 20
28.36534326248433
 30
0.0
 10
91.51712241521614
 20
28.15653333781807
 30
0.0
 10
91.13591713880484
 20
27.98599919807082
 30
0.0
 10
90.36668651761705
 20
27.75121339305189
 30
0.0
 10
89.97861881281872
 20
27.6876218572246
 30
0.0
 10
89.58647048584889
 20
27.6876218572246
 30
0.0
  0
SPLINE
  5
F6
330
1F
100
AcDbEntity
  8
0
  6
Continuous
 62
     7
370
    25
100
AcDbSpline
210
0.0
220
0.0
230
1.0
 70
     8
 71
     3
 72
    12
 73
     8
 74
     0
 42
0.00000001
 43
0.00000001
 40
0.0
 40
0.0
 40
0.0
 40
0.0
 40
0.2500000000000002
 40
0.2500000000000002
 40
0.5000000000000001
 40
0.5000000000000001
 40
1.0
 40
1.0
 40
1.0
 40
1.0
 10
74.86403862151343
 20
27.6876218572246
 30
0.0
 10
74.66903514150763
 20
27.6876218572246
 30
0.0
 10
74.47250048248323
 20
27.70336818724656
 30
0.0
 10
74.08308079487769
 20
27.76481321183199
 30
0.0
 10
73.88959610181742
 20
27.81040197108572
 30
0.0
 10
73.31241250306182
 20
27.98685297334231
 30
0.0
 10
72.93197672127886
 20
28.15731067530581
 30
0.0
 10
72.55463754475491
 20
28.36534326248465
 30
0.0
  0
LINE
  5
F7
330
1F
100
AcDbEntity
  8
0
  6
Continuous
 62
     7
370
    25
100
AcDbLine
 10
72.5546375448
 20
30.0170048483
 30
0.0
 11
72.5546375448
 21
28.3653432625
 31
0.0
  0
LINE
  5
F8
330
1F
100
AcDbEntity
  8
0
  6
Continuous
 62
     7
370
    25
100
AcDbLine
 10
88.2252545537
 20
33.6876218572
 30
0.0
 11
86.2252545537
 21
35.6876218572
 31
0.0
  0
LINE
  5
F9
330
1F
100
AcDbEntity
  8
0
  6
Continuous
 62
     7
370
    25
100
AcDbLine
 10
86.2252545537
 20
32.6876218572
 30
0.0
 11
89.1878756263
 21
32.6876218572
 31
0.0
  0
LINE
  5
FA
330
1F
100
AcDbEntity
  8
0
  6
Continuous
 62
     7
370
    25
100
AcDbLine
 10
78.2252545537
 20
35.6876218572
 30
0.0
 11
76.2252545537
 21
33.6876218572
 31
0.0
  0
LINE
  5
FB
330
1F
100
AcDbEntity
  8
0
  6
Continuous
 62
     7
370
    25
100
AcDbLine
 10
75.262633481
 20
32.6876218572
 30
0.0
 11
78.2252545537
 21
32.6876218572
 31
0.0
  0
LINE
  5
FC
330
1F
100
AcDbEntity
  8
0
  6
Continuous
 62
     7
370
    25
100
AcDbLine
 10
76.2252545537
 20
47.6220763355
 30
0.0
 11
76.2252545537
 21
47.0488377894
 31
0.0
  0
SPLINE
  5
FD
330
1F
100
AcDbEntity
  8
0
  6
Continuous
 62
     7
370
    25
100
AcDbSpline
210
0.0
220
0.0
230
1.0
 70
     8
 71
     3
 72
    32
 73
    28
 74
     0
 42
0.00000001
 43
0.00000001
 40
0.0
 40
0.0
 40
0.0
 40
0.0
 40
0.0625000000000001
 40
0.0625000000000001
 40
0.1250000000000001
 40
0.1250000000000001
 40
0.1875000000000002
 40
0.1875000000000002
 40
0.2500000000000003
 40
0.2500000000000003
 40
0.3750000000000003
 40
0.3750000000000003
 40
0.4375000000000003
 40
0.4375000000000003
 40
0.5000000000000002
 40
0.5000000000000002
 40
0.5625000000000002
 40
0.5625000000000002
 40
0.6250000000000001
 40
0.6250000000000001
 40
0.7500000000000001
 40
0.7500000000000001
 40
0.8750000000000002
 40
0.8750000000000002
 40
0.9375000000000001
 40
0.9375000000000001
 40
1.0
 40
1.0
 40
1.0
 40
1.0
 10
88.2252545536727
 20
47.62207633544526
 30
0.0
 10
88.06839821775579
 20
47.52711935754956
 30
0.0
 10
87.89539978360015
 20
47.42436618292438
 30
0.0
 10
87.51869519697436
 20
47.20765498127611
 30
0.0
 10
87.31584241651767
 20
47.0942362707861
 30
0.0
 10
86.88986115371507
 20
46.86614613408793
 30
0.0
 10
86.66568319342706
 20
46.75083925163607
 30
0.0
 10
86.19433209985067
 20
46.5225161492613
 30
0.0
 10
85.94564658448557
 20
46.40886613312755
 30
0.0
 10
85.17507409979393
 20
46.08580210189351
 30
0.0
 10
84.62943668971177
 20
45.89290357773
 30
0.0
 10
83.74665694121542
 20
45.6813096524563
 30
0.0
 10
83.44801784134256
 20
45.62566726633856
 30
0.0
 10
82.8415162406268
 20
45.54999919697472
 30
0.0
 10
82.53136900196088
 20
45.5300259511984
 30
0.0
 10
81.91128351327711
 20
45.53035971745165
 30
0.0
 10
81.60471247580907
 20
45.55035868277443
 30
0.0
 10
80.99805772850088
 20
45.6263974689709
 30
0.0
 10
80.69568466387558
 20
45.68305056910246
 30
0.0
 10
79.81904836112263
 20
45.8938291191483
 30
0.0
 10
79.27099422914571
 20
46.08737494972005
 30
0.0
 10
78.24049696190242
 20
46.51999424299585
 30
0.0
 10
77.77293692662296
 20
46.75247088768627
 30
0.0
 10
77.13472332299503
 20
47.09420888860532
 30
0.0
 10
76.9315135848052
 20
47.2078264040337
 30
0.0
 10
76.55517665841076
 20
47.42432879638994
 30
0.0
 10
76.38219804991927
 20
47.52706659283433
 30
0.0
 10
76.22525455368118
 20
47.62207633545041
 30
0.0
  0
LINE
  5
FE
330
1F
100
AcDbEntity
  8
0
  6
Continuous
 62
     7
370
    25
100
AcDbLine
 10
88.2252545537
 20
47.6220763354
 30
0.0
 11
88.2252545537
 21
47.0488377894
 31
0.0
  0
LINE
  5
FF
330
1F
100
AcDbEntity
  8
0
  6
Continuous
 62
     7
370
    25
100
AcDbLine
 10
75.7607024951
 20
18.2912877311
 30
0.0
 11
88.6898066122
 21
18.2912877311
 31
0.0
  0
SPLINE
  5
100
330
1F
100
AcDbEntity
  8
0
  6
Continuous
 62
     7
370
    25
100
AcDbSpline
210
0.0
220
0.0
230
1.0
 70
     8
 71
     3
 72
    12
 73
     8
 74
     0
 42
0.00000001
 43
0.00000001
 40
0.0
 40
0.0
 40
0.0
 40
0.0
 40
0.0821689103241862
 40
0.3096900022878368
 40
0.5425028570235352
 40
0.7710671690679903
 40
0.9999999999999999
 40
0.9999999999999999
 40
0.9999999999999999
 40
0.9999999999999999
 10
88.39869378209278
 20
48.48083145456984
 30
0.0
 10
88.39982577106365
 20
48.48460112622524
 30
0.0
 10
88.40409217383808
 20
48.49880880670905
 30
0.0
 10
88.37163685417477
 20
48.3914524731757
 30
0.0
 10
88.31567228846812
 20
48.18551433495298
 30
0.0
 10
88.24746288477124
 20
47.90221895823154
 30
0.0
 10
88.23266130498862
 20
47.71550734244675
 30
0.0
 10
88.22525455368115
 20
47.62207633544327
 30
0.0
  0
SPLINE
  5
101
330
1F
100
AcDbEntity
  8
0
  6
Continuous
 62
     7
370
    25
100
AcDbSpline
210
0.0
220
0.0
230
1.0
 70
     8
 71
     3
 72
    11
 73
     7
 74
     0
 42
0.00000001
 43
0.00000001
 40
0.0
 40
0.0
 40
0.0
 40
0.0
 40
0.3176373610163046
 40
0.6359618577842551
 40
0.865692111317658
 40
0.9999999999999999
 40
0.9999999999999999
 40
0.9999999999999999
 40
0.9999999999999999
 10
76.22525455368117
 20
47.62207633545031
 30
0.0
 10
76.21161579388428
 20
47.75334097632626
 30
0.0
 10
76.18430876995437
 20
48.01615421909389
 30
0.0
 10
76.09630415677037
 20
48.32779860494117
 30
0.0
 10
76.05174391841378
 20
48.48154463574632
 30
0.0
 10
76.0520926020029
 20
48.48003138987838
 30
0.0
 10
76.05222124499726
 20
48.47947309437576
 30
0.0
  0
LINE
  5
102
330
1F
100
AcDbEntity
  8
0
  6
Continuous
 62
     7
370
    25
100
AcDbLine
 10
76.3252545537
 20
49.1876218572
 30
0.0
 11
76.3259046334
 21
49.1870697547
 31
0.0
  0
LINE
  5
103
330
1F
100
AcDbEntity
  8
0
  6
Continuous
 62
     7
370
    25
100
AcDbLine
 10
87.4752545537
 20
16.1876218572
 30
0.0
 11
76.9752545537
 21
16.1876218572
 31
0.0
  0
SPLINE
  5
104
330
1F
100
AcDbEntity
  8
0
  6
Continuous
 62
     7
370
    25
100
AcDbSpline
210
0.0
220
0.0
230
1.0
 70
     8
 71
     3
 72
    10
 73
     6
 74
     0
 42
0.00000001
 43
0.00000001
 40
0.0
 40
0.0
 40
0.0
 40
0.0
 40
0.1601790552921523
 40
0.7197651707804853
 40
1.0
 40
1.0
 40
1.0
 40
1.0
 10
75.51330371530406
 20
49.42051714490058
 30
0.0
 10
75.51254092521081
 20
49.42190937292695
 30
0.0
 10
75.50911332513708
 20
49.42816535465528
 30
0.0
 10
75.52362078993536
 20
49.40165808992737
 30
0.0
 10
75.5415503430532
 20
49.36910223478222
 30
0.0
 10
75.54753314842095
 20
49.35823886615086
 30
0.0
  0
SPLINE
  5
105
330
1F
100
AcDbEntity
  8
0
  6
Continuous
 62
     7
370
    25
100
AcDbSpline
210
0.0
220
0.0
230
1.0
 70
     8
 71
     3
 72
     9
 73
     5
 74
     0
 42
0.00000001
 43
0.00000001
 40
0.0
 40
0.0
 40
0.0
 40
0.0
 40
0.5797912171256431
 40
1.0
 40
1.0
 40
1.0
 40
1.0
 10
88.90297595894135
 20
49.35823886615083
 30
0.0
 10
88.91533456228782
 20
49.38071251439197
 30
0.0
 10
88.93665017208222
 20
49.41947413681279
 30
0.0
 10
88.937041114585
 20
49.420208541571
 30
0.0
 10
88.93720539205826
 20
49.42051714490058
 30
0.0
  0
SPLINE
  5
106
330
1F
100
AcDbEntity
  8
0
  6
Continuous
 62
     7
370
    25
100
AcDbSpline
210
0.0
220
0.0
230
1.0
 70
     8
 71
     3
 72
    10
 73
     6
 74
     0
 42
0.00000001
 43
0.00000001
 40
0.0
 40
0.0
 40
0.0
 40
0.0
 40
0.1593935212994522
 40
0.7189934545690309
 40
1.0
 40
1.0
 40
1.0
 40
1.0
 10
71.4372129485188
 20
49.42053094561729
 30
0.0
 10
71.43797447551626
 20
49.42192086444391
 30
0.0
 10
71.44140957703219
 20
49.42819052039085
 30
0.0
 10
71.42691495456569
 20
49.40170657856705
 30
0.0
 10
71.40897358407297
 20
49.36912917452019
 30
0.0
 10
71.40297595894135
 20
49.35823886615083
 30
0.0
  0
LINE
  5
107
330
1F
100
AcDbEntity
  8
0
  6
Continuous
 62
     7
370
    25
100
AcDbLine
 10
70.7252545537
 20
48.1876218572
 30
0.0
 11
70.7252545537
 21
47.0488377894
 31
0.0
  0
SPLINE
  5
108
330
1F
100
AcDbEntity
  8
0
  6
Continuous
 62
     7
370
    25
100
AcDbSpline
210
0.0
220
0.0
230
1.0
 70
     8
 71
     3
 72
     9
 73
     5
 74
     0
 42
0.00000001
 43
0.00000001
 40
0.0
 40
0.0
 40
0.0
 40
0.0
 40
0.5789479223911498
 40
1.0
 40
1.0
 40
1.0
 40
1.0
 10
91.8958715626074
 20
28.3653432624848
 30
0.0
 10
91.91831292980004
 20
28.3776841527992
 30
0.0
 10
91.95707525422459
 20
28.39900021567312
 30
0.0
 10
91.95784115708368
 20
28.3994083895875
 30
0.0
 10
91.95816364207374
 20
28.39958025206218
 30
0.0
  0
LINE
  5
109
330
1F
100
AcDbEntity
  8
0
  6
Continuous
 62
     7
370
    25
100
AcDbLine
 10
89.5864704858
 20
27.6876218572
 30
0.0
 11
90.7252545537
 21
27.6876218572
 31
0.0
  0
SPLINE
  5
10A
330
1F
100
AcDbEntity
  8
0
  6
Continuous
 62
     7
370
    25
100
AcDbSpline
210
0.0
220
0.0
230
1.0
 70
     8
 71
     3
 72
     9
 73
     5
 74
     0
 42
0.00000001
 43
0.00000001
 40
0.0
 40
0.0
 40
0.0
 40
0.0
 40
0.5789479223839474
 40
0.9999999999999999
 40
0.9999999999999999
 40
0.9999999999999999
 40
0.9999999999999999
 10
71.40297595894135
 20
30.01700484829837
 30
0.0
 10
71.41531684925562
 20
29.994563481106
 30
0.0
 10
71.43663291212953
 20
29.95580115668144
 30
0.0
 10
71.43704108604406
 20
29.95503525382208
 30
0.0
 10
71.4372129485188
 20
29.9547127688319
 30
0.0
  0
LINE
  5
10B
330
1F
100
AcDbEntity
  8
0
  6
Continuous
 62
     7
370
    25
100
AcDbLine
 10
70.7252545537
 20
32.3264059251
 30
0.0
 11
70.7252545537
 21
31.1876218572
 31
0.0
  0
SPLINE
  5
10C
330
1F
100
AcDbEntity
  8
0
  6
Continuous
 62
     7
370
    25
100
AcDbSpline
210
0.0
220
0.0
230
1.0
 70
     8
 71
     3
 72
    10
 73
     6
 74
     0
 42
0.00000001
 43
0.00000001
 40
0.0
 40
0.0
 40
0.0
 40
0.0
 40
0.1593935213061655
 40
0.7189934545756295
 40
1.0
 40
1.0
 40
1.0
 40
1.0
 10
72.49234546528858
 20
28.39958025206218
 30
0.0
 10
72.49095554646196
 20
28.40034177905964
 30
0.0
 10
72.48468589051512
 20
28.4037768805755
 30
0.0
 10
72.51116983233914
 20
28.3892822581089
 30
0.0
 10
72.54374723638583
 20
28.37134088761628
 30
0.0
 10
72.55463754475493
 20
28.36534326248479
 30
0.0
  0
LINE
  5
10D
330
1F
100
AcDbEntity
  8
0
  6
Continuous
 62
     7
370
    25
100
AcDbLine
 10
73.7252545537
 20
27.6876218572
 30
0.0
 11
74.8640386215
 21
27.6876218572
 31
0.0
  0
LINE
  5
10E
330
1F
100
AcDbEntity
  8
0
  6
Continuous
 62
     7
370
    25
100
AcDbLine
 10
91.9628588607
 20
29.9500175502
 30
0.0
 11
91.8958715626
 21
30.0170048483
 31
0.0
  0
LINE
  5
10F
330
1F
100
AcDbEntity
  8
0
  6
Continuous
 62
     7
370
    25
100
AcDbLine
 10
72.5546375448
 20
30.0170048483
 30
0.0
 11
72.4876502466
 21
29.9500175502
 31
0.0
  0
LINE
  5
110
330
1F
100
AcDbEntity
  8
0
  6
Continuous
 62
     7
370
    25
100
AcDbLine
 10
87.4643398863
 20
66.1876218572
 30
0.0
 11
87.4643398863
 21
66.7876218572
 31
0.0
  0
LINE
  5
111
330
1F
100
AcDbEntity
  8
0
  6
Continuous
 62
     7
370
    25
100
AcDbLine
 10
76.986169221
 20
66.1876218572
 30
0.0
 11
87.4643398863
 21
66.1876218572
 31
0.0
  0
LINE
  5
112
330
1F
100
AcDbEntity
  8
0
  6
Continuous
 62
     7
370
    25
100
AcDbLine
 10
76.986169221
 20
66.7876218572
 30
0.0
 11
76.986169221
 21
66.1876218572
 31
0.0
  0
LINE
  5
113
330
1F
100
AcDbEntity
  8
0
  6
Continuous
 62
     7
370
    25
100
AcDbLine
 10
87.4643398863
 20
66.7876218572
 30
0.0
 11
76.986169221
 21
66.7876218572
 31
0.0
  0
SPLINE
  5
114
330
1F
100
AcDbEntity
  8
0
  6
Continuous
 62
     7
370
    25
100
AcDbSpline
210
0.0
220
0.0
230
1.0
 70
     8
 71
     3
 72
    15
 73
    11
 74
     0
 42
0.00000001
 43
0.00000001
 40
0.0
 40
0.0
 40
0.0
 40
0.0
 40
0.0090459071881971
 40
0.1032433785236875
 40
0.1542564497735247
 40
0.3133169026715109
 40
0.5243720399414432
 40
0.667806000850919
 40
0.9918332554187028
 40
1.0
 40
1.0
 40
1.0
 40
1.0
 10
87.46433988633927
 20
66.78762185722461
 30
0.0
 10
87.46433419437261
 20
66.78930295580902
 30
0.0
 10
87.4642692304218
 20
66.8084897873645
 30
0.0
 10
87.46227354398592
 20
66.83718406688453
 30
0.0
 10
87.45445654776947
 20
66.88786010685646
 30
0.0
 10
87.4372867240145
 20
66.94573640643337
 30
0.0
 10
87.41070282744697
 20
66.99060192116804
 30
0.0
 10
87.37287352895832
 20
67.02796430442257
 30
0.0
 10
87.34459274894812
 20
67.03751031669205
 30
0.0
 10
87.32476160141682
 20
67.03761918087883
 30
0.0
 10
87.32427406727395
 20
67.03762185722461
 30
0.0
  0
SPLINE
  5
115
330
1F
100
AcDbEntity
  8
0
  6
Continuous
 62
     7
370
    25
100
AcDbSpline
210
0.0
220
0.0
230
1.0
 70
     8
 71
     3
 72
    15
 73
    11
 74
     0
 42
0.00000001
 43
0.00000001
 40
0.0
 40
0.0
 40
0.0
 40
0.0
 40
0.0081667445812973
 40
0.3321939991490812
 40
0.4756279600585594
 40
0.6866830973284901
 40
0.8457435502264811
 40
0.8967566214763184
 40
0.9909540928118028
 40
1.0
 40
1.0
 40
1.0
 40
1.0
 10
77.12623504008837
 20
67.03762185722461
 30
0.0
 10
77.1257475059455
 20
67.03761918087882
 30
0.0
 10
77.1059163584142
 20
67.03751031669219
 30
0.0
 10
77.077635578404
 20
67.02796430442255
 30
0.0
 10
77.03980627991535
 20
66.99060192116804
 30
0.0
 10
77.01322238334782
 20
66.94573640643337
 30
0.0
 10
76.99605255959285
 20
66.88786010685646
 30
0.0
 10
76.98823556337639
 20
66.83718406688453
 30
0.0
 10
76.98623987694052
 20
66.80848978736451
 30
0.0
 10
76.98617491298971
 20
66.78930295580902
 30
0.0
 10
76.98616922102305
 20
66.78762185722461
 30
0.0
  0
LINE
  5
116
330
1F
100
AcDbEntity
  8
0
  6
Continuous
 62
     7
370
    25
100
AcDbLine
 10
77.1262350401
 20
67.0376218572
 30
0.0
 11
87.3242740673
 21
67.0376218572
 31
0.0
  0
SPLINE
  5
117
330
1F
100
AcDbEntity
  8
0
  6
Continuous
 62
     7
370
    25
100
AcDbSpline
210
0.0
220
0.0
230
1.0
 70
     8
 71
     3
 72
    15
 73
    11
 74
     0
 42
0.00000001
 43
0.00000001
 40
0.0
 40
0.0
 40
0.0
 40
0.0
 40
0.0080847466189581
 40
0.3310106400648237
 40
0.4750333064304936
 40
0.6874363079215092
 40
0.8468367539418249
 40
0.9000996640391791
 40
0.9910442771984082
 40
1.0
 40
1.0
 40
1.0
 40
1.0
 10
87.32427406727395
 20
67.03762185722461
 30
0.0
 10
87.32555389881807
 20
67.03761918081493
 30
0.0
 10
87.37795354454131
 20
67.0375096016132
 30
0.0
 10
87.45330863599642
 20
67.02783044677555
 30
0.0
 10
87.55522774801406
 20
66.99054862331383
 30
0.0
 10
87.627618693006
 20
66.94584075013042
 30
0.0
 10
87.6753241212708
 20
66.88770509999775
 30
0.0
 10
87.69685960497814
 20
66.83681802652944
 30
0.0
 10
87.70228862099766
 20
66.80805579742194
 30
0.0
 10
87.70246437315423
 20
66.78930298279752
 30
0.0
 10
87.70248012873283
 20
66.78762185722461
 30
0.0
  0
LINE
  5
118
330
1F
100
AcDbEntity
  8
0
  6
Continuous
 62
     7
370
    25
100
AcDbLine
 10
87.4643398863
 20
66.7876218572
 30
0.0
 11
87.7024801287
 21
66.7876218572
 31
0.0
  0
SPLINE
  5
119
330
1F
100
AcDbEntity
  8
0
  6
Continuous
 62
     7
370
    25
100
AcDbSpline
210
0.0
220
0.0
230
1.0
 70
     8
 71
     3
 72
    15
 73
    11
 74
     0
 42
0.00000001
 43
0.00000001
 40
0.0
 40
0.0
 40
0.0
 40
0.0
 40
0.0089557228015919
 40
0.0999003359608152
 40
0.1531632460581696
 40
0.3125636920784856
 40
0.5249666935695051
 40
0.6689893599351772
 40
0.9919152533810449
 40
1.0
 40
1.0
 40
1.0
 40
1.0
 10
76.74802897862949
 20
66.78762185722461
 30
0.0
 10
76.7480447342081
 20
66.78930298279752
 30
0.0
 10
76.74822048636466
 20
66.80805579742196
 30
0.0
 10
76.75364950238419
 20
66.83681802652944
 30
0.0
 10
76.77518498609152
 20
66.88770509999775
 30
0.0
 10
76.82289041435634
 20
66.94584075013042
 30
0.0
 10
76.89528135934826
 20
66.99054862331381
 30
0.0
 10
76.9972004713659
 20
67.02783044677558
 30
0.0
 10
77.07255556282095
 20
67.03750960161308
 30
0.0
 10
77.12495520854425
 20
67.03761918081493
 30
0.0
 10
77.12623504008837
 20
67.03762185722461
 30
0.0
  0
LINE
  5
11A
330
1F
100
AcDbEntity
  8
0
  6
Continuous
 62
     7
370
    25
100
AcDbLine
 10
76.7480289786
 20
66.7876218572
 30
0.0
 11
76.986169221
 21
66.7876218572
 31
0.0
  0
LINE
  5
11B
330
1F
100
AcDbEntity
  8
0
  6
Continuous
 62
     7
370
    25
100
AcDbLine
 10
76.7480289786
 20
66.1876218572
 30
0.0
 11
76.7480289786
 21
66.7876218572
 31
0.0
  0
LINE
  5
11C
330
1F
100
AcDbEntity
  8
0
  6
Continuous
 62
     7
370
    25
100
AcDbLine
 10
76.986169221
 20
66.1876218572
 30
0.0
 11
76.7480289786
 21
66.1876218572
 31
0.0
  0
LINE
  5
11D
330
1F
100
AcDbEntity
  8
0
  6
Continuous
 62
     7
370
    25
100
AcDbLine
 10
87.7024801287
 20
66.7876218572
 30
0.0
 11
87.7024801287
 21
66.1876218572
 31
0.0
  0
LINE
  5
11E
330
1F
100
AcDbEntity
  8
0
  6
Continuous
 62
     7
370
    25
100
AcDbLine
 10
87.7024801287
 20
66.1876218572
 30
0.0
 11
87.4643398863
 21
66.1876218572
 31
0.0
  0
LINE
  5
11F
330
1F
100
AcDbEntity
  8
0
  6
Continuous
 62
     7
370
    25
100
AcDbLine
 10
76.4752545537
 20
66.7876218572
 30
0.0
 11
76.4752545537
 21
66.1876218572
 31
0.0
  0
LINE
  5
120
330
1F
100
AcDbEntity
  8
0
  6
Continuous
 62
     7
370
    25
100
AcDbLine
 10
76.7480289786
 20
66.7876218572
 30
0.0
 11
76.4752545537
 21
66.7876218572
 31
0.0
  0
LINE
  5
121
330
1F
100
AcDbEntity
  8
0
  6
Continuous
 62
     7
370
    25
100
AcDbLine
 10
76.4752545537
 20
66.1876218572
 30
0.0
 11
76.7480289786
 21
66.1876218572
 31
0.0
  0
ARC
  5
122
330
1F
100
AcDbEntity
  8
0
  6
Continuous
 62
     7
370
    25
100
AcDbCircle
 10
76.4752545537
 20
66.7876218572
 30
0.0
 40
0.25
100
AcDbArc
 50
90.0
 51
180.0
  0
LINE
  5
123
330
1F
100
AcDbEntity
  8
0
  6
Continuous
 62
     7
370
    25
100
AcDbLine
 10
76.4752545537
 20
67.0376218572
 30
0.0
 11
76.4752545537
 21
66.7876218572
 31
0.0
  0
LINE
  5
124
330
1F
100
AcDbEntity
  8
0
  6
Continuous
 62
     7
370
    25
100
AcDbLine
 10
76.2252545537
 20
66.7876218572
 30
0.0
 11
76.4752545537
 21
66.7876218572
 31
0.0
  0
LINE
  5
125
330
1F
100
AcDbEntity
  8
0
  6
Continuous
 62
     7
370
    25
100
AcDbLine
 10
76.4752545537
 20
67.0376218572
 30
0.0
 11
77.1262350401
 21
67.0376218572
 31
0.0
  0
LINE
  5
126
330
1F
100
AcDbEntity
  8
0
  6
Continuous
 62
     7
370
    25
100
AcDbLine
 10
87.9752545537
 20
66.1876218572
 30
0.0
 11
87.9752545537
 21
66.7876218572
 31
0.0
  0
LINE
  5
127
330
1F
100
AcDbEntity
  8
0
  6
Continuous
 62
     7
370
    25
100
AcDbLine
 10
87.9752545537
 20
66.7876218572
 30
0.0
 11
87.7024801287
 21
66.7876218572
 31
0.0
  0
LINE
  5
128
330
1F
100
AcDbEntity
  8
0
  6
Continuous
 62
     7
370
    25
100
AcDbLine
 10
87.7024801287
 20
66.1876218572
 30
0.0
 11
87.9752545537
 21
66.1876218572
 31
0.0
  0
LINE
  5
129
330
1F
100
AcDbEntity
  8
0
  6
Continuous
 62
     7
370
    25
100
AcDbLine
 10
76.2252545537
 20
66.1876218572
 30
0.0
 11
76.2252545537
 21
66.7876218572
 31
0.0
  0
LINE
  5
12A
330
1F
100
AcDbEntity
  8
0
  6
Continuous
 62
     7
370
    25
100
AcDbLine
 10
76.4752545537
 20
66.1876218572
 30
0.0
 11
76.2252545537
 21
66.1876218572
 31
0.0
  0
LINE
  5
12B
330
1F
100
AcDbEntity
  8
0
  6
Continuous
 62
     7
370
    25
100
AcDbLine
 10
87.9752545537
 20
66.7876218572
 30
0.0
 11
88.2252545537
 21
66.7876218572
 31
0.0
  0
LINE
  5
12C
330
1F
100
AcDbEntity
  8
0
  6
Continuous
 62
     7
370
    25
100
AcDbLine
 10
88.2252545537
 20
66.7876218572
 30
0.0
 11
88.2252545537
 21
66.1876218572
 31
0.0
  0
LINE
  5
12D
330
1F
100
AcDbEntity
  8
0
  6
Continuous
 62
     7
370
    25
100
AcDbLine
 10
88.2252545537
 20
66.1876218572
 30
0.0
 11
87.9752545537
 21
66.1876218572
 31
0.0
  0
LINE
  5
12E
330
1F
100
AcDbEntity
  8
0
  6
Continuous
 62
     7
370
    25
100
AcDbLine
 10
87.9752545537
 20
66.7876218572
 30
0.0
 11
87.9752545537
 21
67.0376218572
 31
0.0
  0
ARC
  5
12F
330
1F
100
AcDbEntity
  8
0
  6
Continuous
 62
     7
370
    25
100
AcDbCircle
 10
87.9752545537
 20
66.7876218572
 30
0.0
 40
0.25
100
AcDbArc
 50
0.0
 51
90.0
  0
LINE
  5
130
330
1F
100
AcDbEntity
  8
0
  6
Continuous
 62
     7
370
    25
100
AcDbLine
 10
87.3242740673
 20
67.0376218572
 30
0.0
 11
87.9752545537
 21
67.0376218572
 31
0.0
  0
LINE
  5
131
330
1F
100
AcDbEntity
  8
0
  6
Continuous
 62
     7
370
    25
100
AcDbLine
 10
77.2252545537
 20
67.0376218572
 30
0.0
 11
77.2252545537
 21
67.0476218572
 31
0.0
  0
LINE
  5
132
330
1F
100
AcDbEntity
  8
0
  6
Continuous
 62
     7
370
    25
100
AcDbLine
 10
87.2252545537
 20
67.0376218572
 30
0.0
 11
87.2252545537
 21
67.0476218572
 31
0.0
  0
LINE
  5
133
330
1F
100
AcDbEntity
  8
0
  6
Continuous
 62
     7
370
    25
100
AcDbLine
 10
77.2252545537
 20
67.0476218572
 30
0.0
 11
87.2252545537
 21
67.0476218572
 31
0.0
  0
LINE
  5
134
330
1F
100
AcDbEntity
  8
0
  6
Continuous
 62
     7
370
    25
100
AcDbLine
 10
74.7752545537
 20
58.1876218572
 30
0.0
 11
86.6998014378
 21
58.1876218572
 31
0.0
  0
LINE
  5
135
330
1F
100
AcDbEntity
  8
0
  6
Continuous
 62
     7
370
    25
100
AcDbLine
 10
87.449056728
 20
66.1876218572
 30
0.0
 11
76.986169221
 21
66.1876218572
 31
0.0
  0
LINE
  5
136
330
1F
100
AcDbEntity
  8
0
  6
Continuous
 62
     7
370
    25
100
AcDbLine
 10
89.177195392
 20
59.1823654352
 30
0.0
 11
87.449056728
 21
66.1876218572
 31
0.0
  0
SPLINE
  5
137
330
1F
100
AcDbEntity
  8
0
  6
Continuous
 62
     7
370
    25
100
AcDbSpline
210
0.0
220
0.0
230
1.0
 70
     8
 71
     3
 72
     9
 73
     5
 74
     0
 42
0.00000001
 43
0.00000001
 40
0.0
 40
0.0
 40
0.0
 40
0.0
 40
0.4983247250277991
 40
1.0
 40
1.0
 40
1.0
 40
1.0
 10
86.69980143776328
 20
58.18762185722223
 30
0.0
 10
86.58369114128415
 20
58.3614139710813
 30
0.0
 10
86.35068986591564
 20
58.71016671227708
 30
0.0
 10
86.07692949257395
 20
59.0246146696913
 30
0.0
 10
85.93959068200127
 20
59.18236543519152
 30
0.0
  0
LINE
  5
138
330
1F
100
AcDbEntity
  8
0
  6
Continuous
 62
     7
370
    25
100
AcDbLine
 10
84.2252545537
 20
50.1876218572
 30
0.0
 11
84.2252546482
 21
50.2254387352
 31
0.0
  0
LINE
  5
139
330
1F
100
AcDbEntity
  8
0
  6
Continuous
 62
     7
370
    25
100
AcDbLine
 10
75.2252545537
 20
50.1876218572
 30
0.0
 11
84.2252545537
 21
50.1876218572
 31
0.0
  0
SPLINE
  5
13A
330
1F
100
AcDbEntity
  8
0
  6
Continuous
 62
     7
370
    25
100
AcDbSpline
210
0.0
220
0.0
230
1.0
 70
     8
 71
     3
 72
    16
 73
    12
 74
     0
 42
0.00000001
 43
0.00000001
 40
0.0
 40
0.0
 40
0.0
 40
0.0
 40
0.0155634360124117
 40
0.0359329243097674
 40
0.0739120889290614
 40
0.1570057548437684
 40
0.2406581385754913
 40
0.4592958294318596
 40
0.6783839187935417
 40
0.8974954344294845
 40
1.0
 40
1.0
 40
1.0
 40
1.0
 10
84.38119980410829
 20
50.1876218572247
 30
0.0
 10
84.42359179337694
 20
50.19281522900387
 30
0.0
 10
84.52146659046646
 20
50.20480570687165
 30
0.0
 10
84.6949452614793
 20
50.3231316308686
 30
0.0
 10
84.94327894048196
 20
50.63438293831756
 30
0.0
 10
85.1977434825279
 20
51.16003043968261
 30
0.0
 10
85.54142289421901
 20
52.19857660395276
 30
0.0
 10
85.9226429134857
 20
53.63365064629888
 30
0.0
 10
86.27274456948535
 20
55.47190274773832
 30
0.0
 10
86.5165364185736
 20
56.99308559655776
 30
0.0
 10
86.65550861373063
 20
57.89891763735427
 30
0.0
 10
86.69980143776328
 20
58.18762185722223
 30
0.0
  0
SPLINE
  5
13B
330
1F
100
AcDbEntity
  8
0
  6
Continuous
 62
     7
370
    25
100
AcDbSpline
210
0.0
220
0.0
230
1.0
 70
     8
 71
     3
 72
     9
 73
     5
 74
     0
 42
0.00000001
 43
0.00000001
 40
0.0
 40
0.0
 40
0.0
 40
0.0
 40
0.5124861829376838
 40
0.9999999999999999
 40
0.9999999999999999
 40
0.9999999999999999
 40
0.9999999999999999
 10
84.22525464821253
 20
50.22543873516482
 30
0.0
 10
84.25089715238435
 20
50.21441082221364
 30
0.0
 10
84.30093265582924
 20
50.19289236314424
 30
0.0
 10
84.35489326268772
 20
50.18934919879909
 30
0.0
 10
84.38119980410829
 20
50.1876218572247
 30
0.0
  0
LINE
  5
13C
330
1F
100
AcDbEntity
  8
0
  6
Continuous
 62
     7
370
    25
100
AcDbLine
 10
85.939590682
 20
59.1823654352
 30
0.0
 11
104.4006914152
 21
59.1823654352
 31
0.0
  0
LINE
  5
13D
330
1F
100
AcDbEntity
  8
0
  6
Continuous
 62
     7
370
    25
100
AcDbLine
 10
104.4006914152
 20
59.1823654352
 30
0.0
 11
104.4006914152
 21
55.9397975502
 31
0.0
  0
SPLINE
  5
13E
330
1F
100
AcDbEntity
  8
0
  6
Continuous
 62
     7
370
    25
100
AcDbSpline
210
0.0
220
0.0
230
1.0
 70
     8
 71
     3
 72
    11
 73
     7
 74
     0
 42
0.00000001
 43
0.00000001
 40
0.0
 40
0.0
 40
0.0
 40
0.0
 40
0.2488607147078904
 40
0.4977191536447657
 40
0.7488602698858827
 40
0.9999999999999999
 40
0.9999999999999999
 40
0.9999999999999999
 40
0.9999999999999999
 10
97.3302977929741
 20
54.61659704921463
 30
0.0
 10
97.9068907518568
 20
54.76607598610276
 30
0.0
 10
99.06007139681914
 20
55.06503249293029
 30
0.0
 10
100.8209857187497
 20
55.42683646638901
 30
0.0
 10
102.6009644323288
 20
55.72911110962851
 30
0.0
 10
103.8007835246212
 20
55.86956886588174
 30
0.0
 10
104.4006914152178
 20
55.93979755020015
 30
0.0
  0
LINE
  5
13F
330
1F
100
AcDbEntity
  8
0
  6
Continuous
 62
     7
370
    25
100
AcDbLine
 10
97.330297793
 20
54.6165970492
 30
0.0
 11
91.5505409431
 21
53.0479756087
 31
0.0
  0
SPLINE
  5
140
330
1F
100
AcDbEntity
  8
0
  6
Continuous
 62
     7
370
    25
100
AcDbSpline
210
0.0
220
0.0
230
1.0
 70
     8
 71
     3
 72
    13
 73
     9
 74
     0
 42
0.00000001
 43
0.00000001
 40
0.0
 40
0.0
 40
0.0
 40
0.0
 40
0.1610294006389558
 40
0.3266880383557516
 40
0.4877296220820637
 40
0.6535536198224136
 40
0.8237602734841889
 40
1.0
 40
1.0
 40
1.0
 40
1.0
 10
91.55054094311882
 20
53.04797560873176
 30
0.0
 10
91.33667088908771
 20
52.97857871415451
 30
0.0
 10
90.90278249270031
 20
52.83778991864596
 30
0.0
 10
90.31146174403464
 20
52.49166510093832
 30
0.0
 10
89.77753039518396
 20
52.05245845788628
 30
0.0
 10
89.32384642338087
 20
51.51885662094669
 30
0.0
 10
88.9493927103954
 20
50.89503031424699
 30
0.0
 10
88.8008296396366
 20
50.42614641604501
 30
0.0
 10
88.72525455368115
 20
50.1876218572246
 30
0.0
  0
LINE
  5
141
330
1F
100
AcDbEntity
  8
0
  6
Continuous
 62
     7
370
    25
100
AcDbLine
 10
88.7252545537
 20
50.1876218572
 30
0.0
 11
84.3811998041
 21
50.1876218572
 31
0.0
  0
LINE
  5
142
330
1F
100
AcDbEntity
  8
0
  6
Continuous
 62
     7
370
    25
100
AcDbLine
 10
84.2320539116
 20
50.1876218572
 30
0.0
 11
84.2252546482
 21
50.2254387352
 31
0.0
  0
LINE
  5
143
330
1F
100
AcDbEntity
  8
0
  6
Continuous
 62
     7
370
    25
100
AcDbLine
 10
84.2252545537
 20
50.1876218572
 30
0.0
 11
84.2320539116
 21
50.1876218572
 31
0.0
  0
LINE
  5
144
330
1F
100
AcDbEntity
  8
0
  6
Continuous
 62
     7
370
    25
100
AcDbLine
 10
84.3811998041
 20
50.1876218572
 30
0.0
 11
84.2320539116
 21
50.1876218572
 31
0.0
  0
LINE
  5
145
330
1F
100
AcDbEntity
  8
0
  6
Continuous
 62
     7
370
    25
100
AcDbLine
 10
104.4006914152
 20
59.1823654352
 30
0.0
 11
104.4006914152
 21
68.1876218572
 31
0.0
  0
LINE
  5
146
330
1F
100
AcDbEntity
  8
0
  6
Continuous
 62
     7
370
    25
100
AcDbLine
 10
104.4006914152
 20
68.1876218572
 30
0.0
 11
122.2252545537
 21
68.1876218572
 31
0.0
  0
LINE
  5
147
330
1F
100
AcDbEntity
  8
0
  6
Continuous
 62
     7
370
    25
100
AcDbLine
 10
122.2252545537
 20
68.1876218572
 30
0.0
 11
122.2252545537
 21
61.1876218572
 31
0.0
  0
ARC
  5
148
330
1F
100
AcDbEntity
  8
0
  6
Continuous
 62
     7
370
    25
100
AcDbCircle
 10
117.2252545537
 20
61.1876218572
 30
0.0
 40
5.000000000000014
100
AcDbArc
 50
270.0
 51
0.0
  0
LINE
  5
149
330
1F
100
AcDbEntity
  8
0
  6
Continuous
 62
     7
370
    25
100
AcDbLine
 10
117.2252545537
 20
56.1876218572
 30
0.0
 11
109.1169224114
 21
56.1876218572
 31
0.0
  0
ARC
  5
14A
330
1F
100
AcDbEntity
  8
0
  6
Continuous
 62
     7
370
    25
100
AcDbCircle
 10
109.1169224114
 20
11.187492603
 30
0.0
 40
45.00012925418374
100
AcDbArc
 50
90.0
 51
96.0159222295
  0
ARC
  5
14B
330
1F
100
AcDbEntity
  8
0
  6
Continuous
 62
     7
370
    25
100
AcDbCircle
 10
96.6142081179
 20
70.1876218572
 30
0.0
 40
10.00000000000847
100
AcDbArc
 50
203.5781784783
 51
264.4198332155
  0
ARC
  5
14C
330
1F
100
AcDbEntity
  8
0
  6
Continuous
 62
     7
370
    25
100
AcDbCircle
 10
96.2252545537
 20
66.2065773806
 30
0.0
 40
6.0
100
AcDbArc
 50
264.4198332155
 51
0.0
  0
LINE
  5
14D
330
1F
100
AcDbEntity
  8
0
  6
Continuous
 62
     7
370
    25
100
AcDbLine
 10
102.2252545537
 20
68.1876218572
 30
0.0
 11
102.2252545537
 21
66.2065773806
 31
0.0
  0
LINE
  5
14E
330
1F
100
AcDbEntity
  8
0
  6
Continuous
 62
     7
370
    25
100
AcDbLine
 10
102.2252545537
 20
68.1876218572
 30
0.0
 11
104.4006914152
 21
68.1876218572
 31
0.0
  0
LINE
  5
14F
330
1F
100
AcDbEntity
  8
0
  6
Continuous
 62
     7
370
    25
100
AcDbLine
 10
89.2252545537
 20
50.1876218572
 30
0.0
 11
88.7252545537
 21
50.1876218572
 31
0.0
  0
LINE
  5
150
330
1F
100
AcDbEntity
  8
0
  6
Continuous
 62
     7
370
    25
100
AcDbLine
 10
87.449056728
 20
66.1876218572
 30
0.0
 11
87.4643398863
 21
66.1876218572
 31
0.0
  0
SPLINE
  5
151
330
1F
100
AcDbEntity
  8
0
  6
Continuous
 62
     7
370
    25
100
AcDbSpline
210
0.0
220
0.0
230
1.0
 70
     8
 71
     3
 72
    31
 73
    27
 74
     0
 42
0.00000001
 43
0.00000001
 40
0.0
 40
0.0
 40
0.0
 40
0.0
 40
0.0092780053400489
 40
0.0517185792174738
 40
0.0941864164743702
 40
0.1321082402552004
 40
0.1702202128809063
 40
0.2082112982363742
 40
0.2154740349624873
 40
0.2764893102397886
 40
0.3375038082016172
 40
0.3848238267825021
 40
0.4320486535939621
 40
0.4692174930131702
 40
0.5063474147061164
 40
0.5434350643968392
 40
0.5805720170026454
 40
0.6303348195311282
 40
0.6801897955172187
 40
0.7334692154714009
 40
0.7867399121086222
 40
0.8315840269170566
 40
0.8763931816490008
 40
0.9190688099442477
 40
0.9617092688410069
 40
1.0
 40
1.0
 40
1.0
 40
1.0
 10
76.32590463338488
 20
49.18706975474345
 30
0.0
 10
76.32664965200357
 20
49.18643850493476
 30
0.0
 10
76.33080262487182
 20
49.18291971592349
 30
0.0
 10
76.40108530285943
 20
49.12299306718219
 30
0.0
 10
76.59240533894821
 20
48.96260217562173
 30
0.0
 10
76.86732658009706
 20
48.73630758129318
 30
0.0
 10
77.19974372525387
 20
48.47093778175061
 30
0.0
 10
77.48680686782161
 20
48.25085901328698
 30
0.0
 10
77.88275427505951
 20
47.95706004287741
 30
0.0
 10
78.41837352175585
 20
47.57663766443886
 30
0.0
 10
79.23412700864878
 20
47.07861318430025
 30
0.0
 10
80.07568616631197
 20
46.666495505017
 30
0.0
 10
80.85909323629728
 20
46.38949634373384
 30
0.0
 10
81.63207808096163
 20
46.23807920036377
 30
0.0
 10
82.36266839494897
 20
46.19992972907776
 30
0.0
 10
83.08739084828547
 20
46.27926162019457
 30
0.0
 10
83.86076046784628
 20
46.47176482801419
 30
0.0
 10
84.65115529004316
 20
46.78892429718393
 30
0.0
 10
85.44795983685765
 20
47.21420283502722
 30
0.0
 10
86.1753269435074
 20
47.67666354541944
 30
0.0
 10
86.78953277844568
 20
48.11707691996896
 30
0.0
 10
87.28299101140601
 20
48.49553610683014
 30
0.0
 10
87.65805929931625
 20
48.79730698671129
 30
0.0
 10
87.92824837512383
 20
49.02089663058752
 30
0.0
 10
88.09670726011417
 20
49.16338762130708
 30
0.0
 10
88.11212163600388
 20
49.17640642843808
 30
0.0
 10
88.11941459342573
 20
49.18256597759978
 30
0.0
  0
LINE
  5
152
330
1F
100
AcDbEntity
  8
FORMAT
100
AcDbLine
 10
76.4757162499
 20
17.0528475798
 30
0.0
 11
76.1590045537
 21
27.1876218572
 31
0.0
  0
LINE
  5
153
330
1F
100
AcDbEntity
  8
FORMAT
100
AcDbLine
 10
87.9747928575
 20
17.0528475798
 30
0.0
 11
88.2915045537
 21
27.1876218572
 31
0.0
  0
LINE
  5
154
330
1F
100
AcDbEntity
  8
FORMAT
100
AcDbLine
 10
88.9678170537
 20
27.1876218572
 30
0.0
 11
75.4826920537
 21
27.1876218572
 31
0.0
  0
LINE
  5
155
330
1F
100
AcDbEntity
  8
FORMAT
  6
CENTERX2
370
    18
100
AcDbLine
 10
82.2252545537
 20
14.2603016998
 30
0.0
 11
82.2252545537
 21
68.6865150827
 31
0.0
  0
LINE
  5
156
330
1F
100
AcDbEntity
  8
FORMAT
  6
CENTERX2
370
    18
100
AcDbLine
 10
57.6252545537
 20
39.6876218572
 30
0.0
 11
95.8481647488
 21
39.6876218572
 31
0.0
  0
LINE
  5
157
330
1F
100
AcDbEntity
  8
0
  6
Continuous
 62
     7
370
    25
100
AcDbLine
 10
144.54813361
 20
27.6876218572
 30
0.0
 11
144.8417690515
 21
18.2912877311
 31
0.0
  0
LINE
  5
158
330
1F
100
AcDbEntity
  8
0
  6
Continuous
 62
     7
370
    25
100
AcDbLine
 10
157.7708731686
 20
18.2912877311
 30
0.0
 11
158.06450861
 21
27.6876218572
 31
0.0
  0
LINE
  5
159
330
1F
100
AcDbEntity
  8
0
  6
Continuous
 62
     7
370
    25
100
AcDbLine
 10
144.8417690515
 20
18.2912877311
 30
0.0
 11
146.05632111
 21
16.1876218572
 31
0.0
  0
LINE
  5
15A
330
1F
100
AcDbEntity
  8
0
  6
Continuous
 62
     7
370
    25
100
AcDbLine
 10
156.55632111
 20
16.1876218572
 30
0.0
 11
157.7708731686
 21
18.2912877311
 31
0.0
  0
SPLINE
  5
15B
330
1F
100
AcDbEntity
  8
0
  6
Continuous
 62
     7
370
    25
100
AcDbSpline
210
0.0
220
0.0
230
1.0
 70
     8
 71
     3
 72
     9
 73
     5
 74
     0
 42
0.00000001
 43
0.00000001
 40
0.0
 40
0.0
 40
0.0
 40
0.0
 40
0.5055417763245809
 40
1.0
 40
1.0
 40
1.0
 40
1.0
 10
157.2185934278277
 20
46.0891244192514
 30
0.0
 10
157.2138875360902
 20
46.11096626418015
 30
0.0
 10
157.2045789250952
 20
46.15417109106416
 30
0.0
 10
157.2078663965193
 20
46.19825545103743
 30
0.0
 10
157.2094919138
 20
46.22005332536168
 30
0.0
  0
LINE
  5
15C
330
1F
100
AcDbEntity
  8
0
  6
Continuous
 62
     7
370
    25
100
AcDbLine
 10
145.4063697089
 20
46.2274722876
 30
0.0
 11
145.3983644718
 21
46.091616078
 31
0.0
  0
LINE
  5
15D
330
1F
100
AcDbEntity
  8
0
  6
Continuous
 62
     7
370
    25
100
AcDbLine
 10
157.20632111
 20
46.2208481104
 30
0.0
 11
157.20632111
 21
50.1876218572
 31
0.0
  0
LINE
  5
15E
330
1F
100
AcDbEntity
  8
0
  6
Continuous
 62
     7
370
    25
100
AcDbLine
 10
145.40632111
 20
50.1876218572
 30
0.0
 11
145.40632111
 21
46.2261505211
 31
0.0
  0
ARC
  5
15F
330
1F
100
AcDbEntity
  8
0
  6
Continuous
 62
     7
370
    25
100
AcDbCircle
 10
146.05632111
 20
66.7876218572
 30
0.0
 40
0.25
100
AcDbArc
 50
90.0
 51
180.0
  0
ARC
  5
160
330
1F
100
AcDbEntity
  8
0
  6
Continuous
 62
     7
370
    25
100
AcDbCircle
 10
156.55632111
 20
66.7876218572
 30
0.0
 40
0.25
100
AcDbArc
 50
0.0
 51
90.0
  0
LINE
  5
161
330
1F
100
AcDbEntity
  8
0
  6
Continuous
 62
     7
370
    25
100
AcDbLine
 10
156.80632111
 20
66.1876218572
 30
0.0
 11
156.80632111
 21
66.7876218572
 31
0.0
  0
LINE
  5
162
330
1F
100
AcDbEntity
  8
0
  6
Continuous
 62
     7
370
    25
100
AcDbLine
 10
145.80632111
 20
66.7876218572
 30
0.0
 11
145.80632111
 21
66.1876218572
 31
0.0
  0
LINE
  5
163
330
1F
100
AcDbEntity
  8
0
  6
Continuous
 62
     7
370
    25
100
AcDbLine
 10
158.75632111
 20
58.1876218572
 30
0.0
 11
156.80632111
 21
66.1876218572
 31
0.0
  0
LINE
  5
164
330
1F
100
AcDbEntity
  8
0
  6
Continuous
 62
     7
370
    25
100
AcDbLine
 10
145.80632111
 20
66.1876218572
 30
0.0
 11
143.85632111
 21
58.1876218572
 31
0.0
  0
LINE
  5
165
330
1F
100
AcDbEntity
  8
0
  6
Continuous
 62
     7
370
    25
100
AcDbLine
 10
143.85632111
 20
58.1876218572
 30
0.0
 11
144.30632111
 21
50.1876218572
 31
0.0
  0
LINE
  5
166
330
1F
100
AcDbEntity
  8
0
  6
Continuous
 62
     7
370
    25
100
AcDbLine
 10
158.30632111
 20
50.1876218572
 30
0.0
 11
158.75632111
 21
58.1876218572
 31
0.0
  0
CIRCLE
  5
167
330
1F
100
AcDbEntity
  8
0
  6
Continuous
 62
     7
370
    25
100
AcDbCircle
 10
151.30632111
 20
39.6876218572
 30
0.0
 40
8.25
  0
SPLINE
  5
168
330
1F
100
AcDbEntity
  8
0
  6
Continuous
 62
     7
370
    25
100
AcDbSpline
210
0.0
220
0.0
230
1.0
 70
     8
 71
     3
 72
    10
 73
     6
 74
     0
 42
0.00000001
 43
0.00000001
 40
0.0
 40
0.0
 40
0.0
 40
0.0
 40
0.5
 40
0.5
 40
1.0
 40
1.0
 40
1.0
 40
1.0
 10
142.8063211100404
 20
35.0688197037076
 30
0.0
 10
142.8063211100404
 20
34.98293264190514
 30
0.0
 10
142.8291135593703
 20
34.895525432925
 30
0.0
 10
142.9170562634633
 20
34.74288899033127
 30
0.0
 10
142.9819140371372
 20
34.67876594538568
 30
0.0
 10
143.0563211100404
 20
34.63580700181538
 30
0.0
  0
SPLINE
  5
169
330
1F
100
AcDbEntity
  8
0
  6
Continuous
 62
     7
370
    25
100
AcDbSpline
210
0.0
220
0.0
230
1.0
 70
    24
 71
     3
 72
    14
 73
    10
 74
     0
 42
0.00000001
 43
0.00000001
 40
0.0
 40
0.0
 40
0.0
 40
0.0
 40
0.25
 40
0.25
 40
0.5
 40
0.5
 40
0.75
 40
0.75
 40
1.0
 40
1.0
 40
1.0
 40
1.0
 10
142.8063211100404
 20
35.06881970370755
 30
0.0
 10
142.8063211100404
 20
35.82319976435753
 30
0.0
 10
142.8063211100404
 20
36.59264093182303
 30
0.0
 10
142.8063211100404
 20
38.13315229276419
 30
0.0
 10
142.8063211100404
 20
38.90800667277122
 30
0.0
 10
142.8063211100404
 20
40.46836762765678
 30
0.0
 10
142.8063211100404
 20
41.2588238204418
 30
0.0
 10
142.8063211100404
 20
42.80110348325027
 30
0.0
 10
142.8063211100404
 20
43.55849423645145
 30
0.0
 10
142.8063211100404
 20
44.30642401074162
 30
0.0
  0
SPLINE
  5
16A
330
1F
100
AcDbEntity
  8
0
  6
Continuous
 62
     7
370
    25
100
AcDbSpline
210
0.0
220
0.0
230
1.0
 70
     8
 71
     3
 72
    10
 73
     6
 74
     0
 42
0.00000001
 43
0.00000001
 40
0.0
 40
0.0
 40
0.0
 40
0.0
 40
0.5
 40
0.5
 40
1.0
 40
1.0
 40
1.0
 40
1.0
 10
143.0563211100404
 20
44.73943671263383
 30
0.0
 10
142.9819407326631
 20
44.69649318173261
 30
0.0
 10
142.9176400938773
 20
44.63305073710848
 30
0.0
 10
142.8294244090944
 20
44.48057189998951
 30
0.0
 10
142.8063211100404
 20
44.39234189788223
 30
0.0
 10
142.8063211100404
 20
44.30642401074162
 30
0.0
  0
SPLINE
  5
16B
330
1F
100
AcDbEntity
  8
0
  6
Continuous
 62
     7
370
    25
100
AcDbSpline
210
0.0
220
0.0
230
1.0
 70
    24
 71
     3
 72
    16
 73
    12
 74
     0
 42
0.00000001
 43
0.00000001
 40
0.0
 40
0.0
 40
0.0
 40
0.0
 40
0.2500000000000001
 40
0.2500000000000001
 40
0.5000000000000001
 40
0.5000000000000001
 40
0.6250000000000001
 40
0.6250000000000001
 40
0.7500000000000002
 40
0.7500000000000002
 40
1.0
 40
1.0
 40
1.0
 40
1.0
 10
151.0563211100404
 20
49.35823886615083
 30
0.0
 10
150.4028043299996
 20
48.98093077727434
 30
0.0
 10
149.7445839209097
 20
48.60090704690014
 30
0.0
 10
148.4150213375439
 20
47.83328373148944
 30
0.0
 10
147.7435973554733
 20
47.44563691470065
 30
0.0
 10
146.7245962684666
 20
46.8573163628128
 30
0.0
 10
146.3832554861504
 20
46.66024317025715
 30
0.0
 10
145.70765698318
 20
46.27018619270305
 30
0.0
 10
145.3719978332154
 20
46.07639329211501
 30
0.0
 10
144.3707321967156
 20
45.49831230735159
 30
0.0
 10
143.7108245381125
 20
45.11731444301677
 30
0.0
 10
143.0563211100404
 20
44.73943671263383
 30
0.0
  0
SPLINE
  5
16C
330
1F
100
AcDbEntity
  8
0
  6
Continuous
 62
     7
370
    25
100
AcDbSpline
210
0.0
220
0.0
230
1.0
 70
     8
 71
     3
 72
    10
 73
     6
 74
     0
 42
0.00000001
 43
0.00000001
 40
0.0
 40
0.0
 40
0.0
 40
0.0
 40
0.5
 40
0.5
 40
1.0
 40
1.0
 40
1.0
 40
1.0
 10
151.5563211100404
 20
49.35823886615083
 30
0.0
 10
151.4819407326631
 20
49.40118239705207
 30
0.0
 10
151.3948476445476
 20
49.42514716140805
 30
0.0
 10
151.2186892556715
 20
49.42530476688283
 30
0.0
 10
151.1307281829437
 20
49.40119780972115
 30
0.0
 10
151.0563211100404
 20
49.35823886615084
 30
0.0
  0
SPLINE
  5
16D
330
1F
100
AcDbEntity
  8
0
  6
Continuous
 62
     7
370
    25
100
AcDbSpline
210
0.0
220
0.0
230
1.0
 70
    24
 71
     3
 72
    16
 73
    12
 74
     0
 42
0.00000001
 43
0.00000001
 40
0.0
 40
0.0
 40
0.0
 40
0.0
 40
0.2499999999999997
 40
0.2499999999999997
 40
0.4999999999999993
 40
0.4999999999999993
 40
0.6249999999999993
 40
0.6249999999999993
 40
0.7499999999999996
 40
0.7499999999999996
 40
1.0
 40
1.0
 40
1.0
 40
1.0
 10
159.5563211100404
 20
44.73943671263383
 30
0.0
 10
158.9028043299996
 20
45.11674480151033
 30
0.0
 10
158.2445839209097
 20
45.49676853188453
 30
0.0
 10
156.9150213375439
 20
46.26439184729522
 30
0.0
 10
156.2435973554733
 20
46.65203866408403
 30
0.0
 10
155.2245962684666
 20
47.24035921597188
 30
0.0
 10
154.8832554861504
 20
47.43743240852752
 30
0.0
 10
154.20765698318
 20
47.82748938608162
 30
0.0
 10
153.8719978332153
 20
48.02128228666966
 30
0.0
 10
152.8707321967157
 20
48.59936327143309
 30
0.0
 10
152.2108245381125
 20
48.98036113576791
 30
0.0
 10
151.5563211100404
 20
49.35823886615083
 30
0.0
  0
SPLINE
  5
16E
330
1F
100
AcDbEntity
  8
0
  6
Continuous
 62
     7
370
    25
100
AcDbSpline
210
0.0
220
0.0
230
1.0
 70
     8
 71
     3
 72
    10
 73
     6
 74
     0
 42
0.00000001
 43
0.00000001
 40
0.0
 40
0.0
 40
0.0
 40
0.0
 40
0.5
 40
0.5
 40
1.0
 40
1.0
 40
1.0
 40
1.0
 10
159.8063211100404
 20
44.30642401074162
 30
0.0
 10
159.8063211100404
 20
44.39231107254408
 30
0.0
 10
159.7835286607107
 20
44.47971828152418
 30
0.0
 10
159.6955859566176
 20
44.63235472411793
 30
0.0
 10
159.6307281829437
 20
44.69647776906352
 30
0.0
 10
159.5563211100404
 20
44.73943671263383
 30
0.0
  0
SPLINE
  5
16F
330
1F
100
AcDbEntity
  8
0
  6
Continuous
 62
     7
370
    25
100
AcDbSpline
210
0.0
220
0.0
230
1.0
 70
    24
 71
     3
 72
    14
 73
    10
 74
     0
 42
0.00000001
 43
0.00000001
 40
0.0
 40
0.0
 40
0.0
 40
0.0
 40
0.25
 40
0.25
 40
0.5
 40
0.5
 40
0.75
 40
0.75
 40
1.0
 40
1.0
 40
1.0
 40
1.0
 10
159.8063211100404
 20
35.06881970370755
 30
0.0
 10
159.8063211100404
 20
35.82319976435752
 30
0.0
 10
159.8063211100404
 20
36.59264093182303
 30
0.0
 10
159.8063211100404
 20
38.13315229276419
 30
0.0
 10
159.8063211100404
 20
38.90800667277121
 30
0.0
 10
159.8063211100404
 20
40.46836762765677
 30
0.0
 10
159.8063211100404
 20
41.2588238204418
 30
0.0
 10
159.8063211100404
 20
42.80110348325027
 30
0.0
 10
159.8063211100404
 20
43.55849423645145
 30
0.0
 10
159.8063211100404
 20
44.30642401074162
 30
0.0
  0
SPLINE
  5
170
330
1F
100
AcDbEntity
  8
0
  6
Continuous
 62
     7
370
    25
100
AcDbSpline
210
0.0
220
0.0
230
1.0
 70
     8
 71
     3
 72
    10
 73
     6
 74
     0
 42
0.00000001
 43
0.00000001
 40
0.0
 40
0.0
 40
0.0
 40
0.0
 40
0.5
 40
0.5
 40
1.0
 40
1.0
 40
1.0
 40
1.0
 10
159.5563211100404
 20
34.63580700181538
 30
0.0
 10
159.6307014874176
 20
34.67875053271651
 30
0.0
 10
159.6950021262031
 20
34.74219297734018
 30
0.0
 10
159.7832178109864
 20
34.8946718144593
 30
0.0
 10
159.8063211100404
 20
34.98290181656678
 30
0.0
 10
159.8063211100404
 20
35.06881970370758
 30
0.0
  0
SPLINE
  5
171
330
1F
100
AcDbEntity
  8
0
  6
Continuous
 62
     7
370
    25
100
AcDbSpline
210
0.0
220
0.0
230
1.0
 70
    24
 71
     3
 72
    16
 73
    12
 74
     0
 42
0.00000001
 43
0.00000001
 40
0.0
 40
0.0
 40
0.0
 40
0.0
 40
0.2500000000000002
 40
0.2500000000000002
 40
0.5000000000000004
 40
0.5000000000000004
 40
0.6250000000000003
 40
0.6250000000000003
 40
0.7500000000000002
 40
0.7500000000000002
 40
1.0
 40
1.0
 40
1.0
 40
1.0
 10
151.5563211100404
 20
30.01700484829837
 30
0.0
 10
152.2098378900812
 20
30.39431293717484
 30
0.0
 10
152.8680582991711
 20
30.77433666754901
 30
0.0
 10
154.1976208825368
 20
31.54195998295965
 30
0.0
 10
154.8690448646073
 20
31.92960679974842
 30
0.0
 10
155.8880459516139
 20
32.51792735163621
 30
0.0
 10
156.2293867339301
 20
32.71500054419185
 30
0.0
 10
156.9049852369005
 20
33.10505752174592
 30
0.0
 10
157.2406443868651
 20
33.29885042233394
 30
0.0
 10
158.2419100233647
 20
33.87693140709732
 30
0.0
 10
158.9018176819679
 20
34.25792927143212
 30
0.0
 10
159.5563211100398
 20
34.63580700181502
 30
0.0
  0
SPLINE
  5
172
330
1F
100
AcDbEntity
  8
0
  6
Continuous
 62
     7
370
    25
100
AcDbSpline
210
0.0
220
0.0
230
1.0
 70
     8
 71
     3
 72
    10
 73
     6
 74
     0
 42
0.00000001
 43
0.00000001
 40
0.0
 40
0.0
 40
0.0
 40
0.0
 40
0.5
 40
0.5
 40
1.0
 40
1.0
 40
1.0
 40
1.0
 10
151.0563211100404
 20
30.01700484829837
 30
0.0
 10
151.1307014874178
 20
29.97406131739714
 30
0.0
 10
151.2177945755333
 20
29.95009655304116
 30
0.0
 10
151.3939529644094
 20
29.94993894756637
 30
0.0
 10
151.4819140371372
 20
29.97404590472806
 30
0.0
 10
151.5563211100404
 20
30.01700484829837
 30
0.0
  0
SPLINE
  5
173
330
1F
100
AcDbEntity
  8
0
  6
Continuous
 62
     7
370
    25
100
AcDbSpline
210
0.0
220
0.0
230
1.0
 70
    24
 71
     3
 72
    16
 73
    12
 74
     0
 42
0.00000001
 43
0.00000001
 40
0.0
 40
0.0
 40
0.0
 40
0.0
 40
0.2500000000000001
 40
0.2500000000000001
 40
0.5000000000000002
 40
0.5000000000000002
 40
0.6250000000000001
 40
0.6250000000000001
 40
0.7500000000000001
 40
0.7500000000000001
 40
1.0
 40
1.0
 40
1.0
 40
1.0
 10
143.0563211100404
 20
34.63580700181538
 30
0.0
 10
143.7098378900812
 20
34.25849891293888
 30
0.0
 10
144.3680582991712
 20
33.87847518256468
 30
0.0
 10
145.697620882537
 20
33.11085186715398
 30
0.0
 10
146.3690448646076
 20
32.72320505036519
 30
0.0
 10
147.3880459516143
 20
32.13488449847734
 30
0.0
 10
147.7293867339305
 20
31.93781130592169
 30
0.0
 10
148.4049852369009
 20
31.54775432836759
 30
0.0
 10
148.7406443868655
 20
31.35396142777956
 30
0.0
 10
149.7419100233652
 20
30.77588044301612
 30
0.0
 10
150.4018176819684
 20
30.3948825786813
 30
0.0
 10
151.0563211100404
 20
30.01700484829837
 30
0.0
  0
SPLINE
  5
174
330
1F
100
AcDbEntity
  8
0
  6
Continuous
 62
     7
370
    25
100
AcDbSpline
210
0.0
220
0.0
230
1.0
 70
     8
 71
     3
 72
    10
 73
     6
 74
     0
 42
0.00000001
 43
0.00000001
 40
0.0
 40
0.0
 40
0.0
 40
0.0
 40
0.5
 40
0.5
 40
1.0
 40
1.0
 40
1.0
 40
1.0
 10
151.0563211100404
 20
28.3653432624848
 30
0.0
 10
151.1306958640305
 20
28.38901686697592
 30
0.0
 10
151.2177895955964
 20
28.40210964276914
 30
0.0
 10
151.3939554241409
 20
28.4021962108701
 30
0.0
 10
151.4819164480312
 20
28.38902638674681
 30
0.0
 10
151.5563211100404
 20
28.36534326248479
 30
0.0
  0
SPLINE
  5
175
330
1F
100
AcDbEntity
  8
0
  6
Continuous
 62
     7
370
    25
100
AcDbSpline
210
0.0
220
0.0
230
1.0
 70
     8
 71
     3
 72
    12
 73
     8
 74
     0
 42
0.00000001
 43
0.00000001
 40
0.0
 40
0.0
 40
0.0
 40
0.0
 40
0.2500000000000003
 40
0.2500000000000003
 40
0.5000000000000002
 40
0.5000000000000002
 40
1.0
 40
1.0
 40
1.0
 40
1.0
 10
155.5563211100404
 20
27.68762185722461
 30
0.0
 10
155.2185651750177
 20
27.6876218572246
 30
0.0
 10
154.8781571601392
 20
27.70336818724656
 30
0.0
 10
154.2036624757388
 20
27.76481321183199
 30
0.0
 10
153.8685371568715
 20
27.81040197108572
 30
0.0
 10
152.8688258385314
 20
27.98685297334232
 30
0.0
 10
152.2098917354661
 20
28.15731067530581
 30
0.0
 10
151.5563211100404
 20
28.36534326248465
 30
0.0
  0
LINE
  5
176
330
1F
100
AcDbEntity
  8
0
  6
Continuous
 62
     7
370
    25
100
AcDbLine
 10
147.05632111
 20
27.6876218572
 30
0.0
 11
155.55632111
 21
27.6876218572
 31
0.0
  0
SPLINE
  5
177
330
1F
100
AcDbEntity
  8
0
  6
Continuous
 62
     7
370
    25
100
AcDbSpline
210
0.0
220
0.0
230
1.0
 70
     8
 71
     3
 72
    10
 73
     6
 74
     0
 42
0.00000001
 43
0.00000001
 40
0.0
 40
0.0
 40
0.0
 40
0.0
 40
0.5
 40
0.5
 40
1.0
 40
1.0
 40
1.0
 40
1.0
 10
151.0563211100405
 20
28.36534326248433
 30
0.0
 10
150.4003083434354
 20
28.15653333781807
 30
0.0
 10
149.7400414365777
 20
27.98599919807082
 30
0.0
 10
148.4076949179427
 20
27.75121339305189
 30
0.0
 10
147.7355419364553
 20
27.6876218572246
 30
0.0
 10
147.0563211100404
 20
27.6876218572246
 30
0.0
  0
LINE
  5
178
330
1F
100
AcDbEntity
  8
0
  6
Continuous
 62
     7
370
    25
100
AcDbLine
 10
151.55632111
 20
30.0170048483
 30
0.0
 11
151.55632111
 21
28.3653432625
 31
0.0
  0
LINE
  5
179
330
1F
100
AcDbEntity
  8
0
  6
Continuous
 62
     7
370
    25
100
AcDbLine
 10
151.05632111
 20
28.3653432625
 30
0.0
 11
151.05632111
 21
30.0170048483
 31
0.0
  0
SPLINE
  5
17A
330
1F
100
AcDbEntity
  8
0
  6
Continuous
 62
     7
370
    25
100
AcDbSpline
210
0.0
220
0.0
230
1.0
 70
     8
 71
     3
 72
    12
 73
     8
 74
     0
 42
0.00000001
 43
0.00000001
 40
0.0
 40
0.0
 40
0.0
 40
0.0
 40
0.2499999999999998
 40
0.2499999999999998
 40
0.4999999999999996
 40
0.4999999999999996
 40
1.0
 40
1.0
 40
1.0
 40
1.0
 10
147.0563211100404
 20
27.6876218572246
 30
0.0
 10
146.7185651750177
 20
27.6876218572246
 30
0.0
 10
146.3781571601392
 20
27.70336818724656
 30
0.0
 10
145.7036624757387
 20
27.76481321183199
 30
0.0
 10
145.3685371568715
 20
27.81040197108572
 30
0.0
 10
144.3688258385314
 20
27.98685297334232
 30
0.0
 10
143.7098917354661
 20
28.15731067530581
 30
0.0
 10
143.0563211100404
 20
28.36534326248465
 30
0.0
  0
LINE
  5
17B
330
1F
100
AcDbEntity
  8
0
  6
Continuous
 62
     7
370
    25
100
AcDbLine
 10
143.05632111
 20
31.7212253174
 30
0.0
 11
143.05632111
 21
28.3653432625
 31
0.0
  0
SPLINE
  5
17C
330
1F
100
AcDbEntity
  8
0
  6
Continuous
 62
     7
370
    25
100
AcDbSpline
210
0.0
220
0.0
230
1.0
 70
     8
 71
     3
 72
    10
 73
     6
 74
     0
 42
0.00000001
 43
0.00000001
 40
0.0
 40
0.0
 40
0.0
 40
0.0
 40
0.5
 40
0.5
 40
1.0
 40
1.0
 40
1.0
 40
1.0
 10
143.0563211100409
 20
31.72122531736975
 30
0.0
 10
143.6911488158546
 20
31.92329200292068
 30
0.0
 10
144.3304145184303
 20
32.08968477519132
 30
0.0
 10
145.6212294500202
 20
32.32373174906137
 30
0.0
 10
146.2728490854901
 20
32.3908200030202
 30
0.0
 10
146.9318910173102
 20
32.39824567258999
 30
0.0
  0
SPLINE
  5
17D
330
1F
100
AcDbEntity
  8
0
  6
Continuous
 62
     7
370
    25
100
AcDbSpline
210
0.0
220
0.0
230
1.0
 70
     8
 71
     3
 72
    12
 73
     8
 74
     0
 42
0.00000001
 43
0.00000001
 40
0.0
 40
0.0
 40
0.0
 40
0.0
 40
0.2499999999999999
 40
0.2499999999999999
 40
0.4999999999999998
 40
0.4999999999999998
 40
1.0
 40
1.0
 40
1.0
 40
1.0
 10
155.6807512027928
 20
32.39824567258974
 30
0.0
 10
156.009886193186
 20
32.39453718673331
 30
0.0
 10
156.3393483461227
 20
32.37595468389564
 30
0.0
 10
156.9922219641804
 20
32.31108764692949
 30
0.0
 10
157.3166745560574
 20
32.26482209367921
 30
0.0
 10
158.2847349972495
 20
32.08909756337226
 30
0.0
 10
158.9230574814975
 20
31.9227941545955
 30
0.0
 10
159.5563211100404
 20
31.7212253173696
 30
0.0
  0
LINE
  5
17E
330
1F
100
AcDbEntity
  8
0
  6
Continuous
 62
     7
370
    25
100
AcDbLine
 10
159.55632111
 20
28.3653432625
 30
0.0
 11
159.55632111
 21
31.7212253174
 31
0.0
  0
SPLINE
  5
17F
330
1F
100
AcDbEntity
  8
0
  6
Continuous
 62
     7
370
    25
100
AcDbSpline
210
0.0
220
0.0
230
1.0
 70
     8
 71
     3
 72
    10
 73
     6
 74
     0
 42
0.00000001
 43
0.00000001
 40
0.0
 40
0.0
 40
0.0
 40
0.0
 40
0.5
 40
0.5
 40
1.0
 40
1.0
 40
1.0
 40
1.0
 10
159.5563211100405
 20
28.36534326248433
 30
0.0
 10
158.9003083434354
 20
28.15653333781807
 30
0.0
 10
158.2400414365777
 20
27.98599919807082
 30
0.0
 10
156.9076949179427
 20
27.75121339305189
 30
0.0
 10
156.2355419364553
 20
27.6876218572246
 30
0.0
 10
155.5563211100404
 20
27.68762185722461
 30
0.0
  0
SPLINE
  5
180
330
1F
100
AcDbEntity
  8
0
  6
Continuous
 62
     7
370
    25
100
AcDbSpline
210
0.0
220
0.0
230
1.0
 70
     8
 71
     3
 72
    10
 73
     6
 74
     0
 42
0.00000001
 43
0.00000001
 40
0.0
 40
0.0
 40
0.0
 40
0.0
 40
0.5
 40
0.5
 40
1.0
 40
1.0
 40
1.0
 40
1.0
 10
142.8063211100404
 20
28.36534326248479
 30
0.0
 10
142.8063211100404
 20
28.38901716304074
 30
0.0
 10
142.8291116816879
 20
28.40210972021989
 30
0.0
 10
142.9170576789867
 20
28.40219613420217
 30
0.0
 10
142.9819184717195
 20
28.38902574260354
 30
0.0
 10
143.0563211100404
 20
28.36534326248479
 30
0.0
  0
LINE
  5
181
330
1F
100
AcDbEntity
  8
0
  6
Continuous
 62
     7
370
    25
100
AcDbLine
 10
142.80632111
 20
27.6876218572
 30
0.0
 11
147.05632111
 21
27.6876218572
 31
0.0
  0
SPLINE
  5
182
330
1F
100
AcDbEntity
  8
0
  6
Continuous
 62
     7
370
    25
100
AcDbSpline
210
0.0
220
0.0
230
1.0
 70
    24
 71
     3
 72
    10
 73
     6
 74
     0
 42
0.00000001
 43
0.00000001
 40
0.0
 40
0.0
 40
0.0
 40
0.0
 40
0.5
 40
0.5
 40
1.0
 40
1.0
 40
1.0
 40
1.0
 10
142.8063211100404
 20
27.68762185722461
 30
0.0
 10
142.8063211100404
 20
27.68762185722461
 30
0.0
 10
142.8063211100404
 20
27.74990621920313
 30
0.0
 10
142.8063211100404
 20
27.98475433721015
 30
0.0
 10
142.8063211100404
 20
28.15799694434135
 30
0.0
 10
142.8063211100404
 20
28.36534326248479
 30
0.0
  0
SPLINE
  5
183
330
1F
100
AcDbEntity
  8
0
  6
Continuous
 62
     7
370
    25
100
AcDbSpline
210
0.0
220
0.0
230
1.0
 70
     8
 71
     3
 72
    10
 73
     6
 74
     0
 42
0.00000001
 43
0.00000001
 40
0.0
 40
0.0
 40
0.0
 40
0.0
 40
0.5
 40
0.5
 40
1.0
 40
1.0
 40
1.0
 40
1.0
 10
159.5563211100404
 20
28.3653432624848
 30
0.0
 10
159.630691576966
 20
28.38901550239636
 30
0.0
 10
159.6949971732539
 20
28.40210949233161
 30
0.0
 10
159.7832199610597
 20
28.40219635979306
 30
0.0
 10
159.8063211100404
 20
28.3890265700337
 30
0.0
 10
159.8063211100404
 20
28.36534326248479
 30
0.0
  0
LINE
  5
184
330
1F
100
AcDbEntity
  8
0
  6
Continuous
 62
     7
370
    25
100
AcDbLine
 10
155.55632111
 20
27.6876218572
 30
0.0
 11
159.80632111
 21
27.6876218572
 31
0.0
  0
SPLINE
  5
185
330
1F
100
AcDbEntity
  8
0
  6
Continuous
 62
     7
370
    25
100
AcDbSpline
210
0.0
220
0.0
230
1.0
 70
    24
 71
     3
 72
    10
 73
     6
 74
     0
 42
0.00000001
 43
0.00000001
 40
0.0
 40
0.0
 40
0.0
 40
0.0
 40
0.4999999999999999
 40
0.4999999999999999
 40
1.0
 40
1.0
 40
1.0
 40
1.0
 10
159.8063211100404
 20
27.68762185722461
 30
0.0
 10
159.8063211100404
 20
27.68762185722461
 30
0.0
 10
159.8063211100404
 20
27.74990621920313
 30
0.0
 10
159.8063211100404
 20
27.98475433721015
 30
0.0
 10
159.8063211100404
 20
28.15799694434135
 30
0.0
 10
159.8063211100404
 20
28.3653432624848
 30
0.0
  0
SPLINE
  5
186
330
1F
100
AcDbEntity
  8
0
  6
Continuous
 62
     7
370
    25
100
AcDbSpline
210
0.0
220
0.0
230
1.0
 70
     8
 71
     3
 72
     8
 73
     4
 74
     0
 42
0.00000001
 43
0.00000001
 40
0.0
 40
0.0
 40
0.0
 40
0.0
 40
1.0
 40
1.0
 40
1.0
 40
1.0
 10
142.8063211100404
 20
31.88271064565062
 30
0.0
 10
143.3281272613422
 20
32.15530078131997
 30
0.0
 10
143.8517807301984
 20
32.42445328244137
 30
0.0
 10
144.3781178797649
 20
32.68762185722461
 30
0.0
  0
SPLINE
  5
187
330
1F
100
AcDbEntity
  8
0
  6
Continuous
 62
     7
370
    25
100
AcDbSpline
210
0.0
220
0.0
230
1.0
 70
     8
 71
     3
 72
    10
 73
     6
 74
     0
 42
0.00000001
 43
0.00000001
 40
0.0
 40
0.0
 40
0.0
 40
0.0
 40
0.5
 40
0.5
 40
1.0
 40
1.0
 40
1.0
 40
1.0
 10
142.8063211100404
 20
31.72122531736958
 30
0.0
 10
142.8063211100404
 20
31.69754992294517
 30
0.0
 10
142.8291135593703
 20
31.68445881306054
 30
0.0
 10
142.9170562634635
 20
31.68437249177232
 30
0.0
 10
142.9819140371377
 20
31.69754142571626
 30
0.0
 10
143.0563211100411
 20
31.72122531736982
 30
0.0
  0
SPLINE
  5
188
330
1F
100
AcDbEntity
  8
0
  6
Continuous
 62
     7
370
    25
100
AcDbSpline
210
0.0
220
0.0
230
1.0
 70
    24
 71
     3
 72
     8
 73
     4
 74
     0
 42
0.00000001
 43
0.00000001
 40
0.0
 40
0.0
 40
0.0
 40
0.0
 40
1.0
 40
1.0
 40
1.0
 40
1.0
 10
142.8063211100404
 20
31.88271064565062
 30
0.0
 10
142.8063211100404
 20
31.8318158559498
 30
0.0
 10
142.8063211100404
 20
31.77788200658836
 30
0.0
 10
142.8063211100404
 20
31.7212253173696
 30
0.0
  0
SPLINE
  5
189
330
1F
100
AcDbEntity
  8
0
  6
Continuous
 62
     7
370
    25
100
AcDbSpline
210
0.0
220
0.0
230
1.0
 70
     8
 71
     3
 72
     8
 73
     4
 74
     0
 42
0.00000001
 43
0.00000001
 40
0.0
 40
0.0
 40
0.0
 40
0.0
 40
1.0
 40
1.0
 40
1.0
 40
1.0
 10
158.234524340316
 20
32.6876218572246
 30
0.0
 10
158.7609452015252
 20
32.42441142662
 30
0.0
 10
159.2844896582388
 20
32.15531399823329
 30
0.0
 10
159.8063211100404
 20
31.88271064565064
 30
0.0
  0
SPLINE
  5
18A
330
1F
100
AcDbEntity
  8
0
  6
Continuous
 62
     7
370
    25
100
AcDbSpline
210
0.0
220
0.0
230
1.0
 70
     8
 71
     3
 72
    10
 73
     6
 74
     0
 42
0.00000001
 43
0.00000001
 40
0.0
 40
0.0
 40
0.0
 40
0.0
 40
0.5
 40
0.5
 40
1.0
 40
1.0
 40
1.0
 40
1.0
 10
159.5563211100404
 20
31.7212253173696
 30
0.0
 10
159.6307014874178
 20
31.69754992294521
 30
0.0
 10
159.6950021262035
 20
31.68445881306058
 30
0.0
 10
159.7832178109865
 20
31.68437249177229
 30
0.0
 10
159.8063211100404
 20
31.69754142571613
 30
0.0
 10
159.8063211100404
 20
31.72122531736959
 30
0.0
  0
SPLINE
  5
18B
330
1F
100
AcDbEntity
  8
0
  6
Continuous
 62
     7
370
    25
100
AcDbSpline
210
0.0
220
0.0
230
1.0
 70
    24
 71
     3
 72
     8
 73
     4
 74
     0
 42
0.00000001
 43
0.00000001
 40
0.0
 40
0.0
 40
0.0
 40
0.0
 40
1.0
 40
1.0
 40
1.0
 40
1.0
 10
159.8063211100404
 20
31.88271064565062
 30
0.0
 10
159.8063211100404
 20
31.8318158559498
 30
0.0
 10
159.8063211100404
 20
31.77788200658836
 30
0.0
 10
159.8063211100404
 20
31.7212253173696
 30
0.0
  0
LINE
  5
18C
330
1F
100
AcDbEntity
  8
0
  6
Continuous
 62
     7
370
    25
100
AcDbLine
 10
158.80632111
 20
34.2027942999
 30
0.0
 11
158.80632111
 21
32.6876218572
 31
0.0
  0
LINE
  5
18D
330
1F
100
AcDbEntity
  8
0
  6
Continuous
 62
     7
370
    25
100
AcDbLine
 10
156.1819654571
 20
32.6876218572
 30
0.0
 11
158.80632111
 21
32.6876218572
 31
0.0
  0
LINE
  5
18E
330
1F
100
AcDbEntity
  8
0
  6
Continuous
 62
     7
370
    25
100
AcDbLine
 10
143.80632111
 20
32.6876218572
 30
0.0
 11
143.80632111
 21
34.2027942999
 31
0.0
  0
LINE
  5
18F
330
1F
100
AcDbEntity
  8
0
  6
Continuous
 62
     7
370
    25
100
AcDbLine
 10
143.80632111
 20
32.6876218572
 30
0.0
 11
146.430676763
 21
32.6876218572
 31
0.0
  0
LINE
  5
190
330
1F
100
AcDbEntity
  8
0
  6
Continuous
 62
     7
370
    25
100
AcDbLine
 10
151.30632111
 20
18.2912877311
 30
0.0
 11
157.7708731686
 21
18.2912877311
 31
0.0
  0
LINE
  5
191
330
1F
100
AcDbEntity
  8
0
  6
Continuous
 62
     7
370
    25
100
AcDbLine
 10
144.8417690515
 20
18.2912877311
 30
0.0
 11
151.30632111
 21
18.2912877311
 31
0.0
  0
LINE
  5
192
330
1F
100
AcDbEntity
  8
0
  6
Continuous
 62
     7
370
    25
100
AcDbLine
 10
156.55632111
 20
16.1876218572
 30
0.0
 11
146.05632111
 21
16.1876218572
 31
0.0
  0
LINE
  5
193
330
1F
100
AcDbEntity
  8
0
  6
Continuous
 62
     7
370
    25
100
AcDbLine
 10
142.80632111
 20
28.3653432625
 30
0.0
 11
142.80632111
 21
31.7212253174
 31
0.0
  0
LINE
  5
194
330
1F
100
AcDbEntity
  8
0
  6
Continuous
 62
     7
370
    25
100
AcDbLine
 10
159.80632111
 20
31.7212253174
 30
0.0
 11
159.80632111
 21
28.3653432625
 31
0.0
  0
LINE
  5
195
330
1F
100
AcDbEntity
  8
0
  6
Continuous
 62
     7
370
    25
100
AcDbLine
 10
142.80632111
 20
31.8827106457
 30
0.0
 11
142.80632111
 21
35.0398895386
 31
0.0
  0
LINE
  5
196
330
1F
100
AcDbEntity
  8
0
  6
Continuous
 62
     7
370
    25
100
AcDbLine
 10
159.80632111
 20
31.8827106457
 30
0.0
 11
159.80632111
 21
35.0398895386
 31
0.0
  0
LINE
  5
197
330
1F
100
AcDbEntity
  8
0
  6
Continuous
 62
     7
370
    25
100
AcDbLine
 10
146.05632111
 20
67.0376218572
 30
0.0
 11
147.80632111
 21
67.0376218572
 31
0.0
  0
LINE
  5
198
330
1F
100
AcDbEntity
  8
0
  6
Continuous
 62
     7
370
    25
100
AcDbLine
 10
154.80632111
 20
67.0376218572
 30
0.0
 11
156.55632111
 21
67.0376218572
 31
0.0
  0
LINE
  5
199
330
1F
100
AcDbEntity
  8
0
  6
Continuous
 62
     7
370
    25
100
AcDbLine
 10
154.80632111
 20
66.1876218572
 30
0.0
 11
156.80632111
 21
66.1876218572
 31
0.0
  0
LINE
  5
19A
330
1F
100
AcDbEntity
  8
0
  6
Continuous
 62
     7
370
    25
100
AcDbLine
 10
145.80632111
 20
66.1876218572
 30
0.0
 11
147.80632111
 21
66.1876218572
 31
0.0
  0
LINE
  5
19B
330
1F
100
AcDbEntity
  8
0
  6
Continuous
 62
     7
370
    25
100
AcDbLine
 10
147.80632111
 20
61.1876218572
 30
0.0
 11
154.80632111
 21
61.1876218572
 31
0.0
  0
LINE
  5
19C
330
1F
100
AcDbEntity
  8
0
  6
Continuous
 62
     7
370
    25
100
AcDbLine
 10
147.80632111
 20
68.1876218572
 30
0.0
 11
154.80632111
 21
68.1876218572
 31
0.0
  0
LINE
  5
19D
330
1F
100
AcDbEntity
  8
0
  6
Continuous
 62
     7
370
    25
100
AcDbLine
 10
154.80632111
 20
61.1876218572
 30
0.0
 11
154.80632111
 21
68.1876218572
 31
0.0
  0
LINE
  5
19E
330
1F
100
AcDbEntity
  8
0
  6
Continuous
 62
     7
370
    25
100
AcDbLine
 10
147.80632111
 20
68.1876218572
 30
0.0
 11
147.80632111
 21
61.1876218572
 31
0.0
  0
LINE
  5
19F
330
1F
100
AcDbEntity
  8
0
  6
Continuous
 62
     7
370
    25
100
AcDbLine
 10
154.80632111
 20
56.1876218572
 30
0.0
 11
147.80632111
 21
56.1876218572
 31
0.0
  0
LINE
  5
1A0
330
1F
100
AcDbEntity
  8
0
  6
Continuous
 62
     7
370
    25
100
AcDbLine
 10
154.80632111
 20
61.1876218572
 30
0.0
 11
154.80632111
 21
56.1876218572
 31
0.0
  0
LINE
  5
1A1
330
1F
100
AcDbEntity
  8
0
  6
Continuous
 62
     7
370
    25
100
AcDbLine
 10
147.80632111
 20
56.1876218572
 30
0.0
 11
147.80632111
 21
61.1876218572
 31
0.0
  0
SPLINE
  5
1A2
330
1F
100
AcDbEntity
  8
0
  6
Continuous
 62
     7
370
    25
100
AcDbSpline
210
0.0
220
0.0
230
1.0
 70
     8
 71
     3
 72
    11
 73
     7
 74
     0
 42
0.00000001
 43
0.00000001
 40
0.0
 40
0.0
 40
0.0
 40
0.0
 40
0.2488466353289361
 40
0.4976946020535204
 40
0.7488461225871278
 40
1.0
 40
1.0
 40
1.0
 40
1.0
 10
154.8063211100404
 20
55.93979755020015
 30
0.0
 10
154.8110126459799
 20
55.87027317370652
 30
0.0
 10
154.8203957429596
 20
55.73122404874534
 30
0.0
 10
154.8968176264465
 20
55.43089531062006
 30
0.0
 10
155.0145437544102
 20
55.06898569236491
 30
0.0
 10
155.1328526777432
 20
54.76739373530035
 30
0.0
 10
155.1920074169698
 20
54.61659704921463
 30
0.0
  0
LINE
  5
1A3
330
1F
100
AcDbEntity
  8
0
  6
Continuous
 62
     7
370
    25
100
AcDbLine
 10
155.192007417
 20
54.6165970492
 30
0.0
 11
147.4206348031
 21
54.6165970492
 31
0.0
  0
SPLINE
  5
1A4
330
1F
100
AcDbEntity
  8
0
  6
Continuous
 62
     7
370
    25
100
AcDbSpline
210
0.0
220
0.0
230
1.0
 70
     8
 71
     3
 72
    11
 73
     7
 74
     0
 42
0.00000001
 43
0.00000001
 40
0.0
 40
0.0
 40
0.0
 40
0.0
 40
0.2488607147078904
 40
0.4977191536447657
 40
0.7488602698858827
 40
0.9999999999999999
 40
0.9999999999999999
 40
0.9999999999999999
 40
0.9999999999999999
 10
147.4206348031111
 20
54.61659704921463
 30
0.0
 10
147.4792882947974
 20
54.76607598610276
 30
0.0
 10
147.596594741798
 20
55.06503249293029
 30
0.0
 10
147.7146305483309
 20
55.42683646638901
 30
0.0
 10
147.7919852296112
 20
55.72911110962851
 30
0.0
 10
147.8015424920223
 20
55.86956886588174
 30
0.0
 10
147.8063211100404
 20
55.93979755020015
 30
0.0
  0
LINE
  5
1A5
330
1F
100
AcDbEntity
  8
0
  6
Continuous
 62
     7
370
    25
100
AcDbLine
 10
154.80632111
 20
56.1876218572
 30
0.0
 11
154.80632111
 21
55.9397975502
 31
0.0
  0
LINE
  5
1A6
330
1F
100
AcDbEntity
  8
0
  6
Continuous
 62
     7
370
    25
100
AcDbLine
 10
147.80632111
 20
55.9397975502
 30
0.0
 11
147.80632111
 21
56.1876218572
 31
0.0
  0
SPLINE
  5
1A7
330
1F
100
AcDbEntity
  8
0
  6
Continuous
 62
     7
370
    25
100
AcDbSpline
210
0.0
220
0.0
230
1.0
 70
     8
 71
     3
 72
    16
 73
    12
 74
     0
 42
0.00000001
 43
0.00000001
 40
0.0
 40
0.0
 40
0.0
 40
0.0
 40
0.0155634360124117
 40
0.0359329243097674
 40
0.0739120889290614
 40
0.1570057548437684
 40
0.2406581385754913
 40
0.4592958294318596
 40
0.6783839187935417
 40
0.8974954344294845
 40
1.0
 40
1.0
 40
1.0
 40
1.0
 10
144.6465988878182
 20
50.1876218572247
 30
0.0
 10
144.6602925548315
 20
50.19281522900387
 30
0.0
 10
144.6919085488782
 20
50.20480570687165
 30
0.0
 10
144.7473882391883
 20
50.3231316308686
 30
0.0
 10
144.8259890496788
 20
50.63438293831756
 30
0.0
 10
144.9053292363078
 20
51.16003043968261
 30
0.0
 10
145.010556944411
 20
52.19857660395276
 30
0.0
 10
145.1255503456303
 20
53.63365064629888
 30
0.0
 10
145.2279503460452
 20
55.47190274773832
 30
0.0
 10
145.2976992259256
 20
56.99308559655776
 30
0.0
 10
145.3371578453543
 20
57.89891763735427
 30
0.0
 10
145.3497339846673
 20
58.18762185722223
 30
0.0
  0
SPLINE
  5
1A8
330
1F
100
AcDbEntity
  8
0
  6
Continuous
 62
     7
370
    25
100
AcDbSpline
210
0.0
220
0.0
230
1.0
 70
     8
 71
     3
 72
     9
 73
     5
 74
     0
 42
0.00000001
 43
0.00000001
 40
0.0
 40
0.0
 40
0.0
 40
0.0
 40
0.4983247250277991
 40
1.0
 40
1.0
 40
1.0
 40
1.0
 10
145.3497339846673
 20
58.18762185722223
 30
0.0
 10
145.3167314455088
 20
58.3614139710813
 30
0.0
 10
145.2505044704039
 20
58.71016671227708
 30
0.0
 10
145.1699736106181
 20
59.0246146696913
 30
0.0
 10
145.1295732693913
 20
59.18236543519152
 30
0.0
  0
LINE
  5
1A9
330
1F
100
AcDbEntity
  8
0
  6
Continuous
 62
     7
370
    25
100
AcDbLine
 10
145.1295732694
 20
59.1823654352
 30
0.0
 11
147.80632111
 21
59.1823654352
 31
0.0
  0
ELLIPSE
  5
1AA
330
1F
100
AcDbEntity
  8
0
  6
Continuous
 62
     7
370
    25
100
AcDbEllipse
 10
82.80632111
 20
56.5354962895
 30
0.0
 11
65.00000000000001
 21
0.0
 31
0.0
210
0.0
220
0.0
230
1.0
 40
0.2713992096
 41
6.084179739699223
 42
6.174194364446292
  0
SPLINE
  5
1AB
330
1F
100
AcDbEntity
  8
0
  6
Continuous
 62
     7
370
    25
100
AcDbSpline
210
0.0
220
0.0
230
1.0
 70
     8
 71
     3
 72
    13
 73
     9
 74
     0
 42
0.00000001
 43
0.00000001
 40
0.0
 40
0.0
 40
0.0
 40
0.0
 40
0.1610294006389558
 40
0.3266880383557516
 40
0.4877296220820637
 40
0.6535536198224136
 40
0.8237602734841889
 40
1.0
 40
1.0
 40
1.0
 40
1.0
 10
146.5234587799359
 20
53.04797560873176
 30
0.0
 10
146.4796550125035
 20
52.97857871415451
 30
0.0
 10
146.3907882167613
 20
52.83778991864596
 30
0.0
 10
146.2617681980892
 20
52.49166510093832
 30
0.0
 10
146.1407581023219
 20
52.05245845788628
 30
0.0
 10
146.0340771191972
 20
51.51885662094669
 30
0.0
 10
145.9434098318415
 20
50.89503031424699
 30
0.0
 10
145.9065910229447
 20
50.42614641604501
 30
0.0
 10
145.8878610341733
 20
50.1876218572246
 30
0.0
  0
LINE
  5
1AC
330
1F
100
AcDbEntity
  8
0
  6
Continuous
 62
     7
370
    25
100
AcDbLine
 10
145.8878610342
 20
50.1876218572
 30
0.0
 11
144.6465988878
 21
50.1876218572
 31
0.0
  0
SPLINE
  5
1AD
330
1F
100
AcDbEntity
  8
0
  6
Continuous
 62
     7
370
    25
100
AcDbSpline
210
0.0
220
0.0
230
1.0
 70
     8
 71
     3
 72
    17
 73
    13
 74
     0
 42
0.00000001
 43
0.00000001
 40
0.0
 40
0.0
 40
0.0
 40
0.0
 40
0.3241697628029873
 40
0.5422758463620719
 40
0.689509052693928
 40
0.7894036290694505
 40
0.8577090008137825
 40
0.9049823971474137
 40
0.9551712229700868
 40
0.9753097783197817
 40
0.9919572060138848
 40
1.0
 40
1.0
 40
1.0
 40
1.0
 10
157.2629082354135
 20
58.18762185722223
 30
0.0
 10
157.3035586741403
 20
57.27500835461656
 30
0.0
 10
157.3715593132959
 20
55.74837534835522
 30
0.0
 10
157.4829922126123
 20
53.82160244607424
 30
0.0
 10
157.5754968726709
 20
52.53396697514148
 30
0.0
 10
157.6533983289883
 20
51.67481500841973
 30
0.0
 10
157.7194508284106
 20
51.10134712004233
 30
0.0
 10
157.782807435773
 20
50.67981496601237
 30
0.0
 10
157.8409339034669
 20
50.39932242321694
 30
0.0
 10
157.9002757317897
 20
50.24377375463627
 30
0.0
 10
157.9372818004124
 20
50.19316315543878
 30
0.0
 10
157.9589763672829
 20
50.18898340363414
 30
0.0
 10
157.9660433322627
 20
50.18762185722467
 30
0.0
  0
LINE
  5
1AE
330
1F
100
AcDbEntity
  8
0
  6
Continuous
 62
     7
370
    25
100
AcDbLine
 10
157.9660433323
 20
50.1876218572
 30
0.0
 11
156.7247811859
 21
50.1876218572
 31
0.0
  0
SPLINE
  5
1AF
330
1F
100
AcDbEntity
  8
0
  6
Continuous
 62
     7
370
    25
100
AcDbSpline
210
0.0
220
0.0
230
1.0
 70
     8
 71
     3
 72
    14
 73
    10
 74
     0
 42
0.00000001
 43
0.00000001
 40
0.0
 40
0.0
 40
0.0
 40
0.0
 40
0.1576095309202822
 40
0.3152382602707094
 40
0.4726926441579498
 40
0.6301650083177254
 40
0.7907313191165901
 40
0.9513050385928076
 40
1.0
 40
1.0
 40
1.0
 40
1.0
 10
156.7247811859075
 20
50.18762185722461
 30
0.0
 10
156.7082758490651
 20
50.40112364570201
 30
0.0
 10
156.6752631648637
 20
50.82815322932752
 30
0.0
 10
156.5954594749518
 20
51.41340030818383
 30
0.0
 10
156.4976720674656
 20
51.93555484900625
 30
0.0
 10
156.3840822277836
 20
52.38453297642612
 30
0.0
 10
156.2595401287518
 20
52.7438147082325
 30
0.0
 10
156.1591827879754
 20
52.94838088733368
 30
0.0
 10
156.1023969903603
 20
53.02917543568498
 30
0.0
 10
156.089183440145
 20
53.04797560873175
 30
0.0
  0
ELLIPSE
  5
1B0
330
1F
100
AcDbEntity
  8
0
  6
Continuous
 62
     7
370
    25
100
AcDbEllipse
 10
219.80632111
 20
56.5354962895
 30
0.0
 11
65.00000000000003
 21
0.0
 31
0.0
210
0.0
220
0.0
230
1.0
 40
0.2713992096
 41
3.25058359632319
 42
3.340598221070255
  0
LINE
  5
1B1
330
1F
100
AcDbEntity
  8
0
  6
Continuous
 62
     7
370
    25
100
AcDbLine
 10
154.80632111
 20
59.1823654352
 30
0.0
 11
157.4830689507
 21
59.1823654352
 31
0.0
  0
SPLINE
  5
1B2
330
1F
100
AcDbEntity
  8
0
  6
Continuous
 62
     7
370
    25
100
AcDbSpline
210
0.0
220
0.0
230
1.0
 70
     8
 71
     3
 72
     9
 73
     5
 74
     0
 42
0.00000001
 43
0.00000001
 40
0.0
 40
0.0
 40
0.0
 40
0.0
 40
0.4978401817595073
 40
1.0
 40
1.0
 40
1.0
 40
1.0
 10
157.4830689506895
 20
59.18236543519153
 30
0.0
 10
157.4429657862281
 20
59.02585425249892
 30
0.0
 10
157.3624114920375
 20
58.71147387817992
 30
0.0
 10
157.2961713653774
 20
58.36274133015365
 30
0.0
 10
157.2629082354135
 20
58.18762185722223
 30
0.0
  0
LINE
  5
1B3
330
1F
100
AcDbEntity
  8
0
  6
Continuous
 62
     7
370
    25
100
AcDbLine
 10
146.5234587799
 20
53.0479756087
 30
0.0
 11
156.0891834401
 21
53.0479756087
 31
0.0
  0
SPLINE
  5
1B4
330
1F
100
AcDbEntity
  8
0
  6
Continuous
 62
     7
370
    25
100
AcDbSpline
210
0.0
220
0.0
230
1.0
 70
     8
 71
     3
 72
    20
 73
    16
 74
     0
 42
0.00000001
 43
0.00000001
 40
0.0
 40
0.0
 40
0.0
 40
0.0
 40
0.0541983873786813
 40
0.1084549937743861
 40
0.1748676008326813
 40
0.2413639405081385
 40
0.3280943358185923
 40
0.4149092203660895
 40
0.5031829151074113
 40
0.5914553293759743
 40
0.690663243287035
 40
0.7897037236706678
 40
0.8506104062320281
 40
0.9114495521941833
 40
1.0
 40
1.0
 40
1.0
 40
1.0
 10
153.9043973213938
 20
50.18762185722461
 30
0.0
 10
153.8506799788678
 20
50.28234816103632
 30
0.0
 10
153.7431875915294
 20
50.47190252209857
 30
0.0
 10
153.5067724827249
 20
50.7296259495173
 30
0.0
 10
153.2117054841506
 20
50.9587245058687
 30
0.0
 10
152.8227876426906
 20
51.16710552370314
 30
0.0
 10
152.3607957271978
 20
51.32612636553313
 30
0.0
 10
151.8315878569343
 20
51.42490794053003
 30
0.0
 10
151.2873680122322
 20
51.45611877670727
 30
0.0
 10
150.7179538591166
 20
51.41861495353725
 30
0.0
 10
150.1412701319372
 20
51.29967192652319
 30
0.0
 10
149.6509422337923
 20
51.10590699278374
 30
0.0
 10
149.2780723698431
 20
50.87039330173031
 30
0.0
 10
148.9579299250396
 20
50.59661694704199
 30
0.0
 10
148.8011662949669
 20
50.33983120422717
 30
0.0
 10
148.7082448986871
 20
50.18762185722461
 30
0.0
  0
LINE
  5
1B5
330
1F
100
AcDbEntity
  8
0
  6
Continuous
 62
     7
370
    25
100
AcDbLine
 10
148.7082448987
 20
50.1876218572
 30
0.0
 11
145.8878610342
 21
50.1876218572
 31
0.0
  0
LINE
  5
1B6
330
1F
100
AcDbEntity
  8
0
  6
Continuous
 62
     7
370
    25
100
AcDbLine
 10
156.7247811859
 20
50.1876218572
 30
0.0
 11
153.9043973214
 21
50.1876218572
 31
0.0
  0
LINE
  5
1B7
330
1F
100
AcDbEntity
  8
0
  6
Continuous
 62
     7
370
    25
100
AcDbLine
 10
153.9043973214
 20
50.1876218572
 30
0.0
 11
148.7082448987
 21
50.1876218572
 31
0.0
  0
LINE
  5
1B8
330
1F
100
AcDbEntity
  8
0
  6
Continuous
 62
     7
370
    25
100
AcDbLine
 10
157.2629082354
 20
58.1876218572
 30
0.0
 11
158.75632111
 21
58.1876218572
 31
0.0
  0
LINE
  5
1B9
330
1F
100
AcDbEntity
  8
0
  6
Continuous
 62
     7
370
    25
100
AcDbLine
 10
143.85632111
 20
58.1876218572
 30
0.0
 11
145.3497339847
 21
58.1876218572
 31
0.0
  0
SPLINE
  5
1BA
330
1F
100
AcDbEntity
  8
0
  6
Continuous
 62
     7
370
    25
100
AcDbSpline
210
0.0
220
0.0
230
1.0
 70
     8
 71
     3
 72
     9
 73
     5
 74
     0
 42
0.00000001
 43
0.00000001
 40
0.0
 40
0.0
 40
0.0
 40
0.0
 40
0.4875141023677128
 40
0.9999999999999999
 40
0.9999999999999999
 40
0.9999999999999999
 40
0.9999999999999999
 10
157.9660433322627
 20
50.18762185722467
 30
0.0
 10
157.9745694437985
 20
50.18934920319637
 30
0.0
 10
157.9920583974397
 20
50.19289237448785
 30
0.0
 10
158.0083801013261
 20
50.21441086043716
 30
0.0
 10
158.0167447443933
 20
50.22543878102459
 30
0.0
  0
SPLINE
  5
1BB
330
1F
100
AcDbEntity
  8
0
  6
Continuous
 62
     7
370
    25
100
AcDbSpline
210
0.0
220
0.0
230
1.0
 70
     8
 71
     3
 72
     9
 73
     5
 74
     0
 42
0.00000001
 43
0.00000001
 40
0.0
 40
0.0
 40
0.0
 40
0.0
 40
0.5124861829376838
 40
0.9999999999999999
 40
0.9999999999999999
 40
0.9999999999999999
 40
0.9999999999999999
 10
144.5958975065539
 20
50.22543873516482
 30
0.0
 10
144.6042621496775
 20
50.21441082221364
 30
0.0
 10
144.6205838445878
 20
50.19289236314424
 30
0.0
 10
144.6380727868295
 20
50.18934919879909
 30
0.0
 10
144.6465988878182
 20
50.1876218572247
 30
0.0
  0
LINE
  5
1BC
330
1F
100
AcDbEntity
  8
0
  6
Continuous
 62
     7
370
    25
100
AcDbLine
 10
158.0145250425
 20
50.1876218572
 30
0.0
 11
158.30632111
 21
50.1876218572
 31
0.0
  0
LINE
  5
1BD
330
1F
100
AcDbEntity
  8
0
  6
Continuous
 62
     7
370
    25
100
AcDbLine
 10
144.30632111
 20
50.1876218572
 30
0.0
 11
144.5981171775
 21
50.1876218572
 31
0.0
  0
LINE
  5
1BE
330
1F
100
AcDbEntity
  8
0
  6
Continuous
 62
     7
370
    25
100
AcDbLine
 10
158.0167447444
 20
50.225438781
 30
0.0
 11
158.0145250425
 21
50.1876218572
 31
0.0
  0
LINE
  5
1BF
330
1F
100
AcDbEntity
  8
0
  6
Continuous
 62
     7
370
    25
100
AcDbLine
 10
158.0145250425
 20
50.1876218572
 30
0.0
 11
157.9660433323
 21
50.1876218572
 31
0.0
  0
LINE
  5
1C0
330
1F
100
AcDbEntity
  8
0
  6
Continuous
 62
     7
370
    25
100
AcDbLine
 10
144.5981171775
 20
50.1876218572
 30
0.0
 11
144.5958975066
 21
50.2254387352
 31
0.0
  0
LINE
  5
1C1
330
1F
100
AcDbEntity
  8
0
  6
Continuous
 62
     7
370
    25
100
AcDbLine
 10
144.6465988878
 20
50.1876218572
 30
0.0
 11
144.5981171775
 21
50.1876218572
 31
0.0
  0
SPLINE
  5
1C2
330
1F
100
AcDbEntity
  8
0
  6
Continuous
 62
     7
370
    25
100
AcDbSpline
210
0.0
220
0.0
230
1.0
 70
     8
 71
     3
 72
    19
 73
    15
 74
     0
 42
0.00000001
 43
0.00000001
 40
0.0
 40
0.0
 40
0.0
 40
0.0
 40
0.0167782269188907
 40
0.0954946815037249
 40
0.1743157787582464
 40
0.2799345337322841
 40
0.3857489216960153
 40
0.4988314997537664
 40
0.6118955630609442
 40
0.7070746794555377
 40
0.8021795950502353
 40
0.8927562205467373
 40
0.9832582009691543
 40
1.0
 40
1.0
 40
1.0
 40
1.0
 10
145.4139687823033
 20
46.22703068290184
 30
0.0
 10
145.4114422560448
 20
46.22389478250305
 30
0.0
 10
145.3970623205759
 20
46.2060465431594
 30
0.0
 10
145.4605076491604
 20
46.28510953191409
 30
0.0
 10
145.6156139216427
 20
46.46959486319545
 30
0.0
 10
145.9039113338166
 20
46.78957365535818
 30
0.0
 10
146.3363452892799
 20
47.21402196836633
 30
0.0
 10
146.8907780340944
 20
47.67668653435145
 30
0.0
 10
147.5336735913805
 20
48.11716653275674
 30
0.0
 10
148.2331105157818
 20
48.49522746561279
 30
0.0
 10
148.955110835965
 20
48.79845099575855
 30
0.0
 10
149.7328302251844
 20
49.01685011387187
 30
0.0
 10
150.3208786979555
 20
49.13824987366608
 30
0.0
 10
150.650468876469
 20
49.15154970101443
 30
0.0
 10
150.7019211150916
 20
49.15362593366631
 30
0.0
  0
SPLINE
  5
1C3
330
1F
100
AcDbEntity
  8
0
  6
Continuous
 62
     7
370
    25
100
AcDbSpline
210
0.0
220
0.0
230
1.0
 70
     8
 71
     3
 72
    19
 73
    15
 74
     0
 42
0.00000001
 43
0.00000001
 40
0.0
 40
0.0
 40
0.0
 40
0.0
 40
0.0313544004232735
 40
0.0973975262829684
 40
0.1974118220307809
 40
0.2975383839869629
 40
0.4181268936402797
 40
0.5388118467527228
 40
0.6564437949447443
 40
0.773909347525291
 40
0.8504444994922334
 40
0.92687894121307
 40
0.9967463696676258
 40
0.9999999999999999
 40
0.9999999999999999
 40
0.9999999999999999
 40
0.9999999999999999
 10
151.9185183199815
 20
49.14912420949163
 30
0.0
 10
152.0143902416045
 20
49.1439041699587
 30
0.0
 10
152.3122013264927
 20
49.12768893602841
 30
0.0
 10
152.8950867284219
 20
49.01331647118087
 30
0.0
 10
153.6443310670573
 20
48.80404396546727
 30
0.0
 10
154.4647957919893
 20
48.45972207399151
 30
0.0
 10
155.2319424818001
 20
48.02412302837627
 30
0.0
 10
155.9132330626348
 20
47.52872415067529
 30
0.0
 10
156.4639432083622
 20
47.03832805542461
 30
0.0
 10
156.8326805991767
 20
46.6553722330761
 30
0.0
 10
157.0607063468619
 20
46.39461982195841
 30
0.0
 10
157.1718109558171
 20
46.26016458186572
 30
0.0
 10
157.2157880442628
 20
46.20626565548709
 30
0.0
 10
157.2048650396216
 20
46.21959665354438
 30
0.0
 10
157.204379004274
 20
46.22018983614266
 30
0.0
  0
LINE
  5
1C4
330
1F
100
AcDbEntity
  8
0
  6
Continuous
 62
     7
370
    25
100
AcDbLine
 10
147.80632111
 20
66.7876218572
 30
0.0
 11
145.80632111
 21
66.7876218572
 31
0.0
  0
LINE
  5
1C5
330
1F
100
AcDbEntity
  8
0
  6
Continuous
 62
     7
370
    25
100
AcDbLine
 10
156.80632111
 20
66.7876218572
 30
0.0
 11
154.80632111
 21
66.7876218572
 31
0.0
  0
INSERT
  5
1D1
330
1F
100
AcDbEntity
  8
FORMAT
100
AcDbBlockReference
  2
SW_CENTERMARKSYMBOL_0
 10
151.30632111
 20
39.6876218572
 30
0.0
  0
ARC
  5
1D2
330
1F
100
AcDbEntity
  8
FORMAT
100
AcDbCircle
 10
151.30632111
 20
39.6876218572
 30
0.0
 40
6.999999999999998
100
AcDbArc
 50
75.0
 51
345.0
  0
LINE
  5
1D3
330
1F
100
AcDbEntity
  8
FORMAT
100
AcDbLine
 10
145.5567828062
 20
17.0528475798
 30
0.0
 11
145.24007111
 21
27.1876218572
 31
0.0
  0
LINE
  5
1D4
330
1F
100
AcDbEntity
  8
FORMAT
100
AcDbLine
 10
157.0558594139
 20
17.0528475798
 30
0.0
 11
157.37257111
 21
27.1876218572
 31
0.0
  0
LINE
  5
1D5
330
1F
100
AcDbEntity
  8
FORMAT
100
AcDbLine
 10
158.04888361
 20
27.1876218572
 30
0.0
 11
144.56375861
 21
27.1876218572
 31
0.0
  0
LINE
  5
1D6
330
1F
100
AcDbEntity
  8
0
  6
Continuous
 62
     7
370
    25
100
AcDbLine
 10
70.7252545537
 20
100.8538603453
 30
0.0
 11
59.6252545537
 21
100.8538603453
 31
0.0
  0
LINE
  5
1D7
330
1F
100
AcDbEntity
  8
0
  6
Continuous
 62
     7
370
    25
100
AcDbLine
 10
59.6252545537
 20
84.8538603453
 30
0.0
 11
70.7252545537
 21
84.8538603453
 31
0.0
  0
LINE
  5
1D8
330
1F
100
AcDbEntity
  8
0
  6
Continuous
 62
     7
370
    25
100
AcDbLine
 10
59.6252545537
 20
100.8538603453
 30
0.0
 11
59.1252545537
 21
100.3538603453
 31
0.0
  0
LINE
  5
1D9
330
1F
100
AcDbEntity
  8
0
  6
Continuous
 62
     7
370
    25
100
AcDbLine
 10
59.1252545537
 20
85.3538603453
 30
0.0
 11
59.6252545537
 21
84.8538603453
 31
0.0
  0
LINE
  5
1DA
330
1F
100
AcDbEntity
  8
0
  6
Continuous
 62
     7
370
    25
100
AcDbLine
 10
94.0809169864
 20
84.3538603453
 30
0.0
 11
94.2252545537
 21
84.6038603453
 31
0.0
  0
LINE
  5
1DB
330
1F
100
AcDbEntity
  8
0
  6
Continuous
 62
     7
370
    25
100
AcDbLine
 10
94.2252545537
 20
101.1038603453
 30
0.0
 11
94.0809169864
 21
101.3538603453
 31
0.0
  0
LINE
  5
1DC
330
1F
100
AcDbEntity
  8
0
  6
Continuous
 62
     7
370
    25
100
AcDbLine
 10
59.6252545537
 20
100.8538603453
 30
0.0
 11
59.6252545537
 21
84.8538603453
 31
0.0
  0
LINE
  5
1DD
330
1F
100
AcDbEntity
  8
0
  6
Continuous
 62
     7
370
    25
100
AcDbLine
 10
59.1252545537
 20
85.3538603453
 30
0.0
 11
59.1252545537
 21
100.3538603453
 31
0.0
  0
SPLINE
  5
1DE
330
1F
100
AcDbEntity
  8
0
  6
Continuous
 62
     7
370
    25
100
AcDbSpline
210
0.0
220
0.0
230
1.0
 70
    24
 71
     3
 72
    10
 73
     6
 74
     0
 42
0.00000001
 43
0.00000001
 40
0.0
 40
0.0
 40
0.0
 40
0.0
 40
0.3696317049658628
 40
0.7423090745688286
 40
1.0
 40
1.0
 40
1.0
 40
1.0
 10
93.40319558112354
 20
84.35386034529337
 30
0.0
 10
93.54439816835628
 20
84.35386034529337
 30
0.0
 10
93.82796681370593
 20
84.35386034529337
 30
0.0
 10
94.04710106673554
 20
84.35386034529337
 30
0.0
 10
94.06949199409055
 20
84.35386034529337
 30
0.0
 10
94.07864527612713
 20
84.35386034529337
 30
0.0
  0
SPLINE
  5
1DF
330
1F
100
AcDbEntity
  8
0
  6
Continuous
 62
     7
370
    25
100
AcDbSpline
210
0.0
220
0.0
230
1.0
 70
     8
 71
     3
 72
    10
 73
     6
 74
     0
 42
0.00000001
 43
0.00000001
 40
0.0
 40
0.0
 40
0.0
 40
0.0
 40
0.5
 40
0.5
 40
1.0
 40
1.0
 40
1.0
 40
1.0
 10
93.40319558112354
 20
84.60386034529337
 30
0.0
 10
93.37952018669917
 20
84.52947996791603
 30
0.0
 10
93.36642907681453
 20
84.46517932913027
 30
0.0
 10
93.36634275552625
 20
84.37696364434733
 30
0.0
 10
93.37951168947008
 20
84.35386034529337
 30
0.0
 10
93.40319558112354
 20
84.35386034529337
 30
0.0
  0
SPLINE
  5
1E0
330
1F
100
AcDbEntity
  8
0
  6
Continuous
 62
     7
370
    25
100
AcDbSpline
210
0.0
220
0.0
230
1.0
 70
     8
 71
     3
 72
    12
 73
     8
 74
     0
 42
0.00000001
 43
0.00000001
 40
0.0
 40
0.0
 40
0.0
 40
0.0
 40
0.0533110046386419
 40
0.2880420369619255
 40
0.5228022227406611
 40
0.7613815798846535
 40
0.9999999999999999
 40
0.9999999999999999
 40
0.9999999999999999
 40
0.9999999999999999
 10
94.07197318244253
 20
88.51291565603543
 30
0.0
 10
94.0741228062513
 20
88.44248862030724
 30
0.0
 10
94.0857373317095
 20
88.06196780728115
 30
0.0
 10
94.01996279490542
 20
87.37174565387258
 30
0.0
 10
93.88629830770682
 20
86.44353342746605
 30
0.0
 10
93.67936146756539
 20
85.51902546059816
 30
0.0
 10
93.495255900175
 20
84.9089320309574
 30
0.0
 10
93.40319558112354
 20
84.60386034529337
 30
0.0
  0
SPLINE
  5
1E1
330
1F
100
AcDbEntity
  8
0
  6
Continuous
 62
     7
370
    25
100
AcDbSpline
210
0.0
220
0.0
230
1.0
 70
     8
 71
     3
 72
    11
 73
     7
 74
     0
 42
0.00000001
 43
0.00000001
 40
0.0
 40
0.0
 40
0.0
 40
0.0
 40
0.2728192198789539
 40
0.5455713153947906
 40
0.8239831704997097
 40
1.0
 40
1.0
 40
1.0
 40
1.0
 10
93.40319558112354
 20
101.1038603452934
 30
0.0
 10
93.50774861746093
 20
100.7559062381793
 30
0.0
 10
93.71682896593644
 20
100.0600836344806
 30
0.0
 10
93.93500598618523
 20
98.990482303893
 30
0.0
 10
94.06222150269176
 20
98.03697802989484
 30
0.0
 10
94.06608094179761
 20
97.43805975734911
 30
0.0
 10
94.06757584354582
 20
97.20607683233884
 30
0.0
  0
SPLINE
  5
1E2
330
1F
100
AcDbEntity
  8
0
  6
Continuous
 62
     7
370
    25
100
AcDbSpline
210
0.0
220
0.0
230
1.0
 70
     8
 71
     3
 72
    10
 73
     6
 74
     0
 42
0.00000001
 43
0.00000001
 40
0.0
 40
0.0
 40
0.0
 40
0.0
 40
0.5
 40
0.5
 40
1.0
 40
1.0
 40
1.0
 40
1.0
 10
93.40319558112354
 20
101.3538603452934
 30
0.0
 10
93.37952018669917
 20
101.3538603452934
 30
0.0
 10
93.36642907681453
 20
101.3310678959636
 30
0.0
 10
93.36634275552625
 20
101.2431251918705
 30
0.0
 10
93.37951168947008
 20
101.1782674181966
 30
0.0
 10
93.40319558112354
 20
101.1038603452934
 30
0.0
  0
SPLINE
  5
1E3
330
1F
100
AcDbEntity
  8
0
  6
Continuous
 62
     7
370
    25
100
AcDbSpline
210
0.0
220
0.0
230
1.0
 70
    24
 71
     3
 72
    10
 73
     6
 74
     0
 42
0.00000001
 43
0.00000001
 40
0.0
 40
0.0
 40
0.0
 40
0.0
 40
0.2576877314560746
 40
0.6270660683974384
 40
1.0
 40
1.0
 40
1.0
 40
1.0
 10
94.07730382664755
 20
101.3538603452934
 30
0.0
 10
94.06870088543147
 20
101.3538603452934
 30
0.0
 10
94.0477661964009
 20
101.3538603452934
 30
0.0
 10
93.82880113344606
 20
101.3538603452934
 30
0.0
 10
93.54551639953895
 20
101.3538603452934
 30
0.0
 10
93.40319558112354
 20
101.3538603452934
 30
0.0
  0
LINE
  5
1E4
330
1F
100
AcDbEntity
  8
0
  6
Continuous
 62
     7
370
    25
100
AcDbLine
 10
94.2252545537
 20
101.1038603453
 30
0.0
 11
94.2252545537
 21
97.1552584549
 31
0.0
  0
LINE
  5
1E5
330
1F
100
AcDbEntity
  8
0
  6
Continuous
 62
     7
370
    25
100
AcDbLine
 10
94.2252545537
 20
88.5524622357
 30
0.0
 11
94.2252545537
 21
84.6038603453
 31
0.0
  0
SPLINE
  5
1E6
330
1F
100
AcDbEntity
  8
0
  6
Continuous
 62
     7
370
    25
100
AcDbSpline
210
0.0
220
0.0
230
1.0
 70
     8
 71
     3
 72
    10
 73
     6
 74
     0
 42
0.00000001
 43
0.00000001
 40
0.0
 40
0.0
 40
0.0
 40
0.0
 40
0.5
 40
0.5
 40
1.0
 40
1.0
 40
1.0
 40
1.0
 10
71.40297595894134
 20
93.10386034529337
 30
0.0
 10
71.42664956343245
 20
93.02948559130336
 30
0.0
 10
71.43974233922569
 20
92.94239185973744
 30
0.0
 10
71.43982890732664
 20
92.76622603119293
 30
0.0
 10
71.42665908320335
 20
92.67826500730264
 30
0.0
 10
71.40297595894134
 20
92.60386034529337
 30
0.0
  0
SPLINE
  5
1E7
330
1F
100
AcDbEntity
  8
0
  6
Continuous
 62
     7
370
    25
100
AcDbSpline
210
0.0
220
0.0
230
1.0
 70
     8
 71
     3
 72
    12
 73
     8
 74
     0
 42
0.00000001
 43
0.00000001
 40
0.0
 40
0.0
 40
0.0
 40
0.0
 40
0.2499999999999999
 40
0.2499999999999999
 40
0.5
 40
0.5
 40
1.0
 40
1.0
 40
1.0
 40
1.0
 10
70.72525455368114
 20
88.60386034529337
 30
0.0
 10
70.72525455368114
 20
88.94161628031614
 30
0.0
 10
70.74100088370311
 20
89.28202429519465
 30
0.0
 10
70.80244590828853
 20
89.95651897959506
 30
0.0
 10
70.84803466754227
 20
90.2916442984623
 30
0.0
 10
71.02448566979885
 20
91.29135561680245
 30
0.0
 10
71.19494337176235
 20
91.95028971986773
 30
0.0
 10
71.4029759589412
 20
92.60386034529338
 30
0.0
  0
LINE
  5
1E8
330
1F
100
AcDbEntity
  8
0
  6
Continuous
 62
     7
370
    25
100
AcDbLine
 10
70.7252545537
 20
97.1038603453
 30
0.0
 11
70.7252545537
 21
88.6038603453
 31
0.0
  0
SPLINE
  5
1E9
330
1F
100
AcDbEntity
  8
0
  6
Continuous
 62
     7
370
    25
100
AcDbSpline
210
0.0
220
0.0
230
1.0
 70
     8
 71
     3
 72
    10
 73
     6
 74
     0
 42
0.00000001
 43
0.00000001
 40
0.0
 40
0.0
 40
0.0
 40
0.0
 40
0.5
 40
0.5
 40
1.0
 40
1.0
 40
1.0
 40
1.0
 10
71.40297595894089
 20
93.10386034529331
 30
0.0
 10
71.19416603427462
 20
93.75987311189843
 30
0.0
 10
71.02363189452736
 20
94.42014001875613
 30
0.0
 10
70.78884608950844
 20
95.75248653739115
 30
0.0
 10
70.72525455368114
 20
96.42463951887848
 30
0.0
 10
70.72525455368114
 20
97.10386034529337
 30
0.0
  0
SPLINE
  5
1EA
330
1F
100
AcDbEntity
  8
0
  6
Continuous
 62
     7
370
    25
100
AcDbSpline
210
0.0
220
0.0
230
1.0
 70
     8
 71
     3
 72
    10
 73
     6
 74
     0
 42
0.00000001
 43
0.00000001
 40
0.0
 40
0.0
 40
0.0
 40
0.0
 40
0.3153497307175298
 40
0.6576468429379458
 40
1.0
 40
1.0
 40
1.0
 40
1.0
 10
88.3023529753392
 20
98.3936646533476
 30
0.0
 10
88.34106155882716
 20
98.68221315209179
 30
0.0
 10
88.4217864659566
 20
99.28396730232308
 30
0.0
 10
88.62743982028992
 20
100.1886047661486
 30
0.0
 10
88.8111255672754
 20
100.7987585033705
 30
0.0
 10
88.90297595894134
 20
101.1038603452934
 30
0.0
  0
LINE
  5
1EB
330
1F
100
AcDbEntity
  8
0
  6
Continuous
 62
     7
370
    25
100
AcDbLine
 10
93.4031955811
 20
101.1038603453
 30
0.0
 11
88.9029759589
 21
101.1038603453
 31
0.0
  0
SPLINE
  5
1EC
330
1F
100
AcDbEntity
  8
0
  6
Continuous
 62
     7
370
    25
100
AcDbSpline
210
0.0
220
0.0
230
1.0
 70
     8
 71
     3
 72
    12
 73
     8
 74
     0
 42
0.00000001
 43
0.00000001
 40
0.0
 40
0.0
 40
0.0
 40
0.0
 40
0.2500000000000001
 40
0.2500000000000001
 40
0.5000000000000002
 40
0.5000000000000002
 40
1.0
 40
1.0
 40
1.0
 40
1.0
 10
70.72525455368114
 20
97.10386034529337
 30
0.0
 10
70.72525455368114
 20
97.44161628031615
 30
0.0
 10
70.74100088370311
 20
97.78202429519466
 30
0.0
 10
70.80244590828853
 20
98.45651897959506
 30
0.0
 10
70.84803466754227
 20
98.7916442984623
 30
0.0
 10
71.02448566979885
 20
99.79135561680243
 30
0.0
 10
71.19494337176235
 20
100.4502897198677
 30
0.0
 10
71.4029759589412
 20
101.1038603452934
 30
0.0
  0
LINE
  5
1ED
330
1F
100
AcDbEntity
  8
0
  6
Continuous
 62
     7
370
    25
100
AcDbLine
 10
75.5475331484
 20
101.1038603453
 30
0.0
 11
71.4029759589
 21
101.1038603453
 31
0.0
  0
SPLINE
  5
1EE
330
1F
100
AcDbEntity
  8
0
  6
Continuous
 62
     7
370
    25
100
AcDbSpline
210
0.0
220
0.0
230
1.0
 70
     8
 71
     3
 72
    11
 73
     7
 74
     0
 42
0.00000001
 43
0.00000001
 40
0.0
 40
0.0
 40
0.0
 40
0.0
 40
0.2575685393832293
 40
0.5150861234273392
 40
0.777092344853726
 40
1.0
 40
1.0
 40
1.0
 40
1.0
 10
75.54753314842094
 20
101.1038603452934
 30
0.0
 10
75.64529694328404
 20
100.7796065603248
 30
0.0
 10
75.84080519218801
 20
100.1311631382125
 30
0.0
 10
76.05310476828504
 20
99.13660578155338
 30
0.0
 10
76.19178652329566
 20
98.17700048014899
 30
0.0
 10
76.20988042186563
 20
97.54615166644595
 30
0.0
 10
76.21819791636834
 20
97.25615990376791
 30
0.0
  0
SPLINE
  5
1EF
330
1F
100
AcDbEntity
  8
0
  6
Continuous
 62
     7
370
    25
100
AcDbSpline
210
0.0
220
0.0
230
1.0
 70
     8
 71
     3
 72
    12
 73
     8
 74
     0
 42
0.00000001
 43
0.00000001
 40
0.0
 40
0.0
 40
0.0
 40
0.0
 40
0.0416904472418228
 40
0.2793027905841348
 40
0.5169446452390236
 40
0.7584525513858801
 40
1.0
 40
1.0
 40
1.0
 40
1.0
 10
76.2233533879008
 20
88.46487985227206
 30
0.0
 10
76.22278433371002
 20
88.41046519507934
 30
0.0
 10
76.21897198738144
 20
88.04591728043468
 30
0.0
 10
76.16823593576463
 20
87.37176259102125
 30
0.0
 10
76.02956725603015
 20
86.44352882855355
 30
0.0
 10
75.82396803483601
 20
85.5190266182674
 30
0.0
 10
75.63968313902336
 20
84.9089324168682
 30
0.0
 10
75.54753314842095
 20
84.60386034529337
 30
0.0
  0
LINE
  5
1F0
330
1F
100
AcDbEntity
  8
0
  6
Continuous
 62
     7
370
    25
100
AcDbLine
 10
71.4029759589
 20
84.6038603453
 30
0.0
 11
75.5475331484
 21
84.6038603453
 31
0.0
  0
SPLINE
  5
1F1
330
1F
100
AcDbEntity
  8
0
  6
Continuous
 62
     7
370
    25
100
AcDbSpline
210
0.0
220
0.0
230
1.0
 70
     8
 71
     3
 72
    10
 73
     6
 74
     0
 42
0.00000001
 43
0.00000001
 40
0.0
 40
0.0
 40
0.0
 40
0.0
 40
0.5
 40
0.5
 40
1.0
 40
1.0
 40
1.0
 40
1.0
 10
71.40297595894089
 20
84.60386034529331
 30
0.0
 10
71.19416603427462
 20
85.25987311189841
 30
0.0
 10
71.02363189452736
 20
85.92014001875613
 30
0.0
 10
70.78884608950844
 20
87.25248653739114
 30
0.0
 10
70.72525455368114
 20
87.92463951887848
 30
0.0
 10
70.72525455368114
 20
88.60386034529337
 30
0.0
  0
LINE
  5
1F2
330
1F
100
AcDbEntity
  8
0
  6
Continuous
 62
     7
370
    25
100
AcDbLine
 10
88.9029759589
 20
84.6038603453
 30
0.0
 11
93.4031955811
 21
84.6038603453
 31
0.0
  0
SPLINE
  5
1F3
330
1F
100
AcDbEntity
  8
0
  6
Continuous
 62
     7
370
    25
100
AcDbSpline
210
0.0
220
0.0
230
1.0
 70
     8
 71
     3
 72
    10
 73
     6
 74
     0
 42
0.00000001
 43
0.00000001
 40
0.0
 40
0.0
 40
0.0
 40
0.0
 40
0.3653407195734544
 40
0.7306091630051695
 40
1.0
 40
1.0
 40
1.0
 40
1.0
 10
88.90297595894135
 20
84.60386034529333
 30
0.0
 10
88.80590934145592
 20
84.92816786583576
 30
0.0
 10
88.61179530938314
 20
85.57671874846508
 30
0.0
 10
88.40964834407487
 20
86.4782854575495
 30
0.0
 10
88.33989967495573
 20
87.05730273538094
 30
0.0
 10
88.31029378572858
 20
87.30307547347853
 30
0.0
  0
LINE
  5
1F4
330
1F
100
AcDbEntity
  8
0
  6
Continuous
 62
     7
370
    25
100
AcDbLine
 10
88.2252545537
 20
87.3090447413
 30
0.0
 11
88.2252545537
 21
85.3538603453
 31
0.0
  0
LINE
  5
1F5
330
1F
100
AcDbEntity
  8
0
  6
Continuous
 62
     7
370
    25
100
AcDbLine
 10
88.2252545537
 20
85.3538603453
 30
0.0
 11
76.2252545537
 21
85.3538603453
 31
0.0
  0
LINE
  5
1F6
330
1F
100
AcDbEntity
  8
0
  6
Continuous
 62
     7
370
    25
100
AcDbLine
 10
76.2252545537
 20
88.4376968519
 30
0.0
 11
76.2252545537
 21
85.3538603453
 31
0.0
  0
LINE
  5
1F7
330
1F
100
AcDbEntity
  8
0
  6
Continuous
 62
     7
370
    25
100
AcDbLine
 10
76.2252545537
 20
100.3538603453
 30
0.0
 11
76.2252545537
 21
97.2700238387
 31
0.0
  0
LINE
  5
1F8
330
1F
100
AcDbEntity
  8
0
  6
Continuous
 62
     7
370
    25
100
AcDbLine
 10
76.2252545537
 20
100.3538603453
 30
0.0
 11
88.2252545537
 21
100.3538603453
 31
0.0
  0
LINE
  5
1F9
330
1F
100
AcDbEntity
  8
0
  6
Continuous
 62
     7
370
    25
100
AcDbLine
 10
88.2252545537
 20
100.3538603453
 30
0.0
 11
88.2252545537
 21
98.3986759493
 31
0.0
  0
SPLINE
  5
1FA
330
1F
100
AcDbEntity
  8
0
  6
Continuous
 62
     7
370
    25
100
AcDbSpline
210
0.0
220
0.0
230
1.0
 70
     8
 71
     3
 72
     8
 73
     4
 74
     0
 42
0.00000001
 43
0.00000001
 40
0.0
 40
0.0
 40
0.0
 40
0.0
 40
1.0
 40
1.0
 40
1.0
 40
1.0
 10
75.70901847670197
 20
101.3538603452934
 30
0.0
 10
75.88272155292175
 20
101.0213489231579
 30
0.0
 10
76.05502377198445
 20
100.688021823259
 30
0.0
 10
76.22525455368115
 20
100.3538603452934
 30
0.0
  0
SPLINE
  5
1FB
330
1F
100
AcDbEntity
  8
0
  6
Continuous
 62
     7
370
    25
100
AcDbSpline
210
0.0
220
0.0
230
1.0
 70
     8
 71
     3
 72
    10
 73
     6
 74
     0
 42
0.00000001
 43
0.00000001
 40
0.0
 40
0.0
 40
0.0
 40
0.0
 40
0.5
 40
0.5
 40
1.0
 40
1.0
 40
1.0
 40
1.0
 10
75.54753314842661
 20
101.3538603452934
 30
0.0
 10
75.5238577540023
 20
101.3538603452934
 30
0.0
 10
75.510766644112
 20
101.3310678959639
 30
0.0
 10
75.51068032282359
 20
101.2431251918708
 30
0.0
 10
75.52384925676742
 20
101.1782674181969
 30
0.0
 10
75.54753314842094
 20
101.1038603452934
 30
0.0
  0
SPLINE
  5
1FC
330
1F
100
AcDbEntity
  8
0
  6
Continuous
 62
     7
370
    25
100
AcDbSpline
210
0.0
220
0.0
230
1.0
 70
    24
 71
     3
 72
     8
 73
     4
 74
     0
 42
0.00000001
 43
0.00000001
 40
0.0
 40
0.0
 40
0.0
 40
0.0
 40
1.0
 40
1.0
 40
1.0
 40
1.0
 10
75.70901847670196
 20
101.3538603452934
 30
0.0
 10
75.65811975977955
 20
101.3538603452934
 30
0.0
 10
75.60418562352893
 20
101.3538603452934
 30
0.0
 10
75.54753314842135
 20
101.3538603452934
 30
0.0
  0
SPLINE
  5
1FD
330
1F
100
AcDbEntity
  8
0
  6
Continuous
 62
     7
370
    25
100
AcDbSpline
210
0.0
220
0.0
230
1.0
 70
     8
 71
     3
 72
     8
 73
     4
 74
     0
 42
0.00000001
 43
0.00000001
 40
0.0
 40
0.0
 40
0.0
 40
0.0
 40
1.0
 40
1.0
 40
1.0
 40
1.0
 10
88.22525455368114
 20
100.3538603452934
 30
0.0
 10
88.39553216102487
 20
100.6881137415787
 30
0.0
 10
88.56780390965055
 20
101.0213802311476
 30
0.0
 10
88.7414906306602
 20
101.3538603452931
 30
0.0
  0
SPLINE
  5
1FE
330
1F
100
AcDbEntity
  8
0
  6
Continuous
 62
     7
370
    25
100
AcDbSpline
210
0.0
220
0.0
230
1.0
 70
    24
 71
     3
 72
     8
 73
     4
 74
     0
 42
0.00000001
 43
0.00000001
 40
0.0
 40
0.0
 40
0.0
 40
0.0
 40
1.0
 40
1.0
 40
1.0
 40
1.0
 10
88.7414906306598
 20
101.3538603452934
 30
0.0
 10
88.79238686391503
 20
101.3538603452934
 30
0.0
 10
88.84632081887887
 20
101.3538603452934
 30
0.0
 10
88.90297595894134
 20
101.3538603452934
 30
0.0
  0
SPLINE
  5
1FF
330
1F
100
AcDbEntity
  8
0
  6
Continuous
 62
     7
370
    25
100
AcDbSpline
210
0.0
220
0.0
230
1.0
 70
     8
 71
     3
 72
    10
 73
     6
 74
     0
 42
0.00000001
 43
0.00000001
 40
0.0
 40
0.0
 40
0.0
 40
0.0
 40
0.5
 40
0.5
 40
1.0
 40
1.0
 40
1.0
 40
1.0
 10
88.90297595894134
 20
101.1038603452934
 30
0.0
 10
88.92665135336573
 20
101.1782407226707
 30
0.0
 10
88.93974246325037
 20
101.2425413614565
 30
0.0
 10
88.93982878453866
 20
101.3307570462394
 30
0.0
 10
88.9266598505948
 20
101.3538603452934
 30
0.0
 10
88.90297595894134
 20
101.3538603452934
 30
0.0
  0
SPLINE
  5
200
330
1F
100
AcDbEntity
  8
0
  6
Continuous
 62
     7
370
    25
100
AcDbSpline
210
0.0
220
0.0
230
1.0
 70
     8
 71
     3
 72
    10
 73
     6
 74
     0
 42
0.00000001
 43
0.00000001
 40
0.0
 40
0.0
 40
0.0
 40
0.0
 40
0.5
 40
0.5
 40
1.0
 40
1.0
 40
1.0
 40
1.0
 10
71.40297595894134
 20
101.3538603452934
 30
0.0
 10
71.42664985949729
 20
101.3538603452934
 30
0.0
 10
71.43974241667642
 20
101.331069773646
 30
0.0
 10
71.43982883065873
 20
101.2431237763471
 30
0.0
 10
71.42665843906009
 20
101.1782629836143
 30
0.0
 10
71.40297595894134
 20
101.1038603452934
 30
0.0
  0
SPLINE
  5
201
330
1F
100
AcDbEntity
  8
0
  6
Continuous
 62
     7
370
    25
100
AcDbSpline
210
0.0
220
0.0
230
1.0
 70
    24
 71
     3
 72
    12
 73
     8
 74
     0
 42
0.00000001
 43
0.00000001
 40
0.0
 40
0.0
 40
0.0
 40
0.0
 40
0.2499999999999999
 40
0.2499999999999999
 40
0.4999999999999998
 40
0.4999999999999998
 40
1.0
 40
1.0
 40
1.0
 40
1.0
 10
70.72525455368114
 20
101.3538603452934
 30
0.0
 10
70.72525455368114
 20
101.3538603452934
 30
0.0
 10
70.74125335866222
 20
101.3538603452934
 30
0.0
 10
70.80302349697662
 20
101.3538603452934
 30
0.0
 10
70.8487656212782
 20
101.3538603452934
 30
0.0
 10
71.02543576862504
 20
101.3538603452934
 30
0.0
 10
71.19569083410535
 20
101.3538603452934
 30
0.0
 10
71.40297595894134
 20
101.3538603452934
 30
0.0
  0
LINE
  5
202
330
1F
100
AcDbEntity
  8
0
  6
Continuous
 62
     7
370
    25
100
AcDbLine
 10
70.7252545537
 20
101.3538603453
 30
0.0
 11
70.7252545537
 21
97.1038603453
 31
0.0
  0
SPLINE
  5
203
330
1F
100
AcDbEntity
  8
0
  6
Continuous
 62
     7
370
    25
100
AcDbSpline
210
0.0
220
0.0
230
1.0
 70
     8
 71
     3
 72
     8
 73
     4
 74
     0
 42
0.00000001
 43
0.00000001
 40
0.0
 40
0.0
 40
0.0
 40
0.0
 40
1.0
 40
1.0
 40
1.0
 40
1.0
 10
76.22525455368115
 20
85.35386034529337
 30
0.0
 10
76.05497694633739
 20
85.01960694900797
 30
0.0
 10
75.88270519771167
 20
84.68634045943894
 30
0.0
 10
75.70901847670197
 20
84.35386034529337
 30
0.0
  0
SPLINE
  5
204
330
1F
100
AcDbEntity
  8
0
  6
Continuous
 62
     7
370
    25
100
AcDbSpline
210
0.0
220
0.0
230
1.0
 70
    24
 71
     3
 72
     8
 73
     4
 74
     0
 42
0.00000001
 43
0.00000001
 40
0.0
 40
0.0
 40
0.0
 40
0.0
 40
1.0
 40
1.0
 40
1.0
 40
1.0
 10
75.70901847670197
 20
84.35386034529337
 30
0.0
 10
75.65811975977945
 20
84.35386034529337
 30
0.0
 10
75.60418562352869
 20
84.35386034529337
 30
0.0
 10
75.54753314842095
 20
84.35386034529337
 30
0.0
  0
SPLINE
  5
205
330
1F
100
AcDbEntity
  8
0
  6
Continuous
 62
     7
370
    25
100
AcDbSpline
210
0.0
220
0.0
230
1.0
 70
     8
 71
     3
 72
    10
 73
     6
 74
     0
 42
0.00000001
 43
0.00000001
 40
0.0
 40
0.0
 40
0.0
 40
0.0
 40
0.5
 40
0.5
 40
1.0
 40
1.0
 40
1.0
 40
1.0
 10
75.54753314842095
 20
84.60386034529337
 30
0.0
 10
75.52385775399658
 20
84.52947996791603
 30
0.0
 10
75.51076664411192
 20
84.46517932913027
 30
0.0
 10
75.51068032282366
 20
84.37696364434733
 30
0.0
 10
75.52384925676749
 20
84.35386034529337
 30
0.0
 10
75.54753314842095
 20
84.35386034529337
 30
0.0
  0
SPLINE
  5
206
330
1F
100
AcDbEntity
  8
0
  6
Continuous
 62
     7
370
    25
100
AcDbSpline
210
0.0
220
0.0
230
1.0
 70
     8
 71
     3
 72
     8
 73
     4
 74
     0
 42
0.00000001
 43
0.00000001
 40
0.0
 40
0.0
 40
0.0
 40
0.0
 40
1.0
 40
1.0
 40
1.0
 40
1.0
 10
88.74149063066032
 20
84.35386034529336
 30
0.0
 10
88.56778755444056
 20
84.68637176742887
 30
0.0
 10
88.39548533537784
 20
85.01969886732775
 30
0.0
 10
88.22525455368114
 20
85.35386034529337
 30
0.0
  0
SPLINE
  5
207
330
1F
100
AcDbEntity
  8
0
  6
Continuous
 62
     7
370
    25
100
AcDbSpline
210
0.0
220
0.0
230
1.0
 70
     8
 71
     3
 72
    10
 73
     6
 74
     0
 42
0.00000001
 43
0.00000001
 40
0.0
 40
0.0
 40
0.0
 40
0.0
 40
0.5
 40
0.5
 40
1.0
 40
1.0
 40
1.0
 40
1.0
 10
88.90297595894137
 20
84.35386034529337
 30
0.0
 10
88.92665135336574
 20
84.35386034529337
 30
0.0
 10
88.93974246325037
 20
84.37665279462315
 30
0.0
 10
88.93982878453866
 20
84.4645954987162
 30
0.0
 10
88.92665985059482
 20
84.52945327239006
 30
0.0
 10
88.90297595894135
 20
84.60386034529331
 30
0.0
  0
SPLINE
  5
208
330
1F
100
AcDbEntity
  8
0
  6
Continuous
 62
     7
370
    25
100
AcDbSpline
210
0.0
220
0.0
230
1.0
 70
    24
 71
     3
 72
     8
 73
     4
 74
     0
 42
0.00000001
 43
0.00000001
 40
0.0
 40
0.0
 40
0.0
 40
0.0
 40
1.0
 40
1.0
 40
1.0
 40
1.0
 10
88.74149063066034
 20
84.35386034529337
 30
0.0
 10
88.79238686391541
 20
84.35386034529337
 30
0.0
 10
88.84632081887906
 20
84.35386034529337
 30
0.0
 10
88.90297595894134
 20
84.35386034529337
 30
0.0
  0
SPLINE
  5
209
330
1F
100
AcDbEntity
  8
0
  6
Continuous
 62
     7
370
    25
100
AcDbSpline
210
0.0
220
0.0
230
1.0
 70
     8
 71
     3
 72
    10
 73
     6
 74
     0
 42
0.00000001
 43
0.00000001
 40
0.0
 40
0.0
 40
0.0
 40
0.0
 40
0.5
 40
0.5
 40
1.0
 40
1.0
 40
1.0
 40
1.0
 10
71.40297595894134
 20
84.60386034529337
 30
0.0
 10
71.4266481988529
 20
84.52948987836781
 30
0.0
 10
71.43974218878816
 20
84.46518428207995
 30
0.0
 10
71.4398290562496
 20
84.3769614942741
 30
0.0
 10
71.42665926649025
 20
84.35386034529337
 30
0.0
 10
71.40297595894134
 20
84.35386034529337
 30
0.0
  0
SPLINE
  5
20A
330
1F
100
AcDbEntity
  8
0
  6
Continuous
 62
     7
370
    25
100
AcDbSpline
210
0.0
220
0.0
230
1.0
 70
    24
 71
     3
 72
    12
 73
     8
 74
     0
 42
0.00000001
 43
0.00000001
 40
0.0
 40
0.0
 40
0.0
 40
0.0
 40
0.2500000000000001
 40
0.2500000000000001
 40
0.5000000000000001
 40
0.5000000000000001
 40
1.0
 40
1.0
 40
1.0
 40
1.0
 10
70.72525455368114
 20
84.35386034529337
 30
0.0
 10
70.72525455368114
 20
84.35386034529337
 30
0.0
 10
70.74125335866222
 20
84.35386034529337
 30
0.0
 10
70.8030234969766
 20
84.35386034529337
 30
0.0
 10
70.8487656212782
 20
84.35386034529337
 30
0.0
 10
71.02543576862504
 20
84.35386034529337
 30
0.0
 10
71.19569083410535
 20
84.35386034529337
 30
0.0
 10
71.40297595894134
 20
84.35386034529337
 30
0.0
  0
LINE
  5
20B
330
1F
100
AcDbEntity
  8
0
  6
Continuous
 62
     7
370
    25
100
AcDbLine
 10
70.7252545537
 20
84.3538603453
 30
0.0
 11
70.7252545537
 21
88.6038603453
 31
0.0
  0
LINE
  5
20C
330
1F
100
AcDbEntity
  8
0
  6
Continuous
 62
     7
370
    25
100
AcDbLine
 10
88.9029759589
 20
101.3538603453
 30
0.0
 11
93.4031955811
 21
101.3538603453
 31
0.0
  0
LINE
  5
20D
330
1F
100
AcDbEntity
  8
0
  6
Continuous
 62
     7
370
    25
100
AcDbLine
 10
71.4029759589
 20
101.3538603453
 30
0.0
 11
75.5475331484
 21
101.3538603453
 31
0.0
  0
LINE
  5
20E
330
1F
100
AcDbEntity
  8
0
  6
Continuous
 62
     7
370
    25
100
AcDbLine
 10
93.4031955811
 20
84.3538603453
 30
0.0
 11
88.9029759589
 21
84.3538603453
 31
0.0
  0
LINE
  5
20F
330
1F
100
AcDbEntity
  8
0
  6
Continuous
 62
     7
370
    25
100
AcDbLine
 10
75.5475331484
 20
84.3538603453
 30
0.0
 11
71.4029759589
 21
84.3538603453
 31
0.0
  0
LINE
  5
210
330
1F
100
AcDbEntity
  8
0
  6
Continuous
 62
     7
370
    25
100
AcDbLine
 10
88.7414906307
 20
101.3538603453
 30
0.0
 11
75.7090184767
 21
101.3538603453
 31
0.0
  0
LINE
  5
211
330
1F
100
AcDbEntity
  8
0
  6
Continuous
 62
     7
370
    25
100
AcDbLine
 10
88.7414906307
 20
84.3538603453
 30
0.0
 11
75.7090184767
 21
84.3538603453
 31
0.0
  0
SPLINE
  5
212
330
1F
100
AcDbEntity
  8
0
  6
Continuous
 62
     7
370
    25
100
AcDbSpline
210
0.0
220
0.0
230
1.0
 70
     8
 71
     3
 72
    15
 73
    11
 74
     0
 42
0.00000001
 43
0.00000001
 40
0.0
 40
0.0
 40
0.0
 40
0.0
 40
0.0081667445812695
 40
0.3321939991490075
 40
0.4756279600585577
 40
0.6866830973284901
 40
0.8457435502264808
 40
0.8967566214763126
 40
0.9909540928118029
 40
1.0
 40
1.0
 40
1.0
 40
1.0
 10
87.32427406727393
 20
94.10386034529337
 30
0.0
 10
87.32476160141682
 20
94.1052978082324
 30
0.0
 10
87.3445927489489
 20
94.16376866618408
 30
0.0
 10
87.37287352895815
 20
94.24819384390358
 30
0.0
 10
87.410702827447
 20
94.36277291592603
 30
0.0
 10
87.43728672401447
 20
94.44414380312261
 30
0.0
 10
87.45445654776945
 20
94.49716279512428
 30
0.0
 10
87.46227354398592
 20
94.52136472696843
 30
0.0
 10
87.46426923042179
 20
94.52755434763462
 30
0.0
 10
87.4643341943726
 20
94.52775574304717
 30
0.0
 10
87.46433988633926
 20
94.52777338877164
 30
0.0
  0
ARC
  5
213
330
1F
100
AcDbEntity
  8
0
  6
Continuous
 62
     7
370
    25
100
AcDbCircle
 10
82.2252545537
 20
92.8538603453
 30
0.0
 40
5.250000000000005
100
AcDbArc
 50
13.774146998
 51
166.225853002
  0
SPLINE
  5
214
330
1F
100
AcDbEntity
  8
0
  6
Continuous
 62
     7
370
    25
100
AcDbSpline
210
0.0
220
0.0
230
1.0
 70
     8
 71
     3
 72
    15
 73
    11
 74
     0
 42
0.00000001
 43
0.00000001
 40
0.0
 40
0.0
 40
0.0
 40
0.0
 40
0.0090459071881971
 40
0.1032433785236816
 40
0.1542564497735189
 40
0.3133169026715102
 40
0.5243720399414394
 40
0.6678060008509896
 40
0.9918332554187292
 40
1.0
 40
1.0
 40
1.0
 40
1.0
 10
76.98616922102305
 20
94.52777338877164
 30
0.0
 10
76.9861749129897
 20
94.52775574304717
 30
0.0
 10
76.98623987694049
 20
94.52755434763462
 30
0.0
 10
76.98823556337639
 20
94.52136472696843
 30
0.0
 10
76.99605255959284
 20
94.49716279512428
 30
0.0
 10
77.01322238334782
 20
94.44414380312261
 30
0.0
 10
77.0398062799153
 20
94.36277291592602
 30
0.0
 10
77.07763557840414
 20
94.24819384390358
 30
0.0
 10
77.10591635841341
 20
94.1637686661841
 30
0.0
 10
77.12574750594547
 20
94.1052978082324
 30
0.0
 10
77.12623504008836
 20
94.10386034529336
 30
0.0
  0
ARC
  5
215
330
1F
100
AcDbEntity
  8
0
  6
Continuous
 62
     7
370
    25
100
AcDbCircle
 10
82.2252545537
 20
92.8538603453
 30
0.0
 40
5.499999999999997
100
AcDbArc
 50
17.7189318734
 51
162.2810681266
  0
SPLINE
  5
216
330
1F
100
AcDbEntity
  8
0
  6
Continuous
 62
     7
370
    25
100
AcDbSpline
210
0.0
220
0.0
230
1.0
 70
     8
 71
     3
 72
    15
 73
    11
 74
     0
 42
0.00000001
 43
0.00000001
 40
0.0
 40
0.0
 40
0.0
 40
0.0
 40
0.0090459071881971
 40
0.1032433785236875
 40
0.1542564497735247
 40
0.3133169026715109
 40
0.5243720399414432
 40
0.667806000850919
 40
0.9918332554187028
 40
1.0
 40
1.0
 40
1.0
 40
1.0
 10
87.46433988633926
 20
91.1799473018151
 30
0.0
 10
87.4643341943726
 20
91.17996494753957
 30
0.0
 10
87.46426923042179
 20
91.18016634295212
 30
0.0
 10
87.46227354398592
 20
91.18635596361831
 30
0.0
 10
87.45445654776945
 20
91.21055789546246
 30
0.0
 10
87.43728672401448
 20
91.26357688746413
 30
0.0
 10
87.41070282744695
 20
91.3449477746607
 30
0.0
 10
87.37287352895831
 20
91.45952684668319
 30
0.0
 10
87.3445927489481
 20
91.54395202440234
 30
0.0
 10
87.32476160141681
 20
91.60242288235435
 30
0.0
 10
87.32427406727393
 20
91.60386034529337
 30
0.0
  0
ARC
  5
217
330
1F
100
AcDbEntity
  8
0
  6
Continuous
 62
     7
370
    25
100
AcDbCircle
 10
82.2252545537
 20
92.8538603453
 30
0.0
 40
5.499999999999997
100
AcDbArc
 50
197.7189318734
 51
342.2810681266
  0
SPLINE
  5
218
330
1F
100
AcDbEntity
  8
0
  6
Continuous
 62
     7
370
    25
100
AcDbSpline
210
0.0
220
0.0
230
1.0
 70
     8
 71
     3
 72
    15
 73
    11
 74
     0
 42
0.00000001
 43
0.00000001
 40
0.0
 40
0.0
 40
0.0
 40
0.0
 40
0.0081667445812973
 40
0.3321939991490812
 40
0.4756279600585594
 40
0.6866830973284901
 40
0.8457435502264811
 40
0.8967566214763184
 40
0.9909540928118028
 40
1.0
 40
1.0
 40
1.0
 40
1.0
 10
77.12623504008836
 20
91.60386034529337
 30
0.0
 10
77.12574750594548
 20
91.60242288235435
 30
0.0
 10
77.10591635841418
 20
91.54395202440233
 30
0.0
 10
77.07763557840399
 20
91.45952684668319
 30
0.0
 10
77.03980627991534
 20
91.3449477746607
 30
0.0
 10
77.01322238334781
 20
91.26357688746413
 30
0.0
 10
76.99605255959284
 20
91.21055789546246
 30
0.0
 10
76.98823556337639
 20
91.18635596361831
 30
0.0
 10
76.9862398769405
 20
91.18016634295212
 30
0.0
 10
76.9861749129897
 20
91.17996494753957
 30
0.0
 10
76.98616922102305
 20
91.1799473018151
 30
0.0
  0
ARC
  5
219
330
1F
100
AcDbEntity
  8
0
  6
Continuous
 62
     7
370
    25
100
AcDbCircle
 10
82.2252545537
 20
92.8538603453
 30
0.0
 40
5.250000000000009
100
AcDbArc
 50
193.774146998
 51
346.225853002
  0
ARC
  5
21A
330
1F
100
AcDbEntity
  8
0
  6
Continuous
 62
     7
370
    25
100
AcDbCircle
 10
87.7024801287
 20
94.6038603453
 30
0.0
 40
0.2500000000000034
100
AcDbArc
 50
197.7189318734
 51
270.0
  0
SPLINE
  5
21B
330
1F
100
AcDbEntity
  8
0
  6
Continuous
 62
     7
370
    25
100
AcDbSpline
210
0.0
220
0.0
230
1.0
 70
     8
 71
     3
 72
    15
 73
    11
 74
     0
 42
0.00000001
 43
0.00000001
 40
0.0
 40
0.0
 40
0.0
 40
0.0
 40
0.0089557228015919
 40
0.0999003359608147
 40
0.1531632460581688
 40
0.3125636920784846
 40
0.5249666935695022
 40
0.6689893599352454
 40
0.9919152533810159
 40
1.0
 40
1.0
 40
1.0
 40
1.0
 10
87.70248012873282
 20
94.35386034529337
 30
0.0
 10
87.70246437315421
 20
94.35384956093023
 30
0.0
 10
87.70228862099763
 20
94.35372926226471
 30
0.0
 10
87.69685960497813
 20
94.35001081134658
 30
0.0
 10
87.6753241212708
 20
94.33529977028033
 30
0.0
 10
87.62761869300597
 20
94.30285090882178
 30
0.0
 10
87.55522774801408
 20
94.2542668684783
 30
0.0
 10
87.45330863599631
 20
94.18689639621014
 30
0.0
 10
87.37795354454178
 20
94.13808283147536
 30
0.0
 10
87.32555389881807
 20
94.10467628128166
 30
0.0
 10
87.32427406727393
 20
94.10386034529337
 30
0.0
  0
ARC
  5
21C
330
1F
100
AcDbEntity
  8
0
  6
Continuous
 62
     7
370
    25
100
AcDbCircle
 10
76.7480289786
 20
94.6038603453
 30
0.0
 40
0.2500000000000126
100
AcDbArc
 50
270.0
 51
342.2810681266
  0
SPLINE
  5
21D
330
1F
100
AcDbEntity
  8
0
  6
Continuous
 62
     7
370
    25
100
AcDbSpline
210
0.0
220
0.0
230
1.0
 70
     8
 71
     3
 72
    15
 73
    11
 74
     0
 42
0.00000001
 43
0.00000001
 40
0.0
 40
0.0
 40
0.0
 40
0.0
 40
0.0080847466189819
 40
0.3310106400647581
 40
0.4750333064304993
 40
0.6874363079215137
 40
0.8468367539418307
 40
0.9000996640391851
 40
0.991044277198408
 40
1.0
 40
1.0
 40
1.0
 40
1.0
 10
77.12623504008836
 20
94.10386034529336
 30
0.0
 10
77.12495520854422
 20
94.10467628128164
 30
0.0
 10
77.07255556282044
 20
94.13808283147527
 30
0.0
 10
76.997200471366
 20
94.18689639621016
 30
0.0
 10
76.89528135934822
 20
94.2542668684783
 30
0.0
 10
76.82289041435632
 20
94.30285090882178
 30
0.0
 10
76.7751849860915
 20
94.33529977028033
 30
0.0
 10
76.75364950238416
 20
94.35001081134658
 30
0.0
 10
76.74822048636464
 20
94.35372926226471
 30
0.0
 10
76.74804473420808
 20
94.35384956093023
 30
0.0
 10
76.74802897862948
 20
94.35386034529336
 30
0.0
  0
SPLINE
  5
21E
330
1F
100
AcDbEntity
  8
0
  6
Continuous
 62
     7
370
    25
100
AcDbSpline
210
0.0
220
0.0
230
1.0
 70
     8
 71
     3
 72
    15
 73
    11
 74
     0
 42
0.00000001
 43
0.00000001
 40
0.0
 40
0.0
 40
0.0
 40
0.0
 40
0.0080847466189581
 40
0.3310106400648237
 40
0.4750333064304936
 40
0.6874363079215092
 40
0.8468367539418249
 40
0.9000996640391791
 40
0.9910442771984082
 40
1.0
 40
1.0
 40
1.0
 40
1.0
 10
87.32427406727393
 20
91.60386034529337
 30
0.0
 10
87.32555389881806
 20
91.60304440930507
 30
0.0
 10
87.3779535445413
 20
91.56963785911054
 30
0.0
 10
87.45330863599641
 20
91.52082429437675
 30
0.0
 10
87.55522774801405
 20
91.45345382210839
 30
0.0
 10
87.62761869300599
 20
91.40486978176497
 30
0.0
 10
87.6753241212708
 20
91.37242092030642
 30
0.0
 10
87.69685960497813
 20
91.35770987924015
 30
0.0
 10
87.70228862099765
 20
91.35399142832203
 30
0.0
 10
87.70246437315421
 20
91.35387112965651
 30
0.0
 10
87.70248012873282
 20
91.35386034529337
 30
0.0
  0
ARC
  5
21F
330
1F
100
AcDbEntity
  8
0
  6
Continuous
 62
     7
370
    25
100
AcDbCircle
 10
87.7024801287
 20
91.1038603453
 30
0.0
 40
0.2500000000000034
100
AcDbArc
 50
90.0
 51
162.2810681266
  0
SPLINE
  5
220
330
1F
100
AcDbEntity
  8
0
  6
Continuous
 62
     7
370
    25
100
AcDbSpline
210
0.0
220
0.0
230
1.0
 70
     8
 71
     3
 72
    15
 73
    11
 74
     0
 42
0.00000001
 43
0.00000001
 40
0.0
 40
0.0
 40
0.0
 40
0.0
 40
0.0089557228015919
 40
0.0999003359608152
 40
0.1531632460581696
 40
0.3125636920784856
 40
0.5249666935695051
 40
0.6689893599351772
 40
0.9919152533810449
 40
1.0
 40
1.0
 40
1.0
 40
1.0
 10
76.74802897862948
 20
91.35386034529337
 30
0.0
 10
76.74804473420808
 20
91.35387112965651
 30
0.0
 10
76.74822048636464
 20
91.35399142832203
 30
0.0
 10
76.75364950238416
 20
91.35770987924015
 30
0.0
 10
76.7751849860915
 20
91.37242092030641
 30
0.0
 10
76.82289041435631
 20
91.40486978176497
 30
0.0
 10
76.89528135934823
 20
91.4534538221084
 30
0.0
 10
76.9972004713659
 20
91.52082429437674
 30
0.0
 10
77.07255556282094
 20
91.56963785911064
 30
0.0
 10
77.12495520854424
 20
91.60304440930508
 30
0.0
 10
77.12623504008836
 20
91.60386034529337
 30
0.0
  0
ARC
  5
221
330
1F
100
AcDbEntity
  8
0
  6
Continuous
 62
     7
370
    25
100
AcDbCircle
 10
76.7480289786
 20
91.1038603453
 30
0.0
 40
0.2500000000000169
100
AcDbArc
 50
17.7189318734
 51
90.0
  0
LINE
  5
222
330
1F
100
AcDbEntity
  8
0
  6
Continuous
 62
     7
370
    25
100
AcDbLine
 10
87.2252545537
 20
93.4538603453
 30
0.0
 11
77.2252545537
 21
93.4538603453
 31
0.0
  0
LINE
  5
223
330
1F
100
AcDbEntity
  8
0
  6
Continuous
 62
     7
370
    25
100
AcDbLine
 10
77.2252545537
 20
92.2538603453
 30
0.0
 11
87.2252545537
 21
92.2538603453
 31
0.0
  0
LINE
  5
224
330
1F
100
AcDbEntity
  8
0
  6
Continuous
 62
     7
370
    25
100
AcDbLine
 10
77.2252545537
 20
93.4538603453
 30
0.0
 11
77.2252545537
 21
92.2538603453
 31
0.0
  0
LINE
  5
225
330
1F
100
AcDbEntity
  8
0
  6
Continuous
 62
     7
370
    25
100
AcDbLine
 10
87.2252545537
 20
92.2538603453
 30
0.0
 11
87.2252545537
 21
93.4538603453
 31
0.0
  0
LINE
  5
226
330
1F
100
AcDbEntity
  8
0
  6
Continuous
 62
     7
370
    25
100
AcDbLine
 10
87.9752545537
 20
94.1038603453
 30
0.0
 11
87.3242740673
 21
94.1038603453
 31
0.0
  0
LINE
  5
227
330
1F
100
AcDbEntity
  8
0
  6
Continuous
 62
     7
370
    25
100
AcDbLine
 10
87.9752545537
 20
91.6038603453
 30
0.0
 11
87.9752545537
 21
94.1038603453
 31
0.0
  0
LINE
  5
228
330
1F
100
AcDbEntity
  8
0
  6
Continuous
 62
     7
370
    25
100
AcDbLine
 10
87.3242740673
 20
91.6038603453
 30
0.0
 11
87.9752545537
 21
91.6038603453
 31
0.0
  0
LINE
  5
229
330
1F
100
AcDbEntity
  8
0
  6
Continuous
 62
     7
370
    25
100
AcDbLine
 10
76.4752545537
 20
91.6038603453
 30
0.0
 11
77.1262350401
 21
91.6038603453
 31
0.0
  0
LINE
  5
22A
330
1F
100
AcDbEntity
  8
0
  6
Continuous
 62
     7
370
    25
100
AcDbLine
 10
76.4752545537
 20
94.1038603453
 30
0.0
 11
76.4752545537
 21
91.6038603453
 31
0.0
  0
LINE
  5
22B
330
1F
100
AcDbEntity
  8
0
  6
Continuous
 62
     7
370
    25
100
AcDbLine
 10
77.1262350401
 20
94.1038603453
 30
0.0
 11
76.4752545537
 21
94.1038603453
 31
0.0
  0
ARC
  5
22C
330
1F
100
AcDbEntity
  8
0
  6
Continuous
 62
     7
370
    25
100
AcDbCircle
 10
87.9752545537
 20
94.1038603453
 30
0.0
 40
0.25
100
AcDbArc
 50
0.0
 51
90.0
  0
LINE
  5
22D
330
1F
100
AcDbEntity
  8
0
  6
Continuous
 62
     7
370
    25
100
AcDbLine
 10
88.2252545537
 20
94.1038603453
 30
0.0
 11
87.9752545537
 21
94.1038603453
 31
0.0
  0
LINE
  5
22E
330
1F
100
AcDbEntity
  8
0
  6
Continuous
 62
     7
370
    25
100
AcDbLine
 10
87.9752545537
 20
94.1038603453
 30
0.0
 11
87.9752545537
 21
94.3538603453
 31
0.0
  0
LINE
  5
22F
330
1F
100
AcDbEntity
  8
0
  6
Continuous
 62
     7
370
    25
100
AcDbLine
 10
87.7024801287
 20
94.3538603453
 30
0.0
 11
87.9752545537
 21
94.3538603453
 31
0.0
  0
LINE
  5
230
330
1F
100
AcDbEntity
  8
0
  6
Continuous
 62
     7
370
    25
100
AcDbLine
 10
76.4752545537
 20
94.3538603453
 30
0.0
 11
76.4752545537
 21
94.1038603453
 31
0.0
  0
LINE
  5
231
330
1F
100
AcDbEntity
  8
0
  6
Continuous
 62
     7
370
    25
100
AcDbLine
 10
76.4752545537
 20
94.1038603453
 30
0.0
 11
76.2252545537
 21
94.1038603453
 31
0.0
  0
ARC
  5
232
330
1F
100
AcDbEntity
  8
0
  6
Continuous
 62
     7
370
    25
100
AcDbCircle
 10
76.4752545537
 20
94.1038603453
 30
0.0
 40
0.25
100
AcDbArc
 50
90.0
 51
180.0
  0
LINE
  5
233
330
1F
100
AcDbEntity
  8
0
  6
Continuous
 62
     7
370
    25
100
AcDbLine
 10
76.4752545537
 20
94.3538603453
 30
0.0
 11
76.7480289786
 21
94.3538603453
 31
0.0
  0
LINE
  5
234
330
1F
100
AcDbEntity
  8
0
  6
Continuous
 62
     7
370
    25
100
AcDbLine
 10
88.2252545537
 20
94.1038603453
 30
0.0
 11
88.2252545537
 21
91.6038603453
 31
0.0
  0
LINE
  5
235
330
1F
100
AcDbEntity
  8
0
  6
Continuous
 62
     7
370
    25
100
AcDbLine
 10
87.9752545537
 20
91.6038603453
 30
0.0
 11
88.2252545537
 21
91.6038603453
 31
0.0
  0
LINE
  5
236
330
1F
100
AcDbEntity
  8
0
  6
Continuous
 62
     7
370
    25
100
AcDbLine
 10
76.2252545537
 20
91.6038603453
 30
0.0
 11
76.4752545537
 21
91.6038603453
 31
0.0
  0
LINE
  5
237
330
1F
100
AcDbEntity
  8
0
  6
Continuous
 62
     7
370
    25
100
AcDbLine
 10
76.2252545537
 20
91.6038603453
 30
0.0
 11
76.2252545537
 21
94.1038603453
 31
0.0
  0
LINE
  5
238
330
1F
100
AcDbEntity
  8
0
  6
Continuous
 62
     7
370
    25
100
AcDbLine
 10
76.4752545537
 20
91.6038603453
 30
0.0
 11
76.4752545537
 21
91.3538603453
 31
0.0
  0
ARC
  5
239
330
1F
100
AcDbEntity
  8
0
  6
Continuous
 62
     7
370
    25
100
AcDbCircle
 10
76.4752545537
 20
91.6038603453
 30
0.0
 40
0.25
100
AcDbArc
 50
180.0
 51
270.0
  0
LINE
  5
23A
330
1F
100
AcDbEntity
  8
0
  6
Continuous
 62
     7
370
    25
100
AcDbLine
 10
87.9752545537
 20
91.3538603453
 30
0.0
 11
87.9752545537
 21
91.6038603453
 31
0.0
  0
LINE
  5
23B
330
1F
100
AcDbEntity
  8
0
  6
Continuous
 62
     7
370
    25
100
AcDbLine
 10
87.9752545537
 20
91.3538603453
 30
0.0
 11
87.7024801287
 21
91.3538603453
 31
0.0
  0
ARC
  5
23C
330
1F
100
AcDbEntity
  8
0
  6
Continuous
 62
     7
370
    25
100
AcDbCircle
 10
87.9752545537
 20
91.6038603453
 30
0.0
 40
0.25
100
AcDbArc
 50
270.0
 51
0.0
  0
LINE
  5
23D
330
1F
100
AcDbEntity
  8
0
  6
Continuous
 62
     7
370
    25
100
AcDbLine
 10
76.7480289786
 20
91.3538603453
 30
0.0
 11
76.4752545537
 21
91.3538603453
 31
0.0
  0
LINE
  5
23E
330
1F
100
AcDbEntity
  8
0
  6
Continuous
 62
     7
370
    25
100
AcDbLine
 10
102.2252545537
 20
89.5821610812
 30
0.0
 11
104.4006914152
 21
89.3538603453
 31
0.0
  0
LINE
  5
23F
330
1F
100
AcDbEntity
  8
0
  6
Continuous
 62
     7
370
    25
100
AcDbLine
 10
102.2252545537
 20
96.1255596093
 30
0.0
 11
102.2252545537
 21
89.5821610812
 31
0.0
  0
LINE
  5
240
330
1F
100
AcDbEntity
  8
0
  6
Continuous
 62
     7
370
    25
100
AcDbLine
 10
104.4006914152
 20
96.3538603453
 30
0.0
 11
102.2252545537
 21
96.1255596093
 31
0.0
  0
LINE
  5
241
330
1F
100
AcDbEntity
  8
0
  6
Continuous
 62
     7
370
    25
100
AcDbLine
 10
122.2252545537
 20
96.3538603453
 30
0.0
 11
104.4006914152
 21
96.3538603453
 31
0.0
  0
LINE
  5
242
330
1F
100
AcDbEntity
  8
0
  6
Continuous
 62
     7
370
    25
100
AcDbLine
 10
122.2252545537
 20
89.3538603453
 30
0.0
 11
122.2252545537
 21
96.3538603453
 31
0.0
  0
LINE
  5
243
330
1F
100
AcDbEntity
  8
0
  6
Continuous
 62
     7
370
    25
100
AcDbLine
 10
104.4006914152
 20
89.3538603453
 30
0.0
 11
122.2252545537
 21
89.3538603453
 31
0.0
  0
LINE
  5
244
330
1F
100
AcDbEntity
  8
0
  6
Continuous
 62
     7
370
    25
100
AcDbLine
 10
87.449056728
 20
91.1328458645
 30
0.0
 11
87.5774657667
 21
91.3169874979
 31
0.0
  0
LINE
  5
245
330
1F
100
AcDbEntity
  8
0
  6
Continuous
 62
     7
370
    25
100
AcDbLine
 10
87.567898426
 20
94.3990780127
 30
0.0
 11
87.449056728
 21
94.5748748261
 31
0.0
  0
LINE
  5
246
330
1F
100
AcDbEntity
  8
0
  6
Continuous
 62
     7
370
    25
100
AcDbLine
 10
95.6418242073
 20
90.2730577097
 30
0.0
 11
95.6418242073
 21
95.4346629809
 31
0.0
  0
LINE
  5
247
330
1F
100
AcDbEntity
  8
0
  6
Continuous
 62
     7
370
    25
100
AcDbLine
 10
95.6418242073
 20
90.2730577097
 30
0.0
 11
87.449056728
 21
91.1328458645
 31
0.0
  0
LINE
  5
248
330
1F
100
AcDbEntity
  8
0
  6
Continuous
 62
     7
370
    25
100
AcDbLine
 10
87.449056728
 20
94.5748748261
 30
0.0
 11
95.6418242073
 21
95.4346629809
 31
0.0
  0
LINE
  5
249
330
1F
100
AcDbEntity
  8
0
  6
Continuous
 62
     7
370
    25
100
AcDbLine
 10
102.2252545537
 20
89.5821610812
 30
0.0
 11
95.6418242073
 21
90.2730577097
 31
0.0
  0
LINE
  5
24A
330
1F
100
AcDbEntity
  8
0
  6
Continuous
 62
     7
370
    25
100
AcDbLine
 10
95.6418242073
 20
95.4346629809
 30
0.0
 11
102.2252545537
 21
96.1255596093
 31
0.0
  0
ARC
  5
24B
330
1F
100
AcDbEntity
  8
0
  6
Continuous
 62
     7
370
    25
100
AcDbCircle
 10
82.2252545537
 20
92.8538603453
 30
0.0
 40
7.450000000000639
100
AcDbArc
 50
53.0863788866
 51
306.9136211134
  0
ARC
  5
24C
330
1F
100
AcDbEntity
  8
0
  6
Continuous
 62
     7
370
    25
100
AcDbCircle
 10
82.2252545537
 20
92.8538603453
 30
0.0
 40
7.207531252870779
100
AcDbArc
 50
15.3041237151
 51
58.9797515565
  0
ARC
  5
24D
330
1F
100
AcDbEntity
  8
0
  6
Continuous
 62
     7
370
    25
100
AcDbCircle
 10
82.2252545537
 20
92.8538603453
 30
0.0
 40
7.20753125287243
100
AcDbArc
 50
301.0202484435
 51
344.6958762849
  0
ARC
  5
24E
330
1F
100
AcDbEntity
  8
0
  6
Continuous
 62
     7
370
    25
100
AcDbCircle
 10
104.4006914152
 20
161.3538603453
 30
0.0
 40
65.0
100
AcDbArc
 50
253.4999050078
 51
270.0
  0
ARC
  5
24F
330
1F
100
AcDbEntity
  8
0
  6
Continuous
 62
     7
370
    25
100
AcDbCircle
 10
104.4006914152
 20
24.3538603453
 30
0.0
 40
64.99999999999999
100
AcDbArc
 50
90.0
 51
106.5000949923
  0
LINE
  5
250
330
1F
100
AcDbEntity
  8
0
  6
Continuous
 62
     7
370
    25
100
AcDbLine
 10
74.7794503661
 20
92.6038603453
 30
0.0
 11
71.4029759589
 21
92.6038603453
 31
0.0
  0
LINE
  5
251
330
1F
100
AcDbEntity
  8
0
  6
Continuous
 62
     7
370
    25
100
AcDbLine
 10
71.4029759589
 20
93.1038603453
 30
0.0
 11
74.7794503661
 21
93.1038603453
 31
0.0
  0
INSERT
  5
25D
330
1F
100
AcDbEntity
  8
FORMAT
100
AcDbBlockReference
  2
SW_CENTERMARKSYMBOL_1
 10
82.2252545537
 20
92.8538603453
 30
0.0
  0
ENDSEC
  0
SECTION
  2
OBJECTS
  0
DICTIONARY
  5
C
330
0
100
AcDbDictionary
281
     1
  3
ACAD_GROUP
350
D
  3
ACAD_LAYOUT
350
1A
  3
ACAD_MLINESTYLE
350
17
  3
ACAD_PLOTSETTINGS
350
19
  3
ACAD_PLOTSTYLENAME
350
E
  3
ACAD_SCALELIST
350
47
  3
DWGPROPS
350
25E
  0
DICTIONARY
  5
D
102
{ACAD_REACTORS
330
C
102
}
330
C
100
AcDbDictionary
281
     1
  0
DICTIONARY
  5
1A
102
{ACAD_REACTORS
330
C
102
}
330
C
100
AcDbDictionary
281
     1
  3
Layout1
350
1E
  3
Layout2
350
26
  3
Model
350
22
  0
DICTIONARY
  5
17
102
{ACAD_REACTORS
330
C
102
}
330
C
100
AcDbDictionary
281
     1
  3
Standard
350
18
  0
DICTIONARY
  5
19
102
{ACAD_REACTORS
330
C
102
}
330
C
100
AcDbDictionary
281
     1
  0
ACDBDICTIONARYWDFLT
  5
E
102
{ACAD_REACTORS
330
C
102
}
330
C
100
AcDbDictionary
281
     1
  3
Normal
350
F
100
AcDbDictionaryWithDefault
340
F
  0
DICTIONARY
  5
47
102
{ACAD_REACTORS
330
C
102
}
330
C
100
AcDbDictionary
281
     1
  3
A0
350
48
  3
A1
350
49
  3
A2
350
4A
  3
A3
350
4B
  3
A4
350
4C
  3
A5
350
4D
  3
A6
350
4E
  3
A7
350
4F
  3
A8
350
50
  3
A9
350
51
  3
B0
350
52
  3
B1
350
53
  3
B2
350
54
  3
B3
350
55
  3
B4
350
56
  3
B5
350
57
  3
B6
350
58
  0
XRECORD
  5
25E
102
{ACAD_REACTORS
330
C
102
}
330
C
100
AcDbXrecord
280
     1
  1
DWGPROPS COOKIE
  2

  3

  4

  6

  7

  8
user28
  9

300
=
301
=
302
=
303
=
304
=
305
=
306
=
307
=
308
=
309
=
 40
0.0
 41
2460326.31231765
 42
2460326.312318368
  1

 90
        0
  0
LAYOUT
  5
1E
102
{ACAD_REACTORS
330
1A
102
}
330
1A
100
AcDbPlotSettings
  1

  2
none_device
  4

  6

 40
0.0
 41
0.0
 42
0.0
 43
0.0
 44
0.0
 45
0.0
 46
0.0
 47
0.0
 48
0.0
 49
0.0
140
0.0
141
0.0
142
1.0
143
1.0
 70
   688
 72
     1
 73
     0
 74
     5
  7

 75
    16
147
1.0
148
0.0
149
0.0
100
AcDbLayout
  1
Layout1
 70
     1
 71
     1
 10
0.0
 20
0.0
 11
420.0
 21
297.0
 12
0.0
 22
0.0
 32
0.0
 14
1.0000000000E+20
 24
1.0000000000E+20
 34
1.0000000000E+20
 15
-1.0000000000E+20
 25
-1.0000000000E+20
 35
-1.0000000000E+20
146
0.0
 13
0.0
 23
0.0
 33
0.0
 16
1.0
 26
0.0
 36
0.0
 17
0.0
 27
1.0
 37
0.0
 76
     0
330
1B
  0
LAYOUT
  5
26
102
{ACAD_REACTORS
330
1A
102
}
330
1A
100
AcDbPlotSettings
  1

  2
none_device
  4

  6

 40
0.0
 41
0.0
 42
0.0
 43
0.0
 44
0.0
 45
0.0
 46
0.0
 47
0.0
 48
0.0
 49
0.0
140
0.0
141
0.0
142
1.0
143
1.0
 70
   688
 72
     1
 73
     0
 74
     5
  7

 75
    16
147
1.0
148
0.0
149
0.0
100
AcDbLayout
  1
Layout2
 70
     1
 71
     2
 10
0.0
 20
0.0
 11
0.0
 21
0.0
 12
0.0
 22
0.0
 32
0.0
 14
0.0
 24
0.0
 34
0.0
 15
0.0
 25
0.0
 35
0.0
146
0.0
 13
0.0
 23
0.0
 33
0.0
 16
1.0
 26
0.0
 36
0.0
 17
0.0
 27
1.0
 37
0.0
 76
     0
330
23
  0
LAYOUT
  5
22
102
{ACAD_REACTORS
330
1A
102
}
330
1A
100
AcDbPlotSettings
  1

  2
none_device
  4
Letter_(8.50_x_11.00_Inches)
  6

 40
6.35
 41
6.35
 42
6.35000508
 43
6.35000508
 44
215.9
 45
279.4
 46
0.0
 47
0.0
 48
0.0
 49
0.0
140
0.0
141
0.0
142
1.0
143
1.0
 70
  1712
 72
     1
 73
     0
 74
     0
  7

 75
     0
147
1.0
148
0.0
149
0.0
100
AcDbLayout
  1
Model
 70
     1
 71
     0
 10
0.0
 20
0.0
 11
297.0
 21
210.0
 12
0.0
 22
0.0
 32
0.0
 14
0.0
 24
0.0
 34
0.0
 15
297.0
 25
210.0
 35
0.0
146
0.0
 13
0.0
 23
0.0
 33
0.0
 16
1.0
 26
0.0
 36
0.0
 17
0.0
 27
1.0
 37
0.0
 76
     0
330
1F
331
29
  0
MLINESTYLE
  5
18
102
{ACAD_REACTORS
330
17
102
}
330
17
100
AcDbMlineStyle
  2
Standard
 70
     0
  3

 62
   256
 51
90.0
 52
90.0
 71
     2
 49
0.5
 62
   256
  6
BYLAYER
 49
-0.5
 62
   256
  6
BYLAYER
  0
ACDBPLACEHOLDER
  5
F
102
{ACAD_REACTORS
330
E
102
}
330
E
  0
SCALE
  5
48
102
{ACAD_REACTORS
330
47
102
}
330
47
100
AcDbScale
 70
     0
300
1:1
140
1.0
141
1.0
290
     1
  0
SCALE
  5
49
102
{ACAD_REACTORS
330
47
102
}
330
47
100
AcDbScale
 70
     0
300
1:2
140
1.0
141
2.0
290
     0
  0
SCALE
  5
4A
102
{ACAD_REACTORS
330
47
102
}
330
47
100
AcDbScale
 70
     0
300
1:4
140
1.0
141
4.0
290
     0
  0
SCALE
  5
4B
102
{ACAD_REACTORS
330
47
102
}
330
47
100
AcDbScale
 70
     0
300
1:5
140
1.0
141
5.0
290
     0
  0
SCALE
  5
4C
102
{ACAD_REACTORS
330
47
102
}
330
47
100
AcDbScale
 70
     0
300
1:8
140
1.0
141
8.0
290
     0
  0
SCALE
  5
4D
102
{ACAD_REACTORS
330
47
102
}
330
47
100
AcDbScale
 70
     0
300
1:10
140
1.0
141
10.0
290
     0
  0
SCALE
  5
4E
102
{ACAD_REACTORS
330
47
102
}
330
47
100
AcDbScale
 70
     0
300
1:16
140
1.0
141
16.0
290
     0
  0
SCALE
  5
4F
102
{ACAD_REACTORS
330
47
102
}
330
47
100
AcDbScale
 70
     0
300
1:20
140
1.0
141
20.0
290
     0
  0
SCALE
  5
50
102
{ACAD_REACTORS
330
47
102
}
330
47
100
AcDbScale
 70
     0
300
1:30
140
1.0
141
30.0
290
     0
  0
SCALE
  5
51
102
{ACAD_REACTORS
330
47
102
}
330
47
100
AcDbScale
 70
     0
300
1:40
140
1.0
141
40.0
290
     0
  0
SCALE
  5
52
102
{ACAD_REACTORS
330
47
102
}
330
47
100
AcDbScale
 70
     0
300
1:50
140
1.0
141
50.0
290
     0
  0
SCALE
  5
53
102
{ACAD_REACTORS
330
47
102
}
330
47
100
AcDbScale
 70
     0
300
1:100
140
1.0
141
100.0
290
     0
  0
SCALE
  5
54
102
{ACAD_REACTORS
330
47
102
}
330
47
100
AcDbScale
 70
     0
300
2:1
140
2.0
141
1.0
290
     0
  0
SCALE
  5
55
102
{ACAD_REACTORS
330
47
102
}
330
47
100
AcDbScale
 70
     0
300
4:1
140
4.0
141
1.0
290
     0
  0
SCALE
  5
56
102
{ACAD_REACTORS
330
47
102
}
330
47
100
AcDbScale
 70
     0
300
8:1
140
8.0
141
1.0
290
     0
  0
SCALE
  5
57
102
{ACAD_REACTORS
330
47
102
}
330
47
100
AcDbScale
 70
     0
300
10:1
140
10.0
141
1.0
290
     0
  0
SCALE
  5
58
102
{ACAD_REACTORS
330
47
102
}
330
47
100
AcDbScale
 70
     0
300
100:1
140
100.0
141
1.0
290
     0
  0
ENDSEC
  0
EOF
