  0
SECTION
  2
HEADER
  9
$ACADVER
  1
AC1015
  9
$ACADMAINTVER
 70
     6
  9
$DWGCODEPAGE
  3
DOS932
  9
$INSBASE
 10
0.0
 20
0.0
 30
0.0
  9
$EXTMIN
 10
0.0
 20
0.0
 30
0.0
  9
$EXTMAX
 10
594.0
 20
420.0
 30
0.0
  9
$LIMMIN
 10
0.0
 20
0.0
  9
$LIMMAX
 10
594.0
 20
420.0
  9
$ORTHOMODE
 70
     0
  9
$REGENMODE
 70
     1
  9
$FILLMODE
 70
     1
  9
$QTEXTMODE
 70
     0
  9
$MIRRTEXT
 70
     1
  9
$LTSCALE
 40
2.0
  9
$ATTMODE
 70
     1
  9
$TEXTSIZE
 40
7.0555555556
  9
$TRACEWID
 40
1.0
  9
$TEXTSTYLE
  7
Standard
  9
$CLAYER
  8
0
  9
$CELTYPE
  6
ByLayer
  9
$CECOLOR
 62
   256
  9
$CELTSCALE
 40
1.0
  9
$DISPSILH
 70
     0
  9
$DIMSCALE
 40
1.0
  9
$DIMASZ
 40
5.45703125
  9
$DIMEXO
 40
2.0
  9
$DIMDLI
 40
3.75
  9
$DIMRND
 40
0.0
  9
$DIMDLE
 40
0.0
  9
$DIMEXE
 40
2.0
  9
$DIMTP
 40
0.0
  9
$DIMTM
 40
0.0
  9
$DIMTXT
 40
7.0555555556
  9
$DIMCEN
 40
2.5
  9
$DIMTSZ
 40
0.0
  9
$DIMTOL
 70
     0
  9
$DIMLIM
 70
     0
  9
$DIMTIH
 70
     1
  9
$DIMTOH
 70
     1
  9
$DIMSE1
 70
     0
  9
$DIMSE2
 70
     0
  9
$DIMTAD
 70
     1
  9
$DIMZIN
 70
     0
  9
$DIMBLK
  1

  9
$DIMASO
 70
     1
  9
$DIMSHO
 70
     1
  9
$DIMPOST
  1

  9
$DIMAPOST
  1

  9
$DIMALT
 70
     0
  9
$DIMALTD
 70
     3
  9
$DIMALTF
 40
0.0393700787
  9
$DIMLFAC
 40
1.0
  9
$DIMTOFL
 70
     1
  9
$DIMTVP
 40
0.0
  9
$DIMTIX
 70
     0
  9
$DIMSOXD
 70
     0
  9
$DIMSAH
 70
     0
  9
$DIMBLK1
  1

  9
$DIMBLK2
  1

  9
$DIMSTYLE
  2
ISO-25
  9
$DIMCLRD
 70
     0
  9
$DIMCLRE
 70
     0
  9
$DIMCLRT
 70
     0
  9
$DIMTFAC
 40
1.0
  9
$DIMGAP
 40
3.048
  9
$DIMJUST
 70
     0
  9
$DIMSD1
 70
     0
  9
$DIMSD2
 70
     0
  9
$DIMTOLJ
 70
     0
  9
$DIMTZIN
 70
     0
  9
$DIMALTZ
 70
     0
  9
$DIMALTTZ
 70
     0
  9
$DIMUPT
 70
     0
  9
$DIMDEC
 70
     2
  9
$DIMTDEC
 70
     2
  9
$DIMALTU
 70
     2
  9
$DIMALTTD
 70
     3
  9
$DIMTXSTY
  7
Standard
  9
$DIMAUNIT
 70
     0
  9
$DIMADEC
 70
     2
  9
$DIMALTRND
 40
0.0
  9
$DIMAZIN
 70
     0
  9
$DIMDSEP
 70
    44
  9
$DIMATFIT
 70
     3
  9
$DIMFRAC
 70
     0
  9
$DIMLDRBLK
  1

  9
$DIMLUNIT
 70
     2
  9
$DIMLWD
 70
    -2
  9
$DIMLWE
 70
    -2
  9
$DIMTMOVE
 70
     0
  9
$LUNITS
 70
     2
  9
$LUPREC
 70
     2
  9
$SKETCHINC
 40
1.0
  9
$FILLETRAD
 40
0.0
  9
$AUNITS
 70
     0
  9
$AUPREC
 70
     2
  9
$MENU
  1
.
  9
$ELEVATION
 40
0.0
  9
$PELEVATION
 40
0.0
  9
$THICKNESS
 40
0.0
  9
$LIMCHECK
 70
     0
  9
$CHAMFERA
 40
0.0
  9
$CHAMFERB
 40
0.0
  9
$CHAMFERC
 40
0.0
  9
$CHAMFERD
 40
0.0
  9
$SKPOLY
 70
     0
  9
$TDCREATE
 40
2460326.684504803
  9
$TDUCREATE
 40
2460326.309504803
  9
$TDUPDATE
 40
2460326.684506053
  9
$TDUUPDATE
 40
2460326.309506053
  9
$TDINDWG
 40
0.0000000116
  9
$TDUSRTIMER
 40
0.0000000116
  9
$USRTIMER
 70
     1
  9
$ANGBASE
 50
0.0
  9
$ANGDIR
 70
     0
  9
$PDMODE
 70
     0
  9
$PDSIZE
 40
-1.0
  9
$PLINEWID
 40
0.0
  9
$SPLFRAME
 70
     0
  9
$SPLINETYPE
 70
     6
  9
$SPLINESEGS
 70
     8
  9
$HANDSEED
  5
26F
  9
$SURFTAB1
 70
     6
  9
$SURFTAB2
 70
     6
  9
$SURFTYPE
 70
     6
  9
$SURFU
 70
     6
  9
$SURFV
 70
     6
  9
$UCSBASE
  2

  9
$UCSNAME
  2

  9
$UCSORG
 10
0.0
 20
0.0
 30
0.0
  9
$UCSXDIR
 10
1.0
 20
0.0
 30
0.0
  9
$UCSYDIR
 10
0.0
 20
1.0
 30
0.0
  9
$UCSORTHOREF
  2

  9
$UCSORTHOVIEW
 70
     0
  9
$UCSORGTOP
 10
0.0
 20
0.0
 30
0.0
  9
$UCSORGBOTTOM
 10
0.0
 20
0.0
 30
0.0
  9
$UCSORGLEFT
 10
0.0
 20
0.0
 30
0.0
  9
$UCSORGRIGHT
 10
0.0
 20
0.0
 30
0.0
  9
$UCSORGFRONT
 10
0.0
 20
0.0
 30
0.0
  9
$UCSORGBACK
 10
0.0
 20
0.0
 30
0.0
  9
$PUCSBASE
  2

  9
$PUCSNAME
  2

  9
$PUCSORG
 10
0.0
 20
0.0
 30
0.0
  9
$PUCSXDIR
 10
1.0
 20
0.0
 30
0.0
  9
$PUCSYDIR
 10
0.0
 20
1.0
 30
0.0
  9
$PUCSORTHOREF
  2

  9
$PUCSORTHOVIEW
 70
     0
  9
$PUCSORGTOP
 10
0.0
 20
0.0
 30
0.0
  9
$PUCSORGBOTTOM
 10
0.0
 20
0.0
 30
0.0
  9
$PUCSORGLEFT
 10
0.0
 20
0.0
 30
0.0
  9
$PUCSORGRIGHT
 10
0.0
 20
0.0
 30
0.0
  9
$PUCSORGFRONT
 10
0.0
 20
0.0
 30
0.0
  9
$PUCSORGBACK
 10
0.0
 20
0.0
 30
0.0
  9
$USERI1
 70
     0
  9
$USERI2
 70
     0
  9
$USERI3
 70
     0
  9
$USERI4
 70
     0
  9
$USERI5
 70
     0
  9
$USERR1
 40
0.0
  9
$USERR2
 40
0.0
  9
$USERR3
 40
0.0
  9
$USERR4
 40
0.0
  9
$USERR5
 40
0.0
  9
$WORLDVIEW
 70
     1
  9
$SHADEDGE
 70
     3
  9
$SHADEDIF
 70
    70
  9
$TILEMODE
 70
     1
  9
$MAXACTVP
 70
    64
  9
$PINSBASE
 10
0.0
 20
0.0
 30
0.0
  9
$PLIMCHECK
 70
     0
  9
$PEXTMIN
 10
1.0000000000E+20
 20
1.0000000000E+20
 30
1.0000000000E+20
  9
$PEXTMAX
 10
-1.0000000000E+20
 20
-1.0000000000E+20
 30
-1.0000000000E+20
  9
$PLIMMIN
 10
0.0
 20
0.0
  9
$PLIMMAX
 10
420.0
 20
297.0
  9
$UNITMODE
 70
     0
  9
$VISRETAIN
 70
     1
  9
$PLINEGEN
 70
     0
  9
$PSLTSCALE
 70
     1
  9
$TREEDEPTH
 70
  3020
  9
$CMLSTYLE
  2
Standard
  9
$CMLJUST
 70
     0
  9
$CMLSCALE
 40
20.0
  9
$PROXYGRAPHICS
 70
     1
  9
$MEASUREMENT
 70
     1
  9
$CELWEIGHT
370
    -1
  9
$ENDCAPS
280
     0
  9
$JOINSTYLE
280
     0
  9
$LWDISPLAY
290
     1
  9
$INSUNITS
 70
     4
  9
$HYPERLINKBASE
  1

  9
$STYLESHEET
  1

  9
$XEDIT
290
     1
  9
$CEPSNTYPE
380
     0
  9
$PSTYLEMODE
290
     1
  9
$FINGERPRINTGUID
  2
{c9ae4b78-fd95-4d18-95a3-905094aa380c}
  9
$VERSIONGUID
  2
{FAEB1C32-E019-11D5-929B-00C0DF256EC4}
  9
$EXTNAMES
290
     1
  9
$PSVPSCALE
 40
0.0
  9
$OLESTARTUP
290
     0
  0
ENDSEC
  0
SECTION
  2
CLASSES
  0
CLASS
  1
ACDBDICTIONARYWDFLT
  2
AcDbDictionaryWithDefault
  3
ObjectDBX Classes
 90
        0
280
     0
281
     0
  0
CLASS
  1
VISUALSTYLE
  2
AcDbVisualStyle
  3
ObjectDBX Classes
 90
     4095
280
     0
281
     0
  0
CLASS
  1
MATERIAL
  2
AcDbMaterial
  3
ObjectDBX Classes
 90
     1153
280
     0
281
     0
  0
CLASS
  1
SCALE
  2
AcDbScale
  3
ObjectDBX Classes
 90
     1153
280
     0
281
     0
  0
CLASS
  1
TABLESTYLE
  2
AcDbTableStyle
  3
ObjectDBX Classes
 90
     4095
280
     0
281
     0
  0
CLASS
  1
MLEADERSTYLE
  2
AcDbMLeaderStyle
  3
ACDB_MLEADERSTYLE_CLASS
 90
     4095
280
     0
281
     0
  0
CLASS
  1
SUN
  2
AcDbSun
  3
SCENEOE
 90
     1153
280
     0
281
     0
  0
CLASS
  1
ACDBPLACEHOLDER
  2
AcDbPlaceHolder
  3
ObjectDBX Classes
 90
        0
280
     0
281
     0
  0
CLASS
  1
LAYOUT
  2
AcDbLayout
  3
ObjectDBX Classes
 90
        0
280
     0
281
     0
  0
ENDSEC
  0
SECTION
  2
TABLES
  0
TABLE
  2
VPORT
  5
8
330
0
100
AcDbSymbolTable
 70
     1
  0
VPORT
  5
29
330
8
100
AcDbSymbolTableRecord
100
AcDbViewportTableRecord
  2
*Active
 70
     0
 10
0.0
 20
0.0
 11
1.0
 21
1.0
 12
297.0
 22
210.0
 13
0.0
 23
0.0
 14
10.0
 24
10.0
 15
10.0
 25
10.0
 16
0.0
 26
0.0
 36
1.0
 17
0.0
 27
0.0
 37
0.0
 40
420.0
 41
1.4142857143
 42
50.0
 43
0.0
 44
0.0
 50
0.0
 51
0.0
 71
     0
 72
  2000
 73
     1
 74
     3
 75
     0
 76
     0
 77
     0
 78
     0
281
     0
 65
     1
110
0.0
120
0.0
130
0.0
111
1.0
121
0.0
131
0.0
112
0.0
122
1.0
132
0.0
 79
     0
146
0.0
  0
ENDTAB
  0
TABLE
  2
LTYPE
  5
5
330
0
100
AcDbSymbolTable
 70
     6
  0
LTYPE
  5
14
330
5
100
AcDbSymbolTableRecord
100
AcDbLinetypeTableRecord
  2
ByBlock
 70
     0
  3

 72
    65
 73
     0
 40
0.0
  0
LTYPE
  5
15
330
5
100
AcDbSymbolTableRecord
100
AcDbLinetypeTableRecord
  2
ByLayer
 70
     0
  3

 72
    65
 73
     0
 40
0.0
  0
LTYPE
  5
16
330
5
100
AcDbSymbolTableRecord
100
AcDbLinetypeTableRecord
  2
Continuous
 70
     0
  3
Solid line
 72
    65
 73
     0
 40
0.0
  0
LTYPE
  5
5E
330
5
100
AcDbSymbolTableRecord
100
AcDbLinetypeTableRecord
  2
HIDDEN
 70
     0
  3
Hidden __ __ __ __ __ __ __ __ __ __ __ __ __ __
 72
    65
 73
     2
 40
1.905
 49
1.27
 74
     0
 49
-0.635
 74
     0
  0
LTYPE
  5
5F
330
5
100
AcDbSymbolTableRecord
100
AcDbLinetypeTableRecord
  2
PHANTOM
 70
     0
  3
Phantom ______  __  __  ______  __  __  ______
 72
    65
 73
     6
 40
12.7
 49
6.35
 74
     0
 49
-1.27
 74
     0
 49
1.27
 74
     0
 49
-1.27
 74
     0
 49
1.27
 74
     0
 49
-1.27
 74
     0
  0
LTYPE
  5
60
330
5
100
AcDbSymbolTableRecord
100
AcDbLinetypeTableRecord
  2
CENTER
 70
     0
  3
Center ____ _ ____ _ ____ _ ____ _ ____ _ ____
 72
    65
 73
     4
 40
10.16
 49
6.35
 74
     0
 49
-1.27
 74
     0
 49
1.27
 74
     0
 49
-1.27
 74
     0
  0
LTYPE
  5
61
330
5
100
AcDbSymbolTableRecord
100
AcDbLinetypeTableRecord
  2
CENTERX2
 70
     0
  3
Center (2x) ________  __  ________  __  _____
 72
    65
 73
     4
 40
20.32
 49
12.7
 74
     0
 49
-2.54
 74
     0
 49
2.54
 74
     0
 49
-2.54
 74
     0
  0
LTYPE
  5
62
330
5
100
AcDbSymbolTableRecord
100
AcDbLinetypeTableRecord
  2
DOT2
 70
     0
  3
Dot (.5x) ........................................
 72
    65
 73
     2
 40
0.635
 49
0.0
 74
     0
 49
-0.635
 74
     0
  0
ENDTAB
  0
TABLE
  2
LAYER
  5
2
330
0
100
AcDbSymbolTable
 70
     2
  0
LAYER
  5
10
330
2
100
AcDbSymbolTableRecord
100
AcDbLayerTableRecord
  2
0
 70
     0
 62
     7
  6
Continuous
370
    -3
390
F
  0
LAYER
  5
63
330
2
100
AcDbSymbolTableRecord
100
AcDbLayerTableRecord
  2
FORMAT
 70
     0
 62
     7
  6
Continuous
370
    -3
390
F
  0
ENDTAB
  0
TABLE
  2
STYLE
  5
3
330
0
100
AcDbSymbolTable
 70
     2
  0
STYLE
  5
11
330
3
100
AcDbSymbolTableRecord
100
AcDbTextStyleTableRecord
  2
Standard
 70
     0
 40
0.0
 41
1.0
 50
0.0
 71
     0
 42
7.0555555556
  3
txt
  4
bigfont
  0
STYLE
  5
64
330
3
100
AcDbSymbolTableRecord
100
AcDbTextStyleTableRecord
  2
SLDTEXTSTYLE0
 70
     0
 40
0.0
 41
0.7
 50
0.0
 71
     0
 42
7.0555555556
  3
TXT
  4
bigfont
  0
ENDTAB
  0
TABLE
  2
VIEW
  5
6
330
0
100
AcDbSymbolTable
 70
     0
  0
ENDTAB
  0
TABLE
  2
UCS
  5
7
330
0
100
AcDbSymbolTable
 70
     0
  0
ENDTAB
  0
TABLE
  2
APPID
  5
9
330
0
100
AcDbSymbolTable
 70
     1
  0
APPID
  5
12
330
9
100
AcDbSymbolTableRecord
100
AcDbRegAppTableRecord
  2
ACAD
 70
     0
  0
ENDTAB
  0
TABLE
  2
DIMSTYLE
  5
A
330
0
100
AcDbSymbolTable
 70
     1
100
AcDbDimStyleTable
  0
DIMSTYLE
105
27
330
A
100
AcDbSymbolTableRecord
100
AcDbDimStyleTableRecord
  2
ISO-25
 70
     0
 41
2.5
 42
0.625
 43
3.75
 44
1.25
 73
     0
 74
     0
 77
     1
 78
     8
140
2.5
141
2.5
143
0.0393700787
147
0.625
171
     3
172
     1
178
     0
271
     2
272
     2
274
     3
278
    44
283
     0
284
     8
340
11
  0
ENDTAB
  0
TABLE
  2
BLOCK_RECORD
  5
1
330
0
100
AcDbSymbolTable
 70
     3
  0
BLOCK_RECORD
  5
1F
330
1
100
AcDbSymbolTableRecord
100
AcDbBlockTableRecord
  2
*Model_Space
340
22
  0
BLOCK_RECORD
  5
1B
330
1
100
AcDbSymbolTableRecord
100
AcDbBlockTableRecord
  2
*Paper_Space
340
1E
  0
BLOCK_RECORD
  5
23
330
1
100
AcDbSymbolTableRecord
100
AcDbBlockTableRecord
  2
*Paper_Space0
340
26
  0
BLOCK_RECORD
  5
1CE
330
1
100
AcDbSymbolTableRecord
100
AcDbBlockTableRecord
  2
SW_CENTERMARKSYMBOL_0
340
0
102
{BLKREFS
331
1D9
102
}
  0
BLOCK_RECORD
  5
262
330
1
100
AcDbSymbolTableRecord
100
AcDbBlockTableRecord
  2
SW_CENTERMARKSYMBOL_1
340
0
102
{BLKREFS
331
26D
102
}
  0
ENDTAB
  0
ENDSEC
  0
SECTION
  2
BLOCKS
  0
BLOCK
  5
20
330
1F
100
AcDbEntity
  8
0
100
AcDbBlockBegin
  2
*Model_Space
 70
     0
 10
0.0
 20
0.0
 30
0.0
  3
*Model_Space
  1

  0
ENDBLK
  5
21
330
1F
100
AcDbEntity
  8
0
100
AcDbBlockEnd
  0
BLOCK
  5
1C
330
1B
100
AcDbEntity
 67
     1
  8
0
100
AcDbBlockBegin
  2
*Paper_Space
 70
     0
 10
0.0
 20
0.0
 30
0.0
  3
*Paper_Space
  1

  0
ENDBLK
  5
1D
330
1B
100
AcDbEntity
 67
     1
  8
0
100
AcDbBlockEnd
  0
BLOCK
  5
24
330
23
100
AcDbEntity
  8
0
100
AcDbBlockBegin
  2
*Paper_Space0
 70
     0
 10
0.0
 20
0.0
 30
0.0
  3
*Paper_Space0
  1

  0
ENDBLK
  5
25
330
23
100
AcDbEntity
  8
0
100
AcDbBlockEnd
  0
BLOCK
  5
1CF
330
1CE
100
AcDbEntity
  8
0
100
AcDbBlockBegin
  2
SW_CENTERMARKSYMBOL_0
 70
     0
 10
0.0
 20
0.0
 30
0.0
  3
SW_CENTERMARKSYMBOL_0
  1

  0
LINE
  5
1D1
330
1CE
100
AcDbEntity
  8
FORMAT
 62
     0
100
AcDbLine
 10
0.0
 20
0.0
 30
0.0
 11
0.0
 21
2.5
 31
0.0
  0
LINE
  5
1D2
330
1CE
100
AcDbEntity
  8
FORMAT
 62
     0
100
AcDbLine
 10
0.0
 20
0.0
 30
0.0
 11
-2.5
 21
0.0
 31
0.0
  0
LINE
  5
1D3
330
1CE
100
AcDbEntity
  8
FORMAT
 62
     0
100
AcDbLine
 10
0.0
 20
0.0
 30
0.0
 11
0.0
 21
-2.5
 31
0.0
  0
LINE
  5
1D4
330
1CE
100
AcDbEntity
  8
FORMAT
 62
     0
100
AcDbLine
 10
0.0
 20
0.0
 30
0.0
 11
2.5
 21
0.0
 31
0.0
  0
LINE
  5
1D5
330
1CE
100
AcDbEntity
  8
FORMAT
 62
     0
100
AcDbLine
 10
0.0
 20
5.0
 30
0.0
 11
0.0
 21
30.3613211032
 31
0.0
  0
LINE
  5
1D6
330
1CE
100
AcDbEntity
  8
FORMAT
 62
     0
100
AcDbLine
 10
-5.0
 20
0.0
 30
0.0
 11
-10.75
 21
0.0
 31
0.0
  0
LINE
  5
1D7
330
1CE
100
AcDbEntity
  8
FORMAT
 62
     0
100
AcDbLine
 10
0.0
 20
-5.0
 30
0.0
 11
0.0
 21
-24.9963042727
 31
0.0
  0
LINE
  5
1D8
330
1CE
100
AcDbEntity
  8
FORMAT
 62
     0
100
AcDbLine
 10
5.0
 20
0.0
 30
0.0
 11
10.75
 21
0.0
 31
0.0
  0
ENDBLK
  5
1D0
330
1CE
100
AcDbEntity
  8
0
100
AcDbBlockEnd
  0
BLOCK
  5
263
330
262
100
AcDbEntity
  8
0
100
AcDbBlockBegin
  2
SW_CENTERMARKSYMBOL_1
 70
     0
 10
0.0
 20
0.0
 30
0.0
  3
SW_CENTERMARKSYMBOL_1
  1

  0
LINE
  5
265
330
262
100
AcDbEntity
  8
FORMAT
 62
     0
100
AcDbLine
 10
0.0
 20
0.0
 30
0.0
 11
0.0
 21
2.5
 31
0.0
  0
LINE
  5
266
330
262
100
AcDbEntity
  8
FORMAT
 62
     0
100
AcDbLine
 10
0.0
 20
0.0
 30
0.0
 11
-2.5
 21
0.0
 31
0.0
  0
LINE
  5
267
330
262
100
AcDbEntity
  8
FORMAT
 62
     0
100
AcDbLine
 10
0.0
 20
0.0
 30
0.0
 11
0.0
 21
-2.5
 31
0.0
  0
LINE
  5
268
330
262
100
AcDbEntity
  8
FORMAT
 62
     0
100
AcDbLine
 10
0.0
 20
0.0
 30
0.0
 11
2.5
 21
0.0
 31
0.0
  0
LINE
  5
269
330
262
100
AcDbEntity
  8
FORMAT
 62
     0
100
AcDbLine
 10
0.0
 20
5.0
 30
0.0
 11
0.0
 21
9.95
 31
0.0
  0
LINE
  5
26A
330
262
100
AcDbEntity
  8
FORMAT
 62
     0
100
AcDbLine
 10
-5.0
 20
0.0
 30
0.0
 11
-26.9447356972
 21
0.0
 31
0.0
  0
LINE
  5
26B
330
262
100
AcDbEntity
  8
FORMAT
 62
     0
100
AcDbLine
 10
0.0
 20
-5.0
 30
0.0
 11
0.0
 21
-9.95
 31
0.0
  0
LINE
  5
26C
330
262
100
AcDbEntity
  8
FORMAT
 62
     0
100
AcDbLine
 10
5.0
 20
0.0
 30
0.0
 11
41.7991164698
 21
0.0
 31
0.0
  0
ENDBLK
  5
264
330
262
100
AcDbEntity
  8
0
100
AcDbBlockEnd
  0
ENDSEC
  0
SECTION
  2
ENTITIES
  0
MTEXT
  5
65
330
1F
100
AcDbEntity
  8
FORMAT
100
AcDbMText
 10
240.0846161874
 20
166.7393843441
 30
0.0
 40
5.2916666667
 41
0.0
 71
     1
 72
     1
  1
エースボール　アングル型
  7
SLDTEXTSTYLE0
 73
     1
 44
1.0
  0
MTEXT
  5
66
330
1F
100
AcDbEntity
  8
FORMAT
100
AcDbMText
 10
240.0846161874
 20
157.683828546
 30
0.0
 40
5.2916666667
 41
0.0
 71
     1
 72
     1
  1
BM-3011
  7
SLDTEXTSTYLE0
 73
     1
 44
1.0
  0
LINE
  5
67
330
1F
100
AcDbEntity
  8
0
  6
Continuous
 62
     7
370
    25
100
AcDbLine
 10
192.0670096393
 20
142.4273855716
 30
0.0
 11
190.1170096392
 21
134.4273855716
 31
0.0
  0
LINE
  5
68
330
1F
100
AcDbEntity
  8
0
  6
Continuous
 62
     7
370
    25
100
AcDbLine
 10
190.1170096392
 20
134.4273855716
 30
0.0
 11
190.5670096392
 21
126.4273855716
 31
0.0
  0
LINE
  5
69
330
1F
100
AcDbEntity
  8
0
  6
Continuous
 62
     7
370
    25
100
AcDbLine
 10
204.5670096392
 20
126.4273855716
 30
0.0
 11
204.637666265
 21
127.683503363
 31
0.0
  0
LINE
  5
6A
330
1F
100
AcDbEntity
  8
0
  6
Continuous
 62
     7
370
    25
100
AcDbLine
 10
203.3202411738
 20
141.3884869685
 30
0.0
 11
203.0670096392
 21
142.4273855716
 31
0.0
  0
LINE
  5
6B
330
1F
100
AcDbEntity
  8
0
  6
Continuous
 62
     7
370
    25
100
AcDbLine
 10
183.2670096392
 20
123.9273855716
 30
0.0
 11
183.0670096392
 21
123.7273855716
 31
0.0
  0
LINE
  5
6C
330
1F
100
AcDbEntity
  8
0
  6
Continuous
 62
     7
370
    25
100
AcDbLine
 10
183.0670096392
 20
108.1273855716
 30
0.0
 11
183.2670096392
 21
107.9273855716
 31
0.0
  0
LINE
  5
6D
330
1F
100
AcDbEntity
  8
0
  6
Continuous
 62
     7
370
    25
100
AcDbLine
 10
186.0670096392
 20
123.9273855716
 30
0.0
 11
183.2670096392
 21
123.9273855716
 31
0.0
  0
LINE
  5
6E
330
1F
100
AcDbEntity
  8
0
  6
Continuous
 62
     7
370
    25
100
AcDbLine
 10
183.2670096392
 20
107.9273855716
 30
0.0
 11
186.0670096392
 21
107.9273855716
 31
0.0
  0
LINE
  5
6F
330
1F
100
AcDbEntity
  8
0
  6
Continuous
 62
     7
370
    25
100
AcDbLine
 10
183.0670096392
 20
122.4273855716
 30
0.0
 11
173.5670096392
 21
122.4273855716
 31
0.0
  0
LINE
  5
70
330
1F
100
AcDbEntity
  8
0
  6
Continuous
 62
     7
370
    25
100
AcDbLine
 10
173.5670096392
 20
109.4273855716
 30
0.0
 11
183.0670096392
 21
109.4273855716
 31
0.0
  0
LINE
  5
71
330
1F
100
AcDbEntity
  8
0
  6
Continuous
 62
     7
370
    25
100
AcDbLine
 10
173.5670096392
 20
122.4273855716
 30
0.0
 11
173.0670096392
 21
121.9273855716
 31
0.0
  0
LINE
  5
72
330
1F
100
AcDbEntity
  8
0
  6
Continuous
 62
     7
370
    25
100
AcDbLine
 10
173.0670096392
 20
109.9273855716
 30
0.0
 11
173.5670096392
 21
109.4273855716
 31
0.0
  0
LINE
  5
73
330
1F
100
AcDbEntity
  8
0
  6
Continuous
 62
     7
370
    25
100
AcDbLine
 10
208.7081408921
 20
106.1897812646
 30
0.0
 11
209.5670096392
 21
107.6773855716
 31
0.0
  0
LINE
  5
74
330
1F
100
AcDbEntity
  8
0
  6
Continuous
 62
     7
370
    25
100
AcDbLine
 10
209.5670096392
 20
124.1773855716
 30
0.0
 11
208.7081408921
 21
125.6649898787
 31
0.0
  0
SPLINE
  5
75
330
1F
100
AcDbEntity
  8
0
  6
Continuous
 62
     7
370
    25
100
AcDbSpline
210
0.0
220
0.0
230
1.0
 70
     8
 71
     3
 72
    12
 73
     8
 74
     0
 42
0.00000001
 43
0.00000001
 40
0.0
 40
0.0
 40
0.0
 40
0.0
 40
0.1416502718078636
 40
0.410148443176133
 40
0.6849551678215252
 40
0.9880758897867753
 40
1.0
 40
1.0
 40
1.0
 40
1.0
 10
191.6760038689805
 20
125.4268676865484
 30
0.0
 10
191.6772768868908
 20
125.3897416632857
 30
0.0
 10
191.6809629109793
 20
125.2822432416578
 30
0.0
 10
191.6405777484864
 20
125.1043941370036
 30
0.0
 10
191.5496145669683
 20
124.9030751811312
 30
0.0
 10
191.4635506128591
 20
124.7695748890163
 30
0.0
 10
191.4003541379307
 20
124.716528912517
 30
0.0
 10
191.397962218892
 20
124.7145211789961
 30
0.0
  0
SPLINE
  5
76
330
1F
100
AcDbEntity
  8
0
  6
Continuous
 62
     7
370
    25
100
AcDbSpline
210
0.0
220
0.0
230
1.0
 70
     8
 71
     3
 72
    12
 73
     8
 74
     0
 42
0.00000001
 43
0.00000001
 40
0.0
 40
0.0
 40
0.0
 40
0.0
 40
0.0564472107007642
 40
0.3691559239176489
 40
0.6511442450583304
 40
0.9084739450499897
 40
1.0
 40
1.0
 40
1.0
 40
1.0
 10
203.7514358083634
 20
124.732740361161
 30
0.0
 10
203.7406083293373
 20
124.7422381214506
 30
0.0
 10
203.6697983110221
 20
124.8043519873321
 30
0.0
 10
203.5801582080226
 20
124.9489617864112
 30
0.0
 10
203.4989843982951
 20
125.1499156258077
 30
0.0
 10
203.4660190407061
 20
125.3098837731178
 30
0.0
 10
203.4693532993857
 20
125.3988455257682
 30
0.0
 10
203.4702280779691
 20
125.4221855972625
 30
0.0
  0
LINE
  5
77
330
1F
100
AcDbEntity
  8
0
  6
Continuous
 62
     7
370
    25
100
AcDbLine
 10
203.4670096392
 20
125.4228547516
 30
0.0
 11
203.4670096392
 21
126.4273855716
 31
0.0
  0
LINE
  5
78
330
1F
100
AcDbEntity
  8
0
  6
Continuous
 62
     7
370
    25
100
AcDbLine
 10
191.6670096392
 20
126.4273855716
 30
0.0
 11
191.6670096392
 21
125.4273855716
 31
0.0
  0
LINE
  5
79
330
1F
100
AcDbEntity
  8
0
  6
Continuous
 62
     7
370
    25
100
AcDbLine
 10
192.4676971392
 20
103.9273855716
 30
0.0
 11
192.7847300124
 21
93.7823336311
 31
0.0
  0
LINE
  5
7A
330
1F
100
AcDbEntity
  8
0
  6
Continuous
 62
     7
370
    25
100
AcDbLine
 10
202.3492892661
 20
93.7823336311
 30
0.0
 11
202.6663221392
 21
103.9273855716
 31
0.0
  0
LINE
  5
7B
330
1F
100
AcDbEntity
  8
0
  6
Continuous
 62
     7
370
    25
100
AcDbLine
 10
192.7847300124
 20
93.7823336311
 30
0.0
 11
193.5670096392
 21
92.4273855716
 31
0.0
  0
LINE
  5
7C
330
1F
100
AcDbEntity
  8
0
  6
Continuous
 62
     7
370
    25
100
AcDbLine
 10
201.5670096392
 20
92.4273855716
 30
0.0
 11
202.3492892661
 21
93.7823336311
 31
0.0
  0
LINE
  5
7D
330
1F
100
AcDbEntity
  8
0
  6
Continuous
 62
     7
370
    25
100
AcDbLine
 10
191.3968427319
 20
124.7221233009
 30
0.0
 11
190.8524784594
 21
125.6649898787
 31
0.0
  0
LINE
  5
7E
330
1F
100
AcDbEntity
  8
0
  6
Continuous
 62
     7
370
    25
100
AcDbLine
 10
206.0670096392
 20
103.9273855716
 30
0.0
 11
207.3046139463
 21
104.6419167515
 31
0.0
  0
LINE
  5
7F
330
1F
100
AcDbEntity
  8
0
  6
Continuous
 62
     7
370
    25
100
AcDbLine
 10
186.7815408191
 20
125.6649898787
 30
0.0
 11
186.0670096392
 21
124.4273855716
 31
0.0
  0
LINE
  5
80
330
1F
100
AcDbEntity
  8
0
  6
Continuous
 62
     7
370
    25
100
AcDbLine
 10
204.2815408191
 20
125.6649898787
 30
0.0
 11
203.7371765466
 21
124.7221233009
 31
0.0
  0
LINE
  5
81
330
1F
100
AcDbEntity
  8
0
  6
Continuous
 62
     7
370
    25
100
AcDbLine
 10
187.8294053322
 20
104.6419167515
 30
0.0
 11
189.0670096392
 21
103.9273855716
 31
0.0
  0
LINE
  5
82
330
1F
100
AcDbEntity
  8
0
  6
Continuous
 62
     7
370
    25
100
AcDbLine
 10
186.0670096392
 20
107.4273855716
 30
0.0
 11
186.7815408191
 21
106.1897812646
 31
0.0
  0
LINE
  5
83
330
1F
100
AcDbEntity
  8
0
  6
Continuous
 62
     7
370
    25
100
AcDbLine
 10
207.3046139463
 20
104.6393563701
 30
0.0
 11
207.3046139463
 21
106.1897812646
 31
0.0
  0
LINE
  5
84
330
1F
100
AcDbEntity
  8
0
  6
Continuous
 62
     7
370
    25
100
AcDbLine
 10
207.3046139463
 20
106.1897812646
 30
0.0
 11
208.7107089476
 21
106.1897812646
 31
0.0
  0
LINE
  5
85
330
1F
100
AcDbEntity
  8
0
  6
Continuous
 62
     7
370
    25
100
AcDbLine
 10
190.8550465149
 20
125.6649898787
 30
0.0
 11
186.7789804377
 21
125.6649898787
 31
0.0
  0
LINE
  5
86
330
1F
100
AcDbEntity
  8
0
  6
Continuous
 62
     7
370
    25
100
AcDbLine
 10
208.7107089476
 20
125.6649898787
 30
0.0
 11
204.2789727636
 21
125.6649898787
 31
0.0
  0
LINE
  5
87
330
1F
100
AcDbEntity
  8
0
  6
Continuous
 62
     7
370
    25
100
AcDbLine
 10
187.8294053322
 20
106.1897812646
 30
0.0
 11
187.8294053322
 21
104.6393563701
 31
0.0
  0
LINE
  5
88
330
1F
100
AcDbEntity
  8
0
  6
Continuous
 62
     7
370
    25
100
AcDbLine
 10
186.7789804377
 20
106.1897812646
 30
0.0
 11
187.8294053322
 21
106.1897812646
 31
0.0
  0
LINE
  5
89
330
1F
100
AcDbEntity
  8
0
  6
Continuous
 62
     7
370
    25
100
AcDbLine
 10
202.8060949719
 20
142.4273855716
 30
0.0
 11
202.8060949719
 21
143.0273855716
 31
0.0
  0
LINE
  5
8A
330
1F
100
AcDbEntity
  8
0
  6
Continuous
 62
     7
370
    25
100
AcDbLine
 10
192.3279243066
 20
143.0273855716
 30
0.0
 11
192.3279243066
 21
142.4273855716
 31
0.0
  0
LINE
  5
8B
330
1F
100
AcDbEntity
  8
0
  6
Continuous
 62
     7
370
    25
100
AcDbLine
 10
202.8060949719
 20
143.0273855716
 30
0.0
 11
192.3279243066
 21
143.0273855716
 31
0.0
  0
LINE
  5
8C
330
1F
100
AcDbEntity
  8
0
  6
Continuous
 62
     7
370
    25
100
AcDbLine
 10
192.3279243066
 20
142.4273855716
 30
0.0
 11
202.8060949719
 21
142.4273855716
 31
0.0
  0
SPLINE
  5
8D
330
1F
100
AcDbEntity
  8
0
  6
Continuous
 62
     7
370
    25
100
AcDbSpline
210
0.0
220
0.0
230
1.0
 70
     8
 71
     3
 72
    15
 73
    11
 74
     0
 42
0.00000001
 43
0.00000001
 40
0.0
 40
0.0
 40
0.0
 40
0.0
 40
0.0090459071881971
 40
0.1032433785236816
 40
0.1542564497735189
 40
0.31331690267151
 40
0.5243720399414428
 40
0.6678060008509183
 40
0.9918332554187028
 40
1.0
 40
1.0
 40
1.0
 40
1.0
 10
202.8060949719025
 20
143.0273855716357
 30
0.0
 10
202.8060892799359
 20
143.0290666702201
 30
0.0
 10
202.806024315985
 20
143.0482535017756
 30
0.0
 10
202.8040286295492
 20
143.0769477812956
 30
0.0
 10
202.7962116333327
 20
143.1276238212675
 30
0.0
 10
202.7790418095777
 20
143.1855001208444
 30
0.0
 10
202.7524579130102
 20
143.2303656355791
 30
0.0
 10
202.7146286145216
 20
143.2677280188337
 30
0.0
 10
202.6863478345113
 20
143.2772740311031
 30
0.0
 10
202.6665166869801
 20
143.2773828952899
 30
0.0
 10
202.6660291528372
 20
143.2773855716357
 30
0.0
  0
SPLINE
  5
8E
330
1F
100
AcDbEntity
  8
0
  6
Continuous
 62
     7
370
    25
100
AcDbSpline
210
0.0
220
0.0
230
1.0
 70
     8
 71
     3
 72
    15
 73
    11
 74
     0
 42
0.00000001
 43
0.00000001
 40
0.0
 40
0.0
 40
0.0
 40
0.0
 40
0.0081667445812973
 40
0.3321939991490804
 40
0.475627960058556
 40
0.6866830973284891
 40
0.8457435502264751
 40
0.8967566214763124
 40
0.9909540928118028
 40
1.0
 40
1.0
 40
1.0
 40
1.0
 10
192.4679901256516
 20
143.2773855716357
 30
0.0
 10
192.4675025915087
 20
143.2773828952899
 30
0.0
 10
192.4476714439775
 20
143.2772740311031
 30
0.0
 10
192.4193906639672
 20
143.2677280188337
 30
0.0
 10
192.3815613654786
 20
143.2303656355791
 30
0.0
 10
192.354977468911
 20
143.1855001208444
 30
0.0
 10
192.3378076451561
 20
143.1276238212675
 30
0.0
 10
192.3299906489396
 20
143.0769477812956
 30
0.0
 10
192.3279949625037
 20
143.0482535017756
 30
0.0
 10
192.327929998553
 20
143.0290666702201
 30
0.0
 10
192.3279243065863
 20
143.0273855716357
 30
0.0
  0
LINE
  5
8F
330
1F
100
AcDbEntity
  8
0
  6
Continuous
 62
     7
370
    25
100
AcDbLine
 10
192.4679901257
 20
143.2773855716
 30
0.0
 11
202.6660291528
 21
143.2773855716
 31
0.0
  0
SPLINE
  5
90
330
1F
100
AcDbEntity
  8
0
  6
Continuous
 62
     7
370
    25
100
AcDbSpline
210
0.0
220
0.0
230
1.0
 70
     8
 71
     3
 72
    15
 73
    11
 74
     0
 42
0.00000001
 43
0.00000001
 40
0.0
 40
0.0
 40
0.0
 40
0.0
 40
0.0080847466189582
 40
0.3310106400648243
 40
0.4750333064304948
 40
0.6874363079215142
 40
0.8468367539418303
 40
0.9000996640391847
 40
0.9910442771984082
 40
1.0
 40
1.0
 40
1.0
 40
1.0
 10
202.6660291528372
 20
143.2773855716357
 30
0.0
 10
202.6673089843813
 20
143.277382895226
 30
0.0
 10
202.7197086301045
 20
143.2772733160243
 30
0.0
 10
202.7950637215596
 20
143.2675941611867
 30
0.0
 10
202.8969828335773
 20
143.2303123377249
 30
0.0
 10
202.9693737785692
 20
143.1856044645415
 30
0.0
 10
203.0170792068341
 20
143.1274688144088
 30
0.0
 10
203.0386146905414
 20
143.0765817409405
 30
0.0
 10
203.0440437065609
 20
143.047819511833
 30
0.0
 10
203.0442194587175
 20
143.0290666972086
 30
0.0
 10
203.0442352142961
 20
143.0273855716357
 30
0.0
  0
LINE
  5
91
330
1F
100
AcDbEntity
  8
0
  6
Continuous
 62
     7
370
    25
100
AcDbLine
 10
202.8060949719
 20
143.0273855716
 30
0.0
 11
203.0442352143
 21
143.0273855716
 31
0.0
  0
SPLINE
  5
92
330
1F
100
AcDbEntity
  8
0
  6
Continuous
 62
     7
370
    25
100
AcDbSpline
210
0.0
220
0.0
230
1.0
 70
     8
 71
     3
 72
    15
 73
    11
 74
     0
 42
0.00000001
 43
0.00000001
 40
0.0
 40
0.0
 40
0.0
 40
0.0
 40
0.0089557228015919
 40
0.0999003359608209
 40
0.1531632460581751
 40
0.3125636920784904
 40
0.5249666935695061
 40
0.6689893599351777
 40
0.991915253381045
 40
1.0
 40
1.0
 40
1.0
 40
1.0
 10
192.0897840641927
 20
143.0273855716357
 30
0.0
 10
192.0897998197713
 20
143.0290666972086
 30
0.0
 10
192.0899755719279
 20
143.047819511833
 30
0.0
 10
192.0954045879474
 20
143.0765817409405
 30
0.0
 10
192.1169400716547
 20
143.1274688144088
 30
0.0
 10
192.1646454999196
 20
143.1856044645415
 30
0.0
 10
192.2370364449115
 20
143.2303123377249
 30
0.0
 10
192.3389555569291
 20
143.2675941611867
 30
0.0
 10
192.4143106483842
 20
143.2772733160243
 30
0.0
 10
192.4667102941075
 20
143.277382895226
 30
0.0
 10
192.4679901256516
 20
143.2773855716357
 30
0.0
  0
LINE
  5
93
330
1F
100
AcDbEntity
  8
0
  6
Continuous
 62
     7
370
    25
100
AcDbLine
 10
192.0897840642
 20
143.0273855716
 30
0.0
 11
192.3279243066
 21
143.0273855716
 31
0.0
  0
LINE
  5
94
330
1F
100
AcDbEntity
  8
0
  6
Continuous
 62
     7
370
    25
100
AcDbLine
 10
192.0897840642
 20
142.4273855716
 30
0.0
 11
192.0897840642
 21
143.0273855716
 31
0.0
  0
LINE
  5
95
330
1F
100
AcDbEntity
  8
0
  6
Continuous
 62
     7
370
    25
100
AcDbLine
 10
192.3279243066
 20
142.4273855716
 30
0.0
 11
192.0897840642
 21
142.4273855716
 31
0.0
  0
LINE
  5
96
330
1F
100
AcDbEntity
  8
0
  6
Continuous
 62
     7
370
    25
100
AcDbLine
 10
203.0442352143
 20
143.0273855716
 30
0.0
 11
203.0442352143
 21
142.4273855716
 31
0.0
  0
LINE
  5
97
330
1F
100
AcDbEntity
  8
0
  6
Continuous
 62
     7
370
    25
100
AcDbLine
 10
203.0442352143
 20
142.4273855716
 30
0.0
 11
202.8060949719
 21
142.4273855716
 31
0.0
  0
LINE
  5
98
330
1F
100
AcDbEntity
  8
0
  6
Continuous
 62
     7
370
    25
100
AcDbLine
 10
203.3170096392
 20
142.4273855716
 30
0.0
 11
203.3170096392
 21
143.0273855716
 31
0.0
  0
LINE
  5
99
330
1F
100
AcDbEntity
  8
0
  6
Continuous
 62
     7
370
    25
100
AcDbLine
 10
203.3170096392
 20
143.0273855716
 30
0.0
 11
203.5670096392
 21
143.0273855716
 31
0.0
  0
LINE
  5
9A
330
1F
100
AcDbEntity
  8
0
  6
Continuous
 62
     7
370
    25
100
AcDbLine
 10
203.5670096392
 20
143.0273855716
 30
0.0
 11
203.5670096392
 21
142.4273855716
 31
0.0
  0
LINE
  5
9B
330
1F
100
AcDbEntity
  8
0
  6
Continuous
 62
     7
370
    25
100
AcDbLine
 10
203.5670096392
 20
142.4273855716
 30
0.0
 11
203.3170096392
 21
142.4273855716
 31
0.0
  0
ARC
  5
9C
330
1F
100
AcDbEntity
  8
0
  6
Continuous
 62
     7
370
    25
100
AcDbCircle
 10
191.8170096392
 20
143.0273855716
 30
0.0
 40
0.25
100
AcDbArc
 50
90.0
 51
180.0
  0
LINE
  5
9D
330
1F
100
AcDbEntity
  8
0
  6
Continuous
 62
     7
370
    25
100
AcDbLine
 10
191.8170096392
 20
143.2773855716
 30
0.0
 11
191.8170096392
 21
143.0273855716
 31
0.0
  0
LINE
  5
9E
330
1F
100
AcDbEntity
  8
0
  6
Continuous
 62
     7
370
    25
100
AcDbLine
 10
191.5670096392
 20
143.0273855716
 30
0.0
 11
191.8170096392
 21
143.0273855716
 31
0.0
  0
LINE
  5
9F
330
1F
100
AcDbEntity
  8
0
  6
Continuous
 62
     7
370
    25
100
AcDbLine
 10
203.3170096392
 20
143.0273855716
 30
0.0
 11
203.3170096392
 21
143.2773855716
 31
0.0
  0
ARC
  5
A0
330
1F
100
AcDbEntity
  8
0
  6
Continuous
 62
     7
370
    25
100
AcDbCircle
 10
203.3170096392
 20
143.0273855716
 30
0.0
 40
0.25
100
AcDbArc
 50
0.0
 51
90.0
  0
LINE
  5
A1
330
1F
100
AcDbEntity
  8
0
  6
Continuous
 62
     7
370
    25
100
AcDbLine
 10
203.3170096392
 20
143.0273855716
 30
0.0
 11
203.0442352143
 21
143.0273855716
 31
0.0
  0
LINE
  5
A2
330
1F
100
AcDbEntity
  8
0
  6
Continuous
 62
     7
370
    25
100
AcDbLine
 10
202.6660291528
 20
143.2773855716
 30
0.0
 11
203.3170096392
 21
143.2773855716
 31
0.0
  0
LINE
  5
A3
330
1F
100
AcDbEntity
  8
0
  6
Continuous
 62
     7
370
    25
100
AcDbLine
 10
191.5670096392
 20
142.4273855716
 30
0.0
 11
191.5670096392
 21
143.0273855716
 31
0.0
  0
LINE
  5
A4
330
1F
100
AcDbEntity
  8
0
  6
Continuous
 62
     7
370
    25
100
AcDbLine
 10
191.8170096392
 20
143.0273855716
 30
0.0
 11
191.8170096392
 21
142.4273855716
 31
0.0
  0
LINE
  5
A5
330
1F
100
AcDbEntity
  8
0
  6
Continuous
 62
     7
370
    25
100
AcDbLine
 10
191.8170096392
 20
142.4273855716
 30
0.0
 11
191.5670096392
 21
142.4273855716
 31
0.0
  0
LINE
  5
A6
330
1F
100
AcDbEntity
  8
0
  6
Continuous
 62
     7
370
    25
100
AcDbLine
 10
192.0897840642
 20
143.0273855716
 30
0.0
 11
191.8170096392
 21
143.0273855716
 31
0.0
  0
LINE
  5
A7
330
1F
100
AcDbEntity
  8
0
  6
Continuous
 62
     7
370
    25
100
AcDbLine
 10
191.8170096392
 20
142.4273855716
 30
0.0
 11
192.0897840642
 21
142.4273855716
 31
0.0
  0
LINE
  5
A8
330
1F
100
AcDbEntity
  8
0
  6
Continuous
 62
     7
370
    25
100
AcDbLine
 10
191.8170096392
 20
143.2773855716
 30
0.0
 11
192.4679901257
 21
143.2773855716
 31
0.0
  0
LINE
  5
A9
330
1F
100
AcDbEntity
  8
0
  6
Continuous
 62
     7
370
    25
100
AcDbLine
 10
203.0442352143
 20
142.4273855716
 30
0.0
 11
203.3170096392
 21
142.4273855716
 31
0.0
  0
LINE
  5
AA
330
1F
100
AcDbEntity
  8
0
  6
Continuous
 62
     7
370
    25
100
AcDbLine
 10
192.5670096392
 20
143.2773855716
 30
0.0
 11
192.5670096392
 21
143.2873855716
 31
0.0
  0
LINE
  5
AB
330
1F
100
AcDbEntity
  8
0
  6
Continuous
 62
     7
370
    25
100
AcDbLine
 10
192.5670096392
 20
143.2873855716
 30
0.0
 11
202.5670096392
 21
143.2873855716
 31
0.0
  0
LINE
  5
AC
330
1F
100
AcDbEntity
  8
0
  6
Continuous
 62
     7
370
    25
100
AcDbLine
 10
202.5670096392
 20
143.2773855716
 30
0.0
 11
202.5670096392
 21
143.2873855716
 31
0.0
  0
LINE
  5
AD
330
1F
100
AcDbEntity
  8
0
  6
Continuous
 62
     7
370
    25
100
AcDbLine
 10
190.1170096392
 20
134.4273855716
 30
0.0
 11
202.0415565233
 21
134.4273855716
 31
0.0
  0
LINE
  5
AE
330
1F
100
AcDbEntity
  8
0
  6
Continuous
 62
     7
370
    25
100
AcDbLine
 10
202.7908118136
 20
142.4273855716
 30
0.0
 11
192.3279243066
 21
142.4273855716
 31
0.0
  0
LINE
  5
AF
330
1F
100
AcDbEntity
  8
0
  6
Continuous
 62
     7
370
    25
100
AcDbLine
 10
204.5189504776
 20
135.4221291496
 30
0.0
 11
202.7908118136
 21
142.4273855716
 31
0.0
  0
SPLINE
  5
B0
330
1F
100
AcDbEntity
  8
0
  6
Continuous
 62
     7
370
    25
100
AcDbSpline
210
0.0
220
0.0
230
1.0
 70
     8
 71
     3
 72
     9
 73
     5
 74
     0
 42
0.00000001
 43
0.00000001
 40
0.0
 40
0.0
 40
0.0
 40
0.0
 40
0.4983247250277991
 40
1.0
 40
1.0
 40
1.0
 40
1.0
 10
202.0415565233265
 20
134.4273855716333
 30
0.0
 10
201.9254462268474
 20
134.6011776854924
 30
0.0
 10
201.6924449514789
 20
134.9499304266882
 30
0.0
 10
201.4186845781372
 20
135.2643783841024
 30
0.0
 10
201.2813457675645
 20
135.4221291496026
 30
0.0
  0
LINE
  5
B1
330
1F
100
AcDbEntity
  8
0
  6
Continuous
 62
     7
370
    25
100
AcDbLine
 10
199.5670096392
 20
126.4273855716
 30
0.0
 11
199.5670097338
 21
126.4652024496
 31
0.0
  0
LINE
  5
B2
330
1F
100
AcDbEntity
  8
0
  6
Continuous
 62
     7
370
    25
100
AcDbLine
 10
190.5670096392
 20
126.4273855716
 30
0.0
 11
199.5670096392
 21
126.4273855716
 31
0.0
  0
SPLINE
  5
B3
330
1F
100
AcDbEntity
  8
0
  6
Continuous
 62
     7
370
    25
100
AcDbSpline
210
0.0
220
0.0
230
1.0
 70
     8
 71
     3
 72
    16
 73
    12
 74
     0
 42
0.00000001
 43
0.00000001
 40
0.0
 40
0.0
 40
0.0
 40
0.0
 40
0.0155634360124117
 40
0.0359329243097674
 40
0.0739120889290614
 40
0.1570057548437684
 40
0.2406581385754913
 40
0.4592958294318596
 40
0.6783839187935417
 40
0.8974954344294845
 40
1.0
 40
1.0
 40
1.0
 40
1.0
 10
199.7229548896715
 20
126.4273855716358
 30
0.0
 10
199.7653468789402
 20
126.432578943415
 30
0.0
 10
199.8632216760297
 20
126.4445694212827
 30
0.0
 10
200.0367003470425
 20
126.5628953452797
 30
0.0
 10
200.2850340260452
 20
126.8741466527286
 30
0.0
 10
200.5394985680911
 20
127.3997941540937
 30
0.0
 10
200.8831779797823
 20
128.4383403183639
 30
0.0
 10
201.2643979990489
 20
129.87341436071
 30
0.0
 10
201.6144996550486
 20
131.7116664621494
 30
0.0
 10
201.8582915041368
 20
133.2328493109688
 30
0.0
 10
201.9972636992939
 20
134.1386813517653
 30
0.0
 10
202.0415565233265
 20
134.4273855716333
 30
0.0
  0
SPLINE
  5
B4
330
1F
100
AcDbEntity
  8
0
  6
Continuous
 62
     7
370
    25
100
AcDbSpline
210
0.0
220
0.0
230
1.0
 70
     8
 71
     3
 72
     9
 73
     5
 74
     0
 42
0.00000001
 43
0.00000001
 40
0.0
 40
0.0
 40
0.0
 40
0.0
 40
0.5124861829376838
 40
0.9999999999999999
 40
0.9999999999999999
 40
0.9999999999999999
 40
0.9999999999999999
 10
199.5670097337758
 20
126.4652024495759
 30
0.0
 10
199.5926522379476
 20
126.4541745366247
 30
0.0
 10
199.6426877413925
 20
126.4326560775553
 30
0.0
 10
199.696648348251
 20
126.4291129132102
 30
0.0
 10
199.7229548896715
 20
126.4273855716358
 30
0.0
  0
LINE
  5
B5
330
1F
100
AcDbEntity
  8
0
  6
Continuous
 62
     7
370
    25
100
AcDbLine
 10
201.2813457676
 20
135.4221291496
 30
0.0
 11
219.7424465008
 21
135.4221291496
 31
0.0
  0
LINE
  5
B6
330
1F
100
AcDbEntity
  8
0
  6
Continuous
 62
     7
370
    25
100
AcDbLine
 10
219.7424465008
 20
135.4221291496
 30
0.0
 11
219.7424465008
 21
132.1795612646
 31
0.0
  0
SPLINE
  5
B7
330
1F
100
AcDbEntity
  8
0
  6
Continuous
 62
     7
370
    25
100
AcDbSpline
210
0.0
220
0.0
230
1.0
 70
     8
 71
     3
 72
    11
 73
     7
 74
     0
 42
0.00000001
 43
0.00000001
 40
0.0
 40
0.0
 40
0.0
 40
0.0
 40
0.2488607147078904
 40
0.4977191536447657
 40
0.7488602698858827
 40
0.9999999999999999
 40
0.9999999999999999
 40
0.9999999999999999
 40
0.9999999999999999
 10
212.6720528785373
 20
130.8563607636257
 30
0.0
 10
213.24864583742
 20
131.0058397005139
 30
0.0
 10
214.4018264823824
 20
131.3047962073414
 30
0.0
 10
216.162740804313
 20
131.6666001808001
 30
0.0
 10
217.942719517892
 20
131.9688748240396
 30
0.0
 10
219.1425386101844
 20
132.1093325802928
 30
0.0
 10
219.7424465007811
 20
132.1795612646112
 30
0.0
  0
LINE
  5
B8
330
1F
100
AcDbEntity
  8
0
  6
Continuous
 62
     7
370
    25
100
AcDbLine
 10
212.6720528785
 20
130.8563607636
 30
0.0
 11
206.8922960287
 21
129.2877393231
 31
0.0
  0
SPLINE
  5
B9
330
1F
100
AcDbEntity
  8
0
  6
Continuous
 62
     7
370
    25
100
AcDbSpline
210
0.0
220
0.0
230
1.0
 70
     8
 71
     3
 72
    13
 73
     9
 74
     0
 42
0.00000001
 43
0.00000001
 40
0.0
 40
0.0
 40
0.0
 40
0.0
 40
0.1610294006389558
 40
0.3266880383557516
 40
0.4877296220820637
 40
0.6535536198224136
 40
0.8237602734841889
 40
1.0
 40
1.0
 40
1.0
 40
1.0
 10
206.8922960286821
 20
129.2877393231429
 30
0.0
 10
206.6784259746509
 20
129.2183424285656
 30
0.0
 10
206.2445375782636
 20
129.0775536330571
 30
0.0
 10
205.6532168295979
 20
128.7314288153494
 30
0.0
 10
205.1192854807472
 20
128.2922221722974
 30
0.0
 10
204.6656015089441
 20
127.7586203353578
 30
0.0
 10
204.2911477959586
 20
127.1347940286581
 30
0.0
 10
204.1425847251999
 20
126.6659101304561
 30
0.0
 10
204.0670096392444
 20
126.4273855716357
 30
0.0
  0
LINE
  5
BA
330
1F
100
AcDbEntity
  8
0
  6
Continuous
 62
     7
370
    25
100
AcDbLine
 10
204.0670096392
 20
126.4273855716
 30
0.0
 11
199.7229548897
 21
126.4273855716
 31
0.0
  0
LINE
  5
BB
330
1F
100
AcDbEntity
  8
0
  6
Continuous
 62
     7
370
    25
100
AcDbLine
 10
199.5738089972
 20
126.4273855716
 30
0.0
 11
199.5670097338
 21
126.4652024496
 31
0.0
  0
LINE
  5
BC
330
1F
100
AcDbEntity
  8
0
  6
Continuous
 62
     7
370
    25
100
AcDbLine
 10
199.5670096392
 20
126.4273855716
 30
0.0
 11
199.5738089972
 21
126.4273855716
 31
0.0
  0
LINE
  5
BD
330
1F
100
AcDbEntity
  8
0
  6
Continuous
 62
     7
370
    25
100
AcDbLine
 10
199.7229548897
 20
126.4273855716
 30
0.0
 11
199.5738089972
 21
126.4273855716
 31
0.0
  0
LINE
  5
BE
330
1F
100
AcDbEntity
  8
0
  6
Continuous
 62
     7
370
    25
100
AcDbLine
 10
219.7424465008
 20
135.4221291496
 30
0.0
 11
219.7424465008
 21
144.4273855716
 31
0.0
  0
LINE
  5
BF
330
1F
100
AcDbEntity
  8
0
  6
Continuous
 62
     7
370
    25
100
AcDbLine
 10
219.7424465008
 20
144.4273855716
 30
0.0
 11
237.5670096392
 21
144.4273855716
 31
0.0
  0
LINE
  5
C0
330
1F
100
AcDbEntity
  8
0
  6
Continuous
 62
     7
370
    25
100
AcDbLine
 10
237.5670096392
 20
144.4273855716
 30
0.0
 11
237.5670096392
 21
137.4273855716
 31
0.0
  0
ARC
  5
C1
330
1F
100
AcDbEntity
  8
0
  6
Continuous
 62
     7
370
    25
100
AcDbCircle
 10
232.5670096392
 20
137.4273855716
 30
0.0
 40
5.0
100
AcDbArc
 50
270.0
 51
0.0
  0
LINE
  5
C2
330
1F
100
AcDbEntity
  8
0
  6
Continuous
 62
     7
370
    25
100
AcDbLine
 10
232.5670096392
 20
132.4273855716
 30
0.0
 11
224.458677497
 21
132.4273855716
 31
0.0
  0
ARC
  5
C3
330
1F
100
AcDbEntity
  8
0
  6
Continuous
 62
     7
370
    25
100
AcDbCircle
 10
224.458677497
 20
87.4272563175
 30
0.0
 40
45.00012925418373
100
AcDbArc
 50
90.0
 51
96.0159222295
  0
ARC
  5
C4
330
1F
100
AcDbEntity
  8
0
  6
Continuous
 62
     7
370
    25
100
AcDbCircle
 10
211.9559632035
 20
146.4273855716
 30
0.0
 40
10.00000000000849
100
AcDbArc
 50
203.5781784783
 51
264.4198332155
  0
ARC
  5
C5
330
1F
100
AcDbEntity
  8
0
  6
Continuous
 62
     7
370
    25
100
AcDbCircle
 10
211.5670096392
 20
142.446341095
 30
0.0
 40
6.000000000000005
100
AcDbArc
 50
264.4198332155
 51
0.0
  0
LINE
  5
C6
330
1F
100
AcDbEntity
  8
0
  6
Continuous
 62
     7
370
    25
100
AcDbLine
 10
217.5670096392
 20
144.4273855716
 30
0.0
 11
217.5670096392
 21
142.446341095
 31
0.0
  0
LINE
  5
C7
330
1F
100
AcDbEntity
  8
0
  6
Continuous
 62
     7
370
    25
100
AcDbLine
 10
217.5670096392
 20
144.4273855716
 30
0.0
 11
219.7424465008
 21
144.4273855716
 31
0.0
  0
LINE
  5
C8
330
1F
100
AcDbEntity
  8
0
  6
Continuous
 62
     7
370
    25
100
AcDbLine
 10
204.5670096392
 20
126.4273855716
 30
0.0
 11
204.0670096392
 21
126.4273855716
 31
0.0
  0
LINE
  5
C9
330
1F
100
AcDbEntity
  8
0
  6
Continuous
 62
     7
370
    25
100
AcDbLine
 10
202.7908118136
 20
142.4273855716
 30
0.0
 11
202.8060949719
 21
142.4273855716
 31
0.0
  0
LINE
  5
CA
330
1F
100
AcDbEntity
  8
0
  6
Continuous
 62
     7
370
    25
100
AcDbLine
 10
183.2670096392
 20
113.2264029386
 30
0.0
 11
183.2670096392
 21
107.9273855716
 31
0.0
  0
LINE
  5
CB
330
1F
100
AcDbEntity
  8
0
  6
Continuous
 62
     7
370
    25
100
AcDbLine
 10
183.2670096392
 20
123.9273855716
 30
0.0
 11
183.2670096392
 21
113.2264029386
 31
0.0
  0
LINE
  5
CC
330
1F
100
AcDbEntity
  8
0
  6
Continuous
 62
     7
370
    25
100
AcDbLine
 10
183.0670096392
 20
113.2939275044
 30
0.0
 11
183.0670096392
 21
123.7273855716
 31
0.0
  0
LINE
  5
CD
330
1F
100
AcDbEntity
  8
0
  6
Continuous
 62
     7
370
    25
100
AcDbLine
 10
183.0670096392
 20
108.1273855716
 30
0.0
 11
183.0670096392
 21
113.2939275044
 31
0.0
  0
LINE
  5
CE
330
1F
100
AcDbEntity
  8
0
  6
Continuous
 62
     7
370
    25
100
AcDbLine
 10
173.5670096392
 20
122.4273855716
 30
0.0
 11
173.5670096392
 21
109.4273855716
 31
0.0
  0
LINE
  5
CF
330
1F
100
AcDbEntity
  8
0
  6
Continuous
 62
     7
370
    25
100
AcDbLine
 10
173.0670096392
 20
109.9273855716
 30
0.0
 11
173.0670096392
 21
121.9273855716
 31
0.0
  0
SPLINE
  5
D0
330
1F
100
AcDbEntity
  8
0
  6
Continuous
 62
     7
370
    25
100
AcDbSpline
210
0.0
220
0.0
230
1.0
 70
     8
 71
     3
 72
    10
 73
     6
 74
     0
 42
0.00000001
 43
0.00000001
 40
0.0
 40
0.0
 40
0.0
 40
0.0
 40
0.5
 40
0.5
 40
1.0
 40
1.0
 40
1.0
 40
1.0
 10
192.9482074857274
 20
104.6051069768958
 30
0.0
 10
193.6988861852232
 20
104.3981769233631
 30
0.0
 10
194.4631671294458
 20
104.2263713129895
 30
0.0
 10
196.0177418635334
 20
103.9894208064581
 30
0.0
 10
196.7933168310496
 20
103.9273855716357
 30
0.0
 10
197.5670096392444
 20
103.9273855716357
 30
0.0
  0
LINE
  5
D1
330
1F
100
AcDbEntity
  8
0
  6
Continuous
 62
     7
370
    25
100
AcDbLine
 10
192.9482074857
 20
107.9609890318
 30
0.0
 11
192.9482074857
 21
104.6051069769
 31
0.0
  0
SPLINE
  5
D2
330
1F
100
AcDbEntity
  8
0
  6
Continuous
 62
     7
370
    25
100
AcDbSpline
210
0.0
220
0.0
230
1.0
 70
     8
 71
     3
 72
     8
 73
     4
 74
     0
 42
0.00000001
 43
0.00000001
 40
0.0
 40
0.0
 40
0.0
 40
0.0
 40
1.0
 40
1.0
 40
1.0
 40
1.0
 10
192.9482074857274
 20
107.9609890317807
 30
0.0
 10
193.1533933082707
 20
108.0175499989049
 30
0.0
 10
193.359616508978
 20
108.0714900703187
 30
0.0
 10
193.5670096392444
 20
108.1224743600617
 30
0.0
  0
LINE
  5
D3
330
1F
100
AcDbEntity
  8
0
  6
Continuous
 62
     7
370
    25
100
AcDbLine
 10
193.5670096392
 20
108.1224743601
 30
0.0
 11
193.5670096392
 21
111.9273855716
 31
0.0
  0
LINE
  5
D4
330
1F
100
AcDbEntity
  8
0
  6
Continuous
 62
     7
370
    25
100
AcDbLine
 10
193.5670096392
 20
111.9273855716
 30
0.0
 11
191.0507735623
 21
111.9273855716
 31
0.0
  0
SPLINE
  5
D5
330
1F
100
AcDbEntity
  8
0
  6
Continuous
 62
     7
370
    25
100
AcDbSpline
210
0.0
220
0.0
230
1.0
 70
     8
 71
     3
 72
     8
 73
     4
 74
     0
 42
0.00000001
 43
0.00000001
 40
0.0
 40
0.0
 40
0.0
 40
0.0
 40
1.0
 40
1.0
 40
1.0
 40
1.0
 10
190.8892882339842
 20
111.3085834181187
 30
0.0
 10
190.9458516034525
 20
111.5137779556284
 30
0.0
 10
190.9997915262737
 20
111.7200016091456
 30
0.0
 10
191.0507735622652
 20
111.9273855716357
 30
0.0
  0
LINE
  5
D6
330
1F
100
AcDbEntity
  8
0
  6
Continuous
 62
     7
370
    25
100
AcDbLine
 10
186.7447310445
 20
111.3085834181
 30
0.0
 11
190.889288234
 21
111.3085834181
 31
0.0
  0
SPLINE
  5
D7
330
1F
100
AcDbEntity
  8
0
  6
Continuous
 62
     7
370
    25
100
AcDbSpline
210
0.0
220
0.0
230
1.0
 70
     8
 71
     3
 72
    10
 73
     6
 74
     0
 42
0.00000001
 43
0.00000001
 40
0.0
 40
0.0
 40
0.0
 40
0.0
 40
0.5
 40
0.5
 40
1.0
 40
1.0
 40
1.0
 40
1.0
 10
186.7447310445046
 20
111.3085834181187
 30
0.0
 10
186.5366623682734
 20
112.063392691168
 30
0.0
 10
186.3662633622488
 20
112.8241390783999
 30
0.0
 10
186.13110338255
 20
114.3622814560231
 30
0.0
 10
186.0670096392444
 20
115.1397826085479
 30
0.0
 10
186.0670096392444
 20
115.9273855716357
 30
0.0
  0
SPLINE
  5
D8
330
1F
100
AcDbEntity
  8
0
  6
Continuous
 62
     7
370
    25
100
AcDbSpline
210
0.0
220
0.0
230
1.0
 70
     8
 71
     3
 72
    12
 73
     8
 74
     0
 42
0.00000001
 43
0.00000001
 40
0.0
 40
0.0
 40
0.0
 40
0.0
 40
0.2500000000000001
 40
0.2500000000000001
 40
0.5000000000000001
 40
0.5000000000000001
 40
1.0
 40
1.0
 40
1.0
 40
1.0
 10
186.0670096392444
 20
115.9273855716357
 30
0.0
 10
186.0670096392444
 20
116.3217036523075
 30
0.0
 10
186.0830084442255
 20
116.715362696258
 30
0.0
 10
186.1447785825399
 20
117.4948986958033
 30
0.0
 10
186.1905207068415
 20
117.8818518839287
 30
0.0
 10
186.3671908541883
 20
119.0352384467827
 30
0.0
 10
186.5374459196686
 20
119.7942209359878
 30
0.0
 10
186.7447310445046
 20
120.5461877251527
 30
0.0
  0
LINE
  5
D9
330
1F
100
AcDbEntity
  8
0
  6
Continuous
 62
     7
370
    25
100
AcDbLine
 10
190.889288234
 20
120.5461877252
 30
0.0
 11
186.7447310445
 21
120.5461877252
 31
0.0
  0
SPLINE
  5
DA
330
1F
100
AcDbEntity
  8
0
  6
Continuous
 62
     7
370
    25
100
AcDbSpline
210
0.0
220
0.0
230
1.0
 70
     8
 71
     3
 72
     8
 73
     4
 74
     0
 42
0.00000001
 43
0.00000001
 40
0.0
 40
0.0
 40
0.0
 40
0.0
 40
1.0
 40
1.0
 40
1.0
 40
1.0
 10
191.0507735622652
 20
119.9273855716357
 30
0.0
 10
190.9998748453427
 20
120.1344306100647
 30
0.0
 10
190.945940709092
 20
120.3406699397413
 30
0.0
 10
190.8892882339842
 20
120.5461877251527
 30
0.0
  0
LINE
  5
DB
330
1F
100
AcDbEntity
  8
0
  6
Continuous
 62
     7
370
    25
100
AcDbLine
 10
204.0832457162
 20
119.9273855716
 30
0.0
 11
191.0507735623
 21
119.9273855716
 31
0.0
  0
SPLINE
  5
DC
330
1F
100
AcDbEntity
  8
0
  6
Continuous
 62
     7
370
    25
100
AcDbSpline
210
0.0
220
0.0
230
1.0
 70
     8
 71
     3
 72
     8
 73
     4
 74
     0
 42
0.00000001
 43
0.00000001
 40
0.0
 40
0.0
 40
0.0
 40
0.0
 40
1.0
 40
1.0
 40
1.0
 40
1.0
 10
204.0832457162236
 20
119.9273855716358
 30
0.0
 10
204.1341419494786
 20
120.1344205070395
 30
0.0
 10
204.1880759044423
 20
120.3406602721045
 30
0.0
 10
204.2447310445046
 20
120.5461877251527
 30
0.0
  0
LINE
  5
DD
330
1F
100
AcDbEntity
  8
0
  6
Continuous
 62
     7
370
    25
100
AcDbLine
 10
208.7449506667
 20
120.5461877252
 30
0.0
 11
204.2447310445
 21
120.5461877252
 31
0.0
  0
SPLINE
  5
DE
330
1F
100
AcDbEntity
  8
0
  6
Continuous
 62
     7
370
    25
100
AcDbSpline
210
0.0
220
0.0
230
1.0
 70
     8
 71
     3
 72
    14
 73
    10
 74
     0
 42
0.00000001
 43
0.00000001
 40
0.0
 40
0.0
 40
0.0
 40
0.0
 40
0.25
 40
0.25
 40
0.5
 40
0.5
 40
0.75
 40
0.75
 40
1.0
 40
1.0
 40
1.0
 40
1.0
 10
208.7449506666868
 20
111.3085834181186
 30
0.0
 10
208.9529010273926
 20
112.0629634787686
 30
0.0
 10
209.1251228360815
 20
112.8324046462341
 30
0.0
 10
209.3597579588323
 20
114.3729160071753
 30
0.0
 10
209.42270201746
 20
115.1477703871823
 30
0.0
 10
209.4226421047286
 20
116.7081313420679
 30
0.0
 10
209.3580274384365
 20
117.4985875348529
 30
0.0
 10
209.1214680990352
 20
119.0408671976614
 30
0.0
 10
208.9511229589558
 20
119.7982579508625
 30
0.0
 10
208.7449506666868
 20
120.5461877251527
 30
0.0
  0
LINE
  5
DF
330
1F
100
AcDbEntity
  8
0
  6
Continuous
 62
     7
370
    25
100
AcDbLine
 10
204.2447310445
 20
111.3085834181
 30
0.0
 11
208.7449506667
 21
111.3085834181
 31
0.0
  0
SPLINE
  5
E0
330
1F
100
AcDbEntity
  8
0
  6
Continuous
 62
     7
370
    25
100
AcDbSpline
210
0.0
220
0.0
230
1.0
 70
     8
 71
     3
 72
     8
 73
     4
 74
     0
 42
0.00000001
 43
0.00000001
 40
0.0
 40
0.0
 40
0.0
 40
0.0
 40
1.0
 40
1.0
 40
1.0
 40
1.0
 10
204.2447310445046
 20
111.3085834181187
 30
0.0
 10
204.1881692010676
 20
111.5137724196555
 30
0.0
 10
204.1342291838113
 20
111.7199957857202
 30
0.0
 10
204.0832457162236
 20
111.9273855716356
 30
0.0
  0
LINE
  5
E1
330
1F
100
AcDbEntity
  8
0
  6
Continuous
 62
     7
370
    25
100
AcDbLine
 10
204.0832457162
 20
111.9273855716
 30
0.0
 11
201.5670096392
 21
111.9273855716
 31
0.0
  0
LINE
  5
E2
330
1F
100
AcDbEntity
  8
0
  6
Continuous
 62
     7
370
    25
100
AcDbLine
 10
201.5670096392
 20
108.1224743601
 30
0.0
 11
201.5670096392
 21
111.9273855716
 31
0.0
  0
SPLINE
  5
E3
330
1F
100
AcDbEntity
  8
0
  6
Continuous
 62
     7
370
    25
100
AcDbSpline
210
0.0
220
0.0
230
1.0
 70
     8
 71
     3
 72
     8
 73
     4
 74
     0
 42
0.00000001
 43
0.00000001
 40
0.0
 40
0.0
 40
0.0
 40
0.0
 40
1.0
 40
1.0
 40
1.0
 40
1.0
 10
201.5670096392444
 20
108.1224743600617
 30
0.0
 10
201.7740387025798
 20
108.0715795703609
 30
0.0
 10
201.9802787198491
 20
108.0176457209995
 30
0.0
 10
202.1858117927614
 20
107.9609890317807
 30
0.0
  0
LINE
  5
E4
330
1F
100
AcDbEntity
  8
0
  6
Continuous
 62
     7
370
    25
100
AcDbLine
 10
202.1858117928
 20
104.6051069769
 30
0.0
 11
202.1858117928
 21
107.9609890318
 31
0.0
  0
SPLINE
  5
E5
330
1F
100
AcDbEntity
  8
0
  6
Continuous
 62
     7
370
    25
100
AcDbSpline
210
0.0
220
0.0
230
1.0
 70
     8
 71
     3
 72
    10
 73
     6
 74
     0
 42
0.00000001
 43
0.00000001
 40
0.0
 40
0.0
 40
0.0
 40
0.0
 40
0.5
 40
0.5
 40
1.0
 40
1.0
 40
1.0
 40
1.0
 10
197.5670096392444
 20
103.9273855716357
 30
0.0
 10
198.3425895758514
 20
103.9273855716357
 30
0.0
 10
199.1162797945778
 20
103.9896699336142
 30
0.0
 10
200.6603143369107
 20
104.2245180516212
 30
0.0
 10
201.4336230130655
 20
104.3977606587524
 30
0.0
 10
202.1858117927614
 20
104.6051069768959
 30
0.0
  0
ARC
  5
E6
330
1F
100
AcDbEntity
  8
0
  6
Continuous
 62
     7
370
    25
100
AcDbCircle
 10
199.117740995
 20
115.3504665783
 30
0.0
 40
0.889000000000007
100
AcDbArc
 50
45.0
 51
315.0
  0
LINE
  5
E7
330
1F
100
AcDbEntity
  8
0
  6
Continuous
 62
     7
370
    25
100
AcDbLine
 10
199.7463589234
 20
115.9790845068
 30
0.0
 11
200.2129693091
 21
116.4456948924
 31
0.0
  0
ARC
  5
E8
330
1F
100
AcDbEntity
  8
0
  6
Continuous
 62
     7
370
    25
100
AcDbCircle
 10
199.117740995
 20
115.3504665783
 30
0.0
 40
1.548886735692394
100
AcDbArc
 50
45.0
 51
315.0
  0
LINE
  5
E9
330
1F
100
AcDbEntity
  8
0
  6
Continuous
 62
     7
370
    25
100
AcDbLine
 10
200.2129693091
 20
114.2552382642
 30
0.0
 11
199.7463589234
 21
114.7218486499
 31
0.0
  0
ARC
  5
EA
330
1F
100
AcDbEntity
  8
0
  6
Continuous
 62
     7
370
    25
100
AcDbCircle
 10
202.4598855913
 20
115.3504665783
 30
0.0
 40
0.8889999999999875
100
AcDbArc
 50
45.0
 51
159.0751675724
  0
LINE
  5
EB
330
1F
100
AcDbEntity
  8
0
  6
Continuous
 62
     7
370
    25
100
AcDbLine
 10
203.0885035198
 20
115.9790845068
 30
0.0
 11
203.5551139054
 21
116.4456948924
 31
0.0
  0
ARC
  5
EC
330
1F
100
AcDbEntity
  8
0
  6
Continuous
 62
     7
370
    25
100
AcDbCircle
 10
202.4598855913
 20
115.3504665783
 30
0.0
 40
1.548886735692384
100
AcDbArc
 50
45.0
 51
315.0
  0
LINE
  5
ED
330
1F
100
AcDbEntity
  8
0
  6
Continuous
 62
     7
370
    25
100
AcDbLine
 10
203.5551139054
 20
114.2552382642
 30
0.0
 11
203.0885035198
 21
114.7218486499
 31
0.0
  0
ARC
  5
EE
330
1F
100
AcDbEntity
  8
0
  6
Continuous
 62
     7
370
    25
100
AcDbCircle
 10
202.4598855913
 20
115.3504665783
 30
0.0
 40
0.889000000000014
100
AcDbArc
 50
200.9248324276
 51
315.0
  0
LINE
  5
EF
330
1F
100
AcDbEntity
  8
0
  6
Continuous
 62
     7
370
    25
100
AcDbLine
 10
201.6295153426
 20
115.0329665783
 30
0.0
 11
203.5551139054
 21
115.0329665783
 31
0.0
  0
LINE
  5
F0
330
1F
100
AcDbEntity
  8
0
  6
Continuous
 62
     7
370
    25
100
AcDbLine
 10
203.5551139054
 20
115.0329665783
 30
0.0
 11
203.5551139054
 21
115.6679665783
 31
0.0
  0
LINE
  5
F1
330
1F
100
AcDbEntity
  8
0
  6
Continuous
 62
     7
370
    25
100
AcDbLine
 10
203.5551139054
 20
115.6679665783
 30
0.0
 11
201.6295153426
 21
115.6679665783
 31
0.0
  0
LINE
  5
F2
330
1F
100
AcDbEntity
  8
0
  6
Continuous
 62
     7
370
    25
100
AcDbLine
 10
196.6652507253
 20
114.505012554
 30
0.0
 11
196.623600406
 21
114.4812076242
 31
0.0
  0
ELLIPSE
  5
F3
330
1F
100
AcDbEntity
  8
0
  6
Continuous
 62
     7
370
    25
100
AcDbEllipse
 10
196.2747572264
 20
115.0358900954
 30
0.0
 11
0.678412947925267
 21
6.110667527536863E-13
 31
0.0
210
0.0
220
0.0
230
1.0
 40
0.9533039403
 41
3.470145824140271
 42
5.252469180536311
  0
LINE
  5
F4
330
1F
100
AcDbEntity
  8
0
  6
Continuous
 62
     7
370
    25
100
AcDbLine
 10
195.6326324594
 20
114.8272059804
 30
0.0
 11
194.3729782545
 21
118.3496503771
 31
0.0
  0
ELLIPSE
  5
F5
330
1F
100
AcDbEntity
  8
0
  6
Continuous
 62
     7
370
    25
100
AcDbEllipse
 10
193.7819956966
 20
118.087311141
 30
0.0
 11
0.6519124952381786
 21
5.968558980384842E-13
 31
0.0
210
0.0
220
0.0
230
1.0
 40
0.9533023292
 41
0.4357905044355045
 42
2.705800116361533
  0
LINE
  5
F6
330
1F
100
AcDbEntity
  8
0
  6
Continuous
 62
     7
370
    25
100
AcDbLine
 10
193.1910136981
 20
118.3496515223
 30
0.0
 11
191.9316488964
 21
114.8280281206
 31
0.0
  0
ELLIPSE
  5
F7
330
1F
100
AcDbEntity
  8
0
  6
Continuous
 62
     7
370
    25
100
AcDbEllipse
 10
191.2895277124
 20
115.0367109543
 30
0.0
 11
-0.6784085062757583
 21
3.268496584496461E-13
 31
0.0
210
0.0
220
0.0
230
1.0
 40
0.9533122623
 41
1.047193771187932
 42
2.813042320199944
  0
LINE
  5
F8
330
1F
100
AcDbEntity
  8
0
  6
Continuous
 62
     7
370
    25
100
AcDbLine
 10
190.9503212384
 20
114.476623109
 30
0.0
 11
190.8987406679
 21
114.505012554
 31
0.0
  0
LINE
  5
F9
330
1F
100
AcDbEntity
  8
0
  6
Continuous
 62
     7
370
    25
100
AcDbLine
 10
190.8987406679
 20
114.505012554
 30
0.0
 11
191.6950093274
 21
112.9868404526
 31
0.0
  0
ELLIPSE
  5
FA
330
1F
100
AcDbEntity
  8
0
  6
Continuous
 62
     7
370
    25
100
AcDbEllipse
 10
191.7708582009
 20
113.0229939676
 30
0.0
 11
0.08480161849064416
 21
-2.842170943040401E-14
 31
0.0
210
0.0
220
0.0
230
1.0
 40
0.9533039403
 41
3.605240262590848
 42
5.462183310215358
  0
ELLIPSE
  5
FB
330
1F
100
AcDbEntity
  8
0
  6
Continuous
 62
     7
370
    25
100
AcDbEllipse
 10
193.7819956966
 20
110.964145347
 30
0.0
 11
2.866293551216216
 21
-1.477928890381008E-12
 31
0.0
210
0.0
220
0.0
230
1.0
 40
0.9533046568
 41
0.8210016221243778
 42
2.32059103146643
  0
ELLIPSE
  5
FC
330
1F
100
AcDbEntity
  8
0
  6
Continuous
 62
     7
370
    25
100
AcDbEllipse
 10
195.7931331923
 20
113.0229939676
 30
0.0
 11
0.08480161849061574
 21
0.0
 31
0.0
210
0.0
220
0.0
230
1.0
 40
0.9533039403
 41
3.962594650556491
 42
5.819537698177178
  0
LINE
  5
FD
330
1F
100
AcDbEntity
  8
0
  6
Continuous
 62
     7
370
    25
100
AcDbLine
 10
195.8689820657
 20
112.9868404526
 30
0.0
 11
196.6652507253
 21
114.505012554
 31
0.0
  0
LINE
  5
FE
330
1F
100
AcDbEntity
  8
0
  6
Continuous
 62
     7
370
    25
100
AcDbLine
 10
190.2057937071
 20
103.9273855716
 30
0.0
 11
197.5670096392
 21
103.9273855716
 31
0.0
  0
SPLINE
  5
FF
330
1F
100
AcDbEntity
  8
0
  6
Continuous
 62
     7
370
    25
100
AcDbSpline
210
0.0
220
0.0
230
1.0
 70
     8
 71
     3
 72
    10
 73
     6
 74
     0
 42
0.00000001
 43
0.00000001
 40
0.0
 40
0.0
 40
0.0
 40
0.0
 40
0.5
 40
0.5
 40
1.0
 40
1.0
 40
1.0
 40
1.0
 10
192.5151947838352
 20
104.6051069768954
 30
0.0
 10
192.1364456364439
 20
104.3962970522291
 30
0.0
 10
191.7552403600326
 20
104.2257629124819
 30
0.0
 10
190.9860097388448
 20
103.990977107463
 30
0.0
 10
190.5979420340465
 20
103.9273855716357
 30
0.0
 10
190.2057937070767
 20
103.9273855716357
 30
0.0
  0
SPLINE
  5
100
330
1F
100
AcDbEntity
  8
0
  6
Continuous
 62
     7
370
    25
100
AcDbSpline
210
0.0
220
0.0
230
1.0
 70
     8
 71
     3
 72
    10
 73
     6
 74
     0
 42
0.00000001
 43
0.00000001
 40
0.0
 40
0.0
 40
0.0
 40
0.0
 40
0.5
 40
0.5
 40
1.0
 40
1.0
 40
1.0
 40
1.0
 10
192.5151947838352
 20
104.6051069768959
 30
0.0
 10
192.5581325929344
 20
104.6287792168074
 30
0.0
 10
192.6215731828266
 20
104.6418732067427
 30
0.0
 10
192.7740623283354
 20
104.6419600742041
 30
0.0
 10
192.8622917175388
 20
104.6287902844448
 30
0.0
 10
192.9482074857274
 20
104.6051069768959
 30
0.0
  0
LINE
  5
101
330
1F
100
AcDbEntity
  8
0
  6
Continuous
 62
     7
370
    25
100
AcDbLine
 10
191.5670096392
 20
123.2886015038
 30
0.0
 11
191.5670096392
 21
119.9273855716
 31
0.0
  0
SPLINE
  5
102
330
1F
100
AcDbEntity
  8
0
  6
Continuous
 62
     7
370
    25
100
AcDbSpline
210
0.0
220
0.0
230
1.0
 70
     8
 71
     3
 72
    10
 73
     6
 74
     0
 42
0.00000001
 43
0.00000001
 40
0.0
 40
0.0
 40
0.0
 40
0.0
 40
0.5
 40
0.5
 40
1.0
 40
1.0
 40
1.0
 40
1.0
 10
190.8892882339842
 20
120.9792004270449
 30
0.0
 10
190.8656128395598
 20
120.9362568961437
 30
0.0
 10
190.8525217296752
 20
120.8728144515196
 30
0.0
 10
190.8524354083869
 20
120.7203356144006
 30
0.0
 10
190.8656043423308
 20
120.6321056122933
 30
0.0
 10
190.8892882339842
 20
120.5461877251527
 30
0.0
  0
SPLINE
  5
103
330
1F
100
AcDbEntity
  8
0
  6
Continuous
 62
     7
370
    25
100
AcDbSpline
210
0.0
220
0.0
230
1.0
 70
     8
 71
     3
 72
    12
 73
     8
 74
     0
 42
0.00000001
 43
0.00000001
 40
0.0
 40
0.0
 40
0.0
 40
0.0
 40
0.2500000000000001
 40
0.2500000000000001
 40
0.5000000000000002
 40
0.5000000000000002
 40
1.0
 40
1.0
 40
1.0
 40
1.0
 10
191.5670096392444
 20
123.2886015038034
 30
0.0
 10
191.5670096392444
 20
123.0928592409239
 30
0.0
 10
191.5511667031554
 20
122.8961926317333
 30
0.0
 10
191.4896638429178
 20
122.5069244044051
 30
0.0
 10
191.4440602018741
 20
122.3135203714521
 30
0.0
 10
191.2676091843849
 20
121.7365913201954
 30
0.0
 10
191.097211817133
 20
121.3563418869924
 30
0.0
 10
190.8892882339842
 20
120.9792004270449
 30
0.0
  0
SPLINE
  5
104
330
1F
100
AcDbEntity
  8
0
  6
Continuous
 62
     7
370
    25
100
AcDbSpline
210
0.0
220
0.0
230
1.0
 70
     8
 71
     3
 72
    10
 73
     6
 74
     0
 42
0.00000001
 43
0.00000001
 40
0.0
 40
0.0
 40
0.0
 40
0.0
 40
0.5
 40
0.5
 40
1.0
 40
1.0
 40
1.0
 40
1.0
 10
202.1858117927614
 20
104.6051069768959
 30
0.0
 10
202.2716934352678
 20
104.6287808774518
 30
0.0
 10
202.3591026412333
 20
104.641873434631
 30
0.0
 10
202.5117451263082
 20
104.6419598486133
 30
0.0
 10
202.5758681113906
 20
104.6287894570146
 30
0.0
 10
202.6188244946536
 20
104.6051069768959
 30
0.0
  0
SPLINE
  5
105
330
1F
100
AcDbEntity
  8
0
  6
Continuous
 62
     7
370
    25
100
AcDbSpline
210
0.0
220
0.0
230
1.0
 70
     8
 71
     3
 72
    12
 73
     8
 74
     0
 42
0.00000001
 43
0.00000001
 40
0.0
 40
0.0
 40
0.0
 40
0.0
 40
0.2499999999999998
 40
0.2499999999999998
 40
0.4999999999999996
 40
0.4999999999999996
 40
1.0
 40
1.0
 40
1.0
 40
1.0
 10
204.9282255714121
 20
103.9273855716357
 30
0.0
 10
204.7332220914064
 20
103.9273855716357
 30
0.0
 10
204.5366874323819
 20
103.9431319016577
 30
0.0
 10
204.1472677447764
 20
104.0045769262431
 30
0.0
 10
203.9537830517161
 20
104.0501656854968
 30
0.0
 10
203.3765994529605
 20
104.2266166877534
 30
0.0
 10
202.9961636711776
 20
104.3970743897169
 30
0.0
 10
202.6188244946536
 20
104.6051069768957
 30
0.0
  0
LINE
  5
106
330
1F
100
AcDbEntity
  8
0
  6
Continuous
 62
     7
370
    25
100
AcDbLine
 10
197.5670096392
 20
103.9273855716
 30
0.0
 11
204.9282255714
 21
103.9273855716
 31
0.0
  0
SPLINE
  5
107
330
1F
100
AcDbEntity
  8
0
  6
Continuous
 62
     7
370
    25
100
AcDbSpline
210
0.0
220
0.0
230
1.0
 70
     8
 71
     3
 72
    10
 73
     6
 74
     0
 42
0.00000001
 43
0.00000001
 40
0.0
 40
0.0
 40
0.0
 40
0.0
 40
0.5
 40
0.5
 40
1.0
 40
1.0
 40
1.0
 40
1.0
 10
202.1858117927614
 20
107.9609890317807
 30
0.0
 10
202.2716988545639
 20
107.9373136373563
 30
0.0
 10
202.3591060635441
 20
107.9242225274716
 30
0.0
 10
202.511742506138
 20
107.9241362061834
 30
0.0
 10
202.5758655510838
 20
107.9373051401274
 30
0.0
 10
202.618824494654
 20
107.9609890317809
 30
0.0
  0
LINE
  5
108
330
1F
100
AcDbEntity
  8
0
  6
Continuous
 62
     7
370
    25
100
AcDbLine
 10
202.6188244947
 20
107.9609890318
 30
0.0
 11
202.6188244947
 21
104.6051069769
 31
0.0
  0
SPLINE
  5
109
330
1F
100
AcDbEntity
  8
0
  6
Continuous
 62
     7
370
    25
100
AcDbSpline
210
0.0
220
0.0
230
1.0
 70
     8
 71
     3
 72
     8
 73
     4
 74
     0
 42
0.00000001
 43
0.00000001
 40
0.0
 40
0.0
 40
0.0
 40
0.0
 40
1.0
 40
1.0
 40
1.0
 40
1.0
 10
190.2776334546278
 20
108.638009387007
 30
0.0
 10
190.5866505972695
 20
108.7390144948371
 30
0.0
 10
190.9019683535875
 20
108.835671283903
 30
0.0
 10
191.2244476804305
 20
108.9273855716357
 30
0.0
  0
SPLINE
  5
10A
330
1F
100
AcDbEntity
  8
0
  6
Continuous
 62
     7
370
    25
100
AcDbSpline
210
0.0
220
0.0
230
1.0
 70
     8
 71
     3
 72
    10
 73
     6
 74
     0
 42
0.00000001
 43
0.00000001
 40
0.0
 40
0.0
 40
0.0
 40
0.0
 40
0.5
 40
0.5
 40
1.0
 40
1.0
 40
1.0
 40
1.0
 10
192.5151947838352
 20
107.9609890317807
 30
0.0
 10
192.5581383147364
 20
107.9373136373563
 30
0.0
 10
192.6215807593605
 20
107.9242225274717
 30
0.0
 10
192.7740595964795
 20
107.9241362061834
 30
0.0
 10
192.8622895985868
 20
107.9373051401272
 30
0.0
 10
192.9482074857274
 20
107.9609890317807
 30
0.0
  0
SPLINE
  5
10B
330
1F
100
AcDbEntity
  8
0
  6
Continuous
 62
     7
370
    25
100
AcDbSpline
210
0.0
220
0.0
230
1.0
 70
     8
 71
     3
 72
    12
 73
     8
 74
     0
 42
0.00000001
 43
0.00000001
 40
0.0
 40
0.0
 40
0.0
 40
0.0
 40
0.2500000000000002
 40
0.2500000000000002
 40
0.5000000000000004
 40
0.5000000000000004
 40
1.0
 40
1.0
 40
1.0
 40
1.0
 10
190.2776334546225
 20
108.6380093870008
 30
0.0
 10
190.4676596299257
 20
108.6343009011444
 30
0.0
 10
190.6578746926116
 20
108.6157183983067
 30
0.0
 10
191.034811451744
 20
108.5508513613406
 30
0.0
 10
191.2221342430035
 20
108.5045858080903
 30
0.0
 10
191.7810441993176
 20
108.3288612777833
 30
0.0
 10
192.1495798574279
 20
108.1625578690066
 30
0.0
 10
192.5151947838352
 20
107.9609890317807
 30
0.0
  0
LINE
  5
10C
330
1F
100
AcDbEntity
  8
0
  6
Continuous
 62
     7
370
    25
100
AcDbLine
 10
208.7449506667
 20
110.8755707162
 30
0.0
 11
204.2447310445
 21
110.8755707162
 31
0.0
  0
SPLINE
  5
10D
330
1F
100
AcDbEntity
  8
0
  6
Continuous
 62
     7
370
    25
100
AcDbSpline
210
0.0
220
0.0
230
1.0
 70
     8
 71
     3
 72
    10
 73
     6
 74
     0
 42
0.00000001
 43
0.00000001
 40
0.0
 40
0.0
 40
0.0
 40
0.0
 40
0.5
 40
0.5
 40
1.0
 40
1.0
 40
1.0
 40
1.0
 10
204.2447310445013
 20
110.8755707162265
 30
0.0
 10
204.2684064389257
 20
110.9185142471276
 30
0.0
 10
204.2814975488136
 20
110.9819566917514
 30
0.0
 10
204.2815838701019
 20
111.1344355288705
 30
0.0
 10
204.2684149361581
 20
111.2226655309779
 30
0.0
 10
204.2447310445046
 20
111.3085834181187
 30
0.0
  0
SPLINE
  5
10E
330
1F
100
AcDbEntity
  8
0
  6
Continuous
 62
     7
370
    25
100
AcDbSpline
210
0.0
220
0.0
230
1.0
 70
     8
 71
     3
 72
    10
 73
     6
 74
     0
 42
0.00000001
 43
0.00000001
 40
0.0
 40
0.0
 40
0.0
 40
0.0
 40
0.5
 40
0.5
 40
1.0
 40
1.0
 40
1.0
 40
1.0
 10
208.7449506666867
 20
111.3085834181187
 30
0.0
 10
208.7212752722623
 20
111.2226963563162
 30
0.0
 10
208.7081841623778
 20
111.1352891473361
 30
0.0
 10
208.7080978410895
 20
110.9826527047424
 30
0.0
 10
208.7212667750333
 20
110.9185296597968
 30
0.0
 10
208.7449506666868
 20
110.8755707162265
 30
0.0
  0
LINE
  5
10F
330
1F
100
AcDbEntity
  8
0
  6
Continuous
 62
     7
370
    25
100
AcDbLine
 10
192.5151947838
 20
104.6051069769
 30
0.0
 11
192.5151947838
 21
107.9609890318
 31
0.0
  0
LINE
  5
110
330
1F
100
AcDbEntity
  8
0
  6
Continuous
 62
     7
370
    25
100
AcDbLine
 10
186.0670096392
 20
115.9273855716
 30
0.0
 11
186.0670096392
 21
108.5661696395
 31
0.0
  0
SPLINE
  5
111
330
1F
100
AcDbEntity
  8
0
  6
Continuous
 62
     7
370
    25
100
AcDbSpline
210
0.0
220
0.0
230
1.0
 70
     8
 71
     3
 72
    10
 73
     6
 74
     0
 42
0.00000001
 43
0.00000001
 40
0.0
 40
0.0
 40
0.0
 40
0.0
 40
0.5
 40
0.5
 40
1.0
 40
1.0
 40
1.0
 40
1.0
 10
186.7447310445046
 20
111.3085834181187
 30
0.0
 10
186.7684049450606
 20
111.2227017756122
 30
0.0
 10
186.7814975022397
 20
111.1352925696468
 30
0.0
 10
186.781583916222
 20
110.9826500845719
 30
0.0
 10
186.7684135246233
 20
110.9185270994895
 30
0.0
 10
186.7447310445046
 20
110.8755707162265
 30
0.0
  0
SPLINE
  5
112
330
1F
100
AcDbEntity
  8
0
  6
Continuous
 62
     7
370
    25
100
AcDbSpline
210
0.0
220
0.0
230
1.0
 70
     8
 71
     3
 72
    12
 73
     8
 74
     0
 42
0.00000001
 43
0.00000001
 40
0.0
 40
0.0
 40
0.0
 40
0.0
 40
0.2499999999999999
 40
0.2499999999999999
 40
0.4999999999999998
 40
0.4999999999999998
 40
1.0
 40
1.0
 40
1.0
 40
1.0
 10
186.0670096392444
 20
108.566169639468
 30
0.0
 10
186.0670096392444
 20
108.7611731194738
 30
0.0
 10
186.0827559692664
 20
108.9577077784982
 30
0.0
 10
186.1442009938518
 20
109.3471274661037
 30
0.0
 10
186.1897897531055
 20
109.540612159164
 30
0.0
 10
186.3662407553621
 20
110.1177957579196
 30
0.0
 10
186.5366984573256
 20
110.4982315397025
 30
0.0
 10
186.7447310445044
 20
110.8755707162265
 30
0.0
  0
LINE
  5
113
330
1F
100
AcDbEntity
  8
0
  6
Continuous
 62
     7
370
    25
100
AcDbLine
 10
186.0670096392
 20
115.9273855716
 30
0.0
 11
186.0670096392
 21
123.2886015038
 31
0.0
  0
SPLINE
  5
114
330
1F
100
AcDbEntity
  8
0
  6
Continuous
 62
     7
370
    25
100
AcDbSpline
210
0.0
220
0.0
230
1.0
 70
     8
 71
     3
 72
    10
 73
     6
 74
     0
 42
0.00000001
 43
0.00000001
 40
0.0
 40
0.0
 40
0.0
 40
0.0
 40
0.5
 40
0.5
 40
1.0
 40
1.0
 40
1.0
 40
1.0
 10
186.7447310445041
 20
120.9792004270449
 30
0.0
 10
186.5359211198379
 20
121.3579495744362
 30
0.0
 10
186.3653869800906
 20
121.7391548508475
 30
0.0
 10
186.1306011750717
 20
122.5083854720353
 30
0.0
 10
186.0670096392444
 20
122.8964531768336
 30
0.0
 10
186.0670096392444
 20
123.2886015038034
 30
0.0
  0
SPLINE
  5
115
330
1F
100
AcDbEntity
  8
0
  6
Continuous
 62
     7
370
    25
100
AcDbSpline
210
0.0
220
0.0
230
1.0
 70
     8
 71
     3
 72
    10
 73
     6
 74
     0
 42
0.00000001
 43
0.00000001
 40
0.0
 40
0.0
 40
0.0
 40
0.0
 40
0.5
 40
0.5
 40
1.0
 40
1.0
 40
1.0
 40
1.0
 10
186.7447310445046
 20
120.9792004270449
 30
0.0
 10
186.7684032844162
 20
120.9362626179457
 30
0.0
 10
186.7814972743514
 20
120.8728220280535
 30
0.0
 10
186.7815841418129
 20
120.7203328825447
 30
0.0
 10
186.7684143520535
 20
120.6321034933413
 30
0.0
 10
186.7447310445046
 20
120.5461877251527
 30
0.0
  0
SPLINE
  5
116
330
1F
100
AcDbEntity
  8
0
  6
Continuous
 62
     7
370
    25
100
AcDbSpline
210
0.0
220
0.0
230
1.0
 70
     8
 71
     3
 72
     8
 73
     4
 74
     0
 42
0.00000001
 43
0.00000001
 40
0.0
 40
0.0
 40
0.0
 40
0.0
 40
1.0
 40
1.0
 40
1.0
 40
1.0
 10
203.6883931307406
 20
109.5172640383104
 30
0.0
 10
203.6472778550993
 20
109.6532944328
 30
0.0
 10
203.6067888722314
 20
109.7899984974374
 30
0.0
 10
203.5670096392444
 20
109.9273855716357
 30
0.0
  0
LINE
  5
117
330
1F
100
AcDbEntity
  8
0
  6
Continuous
 62
     7
370
    25
100
AcDbLine
 10
203.5670096392
 20
111.9273855716
 30
0.0
 11
203.5670096392
 21
109.9273855716
 31
0.0
  0
SPLINE
  5
118
330
1F
100
AcDbEntity
  8
0
  6
Continuous
 62
     7
370
    25
100
AcDbSpline
210
0.0
220
0.0
230
1.0
 70
     8
 71
     3
 72
     8
 73
     4
 74
     0
 42
0.00000001
 43
0.00000001
 40
0.0
 40
0.0
 40
0.0
 40
0.0
 40
1.0
 40
1.0
 40
1.0
 40
1.0
 10
203.6883931307406
 20
109.5172640383104
 30
0.0
 10
203.8040257407696
 20
109.9758149703682
 30
0.0
 10
203.99791514559
 20
110.4278845661265
 30
0.0
 10
204.2447310445044
 20
110.8755707162262
 30
0.0
  0
LINE
  5
119
330
1F
100
AcDbEntity
  8
0
  6
Continuous
 62
     7
370
    25
100
AcDbLine
 10
191.5670096392
 20
111.9273855716
 30
0.0
 11
191.5670096392
 21
109.9273855716
 31
0.0
  0
SPLINE
  5
11A
330
1F
100
AcDbEntity
  8
0
  6
Continuous
 62
     7
370
    25
100
AcDbSpline
210
0.0
220
0.0
230
1.0
 70
     8
 71
     3
 72
     8
 73
     4
 74
     0
 42
0.00000001
 43
0.00000001
 40
0.0
 40
0.0
 40
0.0
 40
0.0
 40
1.0
 40
1.0
 40
1.0
 40
1.0
 10
191.5670096392444
 20
109.9273855716357
 30
0.0
 10
191.5272309810542
 20
109.7900004826356
 30
0.0
 10
191.486742018226
 20
109.6532964008238
 30
0.0
 10
191.4456261477482
 20
109.5172640383104
 30
0.0
  0
SPLINE
  5
11B
330
1F
100
AcDbEntity
  8
0
  6
Continuous
 62
     7
370
    25
100
AcDbSpline
210
0.0
220
0.0
230
1.0
 70
     8
 71
     3
 72
     8
 73
     4
 74
     0
 42
0.00000001
 43
0.00000001
 40
0.0
 40
0.0
 40
0.0
 40
0.0
 40
1.0
 40
1.0
 40
1.0
 40
1.0
 10
190.8892882339842
 20
110.8755707162265
 30
0.0
 10
191.1364620148681
 20
110.4272354231751
 30
0.0
 10
191.3301836831721
 20
109.9750609324315
 30
0.0
 10
191.4456261477482
 20
109.5172640383104
 30
0.0
  0
SPLINE
  5
11C
330
1F
100
AcDbEntity
  8
0
  6
Continuous
 62
     7
370
    25
100
AcDbSpline
210
0.0
220
0.0
230
1.0
 70
     8
 71
     3
 72
    10
 73
     6
 74
     0
 42
0.00000001
 43
0.00000001
 40
0.0
 40
0.0
 40
0.0
 40
0.0
 40
0.5
 40
0.5
 40
1.0
 40
1.0
 40
1.0
 40
1.0
 10
190.8892882339842
 20
111.3085834181187
 30
0.0
 10
190.8656128395598
 20
111.2226963563162
 30
0.0
 10
190.8525217296752
 20
111.1352891473361
 30
0.0
 10
190.8524354083869
 20
110.9826527047424
 30
0.0
 10
190.8656043423308
 20
110.9185296597968
 30
0.0
 10
190.8892882339842
 20
110.8755707162265
 30
0.0
  0
SPLINE
  5
11D
330
1F
100
AcDbEntity
  8
0
  6
Continuous
 62
     7
370
    25
100
AcDbSpline
210
0.0
220
0.0
230
1.0
 70
     8
 71
     3
 72
     8
 73
     4
 74
     0
 42
0.00000001
 43
0.00000001
 40
0.0
 40
0.0
 40
0.0
 40
0.0
 40
1.0
 40
1.0
 40
1.0
 40
1.0
 10
203.9095715980583
 20
108.9273855716357
 30
0.0
 10
204.2320509249075
 20
108.8356712839012
 30
0.0
 10
204.5473686812315
 20
108.7390144948333
 30
0.0
 10
204.856385823879
 20
108.6380093870011
 30
0.0
  0
SPLINE
  5
11E
330
1F
100
AcDbEntity
  8
0
  6
Continuous
 62
     7
370
    25
100
AcDbSpline
210
0.0
220
0.0
230
1.0
 70
     8
 71
     3
 72
    10
 73
     6
 74
     0
 42
0.00000001
 43
0.00000001
 40
0.0
 40
0.0
 40
0.0
 40
0.0
 40
0.5
 40
0.5
 40
1.0
 40
1.0
 40
1.0
 40
1.0
 10
202.6188244946539
 20
107.9609890317808
 30
0.0
 10
202.9853424414944
 20
108.1630557173318
 30
0.0
 10
203.3544226669603
 20
108.3294484896024
 30
0.0
 10
204.0996750151877
 20
108.5634954634725
 30
0.0
 10
204.4758877871354
 20
108.6305837174313
 30
0.0
 10
204.856385823879
 20
108.6380093870011
 30
0.0
  0
LINE
  5
11F
330
1F
100
AcDbEntity
  8
0
  6
Continuous
 62
     7
370
    25
100
AcDbLine
 10
203.5670096392
 20
123.2886015038
 30
0.0
 11
203.5670096392
 21
119.9273855716
 31
0.0
  0
SPLINE
  5
120
330
1F
100
AcDbEntity
  8
0
  6
Continuous
 62
     7
370
    25
100
AcDbSpline
210
0.0
220
0.0
230
1.0
 70
     8
 71
     3
 72
    10
 73
     6
 74
     0
 42
0.00000001
 43
0.00000001
 40
0.0
 40
0.0
 40
0.0
 40
0.0
 40
0.5
 40
0.5
 40
1.0
 40
1.0
 40
1.0
 40
1.0
 10
204.2447310445046
 20
120.9792004270449
 30
0.0
 10
204.0363102916872
 20
121.3572436764471
 30
0.0
 10
203.8658464564098
 20
121.7380131812429
 30
0.0
 10
203.6308640214714
 20
122.5071617068005
 30
0.0
 10
203.5670096392444
 20
122.8955884349757
 30
0.0
 10
203.5670096392444
 20
123.2886015038034
 30
0.0
  0
SPLINE
  5
121
330
1F
100
AcDbEntity
  8
0
  6
Continuous
 62
     7
370
    25
100
AcDbSpline
210
0.0
220
0.0
230
1.0
 70
     8
 71
     3
 72
    10
 73
     6
 74
     0
 42
0.00000001
 43
0.00000001
 40
0.0
 40
0.0
 40
0.0
 40
0.0
 40
0.5
 40
0.5
 40
1.0
 40
1.0
 40
1.0
 40
1.0
 10
204.2447310445046
 20
120.5461877251527
 30
0.0
 10
204.268406438929
 20
120.6320747869551
 30
0.0
 10
204.2814975488136
 20
120.7194819959353
 30
0.0
 10
204.2815838701019
 20
120.872118438529
 30
0.0
 10
204.2684149361581
 20
120.9362414834746
 30
0.0
 10
204.2447310445046
 20
120.9792004270449
 30
0.0
  0
SPLINE
  5
122
330
1F
100
AcDbEntity
  8
0
  6
Continuous
 62
     7
370
    25
100
AcDbSpline
210
0.0
220
0.0
230
1.0
 70
     8
 71
     3
 72
    10
 73
     6
 74
     0
 42
0.00000001
 43
0.00000001
 40
0.0
 40
0.0
 40
0.0
 40
0.0
 40
0.5
 40
0.5
 40
1.0
 40
1.0
 40
1.0
 40
1.0
 10
208.7449506666868
 20
120.9792004270449
 30
0.0
 10
208.7212752722624
 20
120.9362568961437
 30
0.0
 10
208.7081841623778
 20
120.8728144515196
 30
0.0
 10
208.7080978410895
 20
120.7203356144006
 30
0.0
 10
208.7212667750333
 20
120.6321056122933
 30
0.0
 10
208.7449506666868
 20
120.5461877251527
 30
0.0
  0
SPLINE
  5
123
330
1F
100
AcDbEntity
  8
0
  6
Continuous
 62
     7
370
    25
100
AcDbSpline
210
0.0
220
0.0
230
1.0
 70
     8
 71
     3
 72
    16
 73
    12
 74
     0
 42
0.00000001
 43
0.00000001
 40
0.0
 40
0.0
 40
0.0
 40
0.0
 40
0.2500000000000001
 40
0.2500000000000001
 40
0.5000000000000001
 40
0.5000000000000001
 40
0.6250000000000001
 40
0.6250000000000001
 40
0.7500000000000002
 40
0.7500000000000002
 40
1.0
 40
1.0
 40
1.0
 40
1.0
 10
208.7449506666868
 20
125.5980025805619
 30
0.0
 10
208.9529661147926
 20
125.2206944916854
 30
0.0
 10
209.1231724197656
 20
124.8406707613112
 30
0.0
 10
209.3581084513332
 20
124.0730474459005
 30
0.0
 10
209.4221805829968
 20
123.6854006291117
 30
0.0
 10
209.4229135319178
 20
123.0970800772239
 30
0.0
 10
209.4072540518348
 20
122.9000068846682
 30
0.0
 10
209.3459789251978
 20
122.5099499071141
 30
0.0
 10
209.3004226526987
 20
122.3161570065261
 30
0.0
 10
209.1239366199424
 20
121.7380760217627
 30
0.0
 10
208.9532801664567
 20
121.3570781574278
 30
0.0
 10
208.7449506666868
 20
120.9792004270449
 30
0.0
  0
SPLINE
  5
124
330
1F
100
AcDbEntity
  8
0
  6
Continuous
 62
     7
370
    25
100
AcDbSpline
210
0.0
220
0.0
230
1.0
 70
     8
 71
     3
 72
    10
 73
     6
 74
     0
 42
0.00000001
 43
0.00000001
 40
0.0
 40
0.0
 40
0.0
 40
0.0
 40
0.1601790552921226
 40
0.7197651707803578
 40
1.0
 40
1.0
 40
1.0
 40
1.0
 10
208.7107212335699
 20
125.6602808593117
 30
0.0
 10
208.7099584434766
 20
125.6616730873381
 30
0.0
 10
208.7065308434029
 20
125.6679290690664
 30
0.0
 10
208.7210383082012
 20
125.6414218043385
 30
0.0
 10
208.7389678613191
 20
125.6088659491933
 30
0.0
 10
208.7449506666868
 20
125.5980025805619
 30
0.0
  0
SPLINE
  5
125
330
1F
100
AcDbEntity
  8
0
  6
Continuous
 62
     7
370
    25
100
AcDbSpline
210
0.0
220
0.0
230
1.0
 70
     8
 71
     3
 72
     9
 73
     5
 74
     0
 42
0.00000001
 43
0.00000001
 40
0.0
 40
0.0
 40
0.0
 40
0.0
 40
0.5797912171256352
 40
1.0
 40
1.0
 40
1.0
 40
1.0
 10
208.7449506666868
 20
106.2567685627095
 30
0.0
 10
208.7325920633403
 20
106.2342949144683
 30
0.0
 10
208.7112764535459
 20
106.1955332920475
 30
0.0
 10
208.7108855110432
 20
106.1947988872893
 30
0.0
 10
208.7107212335699
 20
106.1944902839597
 30
0.0
  0
SPLINE
  5
126
330
1F
100
AcDbEntity
  8
0
  6
Continuous
 62
     7
370
    25
100
AcDbSpline
210
0.0
220
0.0
230
1.0
 70
     8
 71
     3
 72
    16
 73
    12
 74
     0
 42
0.00000001
 43
0.00000001
 40
0.0
 40
0.0
 40
0.0
 40
0.0
 40
0.2500000000000001
 40
0.2500000000000001
 40
0.5000000000000002
 40
0.5000000000000002
 40
0.6250000000000001
 40
0.6250000000000001
 40
0.7500000000000001
 40
0.7500000000000001
 40
1.0
 40
1.0
 40
1.0
 40
1.0
 10
208.7449506666868
 20
110.8755707162265
 30
0.0
 10
208.9529661147926
 20
110.49826262735
 30
0.0
 10
209.1231724197656
 20
110.1182388969758
 30
0.0
 10
209.3581084513332
 20
109.3506155815651
 30
0.0
 10
209.4221805829968
 20
108.9629687647763
 30
0.0
 10
209.4229135319178
 20
108.3746482128884
 30
0.0
 10
209.4072540518348
 20
108.1775750203328
 30
0.0
 10
209.3459789251978
 20
107.7875180427787
 30
0.0
 10
209.3004226526987
 20
107.5937251421906
 30
0.0
 10
209.1239366199424
 20
107.0156441574272
 30
0.0
 10
208.9532801664567
 20
106.6346462930924
 30
0.0
 10
208.7449506666868
 20
106.2567685627095
 30
0.0
  0
LINE
  5
127
330
1F
100
AcDbEntity
  8
0
  6
Continuous
 62
     7
370
    25
100
AcDbLine
 10
209.5670096392
 20
124.1773855716
 30
0.0
 11
209.5670096392
 21
107.6773855716
 31
0.0
  0
LINE
  5
128
330
1F
100
AcDbEntity
  8
0
  6
Continuous
 62
     7
370
    25
100
AcDbLine
 10
204.2447310445
 20
120.979200427
 30
0.0
 11
208.7449506667
 21
120.979200427
 31
0.0
  0
LINE
  5
129
330
1F
100
AcDbEntity
  8
0
  6
Continuous
 62
     7
370
    25
100
AcDbLine
 10
186.7447310445
 20
120.979200427
 30
0.0
 11
190.889288234
 21
120.979200427
 31
0.0
  0
LINE
  5
12A
330
1F
100
AcDbEntity
  8
0
  6
Continuous
 62
     7
370
    25
100
AcDbLine
 10
190.889288234
 20
110.8755707162
 30
0.0
 11
186.7447310445
 21
110.8755707162
 31
0.0
  0
LINE
  5
12B
330
1F
100
AcDbEntity
  8
0
  6
Continuous
 62
     7
370
    25
100
AcDbLine
 10
194.2004582299
 20
115.4609854439
 30
0.0
 11
193.8967840522
 21
116.2715680611
 31
0.0
  0
LINE
  5
12C
330
1F
100
AcDbEntity
  8
0
  6
Continuous
 62
     7
370
    25
100
AcDbLine
 10
193.5132486327
 20
115.3529537152
 30
0.0
 11
194.1205969915
 21
115.3529537152
 31
0.0
  0
ELLIPSE
  5
12D
330
1F
100
AcDbEntity
  8
0
  6
Continuous
 62
     7
370
    25
100
AcDbEllipse
 10
193.8169228139
 20
116.2443780492
 30
0.0
 11
0.08480161849067258
 21
0.0
 31
0.0
210
0.0
220
0.0
230
1.0
 40
0.9533039403
 41
0.3430239404208013
 42
2.798568713168992
  0
LINE
  5
12E
330
1F
100
AcDbEntity
  8
0
  6
Continuous
 62
     7
370
    25
100
AcDbLine
 10
193.7370615756
 20
116.2715680611
 30
0.0
 11
193.4333873945
 21
115.4609854442
 31
0.0
  0
ELLIPSE
  5
12F
330
1F
100
AcDbEntity
  8
0
  6
Continuous
 62
     7
370
    25
100
AcDbEllipse
 10
194.1205969915
 20
115.4337954322
 30
0.0
 11
-0.08480161849067258
 21
-4.263256414560601E-14
 31
0.0
210
0.0
220
0.0
230
1.0
 40
0.9533039403
 41
1.570796326794417
 42
3.484616592149087
  0
ELLIPSE
  5
130
330
1F
100
AcDbEntity
  8
0
  6
Continuous
 62
     7
370
    25
100
AcDbEllipse
 10
193.5132486327
 20
115.4337954322
 30
0.0
 11
0.08480161849067258
 21
-1.421085471520200E-14
 31
0.0
210
0.0
220
0.0
230
1.0
 40
0.9533039403
 41
2.798568711308387
 42
4.712388980384862
  0
SPLINE
  5
131
330
1F
100
AcDbEntity
  8
0
  6
Continuous
 62
     7
370
    25
100
AcDbSpline
210
0.0
220
0.0
230
1.0
 70
     8
 71
     3
 72
    12
 73
     8
 74
     0
 42
0.00000001
 43
0.00000001
 40
0.0
 40
0.0
 40
0.0
 40
0.0
 40
0.2499999999999999
 40
0.2499999999999999
 40
0.4999999999999998
 40
0.4999999999999998
 40
1.0
 40
1.0
 40
1.0
 40
1.0
 10
203.5670096392444
 20
123.2886015038034
 30
0.0
 10
203.5670096392444
 20
123.4843437666829
 30
0.0
 10
203.5828525753333
 20
123.6810103758735
 30
0.0
 10
203.644355435571
 20
124.0702786032018
 30
0.0
 10
203.6899590766147
 20
124.2636826361547
 30
0.0
 10
203.8664100941039
 20
124.8406116874115
 30
0.0
 10
204.0368074613558
 20
125.2208611206145
 30
0.0
 10
204.2447310445046
 20
125.5980025805619
 30
0.0
  0
LINE
  5
132
330
1F
100
AcDbEntity
  8
0
  6
Continuous
 62
     7
370
    25
100
AcDbLine
 10
208.7449506667
 20
125.5980025806
 30
0.0
 11
204.2447310445
 21
125.5980025806
 31
0.0
  0
ELLIPSE
  5
133
330
1F
100
AcDbEntity
  8
0
  6
Continuous
 62
     7
370
    25
100
AcDbEllipse
 10
197.5670096392
 20
106.1124309954
 30
0.0
 11
8.5
 21
0.0
 31
0.0
210
0.0
220
0.0
230
1.0
 40
0.5773502692
 41
2.374833212873085
 42
2.530692279913058
  0
LINE
  5
134
330
1F
100
AcDbEntity
  8
0
  6
Continuous
 62
     7
370
    25
100
AcDbLine
 10
190.2776334546
 20
108.638009387
 30
0.0
 11
187.8963926303
 21
106.2567685627
 31
0.0
  0
LINE
  5
135
330
1F
100
AcDbEntity
  8
0
  6
Continuous
 62
     7
370
    25
100
AcDbLine
 10
186.7447310445
 20
106.2567685627
 30
0.0
 11
187.8963926303
 21
106.2567685627
 31
0.0
  0
SPLINE
  5
136
330
1F
100
AcDbEntity
  8
0
  6
Continuous
 62
     7
370
    25
100
AcDbSpline
210
0.0
220
0.0
230
1.0
 70
     8
 71
     3
 72
    10
 73
     6
 74
     0
 42
0.00000001
 43
0.00000001
 40
0.0
 40
0.0
 40
0.0
 40
0.0
 40
0.5
 40
0.5
 40
1.0
 40
1.0
 40
1.0
 40
1.0
 10
186.7447310445041
 20
106.2567685627094
 30
0.0
 10
186.5359211198379
 20
106.6355177101007
 30
0.0
 10
186.3653869800906
 20
107.016722986512
 30
0.0
 10
186.1306011750717
 20
107.7859536076998
 30
0.0
 10
186.0670096392444
 20
108.1740213124981
 30
0.0
 10
186.0670096392444
 20
108.566169639468
 30
0.0
  0
ELLIPSE
  5
137
330
1F
100
AcDbEntity
  8
0
  6
Continuous
 62
     7
370
    25
100
AcDbEllipse
 10
197.5670096392
 20
106.1124309954
 30
0.0
 11
8.5
 21
0.0
 31
0.0
210
0.0
220
0.0
230
1.0
 40
0.5773502692
 41
0.6109003736767336
 42
0.7667594407167062
  0
LINE
  5
138
330
1F
100
AcDbEntity
  8
0
  6
Continuous
 62
     7
370
    25
100
AcDbLine
 10
207.2376266482
 20
106.2567685627
 30
0.0
 11
208.7449506667
 21
106.2567685627
 31
0.0
  0
LINE
  5
139
330
1F
100
AcDbEntity
  8
0
  6
Continuous
 62
     7
370
    25
100
AcDbLine
 10
207.2376266482
 20
106.2567685627
 30
0.0
 11
204.8563858239
 21
108.638009387
 31
0.0
  0
LINE
  5
13A
330
1F
100
AcDbEntity
  8
0
  6
Continuous
 62
     7
370
    25
100
AcDbLine
 10
207.2376266482
 20
104.6051069769
 30
0.0
 11
207.2376266482
 21
106.2567685627
 31
0.0
  0
SPLINE
  5
13B
330
1F
100
AcDbEntity
  8
0
  6
Continuous
 62
     7
370
    25
100
AcDbSpline
210
0.0
220
0.0
230
1.0
 70
     8
 71
     3
 72
    10
 73
     6
 74
     0
 42
0.00000001
 43
0.00000001
 40
0.0
 40
0.0
 40
0.0
 40
0.0
 40
0.5
 40
0.5
 40
1.0
 40
1.0
 40
1.0
 40
1.0
 10
207.2376266481707
 20
104.6051069768954
 30
0.0
 10
206.8588775007794
 20
104.3962970522291
 30
0.0
 10
206.4776722243681
 20
104.2257629124819
 30
0.0
 10
205.7084416031803
 20
103.990977107463
 30
0.0
 10
205.320373898382
 20
103.9273855716357
 30
0.0
 10
204.9282255714121
 20
103.9273855716357
 30
0.0
  0
SPLINE
  5
13C
330
1F
100
AcDbEntity
  8
0
  6
Continuous
 62
     7
370
    25
100
AcDbSpline
210
0.0
220
0.0
230
1.0
 70
     8
 71
     3
 72
    12
 73
     8
 74
     0
 42
0.00000001
 43
0.00000001
 40
0.0
 40
0.0
 40
0.0
 40
0.0
 40
0.2499999999999999
 40
0.2499999999999999
 40
0.5
 40
0.5
 40
1.0
 40
1.0
 40
1.0
 40
1.0
 10
186.0670096392444
 20
123.2886015038034
 30
0.0
 10
186.0670096392444
 20
123.4836049838092
 30
0.0
 10
186.0827559692664
 20
123.6801396428336
 30
0.0
 10
186.1442009938518
 20
124.0695593304392
 30
0.0
 10
186.1897897531055
 20
124.2630440234994
 30
0.0
 10
186.3662407553621
 20
124.840227622255
 30
0.0
 10
186.5366984573256
 20
125.220663404038
 30
0.0
 10
186.7447310445044
 20
125.5980025805619
 30
0.0
  0
LINE
  5
13D
330
1F
100
AcDbEntity
  8
0
  6
Continuous
 62
     7
370
    25
100
AcDbLine
 10
190.889288234
 20
125.5980025806
 30
0.0
 11
186.7447310445
 21
125.5980025806
 31
0.0
  0
SPLINE
  5
13E
330
1F
100
AcDbEntity
  8
0
  6
Continuous
 62
     7
370
    25
100
AcDbSpline
210
0.0
220
0.0
230
1.0
 70
     8
 71
     3
 72
    10
 73
     6
 74
     0
 42
0.00000001
 43
0.00000001
 40
0.0
 40
0.0
 40
0.0
 40
0.0
 40
0.5
 40
0.5
 40
1.0
 40
1.0
 40
1.0
 40
1.0
 10
190.8892882339842
 20
125.5980025805619
 30
0.0
 10
191.0977089868016
 20
125.2199593311598
 30
0.0
 10
191.2681728220791
 20
124.8391898263639
 30
0.0
 10
191.5031552570175
 20
124.0700413008064
 30
0.0
 10
191.5670096392444
 20
123.6816145726312
 30
0.0
 10
191.5670096392444
 20
123.2886015038034
 30
0.0
  0
SPLINE
  5
13F
330
1F
100
AcDbEntity
  8
0
  6
Continuous
 62
     7
370
    25
100
AcDbSpline
210
0.0
220
0.0
230
1.0
 70
     8
 71
     3
 72
    12
 73
     8
 74
     0
 42
0.00000001
 43
0.00000001
 40
0.0
 40
0.0
 40
0.0
 40
0.0
 40
0.2499999999999996
 40
0.2499999999999996
 40
0.4999999999999993
 40
0.4999999999999993
 40
1.0
 40
1.0
 40
1.0
 40
1.0
 10
190.2057937070767
 20
103.9273855716357
 30
0.0
 10
190.0107902270709
 20
103.9273855716357
 30
0.0
 10
189.8142555680465
 20
103.9431319016577
 30
0.0
 10
189.4248358804409
 20
104.0045769262431
 30
0.0
 10
189.2313511873807
 20
104.0501656854968
 30
0.0
 10
188.6541675886251
 20
104.2266166877534
 30
0.0
 10
188.2737318068421
 20
104.3970743897169
 30
0.0
 10
187.8963926303182
 20
104.6051069768957
 30
0.0
  0
LINE
  5
140
330
1F
100
AcDbEntity
  8
0
  6
Continuous
 62
     7
370
    25
100
AcDbLine
 10
187.8963926303
 20
106.2567685627
 30
0.0
 11
187.8963926303
 21
104.6051069769
 31
0.0
  0
LINE
  5
141
330
1F
100
AcDbEntity
  8
0
  6
Continuous
 62
     7
370
    25
100
AcDbLine
 10
203.5670096392
 20
109.9273855716
 30
0.0
 11
201.5670096392
 21
111.9273855716
 31
0.0
  0
LINE
  5
142
330
1F
100
AcDbEntity
  8
0
  6
Continuous
 62
     7
370
    25
100
AcDbLine
 10
201.5670096392
 20
108.9273855716
 30
0.0
 11
204.5296307119
 21
108.9273855716
 31
0.0
  0
LINE
  5
143
330
1F
100
AcDbEntity
  8
0
  6
Continuous
 62
     7
370
    25
100
AcDbLine
 10
193.5670096392
 20
111.9273855716
 30
0.0
 11
191.5670096392
 21
109.9273855716
 31
0.0
  0
LINE
  5
144
330
1F
100
AcDbEntity
  8
0
  6
Continuous
 62
     7
370
    25
100
AcDbLine
 10
190.6043885666
 20
108.9273855716
 30
0.0
 11
193.5670096392
 21
108.9273855716
 31
0.0
  0
LINE
  5
145
330
1F
100
AcDbEntity
  8
0
  6
Continuous
 62
     7
370
    25
100
AcDbLine
 10
191.5670096392
 20
123.8618400499
 30
0.0
 11
191.5670096392
 21
123.2886015038
 31
0.0
  0
SPLINE
  5
146
330
1F
100
AcDbEntity
  8
0
  6
Continuous
 62
     7
370
    25
100
AcDbSpline
210
0.0
220
0.0
230
1.0
 70
     8
 71
     3
 72
    32
 73
    28
 74
     0
 42
0.00000001
 43
0.00000001
 40
0.0
 40
0.0
 40
0.0
 40
0.0
 40
0.0625000000000001
 40
0.0625000000000001
 40
0.1250000000000001
 40
0.1250000000000001
 40
0.1875000000000002
 40
0.1875000000000002
 40
0.2500000000000003
 40
0.2500000000000003
 40
0.3750000000000003
 40
0.3750000000000003
 40
0.4375000000000003
 40
0.4375000000000003
 40
0.5000000000000002
 40
0.5000000000000002
 40
0.5625000000000002
 40
0.5625000000000002
 40
0.6250000000000001
 40
0.6250000000000001
 40
0.7500000000000001
 40
0.7500000000000001
 40
0.8750000000000002
 40
0.8750000000000002
 40
0.9375000000000001
 40
0.9375000000000001
 40
1.0
 40
1.0
 40
1.0
 40
1.0
 10
203.5670096392359
 20
123.8618400498563
 30
0.0
 10
203.410153303319
 20
123.7668830719606
 30
0.0
 10
203.2371548691634
 20
123.6641298973355
 30
0.0
 10
202.8604502825376
 20
123.4474186956872
 30
0.0
 10
202.6575975020809
 20
123.3339999851972
 30
0.0
 10
202.2316162392783
 20
123.105909848499
 30
0.0
 10
202.0074382789903
 20
122.9906029660472
 30
0.0
 10
201.5360871854139
 20
122.7622798636724
 30
0.0
 10
201.2874016700488
 20
122.6486298475386
 30
0.0
 10
200.5168291853572
 20
122.3255658163046
 30
0.0
 10
199.971191775275
 20
122.1326672921411
 30
0.0
 10
199.0884120267787
 20
121.9210733668674
 30
0.0
 10
198.7897729269058
 20
121.8654309807497
 30
0.0
 10
198.18327132619
 20
121.7897629113858
 30
0.0
 10
197.8731240875241
 20
121.7697896656095
 30
0.0
 10
197.2530385988404
 20
121.7701234318627
 30
0.0
 10
196.9464675613723
 20
121.7901223971855
 30
0.0
 10
196.3398128140641
 20
121.866161183382
 30
0.0
 10
196.0374397494388
 20
121.9228142835135
 30
0.0
 10
195.1608034466859
 20
122.1335928335594
 30
0.0
 10
194.612749314709
 20
122.3271386641311
 30
0.0
 10
193.5822520474657
 20
122.7597579574069
 30
0.0
 10
193.1146920121862
 20
122.9922346020974
 30
0.0
 10
192.4764784085583
 20
123.3339726030164
 30
0.0
 10
192.2732686703684
 20
123.4475901184448
 30
0.0
 10
191.896931743974
 20
123.664092510801
 30
0.0
 10
191.7239531354825
 20
123.7668303072454
 30
0.0
 10
191.5670096392444
 20
123.8618400498615
 30
0.0
  0
LINE
  5
147
330
1F
100
AcDbEntity
  8
0
  6
Continuous
 62
     7
370
    25
100
AcDbLine
 10
203.5670096392
 20
123.8618400499
 30
0.0
 11
203.5670096392
 21
123.2886015038
 31
0.0
  0
SPLINE
  5
148
330
1F
100
AcDbEntity
  8
0
  6
Continuous
 62
     7
370
    25
100
AcDbSpline
210
0.0
220
0.0
230
1.0
 70
     8
 71
     3
 72
    12
 73
     8
 74
     0
 42
0.00000001
 43
0.00000001
 40
0.0
 40
0.0
 40
0.0
 40
0.0
 40
0.082174948275127
 40
0.3096945434914929
 40
0.5425058666680503
 40
0.7710686751023985
 40
1.0
 40
1.0
 40
1.0
 40
1.0
 10
203.7404487242393
 20
124.7205946890548
 30
0.0
 10
203.741580834075
 20
124.7243647626575
 30
0.0
 10
203.7458474414305
 20
124.7385731223564
 30
0.0
 10
203.7133920193508
 20
124.6312164512641
 30
0.0
 10
203.6574273530327
 20
124.4252779798166
 30
0.0
 10
203.5892179755536
 20
124.1419826899284
 30
0.0
 10
203.5744163922925
 20
123.9552710626228
 30
0.0
 10
203.5670096392444
 20
123.8618400498544
 30
0.0
  0
SPLINE
  5
149
330
1F
100
AcDbEntity
  8
0
  6
Continuous
 62
     7
370
    25
100
AcDbSpline
210
0.0
220
0.0
230
1.0
 70
     8
 71
     3
 72
    11
 73
     7
 74
     0
 42
0.00000001
 43
0.00000001
 40
0.0
 40
0.0
 40
0.0
 40
0.0
 40
0.3176452827937823
 40
0.6359777184761636
 40
0.86571370141099
 40
1.0
 40
1.0
 40
1.0
 40
1.0
 10
191.5670096392444
 20
123.8618400498614
 30
0.0
 10
191.5533708539033
 20
123.9931047792008
 30
0.0
 10
191.5260637788298
 20
124.2559181990868
 30
0.0
 10
191.4380595141895
 20
124.567561377873
 30
0.0
 10
191.3935000442296
 20
124.7213047685433
 30
0.0
 10
191.3938483719301
 20
124.7197927761156
 30
0.0
 10
191.3939768685634
 20
124.7192350084268
 30
0.0
  0
LINE
  5
14A
330
1F
100
AcDbEntity
  8
0
  6
Continuous
 62
     7
370
    25
100
AcDbLine
 10
191.6670096392
 20
125.4273855716
 30
0.0
 11
191.6676599133
 21
125.4268333041
 31
0.0
  0
LINE
  5
14B
330
1F
100
AcDbEntity
  8
0
  6
Continuous
 62
     7
370
    25
100
AcDbLine
 10
192.7847300124
 20
93.7823336311
 30
0.0
 11
202.3492892661
 21
93.7823336311
 31
0.0
  0
LINE
  5
14C
330
1F
100
AcDbEntity
  8
0
  6
Continuous
 62
     7
370
    25
100
AcDbLine
 10
201.5670096392
 20
92.4273855716
 30
0.0
 11
193.5670096392
 21
92.4273855716
 31
0.0
  0
SPLINE
  5
14D
330
1F
100
AcDbEntity
  8
0
  6
Continuous
 62
     7
370
    25
100
AcDbSpline
210
0.0
220
0.0
230
1.0
 70
     8
 71
     3
 72
    10
 73
     6
 74
     0
 42
0.00000001
 43
0.00000001
 40
0.0
 40
0.0
 40
0.0
 40
0.0
 40
0.1601790552921523
 40
0.7197651707804853
 40
1.0
 40
1.0
 40
1.0
 40
1.0
 10
190.8550588008673
 20
125.6602808593117
 30
0.0
 10
190.854296010774
 20
125.6616730873381
 30
0.0
 10
190.8508684107003
 20
125.6679290690664
 30
0.0
 10
190.8653758754986
 20
125.6414218043385
 30
0.0
 10
190.8833054286164
 20
125.6088659491933
 30
0.0
 10
190.8892882339842
 20
125.5980025805619
 30
0.0
  0
SPLINE
  5
14E
330
1F
100
AcDbEntity
  8
0
  6
Continuous
 62
     7
370
    25
100
AcDbSpline
210
0.0
220
0.0
230
1.0
 70
     8
 71
     3
 72
     9
 73
     5
 74
     0
 42
0.00000001
 43
0.00000001
 40
0.0
 40
0.0
 40
0.0
 40
0.0
 40
0.5789479223911438
 40
1.0
 40
1.0
 40
1.0
 40
1.0
 10
207.2376266481706
 20
104.6051069768959
 30
0.0
 10
207.2600680153633
 20
104.6174478672103
 30
0.0
 10
207.2988303397878
 20
104.6387639300842
 30
0.0
 10
207.2995962426469
 20
104.6391721039986
 30
0.0
 10
207.299918727637
 20
104.6393439664733
 30
0.0
  0
LINE
  5
14F
330
1F
100
AcDbEntity
  8
0
  6
Continuous
 62
     7
370
    25
100
AcDbLine
 10
204.9282255714
 20
103.9273855716
 30
0.0
 11
206.0670096392
 21
103.9273855716
 31
0.0
  0
SPLINE
  5
150
330
1F
100
AcDbEntity
  8
0
  6
Continuous
 62
     7
370
    25
100
AcDbSpline
210
0.0
220
0.0
230
1.0
 70
     8
 71
     3
 72
    10
 73
     6
 74
     0
 42
0.00000001
 43
0.00000001
 40
0.0
 40
0.0
 40
0.0
 40
0.0
 40
0.1593935212994522
 40
0.7189934545690309
 40
1.0
 40
1.0
 40
1.0
 40
1.0
 10
186.7789680340821
 20
125.6602946600284
 30
0.0
 10
186.7797295610795
 20
125.661684578855
 30
0.0
 10
186.7831646625954
 20
125.6679542348019
 30
0.0
 10
186.7686700401289
 20
125.6414702929781
 30
0.0
 10
186.7507286696362
 20
125.6088928889313
 30
0.0
 10
186.7447310445046
 20
125.5980025805619
 30
0.0
  0
LINE
  5
151
330
1F
100
AcDbEntity
  8
0
  6
Continuous
 62
     7
370
    25
100
AcDbLine
 10
186.0670096392
 20
124.4273855716
 30
0.0
 11
186.0670096392
 21
123.2886015038
 31
0.0
  0
SPLINE
  5
152
330
1F
100
AcDbEntity
  8
0
  6
Continuous
 62
     7
370
    25
100
AcDbSpline
210
0.0
220
0.0
230
1.0
 70
     8
 71
     3
 72
     9
 73
     5
 74
     0
 42
0.00000001
 43
0.00000001
 40
0.0
 40
0.0
 40
0.0
 40
0.0
 40
0.5797912171256431
 40
1.0
 40
1.0
 40
1.0
 40
1.0
 10
204.2447310445046
 20
125.5980025805619
 30
0.0
 10
204.257089647851
 20
125.6204762288031
 30
0.0
 10
204.2784052576455
 20
125.6592378512239
 30
0.0
 10
204.2787962001482
 20
125.6599722559821
 30
0.0
 10
204.2789604776215
 20
125.6602808593117
 30
0.0
  0
SPLINE
  5
153
330
1F
100
AcDbEntity
  8
0
  6
Continuous
 62
     7
370
    25
100
AcDbSpline
210
0.0
220
0.0
230
1.0
 70
     8
 71
     3
 72
    10
 73
     6
 74
     0
 42
0.00000001
 43
0.00000001
 40
0.0
 40
0.0
 40
0.0
 40
0.0
 40
0.1593935213061672
 40
0.7189934545756304
 40
1.0
 40
1.0
 40
1.0
 40
1.0
 10
187.8341005508518
 20
104.6393439664733
 30
0.0
 10
187.8327106320252
 20
104.6401054934707
 30
0.0
 10
187.8264409760784
 20
104.6435405949866
 30
0.0
 10
187.8529249179024
 20
104.62904597252
 30
0.0
 10
187.885502321949
 20
104.6111046020274
 30
0.0
 10
187.8963926303182
 20
104.6051069768959
 30
0.0
  0
LINE
  5
154
330
1F
100
AcDbEntity
  8
0
  6
Continuous
 62
     7
370
    25
100
AcDbLine
 10
189.0670096392
 20
103.9273855716
 30
0.0
 11
190.2057937071
 21
103.9273855716
 31
0.0
  0
SPLINE
  5
155
330
1F
100
AcDbEntity
  8
0
  6
Continuous
 62
     7
370
    25
100
AcDbSpline
210
0.0
220
0.0
230
1.0
 70
     8
 71
     3
 72
     9
 73
     5
 74
     0
 42
0.00000001
 43
0.00000001
 40
0.0
 40
0.0
 40
0.0
 40
0.0
 40
0.5789479223839474
 40
0.9999999999999999
 40
0.9999999999999999
 40
0.9999999999999999
 40
0.9999999999999999
 10
186.7447310445046
 20
106.2567685627095
 30
0.0
 10
186.7570719348189
 20
106.2343271955171
 30
0.0
 10
186.7783879976928
 20
106.1955648710925
 30
0.0
 10
186.7787961716073
 20
106.1947989682332
 30
0.0
 10
186.778968034082
 20
106.194476483243
 30
0.0
  0
LINE
  5
156
330
1F
100
AcDbEntity
  8
0
  6
Continuous
 62
     7
370
    25
100
AcDbLine
 10
186.0670096392
 20
108.5661696395
 30
0.0
 11
186.0670096392
 21
107.4273855716
 31
0.0
  0
LINE
  5
157
330
1F
100
AcDbEntity
  8
0
  6
Continuous
 62
     7
370
    25
100
AcDbLine
 10
207.3046139463
 20
106.1897812646
 30
0.0
 11
207.2376266482
 21
106.2567685627
 31
0.0
  0
LINE
  5
158
330
1F
100
AcDbEntity
  8
0
  6
Continuous
 62
     7
370
    25
100
AcDbLine
 10
187.8963926303
 20
106.2567685627
 30
0.0
 11
187.8294053322
 21
106.1897812646
 31
0.0
  0
SPLINE
  5
159
330
1F
100
AcDbEntity
  8
0
  6
Continuous
 62
     7
370
    25
100
AcDbSpline
210
0.0
220
0.0
230
1.0
 70
     8
 71
     3
 72
    31
 73
    27
 74
     0
 42
0.00000001
 43
0.00000001
 40
0.0
 40
0.0
 40
0.0
 40
0.0
 40
0.0092774568639866
 40
0.0517179892678842
 40
0.0941857850246111
 40
0.1321075717477002
 40
0.170219507129849
 40
0.2082105553598925
 40
0.2154732849887568
 40
0.2764885006410706
 40
0.3375029389786713
 40
0.3848229113177666
 40
0.4320476919804598
 40
0.4692164950777539
 40
0.506346380486817
 40
0.5434339939349654
 40
0.5805709102500177
 40
0.6303336641495881
 40
0.680188591416693
 40
0.7334679593054746
 40
0.7867386038858197
 40
0.8315826748719527
 40
0.876391785815759
 40
0.9190673724077799
 40
0.9617077896356815
 40
1.0
 40
1.0
 40
1.0
 40
1.0
 10
191.667659913329
 20
125.4268333040699
 30
0.0
 10
191.6684049057808
 20
125.4262020763293
 30
0.0
 10
191.6725579309247
 20
125.4226832424513
 30
0.0
 10
191.7428404615994
 20
125.3627567191518
 30
0.0
 10
191.9341604072202
 20
125.2023659047875
 30
0.0
 10
192.2090816701088
 20
124.9760712919084
 30
0.0
 10
192.5414988095755
 20
124.7107014972212
 30
0.0
 10
192.8285619534325
 20
124.4906227276574
 30
0.0
 10
193.2245093605716
 20
124.1968237573322
 30
0.0
 10
193.7601286073412
 20
123.8164013788311
 30
0.0
 10
194.5758820942076
 20
123.3183768987151
 30
0.0
 10
195.4174412518763
 20
122.9062592194272
 30
0.0
 10
196.2008483218602
 20
122.6292600581451
 30
0.0
 10
196.9738331665251
 20
122.477842914775
 30
0.0
 10
197.7044234805114
 20
122.4396934434882
 30
0.0
 10
198.4291459338517
 20
122.5190253346082
 30
0.0
 10
199.2025155533966
 20
122.7115285424144
 30
0.0
 10
199.9929103756732
 20
123.0286880116516
 30
0.0
 10
200.7897149221661
 20
123.4539665492228
 30
0.0
 10
201.5170820300935
 20
123.9164272606959
 30
0.0
 10
202.1312878604556
 20
124.3568406313738
 30
0.0
 10
202.6247461079132
 20
124.7352998305004
 30
0.0
 10
202.999814344662
 20
125.0370706670961
 30
0.0
 10
203.2700036028584
 20
125.2606604652834
 30
0.0
 10
203.4384639045182
 20
125.4031526541599
 30
0.0
 10
203.4538782782441
 20
125.4161714590366
 30
0.0
 10
203.4611713868322
 20
125.4223311356696
 30
0.0
  0
LINE
  5
15A
330
1F
100
AcDbEntity
  8
FORMAT
100
AcDbLine
 10
193.2678152689
 20
92.9456054224
 30
0.0
 11
192.9402596392
 21
103.4273855716
 31
0.0
  0
LINE
  5
15B
330
1F
100
AcDbEntity
  8
FORMAT
100
AcDbLine
 10
201.8662040096
 20
92.9456054224
 30
0.0
 11
202.1937596392
 21
103.4273855716
 31
0.0
  0
LINE
  5
15C
330
1F
100
AcDbEntity
  8
FORMAT
100
AcDbLine
 10
202.6506971392
 20
103.4273855716
 30
0.0
 11
192.4833221392
 21
103.4273855716
 31
0.0
  0
LINE
  5
15D
330
1F
100
AcDbEntity
  8
FORMAT
  6
CENTERX2
370
    18
100
AcDbLine
 10
197.5670096392
 20
89.7823336311
 30
0.0
 11
197.5670096392
 21
144.6154283259
 31
0.0
  0
LINE
  5
15E
330
1F
100
AcDbEntity
  8
FORMAT
  6
CENTERX2
370
    18
100
AcDbLine
 10
169.5670096392
 20
115.9273855716
 30
0.0
 11
212.4542326643
 21
115.9273855716
 31
0.0
  0
ARC
  5
15F
330
1F
100
AcDbEntity
  8
0
  6
Continuous
 62
     7
370
    25
100
AcDbCircle
 10
288.6969270774
 20
143.0273855716
 30
0.0
 40
0.25
100
AcDbArc
 50
90.0
 51
180.0
  0
ARC
  5
160
330
1F
100
AcDbEntity
  8
0
  6
Continuous
 62
     7
370
    25
100
AcDbCircle
 10
299.1969270774
 20
143.0273855716
 30
0.0
 40
0.25
100
AcDbArc
 50
0.0
 51
90.0
  0
LINE
  5
161
330
1F
100
AcDbEntity
  8
0
  6
Continuous
 62
     7
370
    25
100
AcDbLine
 10
299.4469270774
 20
142.4273855716
 30
0.0
 11
299.4469270774
 21
143.0273855716
 31
0.0
  0
LINE
  5
162
330
1F
100
AcDbEntity
  8
0
  6
Continuous
 62
     7
370
    25
100
AcDbLine
 10
288.4469270774
 20
143.0273855716
 30
0.0
 11
288.4469270774
 21
142.4273855716
 31
0.0
  0
LINE
  5
163
330
1F
100
AcDbEntity
  8
0
  6
Continuous
 62
     7
370
    25
100
AcDbLine
 10
301.3969270774
 20
134.4273855716
 30
0.0
 11
299.4469270774
 21
142.4273855716
 31
0.0
  0
LINE
  5
164
330
1F
100
AcDbEntity
  8
0
  6
Continuous
 62
     7
370
    25
100
AcDbLine
 10
288.4469270774
 20
142.4273855716
 30
0.0
 11
286.4969270774
 21
134.4273855716
 31
0.0
  0
LINE
  5
165
330
1F
100
AcDbEntity
  8
0
  6
Continuous
 62
     7
370
    25
100
AcDbLine
 10
286.4969270774
 20
134.4273855716
 30
0.0
 11
286.9469270774
 21
126.4273855716
 31
0.0
  0
LINE
  5
166
330
1F
100
AcDbEntity
  8
0
  6
Continuous
 62
     7
370
    25
100
AcDbLine
 10
300.9469270774
 20
126.4273855716
 30
0.0
 11
301.3969270774
 21
134.4273855716
 31
0.0
  0
SPLINE
  5
167
330
1F
100
AcDbEntity
  8
0
  6
Continuous
 62
     7
370
    25
100
AcDbSpline
210
0.0
220
0.0
230
1.0
 70
     8
 71
     3
 72
     9
 73
     5
 74
     0
 42
0.00000001
 43
0.00000001
 40
0.0
 40
0.0
 40
0.0
 40
0.0
 40
0.9118594959856553
 40
1.0
 40
1.0
 40
1.0
 40
1.0
 10
299.8598731221033
 20
122.3284991572451
 30
0.0
 10
299.8517613444652
 20
122.3683301787937
 30
0.0
 10
299.8428654809317
 20
122.4120112740984
 30
0.0
 10
299.8468775796115
 20
122.4559020165761
 30
0.0
 10
299.8472312080113
 20
122.4597705687396
 30
0.0
  0
LINE
  5
168
330
1F
100
AcDbEntity
  8
0
  6
Continuous
 62
     7
370
    25
100
AcDbLine
 10
288.0480685689
 20
122.4672713425
 30
0.0
 11
288.0380618949
 21
122.3308552441
 31
0.0
  0
LINE
  5
169
330
1F
100
AcDbEntity
  8
0
  6
Continuous
 62
     7
370
    25
100
AcDbLine
 10
299.8469270774
 20
122.4606118248
 30
0.0
 11
299.8469270774
 21
126.4273855716
 31
0.0
  0
LINE
  5
16A
330
1F
100
AcDbEntity
  8
0
  6
Continuous
 62
     7
370
    25
100
AcDbLine
 10
288.0469270774
 20
126.4273855716
 30
0.0
 11
288.0469270774
 21
122.4659142356
 31
0.0
  0
LINE
  5
16B
330
1F
100
AcDbEntity
  8
0
  6
Continuous
 62
     7
370
    25
100
AcDbLine
 10
288.8476145774
 20
103.9273855716
 30
0.0
 11
289.1646474505
 21
93.7823336311
 31
0.0
  0
LINE
  5
16C
330
1F
100
AcDbEntity
  8
0
  6
Continuous
 62
     7
370
    25
100
AcDbLine
 10
298.7292067043
 20
93.7823336311
 30
0.0
 11
299.0462395774
 21
103.9273855716
 31
0.0
  0
LINE
  5
16D
330
1F
100
AcDbEntity
  8
0
  6
Continuous
 62
     7
370
    25
100
AcDbLine
 10
289.1646474505
 20
93.7823336311
 30
0.0
 11
289.9469270774
 21
92.4273855716
 31
0.0
  0
LINE
  5
16E
330
1F
100
AcDbEntity
  8
0
  6
Continuous
 62
     7
370
    25
100
AcDbLine
 10
297.9469270774
 20
92.4273855716
 30
0.0
 11
298.7292067043
 21
93.7823336311
 31
0.0
  0
LINE
  5
16F
330
1F
100
AcDbEntity
  8
0
  6
Continuous
 62
     7
370
    25
100
AcDbLine
 10
288.6969270774
 20
143.2773855716
 30
0.0
 11
290.4469270774
 21
143.2773855716
 31
0.0
  0
LINE
  5
170
330
1F
100
AcDbEntity
  8
0
  6
Continuous
 62
     7
370
    25
100
AcDbLine
 10
297.4469270774
 20
143.2773855716
 30
0.0
 11
299.1969270774
 21
143.2773855716
 31
0.0
  0
LINE
  5
171
330
1F
100
AcDbEntity
  8
0
  6
Continuous
 62
     7
370
    25
100
AcDbLine
 10
297.4469270774
 20
142.4273855716
 30
0.0
 11
299.4469270774
 21
142.4273855716
 31
0.0
  0
LINE
  5
172
330
1F
100
AcDbEntity
  8
0
  6
Continuous
 62
     7
370
    25
100
AcDbLine
 10
288.4469270774
 20
142.4273855716
 30
0.0
 11
290.4469270774
 21
142.4273855716
 31
0.0
  0
LINE
  5
173
330
1F
100
AcDbEntity
  8
0
  6
Continuous
 62
     7
370
    25
100
AcDbLine
 10
297.4469270774
 20
132.4273855716
 30
0.0
 11
290.4469270774
 21
132.4273855716
 31
0.0
  0
LINE
  5
174
330
1F
100
AcDbEntity
  8
0
  6
Continuous
 62
     7
370
    25
100
AcDbLine
 10
290.4469270774
 20
132.4273855716
 30
0.0
 11
290.4469270774
 21
137.4273855716
 31
0.0
  0
LINE
  5
175
330
1F
100
AcDbEntity
  8
0
  6
Continuous
 62
     7
370
    25
100
AcDbLine
 10
290.4469270774
 20
137.4273855716
 30
0.0
 11
297.4469270774
 21
137.4273855716
 31
0.0
  0
LINE
  5
176
330
1F
100
AcDbEntity
  8
0
  6
Continuous
 62
     7
370
    25
100
AcDbLine
 10
297.4469270774
 20
137.4273855716
 30
0.0
 11
297.4469270774
 21
132.4273855716
 31
0.0
  0
LINE
  5
177
330
1F
100
AcDbEntity
  8
0
  6
Continuous
 62
     7
370
    25
100
AcDbLine
 10
297.4469270774
 20
137.4273855716
 30
0.0
 11
297.4469270774
 21
144.4273855716
 31
0.0
  0
LINE
  5
178
330
1F
100
AcDbEntity
  8
0
  6
Continuous
 62
     7
370
    25
100
AcDbLine
 10
290.4469270774
 20
144.4273855716
 30
0.0
 11
290.4469270774
 21
137.4273855716
 31
0.0
  0
LINE
  5
179
330
1F
100
AcDbEntity
  8
0
  6
Continuous
 62
     7
370
    25
100
AcDbLine
 10
290.4469270774
 20
144.4273855716
 30
0.0
 11
297.4469270774
 21
144.4273855716
 31
0.0
  0
SPLINE
  5
17A
330
1F
100
AcDbEntity
  8
0
  6
Continuous
 62
     7
370
    25
100
AcDbSpline
210
0.0
220
0.0
230
1.0
 70
     8
 71
     3
 72
    11
 73
     7
 74
     0
 42
0.00000001
 43
0.00000001
 40
0.0
 40
0.0
 40
0.0
 40
0.0
 40
0.2488466353289361
 40
0.4976946020535204
 40
0.7488461225871278
 40
1.0
 40
1.0
 40
1.0
 40
1.0
 10
297.4469270773982
 20
132.1795612646112
 30
0.0
 10
297.4516186133376
 20
132.1100368881176
 30
0.0
 10
297.4610017103174
 20
131.9709877631564
 30
0.0
 10
297.5374235938042
 20
131.6706590250311
 30
0.0
 10
297.6551497217679
 20
131.308749406776
 30
0.0
 10
297.773458645101
 20
131.0071574497115
 30
0.0
 10
297.8326133843275
 20
130.8563607636257
 30
0.0
  0
LINE
  5
17B
330
1F
100
AcDbEntity
  8
0
  6
Continuous
 62
     7
370
    25
100
AcDbLine
 10
297.8326133843
 20
130.8563607636
 30
0.0
 11
290.0612407705
 21
130.8563607636
 31
0.0
  0
SPLINE
  5
17C
330
1F
100
AcDbEntity
  8
0
  6
Continuous
 62
     7
370
    25
100
AcDbSpline
210
0.0
220
0.0
230
1.0
 70
     8
 71
     3
 72
    11
 73
     7
 74
     0
 42
0.00000001
 43
0.00000001
 40
0.0
 40
0.0
 40
0.0
 40
0.0
 40
0.2488607147078904
 40
0.4977191536447657
 40
0.7488602698858827
 40
0.9999999999999999
 40
0.9999999999999999
 40
0.9999999999999999
 40
0.9999999999999999
 10
290.0612407704688
 20
130.8563607636257
 30
0.0
 10
290.1198942621551
 20
131.0058397005139
 30
0.0
 10
290.2372007091557
 20
131.3047962073414
 30
0.0
 10
290.3552365156886
 20
131.6666001808001
 30
0.0
 10
290.4325911969689
 20
131.9688748240396
 30
0.0
 10
290.44214845938
 20
132.1093325802928
 30
0.0
 10
290.4469270773982
 20
132.1795612646112
 30
0.0
  0
LINE
  5
17D
330
1F
100
AcDbEntity
  8
0
  6
Continuous
 62
     7
370
    25
100
AcDbLine
 10
297.4469270774
 20
132.4273855716
 30
0.0
 11
297.4469270774
 21
132.1795612646
 31
0.0
  0
LINE
  5
17E
330
1F
100
AcDbEntity
  8
0
  6
Continuous
 62
     7
370
    25
100
AcDbLine
 10
290.4469270774
 20
132.1795612646
 30
0.0
 11
290.4469270774
 21
132.4273855716
 31
0.0
  0
SPLINE
  5
17F
330
1F
100
AcDbEntity
  8
0
  6
Continuous
 62
     7
370
    25
100
AcDbSpline
210
0.0
220
0.0
230
1.0
 70
     8
 71
     3
 72
    16
 73
    12
 74
     0
 42
0.00000001
 43
0.00000001
 40
0.0
 40
0.0
 40
0.0
 40
0.0
 40
0.0155634360124117
 40
0.0359329243097674
 40
0.0739120889290614
 40
0.1570057548437684
 40
0.2406581385754913
 40
0.4592958294318596
 40
0.6783839187935417
 40
0.8974954344294845
 40
1.0
 40
1.0
 40
1.0
 40
1.0
 10
287.287204855176
 20
126.4273855716358
 30
0.0
 10
287.3008985221892
 20
126.432578943415
 30
0.0
 10
287.3325145162358
 20
126.4445694212827
 30
0.0
 10
287.387994206546
 20
126.5628953452797
 30
0.0
 10
287.4665950170365
 20
126.8741466527286
 30
0.0
 10
287.5459352036656
 20
127.3997941540937
 30
0.0
 10
287.6511629117687
 20
128.4383403183639
 30
0.0
 10
287.766156312988
 20
129.87341436071
 30
0.0
 10
287.8685563134029
 20
131.7116664621494
 30
0.0
 10
287.9383051932833
 20
133.2328493109688
 30
0.0
 10
287.9777638127121
 20
134.1386813517653
 30
0.0
 10
287.9903399520251
 20
134.4273855716333
 30
0.0
  0
SPLINE
  5
180
330
1F
100
AcDbEntity
  8
0
  6
Continuous
 62
     7
370
    25
100
AcDbSpline
210
0.0
220
0.0
230
1.0
 70
     8
 71
     3
 72
     9
 73
     5
 74
     0
 42
0.00000001
 43
0.00000001
 40
0.0
 40
0.0
 40
0.0
 40
0.0
 40
0.4983247250277991
 40
1.0
 40
1.0
 40
1.0
 40
1.0
 10
287.9903399520251
 20
134.4273855716333
 30
0.0
 10
287.9573374128665
 20
134.6011776854924
 30
0.0
 10
287.8911104377617
 20
134.9499304266882
 30
0.0
 10
287.8105795779758
 20
135.2643783841024
 30
0.0
 10
287.770179236749
 20
135.4221291496026
 30
0.0
  0
LINE
  5
181
330
1F
100
AcDbEntity
  8
0
  6
Continuous
 62
     7
370
    25
100
AcDbLine
 10
287.7701792367
 20
135.4221291496
 30
0.0
 11
290.4469270774
 21
135.4221291496
 31
0.0
  0
ELLIPSE
  5
182
330
1F
100
AcDbEntity
  8
0
  6
Continuous
 62
     7
370
    25
100
AcDbEllipse
 10
225.4469270774
 20
132.775260004
 30
0.0
 11
65.00000000000003
 21
0.0
 31
0.0
210
0.0
220
0.0
230
1.0
 40
0.2713992096
 41
6.084179739699223
 42
6.174194364446292
  0
SPLINE
  5
183
330
1F
100
AcDbEntity
  8
0
  6
Continuous
 62
     7
370
    25
100
AcDbSpline
210
0.0
220
0.0
230
1.0
 70
     8
 71
     3
 72
    13
 73
     9
 74
     0
 42
0.00000001
 43
0.00000001
 40
0.0
 40
0.0
 40
0.0
 40
0.0
 40
0.1610294006389558
 40
0.3266880383557516
 40
0.4877296220820637
 40
0.6535536198224136
 40
0.8237602734841889
 40
1.0
 40
1.0
 40
1.0
 40
1.0
 10
289.1640647472936
 20
129.2877393231429
 30
0.0
 10
289.1202609798612
 20
129.2183424285656
 30
0.0
 10
289.031394184119
 20
129.0775536330571
 30
0.0
 10
288.902374165447
 20
128.7314288153494
 30
0.0
 10
288.7813640696796
 20
128.2922221722974
 30
0.0
 10
288.674683086555
 20
127.7586203353578
 30
0.0
 10
288.5840157991992
 20
127.1347940286581
 30
0.0
 10
288.5471969903024
 20
126.6659101304561
 30
0.0
 10
288.5284670015311
 20
126.4273855716357
 30
0.0
  0
LINE
  5
184
330
1F
100
AcDbEntity
  8
0
  6
Continuous
 62
     7
370
    25
100
AcDbLine
 10
288.5284670015
 20
126.4273855716
 30
0.0
 11
287.2872048552
 21
126.4273855716
 31
0.0
  0
SPLINE
  5
185
330
1F
100
AcDbEntity
  8
0
  6
Continuous
 62
     7
370
    25
100
AcDbSpline
210
0.0
220
0.0
230
1.0
 70
     8
 71
     3
 72
    17
 73
    13
 74
     0
 42
0.00000001
 43
0.00000001
 40
0.0
 40
0.0
 40
0.0
 40
0.0
 40
0.3241697628029873
 40
0.5422758463620719
 40
0.689509052693928
 40
0.7894036290694505
 40
0.8577090008137825
 40
0.9049823971474137
 40
0.9551712229700868
 40
0.9753097783197817
 40
0.9919572060138848
 40
1.0
 40
1.0
 40
1.0
 40
1.0
 10
299.9035142027712
 20
134.4273855716333
 30
0.0
 10
299.944164641498
 20
133.5147720690277
 30
0.0
 10
300.0121652806537
 20
131.9881390627663
 30
0.0
 10
300.12359817997
 20
130.0613661604853
 30
0.0
 10
300.2161028400286
 20
128.7737306895526
 30
0.0
 10
300.294004296346
 20
127.9145787228308
 30
0.0
 10
300.3600567957683
 20
127.3411108344534
 30
0.0
 10
300.4234134031307
 20
126.9195786804234
 30
0.0
 10
300.4815398708246
 20
126.639086137628
 30
0.0
 10
300.5408816991474
 20
126.4835374690474
 30
0.0
 10
300.5778877677702
 20
126.4329268698499
 30
0.0
 10
300.5995823346406
 20
126.4287471180452
 30
0.0
 10
300.6066492996204
 20
126.4273855716357
 30
0.0
  0
LINE
  5
186
330
1F
100
AcDbEntity
  8
0
  6
Continuous
 62
     7
370
    25
100
AcDbLine
 10
300.6066492996
 20
126.4273855716
 30
0.0
 11
299.3653871533
 21
126.4273855716
 31
0.0
  0
SPLINE
  5
187
330
1F
100
AcDbEntity
  8
0
  6
Continuous
 62
     7
370
    25
100
AcDbSpline
210
0.0
220
0.0
230
1.0
 70
     8
 71
     3
 72
    14
 73
    10
 74
     0
 42
0.00000001
 43
0.00000001
 40
0.0
 40
0.0
 40
0.0
 40
0.0
 40
0.1576095309202822
 40
0.3152382602707094
 40
0.4726926441579498
 40
0.6301650083177254
 40
0.7907313191165901
 40
0.9513050385928076
 40
1.0
 40
1.0
 40
1.0
 40
1.0
 10
299.3653871532653
 20
126.4273855716357
 30
0.0
 10
299.3488818164228
 20
126.6408873601131
 30
0.0
 10
299.3158691322215
 20
127.0679169437386
 30
0.0
 10
299.2360654423095
 20
127.6531640225949
 30
0.0
 10
299.1382780348233
 20
128.1753185634173
 30
0.0
 10
299.0246881951413
 20
128.6242966908372
 30
0.0
 10
298.9001460961096
 20
128.9835784226436
 30
0.0
 10
298.7997887553332
 20
129.1881446017448
 30
0.0
 10
298.743002957718
 20
129.2689391500961
 30
0.0
 10
298.7297894075027
 20
129.2877393231429
 30
0.0
  0
ELLIPSE
  5
188
330
1F
100
AcDbEntity
  8
0
  6
Continuous
 62
     7
370
    25
100
AcDbEllipse
 10
362.4469270774
 20
132.775260004
 30
0.0
 11
65.0
 21
0.0
 31
0.0
210
0.0
220
0.0
230
1.0
 40
0.2713992096
 41
3.250583596323188
 42
3.340598221070254
  0
SPLINE
  5
189
330
1F
100
AcDbEntity
  8
0
  6
Continuous
 62
     7
370
    25
100
AcDbSpline
210
0.0
220
0.0
230
1.0
 70
     8
 71
     3
 72
     9
 73
     5
 74
     0
 42
0.00000001
 43
0.00000001
 40
0.0
 40
0.0
 40
0.0
 40
0.0
 40
0.4978401817595073
 40
1.0
 40
1.0
 40
1.0
 40
1.0
 10
300.1236749180472
 20
135.4221291496026
 30
0.0
 10
300.0835717535858
 20
135.26561796691
 30
0.0
 10
300.0030174593952
 20
134.951237592591
 30
0.0
 10
299.9367773327351
 20
134.6025050445647
 30
0.0
 10
299.9035142027712
 20
134.4273855716333
 30
0.0
  0
LINE
  5
18A
330
1F
100
AcDbEntity
  8
0
  6
Continuous
 62
     7
370
    25
100
AcDbLine
 10
297.4469270774
 20
135.4221291496
 30
0.0
 11
300.123674918
 21
135.4221291496
 31
0.0
  0
LINE
  5
18B
330
1F
100
AcDbEntity
  8
0
  6
Continuous
 62
     7
370
    25
100
AcDbLine
 10
289.1640647473
 20
129.2877393231
 30
0.0
 11
298.7297894075
 21
129.2877393231
 31
0.0
  0
SPLINE
  5
18C
330
1F
100
AcDbEntity
  8
0
  6
Continuous
 62
     7
370
    25
100
AcDbSpline
210
0.0
220
0.0
230
1.0
 70
     8
 71
     3
 72
    20
 73
    16
 74
     0
 42
0.00000001
 43
0.00000001
 40
0.0
 40
0.0
 40
0.0
 40
0.0
 40
0.0541983873786813
 40
0.1084549937743861
 40
0.1748676008326813
 40
0.2413639405081385
 40
0.3280943358185923
 40
0.4149092203660895
 40
0.5031829151074113
 40
0.5914553293759743
 40
0.690663243287035
 40
0.7897037236706678
 40
0.8506104062320281
 40
0.9114495521941833
 40
1.0
 40
1.0
 40
1.0
 40
1.0
 10
296.5450032887515
 20
126.4273855716357
 30
0.0
 10
296.4912859462256
 20
126.5221118754474
 30
0.0
 10
296.3837935588871
 20
126.7116662365096
 30
0.0
 10
296.1473784500827
 20
126.9693896639284
 30
0.0
 10
295.8523114515083
 20
127.1984882202798
 30
0.0
 10
295.4633936100483
 20
127.4068692381142
 30
0.0
 10
295.0014016945556
 20
127.5658900799442
 30
0.0
 10
294.472193824292
 20
127.6646716549411
 30
0.0
 10
293.9279739795899
 20
127.6958824911184
 30
0.0
 10
293.3585598264743
 20
127.6583786679484
 30
0.0
 10
292.7818760992949
 20
127.5394356409343
 30
0.0
 10
292.29154820115
 20
127.3456707071948
 30
0.0
 10
291.9186783372008
 20
127.1101570161414
 30
0.0
 10
291.5985358923973
 20
126.8363806614531
 30
0.0
 10
291.4417722623247
 20
126.5795949186383
 30
0.0
 10
291.3488508660448
 20
126.4273855716357
 30
0.0
  0
LINE
  5
18D
330
1F
100
AcDbEntity
  8
0
  6
Continuous
 62
     7
370
    25
100
AcDbLine
 10
291.348850866
 20
126.4273855716
 30
0.0
 11
288.5284670015
 21
126.4273855716
 31
0.0
  0
LINE
  5
18E
330
1F
100
AcDbEntity
  8
0
  6
Continuous
 62
     7
370
    25
100
AcDbLine
 10
299.3653871533
 20
126.4273855716
 30
0.0
 11
296.5450032888
 21
126.4273855716
 31
0.0
  0
LINE
  5
18F
330
1F
100
AcDbEntity
  8
0
  6
Continuous
 62
     7
370
    25
100
AcDbLine
 10
296.5450032888
 20
126.4273855716
 30
0.0
 11
291.348850866
 21
126.4273855716
 31
0.0
  0
LINE
  5
190
330
1F
100
AcDbEntity
  8
0
  6
Continuous
 62
     7
370
    25
100
AcDbLine
 10
299.9035142028
 20
134.4273855716
 30
0.0
 11
301.3969270774
 21
134.4273855716
 31
0.0
  0
LINE
  5
191
330
1F
100
AcDbEntity
  8
0
  6
Continuous
 62
     7
370
    25
100
AcDbLine
 10
286.4969270774
 20
134.4273855716
 30
0.0
 11
287.990339952
 21
134.4273855716
 31
0.0
  0
SPLINE
  5
192
330
1F
100
AcDbEntity
  8
0
  6
Continuous
 62
     7
370
    25
100
AcDbSpline
210
0.0
220
0.0
230
1.0
 70
     8
 71
     3
 72
     9
 73
     5
 74
     0
 42
0.00000001
 43
0.00000001
 40
0.0
 40
0.0
 40
0.0
 40
0.0
 40
0.4875141023677128
 40
0.9999999999999999
 40
0.9999999999999999
 40
0.9999999999999999
 40
0.9999999999999999
 10
300.6066492996204
 20
126.4273855716357
 30
0.0
 10
300.6151754111562
 20
126.4291129176074
 30
0.0
 10
300.6326643647974
 20
126.4326560888989
 30
0.0
 10
300.6489860686838
 20
126.4541745748483
 30
0.0
 10
300.657350711751
 20
126.4652024954357
 30
0.0
  0
SPLINE
  5
193
330
1F
100
AcDbEntity
  8
0
  6
Continuous
 62
     7
370
    25
100
AcDbSpline
210
0.0
220
0.0
230
1.0
 70
     8
 71
     3
 72
     9
 73
     5
 74
     0
 42
0.00000001
 43
0.00000001
 40
0.0
 40
0.0
 40
0.0
 40
0.0
 40
0.5124861829376838
 40
0.9999999999999999
 40
0.9999999999999999
 40
0.9999999999999999
 40
0.9999999999999999
 10
287.2365034739116
 20
126.4652024495759
 30
0.0
 10
287.2448681170353
 20
126.4541745366247
 30
0.0
 10
287.2611898119455
 20
126.4326560775553
 30
0.0
 10
287.2786787541873
 20
126.4291129132102
 30
0.0
 10
287.287204855176
 20
126.4273855716358
 30
0.0
  0
LINE
  5
194
330
1F
100
AcDbEntity
  8
0
  6
Continuous
 62
     7
370
    25
100
AcDbLine
 10
300.6551310099
 20
126.4273855716
 30
0.0
 11
300.9469270774
 21
126.4273855716
 31
0.0
  0
LINE
  5
195
330
1F
100
AcDbEntity
  8
0
  6
Continuous
 62
     7
370
    25
100
AcDbLine
 10
286.9469270774
 20
126.4273855716
 30
0.0
 11
287.2387231449
 21
126.4273855716
 31
0.0
  0
LINE
  5
196
330
1F
100
AcDbEntity
  8
0
  6
Continuous
 62
     7
370
    25
100
AcDbLine
 10
300.6573507118
 20
126.4652024954
 30
0.0
 11
300.6551310099
 21
126.4273855716
 31
0.0
  0
LINE
  5
197
330
1F
100
AcDbEntity
  8
0
  6
Continuous
 62
     7
370
    25
100
AcDbLine
 10
300.6551310099
 20
126.4273855716
 30
0.0
 11
300.6066492996
 21
126.4273855716
 31
0.0
  0
LINE
  5
198
330
1F
100
AcDbEntity
  8
0
  6
Continuous
 62
     7
370
    25
100
AcDbLine
 10
287.2387231449
 20
126.4273855716
 30
0.0
 11
287.2365034739
 21
126.4652024496
 31
0.0
  0
LINE
  5
199
330
1F
100
AcDbEntity
  8
0
  6
Continuous
 62
     7
370
    25
100
AcDbLine
 10
287.2872048552
 20
126.4273855716
 30
0.0
 11
287.2387231449
 21
126.4273855716
 31
0.0
  0
SPLINE
  5
19A
330
1F
100
AcDbEntity
  8
0
  6
Continuous
 62
     7
370
    25
100
AcDbSpline
210
0.0
220
0.0
230
1.0
 70
     8
 71
     3
 72
    10
 73
     6
 74
     0
 42
0.00000001
 43
0.00000001
 40
0.0
 40
0.0
 40
0.0
 40
0.0
 40
0.5
 40
0.5
 40
1.0
 40
1.0
 40
1.0
 40
1.0
 10
285.4469270773982
 20
111.3085834181187
 30
0.0
 10
285.4469270773982
 20
111.2226963563162
 30
0.0
 10
285.469719526728
 20
111.1352891473361
 30
0.0
 10
285.557662230821
 20
110.9826527047424
 30
0.0
 10
285.6225200044949
 20
110.9185296597968
 30
0.0
 10
285.6969270773982
 20
110.8755707162265
 30
0.0
  0
SPLINE
  5
19B
330
1F
100
AcDbEntity
  8
0
  6
Continuous
 62
     7
370
    25
100
AcDbSpline
210
0.0
220
0.0
230
1.0
 70
    24
 71
     3
 72
    14
 73
    10
 74
     0
 42
0.00000001
 43
0.00000001
 40
0.0
 40
0.0
 40
0.0
 40
0.0
 40
0.25
 40
0.25
 40
0.5
 40
0.5
 40
0.75
 40
0.75
 40
1.0
 40
1.0
 40
1.0
 40
1.0
 10
285.4469270773982
 20
111.3085834181186
 30
0.0
 10
285.4469270773982
 20
112.0629634787686
 30
0.0
 10
285.4469270773982
 20
112.8324046462341
 30
0.0
 10
285.4469270773982
 20
114.3729160071753
 30
0.0
 10
285.4469270773982
 20
115.1477703871823
 30
0.0
 10
285.4469270773982
 20
116.7081313420679
 30
0.0
 10
285.4469270773982
 20
117.4985875348529
 30
0.0
 10
285.4469270773982
 20
119.0408671976614
 30
0.0
 10
285.4469270773982
 20
119.7982579508625
 30
0.0
 10
285.4469270773982
 20
120.5461877251527
 30
0.0
  0
SPLINE
  5
19C
330
1F
100
AcDbEntity
  8
0
  6
Continuous
 62
     7
370
    25
100
AcDbSpline
210
0.0
220
0.0
230
1.0
 70
     8
 71
     3
 72
    10
 73
     6
 74
     0
 42
0.00000001
 43
0.00000001
 40
0.0
 40
0.0
 40
0.0
 40
0.0
 40
0.5
 40
0.5
 40
1.0
 40
1.0
 40
1.0
 40
1.0
 10
285.6969270773982
 20
120.9792004270449
 30
0.0
 10
285.6225467000208
 20
120.9362568961437
 30
0.0
 10
285.5582460612351
 20
120.8728144515196
 30
0.0
 10
285.4700303764521
 20
120.7203356144006
 30
0.0
 10
285.4469270773982
 20
120.6321056122933
 30
0.0
 10
285.4469270773982
 20
120.5461877251527
 30
0.0
  0
SPLINE
  5
19D
330
1F
100
AcDbEntity
  8
0
  6
Continuous
 62
     7
370
    25
100
AcDbSpline
210
0.0
220
0.0
230
1.0
 70
    24
 71
     3
 72
    16
 73
    12
 74
     0
 42
0.00000001
 43
0.00000001
 40
0.0
 40
0.0
 40
0.0
 40
0.0
 40
0.2500000000000001
 40
0.2500000000000001
 40
0.5000000000000001
 40
0.5000000000000001
 40
0.6250000000000001
 40
0.6250000000000001
 40
0.7500000000000002
 40
0.7500000000000002
 40
1.0
 40
1.0
 40
1.0
 40
1.0
 10
293.6969270773982
 20
125.5980025805619
 30
0.0
 10
293.0434102973574
 20
125.2206944916854
 30
0.0
 10
292.3851898882674
 20
124.8406707613112
 30
0.0
 10
291.0556273049016
 20
124.0730474459005
 30
0.0
 10
290.3842033228311
 20
123.6854006291117
 30
0.0
 10
289.3652022358244
 20
123.0970800772239
 30
0.0
 10
289.0238614535082
 20
122.9000068846682
 30
0.0
 10
288.3482629505377
 20
122.5099499071141
 30
0.0
 10
288.0126038005731
 20
122.3161570065261
 30
0.0
 10
287.0113381640734
 20
121.7380760217627
 30
0.0
 10
286.3514305054703
 20
121.3570781574278
 30
0.0
 10
285.6969270773982
 20
120.9792004270449
 30
0.0
  0
SPLINE
  5
19E
330
1F
100
AcDbEntity
  8
0
  6
Continuous
 62
     7
370
    25
100
AcDbSpline
210
0.0
220
0.0
230
1.0
 70
     8
 71
     3
 72
    10
 73
     6
 74
     0
 42
0.00000001
 43
0.00000001
 40
0.0
 40
0.0
 40
0.0
 40
0.0
 40
0.5
 40
0.5
 40
1.0
 40
1.0
 40
1.0
 40
1.0
 10
294.1969270773982
 20
125.5980025805619
 30
0.0
 10
294.1225467000208
 20
125.6409461114632
 30
0.0
 10
294.0354536119053
 20
125.6649108758191
 30
0.0
 10
293.8592952230293
 20
125.6650684812939
 30
0.0
 10
293.7713341503014
 20
125.6409615241322
 30
0.0
 10
293.6969270773982
 20
125.5980025805619
 30
0.0
  0
SPLINE
  5
19F
330
1F
100
AcDbEntity
  8
0
  6
Continuous
 62
     7
370
    25
100
AcDbSpline
210
0.0
220
0.0
230
1.0
 70
    24
 71
     3
 72
    16
 73
    12
 74
     0
 42
0.00000001
 43
0.00000001
 40
0.0
 40
0.0
 40
0.0
 40
0.0
 40
0.2499999999999997
 40
0.2499999999999997
 40
0.4999999999999993
 40
0.4999999999999993
 40
0.6249999999999993
 40
0.6249999999999993
 40
0.7499999999999996
 40
0.7499999999999996
 40
1.0
 40
1.0
 40
1.0
 40
1.0
 10
302.1969270773982
 20
120.9792004270449
 30
0.0
 10
301.5434102973574
 20
121.3565085159214
 30
0.0
 10
300.8851898882674
 20
121.7365322462956
 30
0.0
 10
299.5556273049016
 20
122.5041555617063
 30
0.0
 10
298.8842033228311
 20
122.8918023784951
 30
0.0
 10
297.8652022358244
 20
123.480122930383
 30
0.0
 10
297.5238614535082
 20
123.6771961229386
 30
0.0
 10
296.8482629505377
 20
124.0672531004927
 30
0.0
 10
296.5126038005731
 20
124.2610460010807
 30
0.0
 10
295.5113381640734
 20
124.8391269858442
 30
0.0
 10
294.8514305054703
 20
125.220124850179
 30
0.0
 10
294.1969270773982
 20
125.5980025805619
 30
0.0
  0
SPLINE
  5
1A0
330
1F
100
AcDbEntity
  8
0
  6
Continuous
 62
     7
370
    25
100
AcDbSpline
210
0.0
220
0.0
230
1.0
 70
     8
 71
     3
 72
    10
 73
     6
 74
     0
 42
0.00000001
 43
0.00000001
 40
0.0
 40
0.0
 40
0.0
 40
0.0
 40
0.5
 40
0.5
 40
1.0
 40
1.0
 40
1.0
 40
1.0
 10
302.4469270773982
 20
120.5461877251527
 30
0.0
 10
302.4469270773982
 20
120.6320747869552
 30
0.0
 10
302.4241346280684
 20
120.7194819959353
 30
0.0
 10
302.3361919239753
 20
120.872118438529
 30
0.0
 10
302.2713341503014
 20
120.9362414834746
 30
0.0
 10
302.1969270773982
 20
120.9792004270449
 30
0.0
  0
SPLINE
  5
1A1
330
1F
100
AcDbEntity
  8
0
  6
Continuous
 62
     7
370
    25
100
AcDbSpline
210
0.0
220
0.0
230
1.0
 70
    24
 71
     3
 72
    14
 73
    10
 74
     0
 42
0.00000001
 43
0.00000001
 40
0.0
 40
0.0
 40
0.0
 40
0.0
 40
0.25
 40
0.25
 40
0.5
 40
0.5
 40
0.75
 40
0.75
 40
1.0
 40
1.0
 40
1.0
 40
1.0
 10
302.4469270773982
 20
111.3085834181186
 30
0.0
 10
302.4469270773982
 20
112.0629634787686
 30
0.0
 10
302.4469270773982
 20
112.8324046462341
 30
0.0
 10
302.4469270773982
 20
114.3729160071753
 30
0.0
 10
302.4469270773982
 20
115.1477703871823
 30
0.0
 10
302.4469270773982
 20
116.7081313420679
 30
0.0
 10
302.4469270773982
 20
117.4985875348529
 30
0.0
 10
302.4469270773982
 20
119.0408671976614
 30
0.0
 10
302.4469270773982
 20
119.7982579508625
 30
0.0
 10
302.4469270773982
 20
120.5461877251527
 30
0.0
  0
SPLINE
  5
1A2
330
1F
100
AcDbEntity
  8
0
  6
Continuous
 62
     7
370
    25
100
AcDbSpline
210
0.0
220
0.0
230
1.0
 70
     8
 71
     3
 72
    10
 73
     6
 74
     0
 42
0.00000001
 43
0.00000001
 40
0.0
 40
0.0
 40
0.0
 40
0.0
 40
0.5
 40
0.5
 40
1.0
 40
1.0
 40
1.0
 40
1.0
 10
302.1969270773981
 20
110.8755707162265
 30
0.0
 10
302.2713074547753
 20
110.9185142471276
 30
0.0
 10
302.3356080935608
 20
110.9819566917513
 30
0.0
 10
302.4238237783441
 20
111.1344355288704
 30
0.0
 10
302.4469270773982
 20
111.2226655309779
 30
0.0
 10
302.4469270773982
 20
111.3085834181187
 30
0.0
  0
SPLINE
  5
1A3
330
1F
100
AcDbEntity
  8
0
  6
Continuous
 62
     7
370
    25
100
AcDbSpline
210
0.0
220
0.0
230
1.0
 70
    24
 71
     3
 72
    16
 73
    12
 74
     0
 42
0.00000001
 43
0.00000001
 40
0.0
 40
0.0
 40
0.0
 40
0.0
 40
0.2500000000000002
 40
0.2500000000000002
 40
0.5000000000000004
 40
0.5000000000000004
 40
0.6250000000000003
 40
0.6250000000000003
 40
0.7500000000000002
 40
0.7500000000000002
 40
1.0
 40
1.0
 40
1.0
 40
1.0
 10
294.1969270773982
 20
106.2567685627095
 30
0.0
 10
294.8504438574389
 20
106.6340766515859
 30
0.0
 10
295.5086642665289
 20
107.0141003819601
 30
0.0
 10
296.8382268498945
 20
107.7817236973707
 30
0.0
 10
297.509650831965
 20
108.1693705141595
 30
0.0
 10
298.5286519189717
 20
108.7576910660473
 30
0.0
 10
298.8699927012879
 20
108.9547642586029
 30
0.0
 10
299.5455912042582
 20
109.344821236157
 30
0.0
 10
299.8812503542228
 20
109.538614136745
 30
0.0
 10
300.8825159907225
 20
110.1166951215084
 30
0.0
 10
301.5424236493255
 20
110.4976929858432
 30
0.0
 10
302.1969270773976
 20
110.8755707162261
 30
0.0
  0
SPLINE
  5
1A4
330
1F
100
AcDbEntity
  8
0
  6
Continuous
 62
     7
370
    25
100
AcDbSpline
210
0.0
220
0.0
230
1.0
 70
     8
 71
     3
 72
    10
 73
     6
 74
     0
 42
0.00000001
 43
0.00000001
 40
0.0
 40
0.0
 40
0.0
 40
0.0
 40
0.5
 40
0.5
 40
1.0
 40
1.0
 40
1.0
 40
1.0
 10
293.6969270773982
 20
106.2567685627095
 30
0.0
 10
293.7713074547755
 20
106.2138250318082
 30
0.0
 10
293.8584005428911
 20
106.1898602674522
 30
0.0
 10
294.034558931767
 20
106.1897026619775
 30
0.0
 10
294.1225200044949
 20
106.2138096191392
 30
0.0
 10
294.1969270773982
 20
106.2567685627095
 30
0.0
  0
SPLINE
  5
1A5
330
1F
100
AcDbEntity
  8
0
  6
Continuous
 62
     7
370
    25
100
AcDbSpline
210
0.0
220
0.0
230
1.0
 70
    24
 71
     3
 72
    16
 73
    12
 74
     0
 42
0.00000001
 43
0.00000001
 40
0.0
 40
0.0
 40
0.0
 40
0.0
 40
0.2500000000000001
 40
0.2500000000000001
 40
0.5000000000000002
 40
0.5000000000000002
 40
0.6250000000000001
 40
0.6250000000000001
 40
0.7500000000000001
 40
0.7500000000000001
 40
1.0
 40
1.0
 40
1.0
 40
1.0
 10
285.6969270773982
 20
110.8755707162265
 30
0.0
 10
286.350443857439
 20
110.49826262735
 30
0.0
 10
287.0086642665289
 20
110.1182388969758
 30
0.0
 10
288.3382268498947
 20
109.3506155815651
 30
0.0
 10
289.0096508319653
 20
108.9629687647763
 30
0.0
 10
290.028651918972
 20
108.3746482128884
 30
0.0
 10
290.3699927012881
 20
108.1775750203328
 30
0.0
 10
291.0455912042586
 20
107.7875180427787
 30
0.0
 10
291.3812503542233
 20
107.5937251421906
 30
0.0
 10
292.3825159907229
 20
107.0156441574272
 30
0.0
 10
293.0424236493262
 20
106.6346462930924
 30
0.0
 10
293.6969270773982
 20
106.2567685627095
 30
0.0
  0
CIRCLE
  5
1A6
330
1F
100
AcDbEntity
  8
0
  6
Continuous
 62
     7
370
    25
100
AcDbCircle
 10
293.9469270774
 20
115.9273855716
 30
0.0
 40
8.249999999999943
  0
SPLINE
  5
1A7
330
1F
100
AcDbEntity
  8
0
  6
Continuous
 62
     7
370
    25
100
AcDbSpline
210
0.0
220
0.0
230
1.0
 70
     8
 71
     3
 72
    10
 73
     6
 74
     0
 42
0.00000001
 43
0.00000001
 40
0.0
 40
0.0
 40
0.0
 40
0.0
 40
0.5
 40
0.5
 40
1.0
 40
1.0
 40
1.0
 40
1.0
 10
293.6969270773982
 20
104.6051069768959
 30
0.0
 10
293.7713018313882
 20
104.628780581387
 30
0.0
 10
293.8583955629541
 20
104.6418733571802
 30
0.0
 10
294.0345613914986
 20
104.6419599252812
 30
0.0
 10
294.1225224153889
 20
104.6287901011579
 30
0.0
 10
294.1969270773982
 20
104.6051069768959
 30
0.0
  0
SPLINE
  5
1A8
330
1F
100
AcDbEntity
  8
0
  6
Continuous
 62
     7
370
    25
100
AcDbSpline
210
0.0
220
0.0
230
1.0
 70
     8
 71
     3
 72
    12
 73
     8
 74
     0
 42
0.00000001
 43
0.00000001
 40
0.0
 40
0.0
 40
0.0
 40
0.0
 40
0.2500000000000002
 40
0.2500000000000002
 40
0.5000000000000001
 40
0.5000000000000001
 40
1.0
 40
1.0
 40
1.0
 40
1.0
 10
298.1969270773982
 20
103.9273855716357
 30
0.0
 10
297.8591711423754
 20
103.9273855716357
 30
0.0
 10
297.5187631274969
 20
103.9431319016577
 30
0.0
 10
296.8442684430965
 20
104.0045769262431
 30
0.0
 10
296.5091431242292
 20
104.0501656854968
 30
0.0
 10
295.5094318058891
 20
104.2266166877534
 30
0.0
 10
294.8504977028238
 20
104.3970743897169
 30
0.0
 10
294.1969270773981
 20
104.6051069768957
 30
0.0
  0
LINE
  5
1A9
330
1F
100
AcDbEntity
  8
0
  6
Continuous
 62
     7
370
    25
100
AcDbLine
 10
289.6969270774
 20
103.9273855716
 30
0.0
 11
298.1969270774
 21
103.9273855716
 31
0.0
  0
SPLINE
  5
1AA
330
1F
100
AcDbEntity
  8
0
  6
Continuous
 62
     7
370
    25
100
AcDbSpline
210
0.0
220
0.0
230
1.0
 70
     8
 71
     3
 72
    10
 73
     6
 74
     0
 42
0.00000001
 43
0.00000001
 40
0.0
 40
0.0
 40
0.0
 40
0.0
 40
0.5
 40
0.5
 40
1.0
 40
1.0
 40
1.0
 40
1.0
 10
293.6969270773982
 20
104.6051069768954
 30
0.0
 10
293.0409143107931
 20
104.3962970522291
 30
0.0
 10
292.3806474039354
 20
104.2257629124819
 30
0.0
 10
291.0483008853004
 20
103.990977107463
 30
0.0
 10
290.376147903813
 20
103.9273855716357
 30
0.0
 10
289.6969270773982
 20
103.9273855716357
 30
0.0
  0
LINE
  5
1AB
330
1F
100
AcDbEntity
  8
0
  6
Continuous
 62
     7
370
    25
100
AcDbLine
 10
294.1969270774
 20
106.2567685627
 30
0.0
 11
294.1969270774
 21
104.6051069769
 31
0.0
  0
LINE
  5
1AC
330
1F
100
AcDbEntity
  8
0
  6
Continuous
 62
     7
370
    25
100
AcDbLine
 10
293.6969270774
 20
104.6051069769
 30
0.0
 11
293.6969270774
 21
106.2567685627
 31
0.0
  0
SPLINE
  5
1AD
330
1F
100
AcDbEntity
  8
0
  6
Continuous
 62
     7
370
    25
100
AcDbSpline
210
0.0
220
0.0
230
1.0
 70
     8
 71
     3
 72
    12
 73
     8
 74
     0
 42
0.00000001
 43
0.00000001
 40
0.0
 40
0.0
 40
0.0
 40
0.0
 40
0.2499999999999998
 40
0.2499999999999998
 40
0.4999999999999996
 40
0.4999999999999996
 40
1.0
 40
1.0
 40
1.0
 40
1.0
 10
289.6969270773982
 20
103.9273855716357
 30
0.0
 10
289.3591711423754
 20
103.9273855716357
 30
0.0
 10
289.0187631274969
 20
103.9431319016577
 30
0.0
 10
288.3442684430964
 20
104.0045769262431
 30
0.0
 10
288.0091431242292
 20
104.0501656854968
 30
0.0
 10
287.0094318058891
 20
104.2266166877534
 30
0.0
 10
286.3504977028238
 20
104.3970743897169
 30
0.0
 10
285.6969270773981
 20
104.6051069768957
 30
0.0
  0
LINE
  5
1AE
330
1F
100
AcDbEntity
  8
0
  6
Continuous
 62
     7
370
    25
100
AcDbLine
 10
285.6969270774
 20
107.9609890318
 30
0.0
 11
285.6969270774
 21
104.6051069769
 31
0.0
  0
SPLINE
  5
1AF
330
1F
100
AcDbEntity
  8
0
  6
Continuous
 62
     7
370
    25
100
AcDbSpline
210
0.0
220
0.0
230
1.0
 70
     8
 71
     3
 72
    10
 73
     6
 74
     0
 42
0.00000001
 43
0.00000001
 40
0.0
 40
0.0
 40
0.0
 40
0.0
 40
0.5
 40
0.5
 40
1.0
 40
1.0
 40
1.0
 40
1.0
 10
285.6969270773986
 20
107.9609890317808
 30
0.0
 10
286.3317547832123
 20
108.1630557173318
 30
0.0
 10
286.9710204857881
 20
108.3294484896024
 30
0.0
 10
288.2618354173779
 20
108.5634954634725
 30
0.0
 10
288.9134550528478
 20
108.6305837174313
 30
0.0
 10
289.5724969846679
 20
108.6380093870011
 30
0.0
  0
SPLINE
  5
1B0
330
1F
100
AcDbEntity
  8
0
  6
Continuous
 62
     7
370
    25
100
AcDbSpline
210
0.0
220
0.0
230
1.0
 70
     8
 71
     3
 72
    12
 73
     8
 74
     0
 42
0.00000001
 43
0.00000001
 40
0.0
 40
0.0
 40
0.0
 40
0.0
 40
0.2499999999999999
 40
0.2499999999999999
 40
0.4999999999999998
 40
0.4999999999999998
 40
1.0
 40
1.0
 40
1.0
 40
1.0
 10
298.3213571701505
 20
108.6380093870008
 30
0.0
 10
298.6504921605438
 20
108.6343009011444
 30
0.0
 10
298.9799543134804
 20
108.6157183983067
 30
0.0
 10
299.6328279315381
 20
108.5508513613406
 30
0.0
 10
299.9572805234152
 20
108.5045858080903
 30
0.0
 10
300.9253409646072
 20
108.3288612777833
 30
0.0
 10
301.5636634488552
 20
108.1625578690066
 30
0.0
 10
302.1969270773981
 20
107.9609890317807
 30
0.0
  0
LINE
  5
1B1
330
1F
100
AcDbEntity
  8
0
  6
Continuous
 62
     7
370
    25
100
AcDbLine
 10
302.1969270774
 20
104.6051069769
 30
0.0
 11
302.1969270774
 21
107.9609890318
 31
0.0
  0
SPLINE
  5
1B2
330
1F
100
AcDbEntity
  8
0
  6
Continuous
 62
     7
370
    25
100
AcDbSpline
210
0.0
220
0.0
230
1.0
 70
     8
 71
     3
 72
    10
 73
     6
 74
     0
 42
0.00000001
 43
0.00000001
 40
0.0
 40
0.0
 40
0.0
 40
0.0
 40
0.5
 40
0.5
 40
1.0
 40
1.0
 40
1.0
 40
1.0
 10
302.1969270773982
 20
104.6051069768954
 30
0.0
 10
301.5409143107931
 20
104.3962970522292
 30
0.0
 10
300.8806474039354
 20
104.2257629124819
 30
0.0
 10
299.5483008853004
 20
103.990977107463
 30
0.0
 10
298.876147903813
 20
103.9273855716357
 30
0.0
 10
298.1969270773982
 20
103.9273855716357
 30
0.0
  0
SPLINE
  5
1B3
330
1F
100
AcDbEntity
  8
0
  6
Continuous
 62
     7
370
    25
100
AcDbSpline
210
0.0
220
0.0
230
1.0
 70
     8
 71
     3
 72
    10
 73
     6
 74
     0
 42
0.00000001
 43
0.00000001
 40
0.0
 40
0.0
 40
0.0
 40
0.0
 40
0.5
 40
0.5
 40
1.0
 40
1.0
 40
1.0
 40
1.0
 10
302.1969270773982
 20
104.6051069768959
 30
0.0
 10
302.2712975443238
 20
104.6287792168074
 30
0.0
 10
302.3356031406116
 20
104.6418732067427
 30
0.0
 10
302.4238259284174
 20
104.6419600742041
 30
0.0
 10
302.4469270773982
 20
104.6287902844448
 30
0.0
 10
302.4469270773982
 20
104.6051069768959
 30
0.0
  0
LINE
  5
1B4
330
1F
100
AcDbEntity
  8
0
  6
Continuous
 62
     7
370
    25
100
AcDbLine
 10
298.1969270774
 20
103.9273855716
 30
0.0
 11
302.4469270774
 21
103.9273855716
 31
0.0
  0
SPLINE
  5
1B5
330
1F
100
AcDbEntity
  8
0
  6
Continuous
 62
     7
370
    25
100
AcDbSpline
210
0.0
220
0.0
230
1.0
 70
    24
 71
     3
 72
    10
 73
     6
 74
     0
 42
0.00000001
 43
0.00000001
 40
0.0
 40
0.0
 40
0.0
 40
0.0
 40
0.5
 40
0.5
 40
1.0
 40
1.0
 40
1.0
 40
1.0
 10
302.4469270773982
 20
103.9273855716357
 30
0.0
 10
302.4469270773982
 20
103.9273855716357
 30
0.0
 10
302.4469270773982
 20
103.9896699336142
 30
0.0
 10
302.4469270773982
 20
104.2245180516212
 30
0.0
 10
302.4469270773982
 20
104.3977606587524
 30
0.0
 10
302.4469270773982
 20
104.6051069768959
 30
0.0
  0
SPLINE
  5
1B6
330
1F
100
AcDbEntity
  8
0
  6
Continuous
 62
     7
370
    25
100
AcDbSpline
210
0.0
220
0.0
230
1.0
 70
     8
 71
     3
 72
    10
 73
     6
 74
     0
 42
0.00000001
 43
0.00000001
 40
0.0
 40
0.0
 40
0.0
 40
0.0
 40
0.5
 40
0.5
 40
1.0
 40
1.0
 40
1.0
 40
1.0
 10
285.4469270773982
 20
104.6051069768959
 30
0.0
 10
285.4469270773982
 20
104.6287808774518
 30
0.0
 10
285.4697176490456
 20
104.641873434631
 30
0.0
 10
285.5576636463445
 20
104.6419598486133
 30
0.0
 10
285.6225244390772
 20
104.6287894570146
 30
0.0
 10
285.6969270773982
 20
104.6051069768959
 30
0.0
  0
LINE
  5
1B7
330
1F
100
AcDbEntity
  8
0
  6
Continuous
 62
     7
370
    25
100
AcDbLine
 10
285.4469270774
 20
103.9273855716
 30
0.0
 11
289.6969270774
 21
103.9273855716
 31
0.0
  0
SPLINE
  5
1B8
330
1F
100
AcDbEntity
  8
0
  6
Continuous
 62
     7
370
    25
100
AcDbSpline
210
0.0
220
0.0
230
1.0
 70
    24
 71
     3
 72
    10
 73
     6
 74
     0
 42
0.00000001
 43
0.00000001
 40
0.0
 40
0.0
 40
0.0
 40
0.0
 40
0.5
 40
0.5
 40
1.0
 40
1.0
 40
1.0
 40
1.0
 10
285.4469270773982
 20
103.9273855716357
 30
0.0
 10
285.4469270773982
 20
103.9273855716357
 30
0.0
 10
285.4469270773982
 20
103.9896699336142
 30
0.0
 10
285.4469270773982
 20
104.2245180516212
 30
0.0
 10
285.4469270773982
 20
104.3977606587524
 30
0.0
 10
285.4469270773982
 20
104.6051069768959
 30
0.0
  0
SPLINE
  5
1B9
330
1F
100
AcDbEntity
  8
0
  6
Continuous
 62
     7
370
    25
100
AcDbSpline
210
0.0
220
0.0
230
1.0
 70
     8
 71
     3
 72
     8
 73
     4
 74
     0
 42
0.00000001
 43
0.00000001
 40
0.0
 40
0.0
 40
0.0
 40
0.0
 40
1.0
 40
1.0
 40
1.0
 40
1.0
 10
285.4469270773982
 20
108.1224743600617
 30
0.0
 10
285.9687332287
 20
108.395064495731
 30
0.0
 10
286.4923866975562
 20
108.6642169968525
 30
0.0
 10
287.0187238471227
 20
108.9273855716357
 30
0.0
  0
SPLINE
  5
1BA
330
1F
100
AcDbEntity
  8
0
  6
Continuous
 62
     7
370
    25
100
AcDbSpline
210
0.0
220
0.0
230
1.0
 70
     8
 71
     3
 72
    10
 73
     6
 74
     0
 42
0.00000001
 43
0.00000001
 40
0.0
 40
0.0
 40
0.0
 40
0.0
 40
0.5
 40
0.5
 40
1.0
 40
1.0
 40
1.0
 40
1.0
 10
285.4469270773982
 20
107.9609890317807
 30
0.0
 10
285.4469270773982
 20
107.9373136373563
 30
0.0
 10
285.469719526728
 20
107.9242225274716
 30
0.0
 10
285.5576622308212
 20
107.9241362061834
 30
0.0
 10
285.6225200044955
 20
107.9373051401274
 30
0.0
 10
285.6969270773989
 20
107.9609890317809
 30
0.0
  0
SPLINE
  5
1BB
330
1F
100
AcDbEntity
  8
0
  6
Continuous
 62
     7
370
    25
100
AcDbSpline
210
0.0
220
0.0
230
1.0
 70
    24
 71
     3
 72
     8
 73
     4
 74
     0
 42
0.00000001
 43
0.00000001
 40
0.0
 40
0.0
 40
0.0
 40
0.0
 40
1.0
 40
1.0
 40
1.0
 40
1.0
 10
285.4469270773982
 20
108.1224743600617
 30
0.0
 10
285.4469270773982
 20
108.0715795703609
 30
0.0
 10
285.4469270773982
 20
108.0176457209995
 30
0.0
 10
285.4469270773982
 20
107.9609890317807
 30
0.0
  0
SPLINE
  5
1BC
330
1F
100
AcDbEntity
  8
0
  6
Continuous
 62
     7
370
    25
100
AcDbSpline
210
0.0
220
0.0
230
1.0
 70
     8
 71
     3
 72
     8
 73
     4
 74
     0
 42
0.00000001
 43
0.00000001
 40
0.0
 40
0.0
 40
0.0
 40
0.0
 40
1.0
 40
1.0
 40
1.0
 40
1.0
 10
300.8751303076737
 20
108.9273855716357
 30
0.0
 10
301.4015511688829
 20
108.6641751410311
 30
0.0
 10
301.9250956255966
 20
108.3950777126444
 30
0.0
 10
302.4469270773982
 20
108.1224743600617
 30
0.0
  0
SPLINE
  5
1BD
330
1F
100
AcDbEntity
  8
0
  6
Continuous
 62
     7
370
    25
100
AcDbSpline
210
0.0
220
0.0
230
1.0
 70
     8
 71
     3
 72
    10
 73
     6
 74
     0
 42
0.00000001
 43
0.00000001
 40
0.0
 40
0.0
 40
0.0
 40
0.0
 40
0.5
 40
0.5
 40
1.0
 40
1.0
 40
1.0
 40
1.0
 10
302.1969270773981
 20
107.9609890317807
 30
0.0
 10
302.2713074547755
 20
107.9373136373563
 30
0.0
 10
302.3356080935613
 20
107.9242225274717
 30
0.0
 10
302.4238237783442
 20
107.9241362061834
 30
0.0
 10
302.4469270773982
 20
107.9373051401272
 30
0.0
 10
302.4469270773982
 20
107.9609890317807
 30
0.0
  0
SPLINE
  5
1BE
330
1F
100
AcDbEntity
  8
0
  6
Continuous
 62
     7
370
    25
100
AcDbSpline
210
0.0
220
0.0
230
1.0
 70
    24
 71
     3
 72
     8
 73
     4
 74
     0
 42
0.00000001
 43
0.00000001
 40
0.0
 40
0.0
 40
0.0
 40
0.0
 40
1.0
 40
1.0
 40
1.0
 40
1.0
 10
302.4469270773982
 20
108.1224743600617
 30
0.0
 10
302.4469270773982
 20
108.0715795703609
 30
0.0
 10
302.4469270773982
 20
108.0176457209995
 30
0.0
 10
302.4469270773982
 20
107.9609890317807
 30
0.0
  0
LINE
  5
1BF
330
1F
100
AcDbEntity
  8
0
  6
Continuous
 62
     7
370
    25
100
AcDbLine
 10
286.4469270774
 20
108.9273855716
 30
0.0
 11
289.0712827304
 21
108.9273855716
 31
0.0
  0
LINE
  5
1C0
330
1F
100
AcDbEntity
  8
0
  6
Continuous
 62
     7
370
    25
100
AcDbLine
 10
286.4469270774
 20
108.9273855716
 30
0.0
 11
286.4469270774
 21
110.4425580143
 31
0.0
  0
LINE
  5
1C1
330
1F
100
AcDbEntity
  8
0
  6
Continuous
 62
     7
370
    25
100
AcDbLine
 10
301.4469270774
 20
110.4425580143
 30
0.0
 11
301.4469270774
 21
108.9273855716
 31
0.0
  0
LINE
  5
1C2
330
1F
100
AcDbEntity
  8
0
  6
Continuous
 62
     7
370
    25
100
AcDbLine
 10
298.8225714244
 20
108.9273855716
 30
0.0
 11
301.4469270774
 21
108.9273855716
 31
0.0
  0
LINE
  5
1C3
330
1F
100
AcDbEntity
  8
0
  6
Continuous
 62
     7
370
    25
100
AcDbLine
 10
293.9469270774
 20
93.7823336311
 30
0.0
 11
298.7292067043
 21
93.7823336311
 31
0.0
  0
LINE
  5
1C4
330
1F
100
AcDbEntity
  8
0
  6
Continuous
 62
     7
370
    25
100
AcDbLine
 10
289.1646474505
 20
93.7823336311
 30
0.0
 11
293.9469270774
 21
93.7823336311
 31
0.0
  0
LINE
  5
1C5
330
1F
100
AcDbEntity
  8
0
  6
Continuous
 62
     7
370
    25
100
AcDbLine
 10
285.4469270774
 20
104.6051069769
 30
0.0
 11
285.4469270774
 21
107.9609890318
 31
0.0
  0
LINE
  5
1C6
330
1F
100
AcDbEntity
  8
0
  6
Continuous
 62
     7
370
    25
100
AcDbLine
 10
302.4469270774
 20
107.9609890318
 30
0.0
 11
302.4469270774
 21
104.6051069769
 31
0.0
  0
LINE
  5
1C7
330
1F
100
AcDbEntity
  8
0
  6
Continuous
 62
     7
370
    25
100
AcDbLine
 10
297.9469270774
 20
92.4273855716
 30
0.0
 11
289.9469270774
 21
92.4273855716
 31
0.0
  0
LINE
  5
1C8
330
1F
100
AcDbEntity
  8
0
  6
Continuous
 62
     7
370
    25
100
AcDbLine
 10
285.4469270774
 20
108.1224743601
 30
0.0
 11
285.4469270774
 21
111.2794510491
 31
0.0
  0
LINE
  5
1C9
330
1F
100
AcDbEntity
  8
0
  6
Continuous
 62
     7
370
    25
100
AcDbLine
 10
302.4469270774
 20
108.1224743601
 30
0.0
 11
302.4469270774
 21
111.2794510491
 31
0.0
  0
LINE
  5
1CA
330
1F
100
AcDbEntity
  8
0
  6
Continuous
 62
     7
370
    25
100
AcDbLine
 10
290.4469270774
 20
143.0273855716
 30
0.0
 11
288.4469270774
 21
143.0273855716
 31
0.0
  0
LINE
  5
1CB
330
1F
100
AcDbEntity
  8
0
  6
Continuous
 62
     7
370
    25
100
AcDbLine
 10
299.4469270774
 20
143.0273855716
 30
0.0
 11
297.4469270774
 21
143.0273855716
 31
0.0
  0
SPLINE
  5
1CC
330
1F
100
AcDbEntity
  8
0
  6
Continuous
 62
     7
370
    25
100
AcDbSpline
210
0.0
220
0.0
230
1.0
 70
     8
 71
     3
 72
    19
 73
    15
 74
     0
 42
0.00000001
 43
0.00000001
 40
0.0
 40
0.0
 40
0.0
 40
0.0
 40
0.0167887070704221
 40
0.0955043226173153
 40
0.1743245797185105
 40
0.2799422089032431
 40
0.3857554689924191
 40
0.4988368417040459
 40
0.6118996998624477
 40
0.7070778017437445
 40
0.8021817036160509
 40
0.892757363657163
 40
0.9832583794198311
 40
1.0
 40
1.0
 40
1.0
 40
1.0
 10
288.0545786012773
 20
122.4667991745155
 30
0.0
 10
288.0520502119481
 20
122.4636609607845
 30
0.0
 10
288.0376672038235
 20
122.4458089025315
 30
0.0
 10
288.1011125047932
 20
122.5248718625552
 30
0.0
 10
288.2562203015884
 20
122.7093590911568
 30
0.0
 10
288.5445171773674
 20
123.0293372156661
 30
0.0
 10
288.9769512923995
 20
123.4537857272904
 30
0.0
 10
289.5313839915472
 20
123.9164502364338
 30
0.0
 10
290.1742795609294
 20
124.3569302498953
 30
0.0
 10
290.8737164825951
 20
124.7349911793462
 30
0.0
 10
291.5957168034613
 20
125.0382147103421
 30
0.0
 10
292.3734361925042
 20
125.2566138282358
 30
0.0
 10
292.9614846653145
 20
125.3780135880788
 30
0.0
 10
293.2910748438269
 20
125.3913134154258
 30
0.0
 10
293.3425270824493
 20
125.3933896480774
 30
0.0
  0
SPLINE
  5
1CD
330
1F
100
AcDbEntity
  8
0
  6
Continuous
 62
     7
370
    25
100
AcDbSpline
210
0.0
220
0.0
230
1.0
 70
     8
 71
     3
 72
    19
 73
    15
 74
     0
 42
0.00000001
 43
0.00000001
 40
0.0
 40
0.0
 40
0.0
 40
0.0
 40
0.031354330616998
 40
0.0973973094407242
 40
0.1974113825204138
 40
0.2975377215585276
 40
0.4181259627380541
 40
0.5388106471619885
 40
0.6564423334625984
 40
0.7739076245221906
 40
0.8504426060941062
 40
0.9268768776441334
 40
0.9967441505484347
 40
1.0
 40
1.0
 40
1.0
 40
1.0
 10
294.5591242873392
 20
125.3888879239027
 30
0.0
 10
294.6549962089621
 20
125.38366788437
 30
0.0
 10
294.9528072938498
 20
125.3674526504403
 30
0.0
 10
295.5356926957876
 20
125.2530801855821
 30
0.0
 10
296.2849370343687
 20
125.0438076799351
 30
0.0
 10
297.1054017595324
 20
124.6994857881757
 30
0.0
 10
297.8725484483074
 20
124.2638867438281
 30
0.0
 10
298.5538390331155
 20
123.7684878612643
 30
0.0
 10
299.1045491644048
 20
123.278091783684
 30
0.0
 10
299.4732866025188
 20
122.8951359034469
 30
0.0
 10
299.7013122308063
 20
122.6343836384569
 30
0.0
 10
299.8124172270441
 20
122.4999279243789
 30
0.0
 10
299.8563940492725
 20
122.4460293226784
 30
0.0
 10
299.8454703996572
 20
122.4593611089647
 30
0.0
 10
299.8449840178199
 20
122.4599547144847
 30
0.0
  0
INSERT
  5
1D9
330
1F
100
AcDbEntity
  8
FORMAT
100
AcDbBlockReference
  2
SW_CENTERMARKSYMBOL_0
 10
293.9469270774
 20
115.9273855716
 30
0.0
  0
ARC
  5
1DA
330
1F
100
AcDbEntity
  8
FORMAT
100
AcDbCircle
 10
293.9469270774
 20
115.9273855716
 30
0.0
 40
7.000000000000016
100
AcDbArc
 50
75.0
 51
345.0
  0
LINE
  5
1DB
330
1F
100
AcDbEntity
  8
FORMAT
100
AcDbLine
 10
289.6477327071
 20
92.9456054224
 30
0.0
 11
289.3201770774
 21
103.4273855716
 31
0.0
  0
LINE
  5
1DC
330
1F
100
AcDbEntity
  8
FORMAT
100
AcDbLine
 10
298.2461214477
 20
92.9456054224
 30
0.0
 11
298.5736770774
 21
103.4273855716
 31
0.0
  0
LINE
  5
1DD
330
1F
100
AcDbEntity
  8
FORMAT
100
AcDbLine
 10
299.0306145774
 20
103.4273855716
 30
0.0
 11
288.8632395774
 21
103.4273855716
 31
0.0
  0
LINE
  5
1DE
330
1F
100
AcDbEntity
  8
0
  6
Continuous
 62
     7
370
    25
100
AcDbLine
 10
183.2670096392
 20
178.4583686862
 30
0.0
 11
183.0670096392
 21
178.2583686862
 31
0.0
  0
LINE
  5
1DF
330
1F
100
AcDbEntity
  8
0
  6
Continuous
 62
     7
370
    25
100
AcDbLine
 10
183.0670096392
 20
162.6583686862
 30
0.0
 11
183.2670096392
 21
162.4583686862
 31
0.0
  0
LINE
  5
1E0
330
1F
100
AcDbEntity
  8
0
  6
Continuous
 62
     7
370
    25
100
AcDbLine
 10
186.0670096392
 20
178.4583686862
 30
0.0
 11
183.2670096392
 21
178.4583686862
 31
0.0
  0
LINE
  5
1E1
330
1F
100
AcDbEntity
  8
0
  6
Continuous
 62
     7
370
    25
100
AcDbLine
 10
183.2670096392
 20
162.4583686862
 30
0.0
 11
186.0670096392
 21
162.4583686862
 31
0.0
  0
LINE
  5
1E2
330
1F
100
AcDbEntity
  8
0
  6
Continuous
 62
     7
370
    25
100
AcDbLine
 10
183.0670096392
 20
176.9583686862
 30
0.0
 11
173.5670096392
 21
176.9583686862
 31
0.0
  0
LINE
  5
1E3
330
1F
100
AcDbEntity
  8
0
  6
Continuous
 62
     7
370
    25
100
AcDbLine
 10
173.5670096392
 20
163.9583686862
 30
0.0
 11
183.0670096392
 21
163.9583686862
 31
0.0
  0
LINE
  5
1E4
330
1F
100
AcDbEntity
  8
0
  6
Continuous
 62
     7
370
    25
100
AcDbLine
 10
173.5670096392
 20
176.9583686862
 30
0.0
 11
173.0670096392
 21
176.4583686862
 31
0.0
  0
LINE
  5
1E5
330
1F
100
AcDbEntity
  8
0
  6
Continuous
 62
     7
370
    25
100
AcDbLine
 10
173.0670096392
 20
164.4583686862
 30
0.0
 11
173.5670096392
 21
163.9583686862
 31
0.0
  0
LINE
  5
1E6
330
1F
100
AcDbEntity
  8
0
  6
Continuous
 62
     7
370
    25
100
AcDbLine
 10
209.4226720719
 20
161.9583686862
 30
0.0
 11
209.5670096392
 21
162.2083686862
 31
0.0
  0
LINE
  5
1E7
330
1F
100
AcDbEntity
  8
0
  6
Continuous
 62
     7
370
    25
100
AcDbLine
 10
209.5670096392
 20
178.7083686862
 30
0.0
 11
209.4226720719
 21
178.9583686862
 31
0.0
  0
SPLINE
  5
1E8
330
1F
100
AcDbEntity
  8
0
  6
Continuous
 62
     7
370
    25
100
AcDbSpline
210
0.0
220
0.0
230
1.0
 70
     8
 71
     3
 72
    15
 73
    11
 74
     0
 42
0.00000001
 43
0.00000001
 40
0.0
 40
0.0
 40
0.0
 40
0.0
 40
0.0081667445812695
 40
0.3321939991490083
 40
0.4756279600585602
 40
0.6866830973284899
 40
0.8457435502264811
 40
0.8967566214763185
 40
0.9909540928118029
 40
1.0
 40
1.0
 40
1.0
 40
1.0
 10
202.6660291528372
 20
171.7083686861929
 30
0.0
 10
202.6665166869801
 20
171.7098061491319
 30
0.0
 10
202.6863478345121
 20
171.7682770070836
 30
0.0
 10
202.7146286145214
 20
171.8527021848031
 30
0.0
 10
202.7524579130103
 20
171.9672812568255
 30
0.0
 10
202.7790418095777
 20
172.0486521440222
 30
0.0
 10
202.7962116333327
 20
172.1016711360238
 30
0.0
 10
202.8040286295492
 20
172.125873067868
 30
0.0
 10
202.806024315985
 20
172.1320626885341
 30
0.0
 10
202.8060892799359
 20
172.1322640839467
 30
0.0
 10
202.8060949719025
 20
172.1322817296711
 30
0.0
  0
ARC
  5
1E9
330
1F
100
AcDbEntity
  8
0
  6
Continuous
 62
     7
370
    25
100
AcDbCircle
 10
197.5670096392
 20
170.4583686862
 30
0.0
 40
5.250000000000002
100
AcDbArc
 50
13.774146998
 51
166.225853002
  0
SPLINE
  5
1EA
330
1F
100
AcDbEntity
  8
0
  6
Continuous
 62
     7
370
    25
100
AcDbSpline
210
0.0
220
0.0
230
1.0
 70
     8
 71
     3
 72
    15
 73
    11
 74
     0
 42
0.00000001
 43
0.00000001
 40
0.0
 40
0.0
 40
0.0
 40
0.0
 40
0.0090459071881971
 40
0.1032433785236874
 40
0.1542564497735246
 40
0.313316902671511
 40
0.5243720399414428
 40
0.6678060008509903
 40
0.9918332554187292
 40
1.0
 40
1.0
 40
1.0
 40
1.0
 10
192.3279243065863
 20
172.1322817296711
 30
0.0
 10
192.327929998553
 20
172.1322640839467
 30
0.0
 10
192.3279949625037
 20
172.1320626885341
 30
0.0
 10
192.3299906489396
 20
172.125873067868
 30
0.0
 10
192.3378076451561
 20
172.1016711360238
 30
0.0
 10
192.354977468911
 20
172.0486521440222
 30
0.0
 10
192.3815613654786
 20
171.9672812568255
 30
0.0
 10
192.4193906639674
 20
171.8527021848031
 30
0.0
 10
192.4476714439766
 20
171.7682770070836
 30
0.0
 10
192.4675025915087
 20
171.7098061491319
 30
0.0
 10
192.4679901256516
 20
171.7083686861929
 30
0.0
  0
ARC
  5
1EB
330
1F
100
AcDbEntity
  8
0
  6
Continuous
 62
     7
370
    25
100
AcDbCircle
 10
197.5670096392
 20
170.4583686862
 30
0.0
 40
5.50000000000002
100
AcDbArc
 50
17.7189318734
 51
162.2810681266
  0
ARC
  5
1EC
330
1F
100
AcDbEntity
  8
0
  6
Continuous
 62
     7
370
    25
100
AcDbCircle
 10
192.0897840642
 20
172.2083686862
 30
0.0
 40
0.25
100
AcDbArc
 50
270.0
 51
342.2810681266
  0
SPLINE
  5
1ED
330
1F
100
AcDbEntity
  8
0
  6
Continuous
 62
     7
370
    25
100
AcDbSpline
210
0.0
220
0.0
230
1.0
 70
     8
 71
     3
 72
    15
 73
    11
 74
     0
 42
0.00000001
 43
0.00000001
 40
0.0
 40
0.0
 40
0.0
 40
0.0
 40
0.0080847466189818
 40
0.3310106400647567
 40
0.4750333064304972
 40
0.6874363079215137
 40
0.8468367539418253
 40
0.9000996640391794
 40
0.9910442771984082
 40
1.0
 40
1.0
 40
1.0
 40
1.0
 10
192.4679901256516
 20
171.7083686861929
 30
0.0
 10
192.4667102941075
 20
171.7091846221811
 30
0.0
 10
192.4143106483837
 20
171.7425911723748
 30
0.0
 10
192.3389555569292
 20
171.7914047371097
 30
0.0
 10
192.2370364449115
 20
171.8587752093778
 30
0.0
 10
192.1646454999196
 20
171.9073592497213
 30
0.0
 10
192.1169400716547
 20
171.9398081111798
 30
0.0
 10
192.0954045879474
 20
171.9545191522461
 30
0.0
 10
192.0899755719279
 20
171.9582376031642
 30
0.0
 10
192.0897998197713
 20
171.9583579018297
 30
0.0
 10
192.0897840641927
 20
171.9583686861929
 30
0.0
  0
SPLINE
  5
1EE
330
1F
100
AcDbEntity
  8
0
  6
Continuous
 62
     7
370
    25
100
AcDbSpline
210
0.0
220
0.0
230
1.0
 70
     8
 71
     3
 72
    15
 73
    11
 74
     0
 42
0.00000001
 43
0.00000001
 40
0.0
 40
0.0
 40
0.0
 40
0.0
 40
0.0090459071881971
 40
0.1032433785236816
 40
0.1542564497735189
 40
0.31331690267151
 40
0.5243720399414428
 40
0.6678060008509183
 40
0.9918332554187028
 40
1.0
 40
1.0
 40
1.0
 40
1.0
 10
202.8060949719025
 20
168.7844556427146
 30
0.0
 10
202.8060892799359
 20
168.7844732884391
 30
0.0
 10
202.806024315985
 20
168.7846746838516
 30
0.0
 10
202.8040286295492
 20
168.7908643045178
 30
0.0
 10
202.7962116333327
 20
168.815066236362
 30
0.0
 10
202.7790418095777
 20
168.8680852283637
 30
0.0
 10
202.7524579130102
 20
168.9494561155602
 30
0.0
 10
202.7146286145216
 20
169.0640351875827
 30
0.0
 10
202.6863478345113
 20
169.1484603653018
 30
0.0
 10
202.6665166869801
 20
169.2069312232539
 30
0.0
 10
202.6660291528372
 20
169.2083686861929
 30
0.0
  0
SPLINE
  5
1EF
330
1F
100
AcDbEntity
  8
0
  6
Continuous
 62
     7
370
    25
100
AcDbSpline
210
0.0
220
0.0
230
1.0
 70
     8
 71
     3
 72
    15
 73
    11
 74
     0
 42
0.00000001
 43
0.00000001
 40
0.0
 40
0.0
 40
0.0
 40
0.0
 40
0.0080847466189582
 40
0.3310106400648243
 40
0.4750333064304948
 40
0.6874363079215142
 40
0.8468367539418303
 40
0.9000996640391847
 40
0.9910442771984082
 40
1.0
 40
1.0
 40
1.0
 40
1.0
 10
202.6660291528372
 20
169.2083686861929
 30
0.0
 10
202.6673089843813
 20
169.2075527502046
 30
0.0
 10
202.7197086301045
 20
169.1741462000101
 30
0.0
 10
202.7950637215596
 20
169.1253326352763
 30
0.0
 10
202.8969828335773
 20
169.0579621630079
 30
0.0
 10
202.9693737785692
 20
169.0093781226645
 30
0.0
 10
203.0170792068341
 20
168.976929261206
 30
0.0
 10
203.0386146905414
 20
168.9622182201397
 30
0.0
 10
203.0440437065609
 20
168.9584997692216
 30
0.0
 10
203.0442194587175
 20
168.958379470556
 30
0.0
 10
203.0442352142961
 20
168.9583686861929
 30
0.0
  0
ARC
  5
1F0
330
1F
100
AcDbEntity
  8
0
  6
Continuous
 62
     7
370
    25
100
AcDbCircle
 10
203.0442352143
 20
168.7083686862
 30
0.0
 40
0.25
100
AcDbArc
 50
90.0
 51
162.2810681266
  0
SPLINE
  5
1F1
330
1F
100
AcDbEntity
  8
0
  6
Continuous
 62
     7
370
    25
100
AcDbSpline
210
0.0
220
0.0
230
1.0
 70
     8
 71
     3
 72
    15
 73
    11
 74
     0
 42
0.00000001
 43
0.00000001
 40
0.0
 40
0.0
 40
0.0
 40
0.0
 40
0.0089557228015919
 40
0.0999003359608209
 40
0.1531632460581751
 40
0.3125636920784904
 40
0.5249666935695061
 40
0.6689893599351777
 40
0.991915253381045
 40
1.0
 40
1.0
 40
1.0
 40
1.0
 10
192.0897840641927
 20
168.9583686861929
 30
0.0
 10
192.0897998197713
 20
168.958379470556
 30
0.0
 10
192.0899755719279
 20
168.9584997692216
 30
0.0
 10
192.0954045879474
 20
168.9622182201397
 30
0.0
 10
192.1169400716547
 20
168.976929261206
 30
0.0
 10
192.1646454999196
 20
169.0093781226645
 30
0.0
 10
192.2370364449115
 20
169.0579621630079
 30
0.0
 10
192.3389555569291
 20
169.1253326352763
 30
0.0
 10
192.4143106483842
 20
169.1741462000102
 30
0.0
 10
192.4667102941075
 20
169.2075527502046
 30
0.0
 10
192.4679901256516
 20
169.2083686861929
 30
0.0
  0
SPLINE
  5
1F2
330
1F
100
AcDbEntity
  8
0
  6
Continuous
 62
     7
370
    25
100
AcDbSpline
210
0.0
220
0.0
230
1.0
 70
     8
 71
     3
 72
    15
 73
    11
 74
     0
 42
0.00000001
 43
0.00000001
 40
0.0
 40
0.0
 40
0.0
 40
0.0
 40
0.0081667445812973
 40
0.3321939991490804
 40
0.475627960058556
 40
0.6866830973284891
 40
0.8457435502264751
 40
0.8967566214763124
 40
0.9909540928118028
 40
1.0
 40
1.0
 40
1.0
 40
1.0
 10
192.4679901256516
 20
169.2083686861929
 30
0.0
 10
192.4675025915087
 20
169.2069312232539
 30
0.0
 10
192.4476714439775
 20
169.1484603653019
 30
0.0
 10
192.4193906639672
 20
169.0640351875827
 30
0.0
 10
192.3815613654786
 20
168.9494561155602
 30
0.0
 10
192.354977468911
 20
168.8680852283637
 30
0.0
 10
192.3378076451561
 20
168.815066236362
 30
0.0
 10
192.3299906489396
 20
168.7908643045178
 30
0.0
 10
192.3279949625037
 20
168.7846746838516
 30
0.0
 10
192.327929998553
 20
168.7844732884391
 30
0.0
 10
192.3279243065863
 20
168.7844556427146
 30
0.0
  0
ARC
  5
1F3
330
1F
100
AcDbEntity
  8
0
  6
Continuous
 62
     7
370
    25
100
AcDbCircle
 10
192.0897840642
 20
168.7083686862
 30
0.0
 40
0.25
100
AcDbArc
 50
17.7189318734
 51
90.0
  0
ARC
  5
1F4
330
1F
100
AcDbEntity
  8
0
  6
Continuous
 62
     7
370
    25
100
AcDbCircle
 10
203.0442352143
 20
172.2083686862
 30
0.0
 40
0.25
100
AcDbArc
 50
197.7189318734
 51
270.0
  0
SPLINE
  5
1F5
330
1F
100
AcDbEntity
  8
0
  6
Continuous
 62
     7
370
    25
100
AcDbSpline
210
0.0
220
0.0
230
1.0
 70
     8
 71
     3
 72
    15
 73
    11
 74
     0
 42
0.00000001
 43
0.00000001
 40
0.0
 40
0.0
 40
0.0
 40
0.0
 40
0.0089557228015919
 40
0.0999003359608148
 40
0.153163246058169
 40
0.3125636920784848
 40
0.5249666935694999
 40
0.6689893599352451
 40
0.9919152533810159
 40
1.0
 40
1.0
 40
1.0
 40
1.0
 10
203.0442352142961
 20
171.9583686861929
 30
0.0
 10
203.0442194587175
 20
171.9583579018297
 30
0.0
 10
203.0440437065609
 20
171.9582376031642
 30
0.0
 10
203.0386146905414
 20
171.9545191522461
 30
0.0
 10
203.0170792068341
 20
171.9398081111798
 30
0.0
 10
202.9693737785692
 20
171.9073592497213
 30
0.0
 10
202.8969828335773
 20
171.8587752093778
 30
0.0
 10
202.7950637215596
 20
171.7914047371097
 30
0.0
 10
202.7197086301051
 20
171.7425911723749
 30
0.0
 10
202.6673089843813
 20
171.7091846221811
 30
0.0
 10
202.6660291528372
 20
171.7083686861929
 30
0.0
  0
ARC
  5
1F6
330
1F
100
AcDbEntity
  8
0
  6
Continuous
 62
     7
370
    25
100
AcDbCircle
 10
197.5670096392
 20
170.4583686862
 30
0.0
 40
5.500000000000029
100
AcDbArc
 50
197.7189318734
 51
342.2810681266
  0
ARC
  5
1F7
330
1F
100
AcDbEntity
  8
0
  6
Continuous
 62
     7
370
    25
100
AcDbCircle
 10
197.5670096392
 20
170.4583686862
 30
0.0
 40
5.250000000000009
100
AcDbArc
 50
193.774146998
 51
346.225853002
  0
LINE
  5
1F8
330
1F
100
AcDbEntity
  8
0
  6
Continuous
 62
     7
370
    25
100
AcDbLine
 10
202.5670096392
 20
169.8583686862
 30
0.0
 11
202.5670096392
 21
171.0583686862
 31
0.0
  0
LINE
  5
1F9
330
1F
100
AcDbEntity
  8
0
  6
Continuous
 62
     7
370
    25
100
AcDbLine
 10
192.5670096392
 20
169.8583686862
 30
0.0
 11
202.5670096392
 21
169.8583686862
 31
0.0
  0
LINE
  5
1FA
330
1F
100
AcDbEntity
  8
0
  6
Continuous
 62
     7
370
    25
100
AcDbLine
 10
192.5670096392
 20
171.0583686862
 30
0.0
 11
192.5670096392
 21
169.8583686862
 31
0.0
  0
LINE
  5
1FB
330
1F
100
AcDbEntity
  8
0
  6
Continuous
 62
     7
370
    25
100
AcDbLine
 10
202.5670096392
 20
171.0583686862
 30
0.0
 11
192.5670096392
 21
171.0583686862
 31
0.0
  0
LINE
  5
1FC
330
1F
100
AcDbEntity
  8
0
  6
Continuous
 62
     7
370
    25
100
AcDbLine
 10
203.3170096392
 20
171.7083686862
 30
0.0
 11
202.6660291528
 21
171.7083686862
 31
0.0
  0
LINE
  5
1FD
330
1F
100
AcDbEntity
  8
0
  6
Continuous
 62
     7
370
    25
100
AcDbLine
 10
203.3170096392
 20
169.2083686862
 30
0.0
 11
203.3170096392
 21
171.7083686862
 31
0.0
  0
LINE
  5
1FE
330
1F
100
AcDbEntity
  8
0
  6
Continuous
 62
     7
370
    25
100
AcDbLine
 10
202.6660291528
 20
169.2083686862
 30
0.0
 11
203.3170096392
 21
169.2083686862
 31
0.0
  0
LINE
  5
1FF
330
1F
100
AcDbEntity
  8
0
  6
Continuous
 62
     7
370
    25
100
AcDbLine
 10
191.8170096392
 20
169.2083686862
 30
0.0
 11
192.4679901257
 21
169.2083686862
 31
0.0
  0
LINE
  5
200
330
1F
100
AcDbEntity
  8
0
  6
Continuous
 62
     7
370
    25
100
AcDbLine
 10
191.8170096392
 20
171.7083686862
 30
0.0
 11
191.8170096392
 21
169.2083686862
 31
0.0
  0
LINE
  5
201
330
1F
100
AcDbEntity
  8
0
  6
Continuous
 62
     7
370
    25
100
AcDbLine
 10
192.4679901257
 20
171.7083686862
 30
0.0
 11
191.8170096392
 21
171.7083686862
 31
0.0
  0
LINE
  5
202
330
1F
100
AcDbEntity
  8
0
  6
Continuous
 62
     7
370
    25
100
AcDbLine
 10
191.8170096392
 20
171.9583686862
 30
0.0
 11
191.8170096392
 21
171.7083686862
 31
0.0
  0
LINE
  5
203
330
1F
100
AcDbEntity
  8
0
  6
Continuous
 62
     7
370
    25
100
AcDbLine
 10
191.8170096392
 20
171.9583686862
 30
0.0
 11
192.0897840642
 21
171.9583686862
 31
0.0
  0
LINE
  5
204
330
1F
100
AcDbEntity
  8
0
  6
Continuous
 62
     7
370
    25
100
AcDbLine
 10
203.3170096392
 20
171.7083686862
 30
0.0
 11
203.3170096392
 21
171.9583686862
 31
0.0
  0
LINE
  5
205
330
1F
100
AcDbEntity
  8
0
  6
Continuous
 62
     7
370
    25
100
AcDbLine
 10
203.0442352143
 20
171.9583686862
 30
0.0
 11
203.3170096392
 21
171.9583686862
 31
0.0
  0
LINE
  5
206
330
1F
100
AcDbEntity
  8
0
  6
Continuous
 62
     7
370
    25
100
AcDbLine
 10
191.8170096392
 20
171.7083686862
 30
0.0
 11
191.5670096392
 21
171.7083686862
 31
0.0
  0
ARC
  5
207
330
1F
100
AcDbEntity
  8
0
  6
Continuous
 62
     7
370
    25
100
AcDbCircle
 10
191.8170096392
 20
171.7083686862
 30
0.0
 40
0.25
100
AcDbArc
 50
90.0
 51
180.0
  0
ARC
  5
208
330
1F
100
AcDbEntity
  8
0
  6
Continuous
 62
     7
370
    25
100
AcDbCircle
 10
203.3170096392
 20
171.7083686862
 30
0.0
 40
0.25
100
AcDbArc
 50
0.0
 51
90.0
  0
LINE
  5
209
330
1F
100
AcDbEntity
  8
0
  6
Continuous
 62
     7
370
    25
100
AcDbLine
 10
203.5670096392
 20
171.7083686862
 30
0.0
 11
203.3170096392
 21
171.7083686862
 31
0.0
  0
LINE
  5
20A
330
1F
100
AcDbEntity
  8
0
  6
Continuous
 62
     7
370
    25
100
AcDbLine
 10
203.5670096392
 20
171.7083686862
 30
0.0
 11
203.5670096392
 21
169.2083686862
 31
0.0
  0
LINE
  5
20B
330
1F
100
AcDbEntity
  8
0
  6
Continuous
 62
     7
370
    25
100
AcDbLine
 10
203.3170096392
 20
169.2083686862
 30
0.0
 11
203.5670096392
 21
169.2083686862
 31
0.0
  0
LINE
  5
20C
330
1F
100
AcDbEntity
  8
0
  6
Continuous
 62
     7
370
    25
100
AcDbLine
 10
191.5670096392
 20
169.2083686862
 30
0.0
 11
191.8170096392
 21
169.2083686862
 31
0.0
  0
LINE
  5
20D
330
1F
100
AcDbEntity
  8
0
  6
Continuous
 62
     7
370
    25
100
AcDbLine
 10
191.5670096392
 20
169.2083686862
 30
0.0
 11
191.5670096392
 21
171.7083686862
 31
0.0
  0
LINE
  5
20E
330
1F
100
AcDbEntity
  8
0
  6
Continuous
 62
     7
370
    25
100
AcDbLine
 10
191.8170096392
 20
169.2083686862
 30
0.0
 11
191.8170096392
 21
168.9583686862
 31
0.0
  0
ARC
  5
20F
330
1F
100
AcDbEntity
  8
0
  6
Continuous
 62
     7
370
    25
100
AcDbCircle
 10
191.8170096392
 20
169.2083686862
 30
0.0
 40
0.25
100
AcDbArc
 50
180.0
 51
270.0
  0
LINE
  5
210
330
1F
100
AcDbEntity
  8
0
  6
Continuous
 62
     7
370
    25
100
AcDbLine
 10
203.3170096392
 20
168.9583686862
 30
0.0
 11
203.3170096392
 21
169.2083686862
 31
0.0
  0
LINE
  5
211
330
1F
100
AcDbEntity
  8
0
  6
Continuous
 62
     7
370
    25
100
AcDbLine
 10
203.3170096392
 20
168.9583686862
 30
0.0
 11
203.0442352143
 21
168.9583686862
 31
0.0
  0
LINE
  5
212
330
1F
100
AcDbEntity
  8
0
  6
Continuous
 62
     7
370
    25
100
AcDbLine
 10
192.0897840642
 20
168.9583686862
 30
0.0
 11
191.8170096392
 21
168.9583686862
 31
0.0
  0
ARC
  5
213
330
1F
100
AcDbEntity
  8
0
  6
Continuous
 62
     7
370
    25
100
AcDbCircle
 10
203.3170096392
 20
169.2083686862
 30
0.0
 40
0.25
100
AcDbArc
 50
270.0
 51
0.0
  0
LINE
  5
214
330
1F
100
AcDbEntity
  8
0
  6
Continuous
 62
     7
370
    25
100
AcDbLine
 10
217.5670096392
 20
167.1866694221
 30
0.0
 11
219.7424465008
 21
166.9583686862
 31
0.0
  0
LINE
  5
215
330
1F
100
AcDbEntity
  8
0
  6
Continuous
 62
     7
370
    25
100
AcDbLine
 10
217.5670096392
 20
173.7300679502
 30
0.0
 11
217.5670096392
 21
167.1866694221
 31
0.0
  0
LINE
  5
216
330
1F
100
AcDbEntity
  8
0
  6
Continuous
 62
     7
370
    25
100
AcDbLine
 10
237.5670096392
 20
173.9583686862
 30
0.0
 11
219.7424465008
 21
173.9583686862
 31
0.0
  0
LINE
  5
217
330
1F
100
AcDbEntity
  8
0
  6
Continuous
 62
     7
370
    25
100
AcDbLine
 10
237.5670096392
 20
166.9583686862
 30
0.0
 11
237.5670096392
 21
173.9583686862
 31
0.0
  0
LINE
  5
218
330
1F
100
AcDbEntity
  8
0
  6
Continuous
 62
     7
370
    25
100
AcDbLine
 10
219.7424465008
 20
166.9583686862
 30
0.0
 11
237.5670096392
 21
166.9583686862
 31
0.0
  0
LINE
  5
219
330
1F
100
AcDbEntity
  8
0
  6
Continuous
 62
     7
370
    25
100
AcDbLine
 10
219.7424465008
 20
173.9583686862
 30
0.0
 11
217.5670096392
 21
173.7300679502
 31
0.0
  0
LINE
  5
21A
330
1F
100
AcDbEntity
  8
0
  6
Continuous
 62
     7
370
    25
100
AcDbLine
 10
202.7908118136
 20
168.7373542054
 30
0.0
 11
202.9192208523
 21
168.9214958388
 31
0.0
  0
LINE
  5
21B
330
1F
100
AcDbEntity
  8
0
  6
Continuous
 62
     7
370
    25
100
AcDbLine
 10
202.9096535115
 20
172.0035863536
 30
0.0
 11
202.7908118136
 21
172.179383167
 31
0.0
  0
LINE
  5
21C
330
1F
100
AcDbEntity
  8
0
  6
Continuous
 62
     7
370
    25
100
AcDbLine
 10
210.9835792928
 20
167.8775660506
 30
0.0
 11
210.9835792928
 21
173.0391713218
 31
0.0
  0
LINE
  5
21D
330
1F
100
AcDbEntity
  8
0
  6
Continuous
 62
     7
370
    25
100
AcDbLine
 10
210.9835792928
 20
167.8775660506
 30
0.0
 11
202.7908118136
 21
168.7373542054
 31
0.0
  0
LINE
  5
21E
330
1F
100
AcDbEntity
  8
0
  6
Continuous
 62
     7
370
    25
100
AcDbLine
 10
202.7908118136
 20
172.179383167
 30
0.0
 11
210.9835792928
 21
173.0391713218
 31
0.0
  0
LINE
  5
21F
330
1F
100
AcDbEntity
  8
0
  6
Continuous
 62
     7
370
    25
100
AcDbLine
 10
217.5670096392
 20
167.1866694221
 30
0.0
 11
210.9835792928
 21
167.8775660506
 31
0.0
  0
LINE
  5
220
330
1F
100
AcDbEntity
  8
0
  6
Continuous
 62
     7
370
    25
100
AcDbLine
 10
210.9835792928
 20
173.0391713218
 30
0.0
 11
217.5670096392
 21
173.7300679502
 31
0.0
  0
ARC
  5
221
330
1F
100
AcDbEntity
  8
0
  6
Continuous
 62
     7
370
    25
100
AcDbCircle
 10
197.5670096392
 20
170.4583686862
 30
0.0
 40
7.450000000000673
100
AcDbArc
 50
53.0863788866
 51
306.9136211134
  0
ARC
  5
222
330
1F
100
AcDbEntity
  8
0
  6
Continuous
 62
     7
370
    25
100
AcDbCircle
 10
197.5670096392
 20
170.4583686862
 30
0.0
 40
7.207531252870781
100
AcDbArc
 50
15.3041237151
 51
58.9797515565
  0
ARC
  5
223
330
1F
100
AcDbEntity
  8
0
  6
Continuous
 62
     7
370
    25
100
AcDbCircle
 10
197.5670096392
 20
170.4583686862
 30
0.0
 40
7.207531252872454
100
AcDbArc
 50
301.0202484435
 51
344.6958762849
  0
ARC
  5
224
330
1F
100
AcDbEntity
  8
0
  6
Continuous
 62
     7
370
    25
100
AcDbCircle
 10
219.7424465008
 20
238.9583686862
 30
0.0
 40
65.0
100
AcDbArc
 50
253.4999050078
 51
270.0
  0
ARC
  5
225
330
1F
100
AcDbEntity
  8
0
  6
Continuous
 62
     7
370
    25
100
AcDbCircle
 10
219.7424465008
 20
101.9583686862
 30
0.0
 40
65.0
100
AcDbArc
 50
90.0
 51
106.5000949923
  0
LINE
  5
226
330
1F
100
AcDbEntity
  8
0
  6
Continuous
 62
     7
370
    25
100
AcDbLine
 10
183.2670096392
 20
178.4583686862
 30
0.0
 11
183.2670096392
 21
162.4583686862
 31
0.0
  0
LINE
  5
227
330
1F
100
AcDbEntity
  8
0
  6
Continuous
 62
     7
370
    25
100
AcDbLine
 10
183.0670096392
 20
162.6583686862
 30
0.0
 11
183.0670096392
 21
178.2583686862
 31
0.0
  0
LINE
  5
228
330
1F
100
AcDbEntity
  8
0
  6
Continuous
 62
     7
370
    25
100
AcDbLine
 10
173.5670096392
 20
176.5766983085
 30
0.0
 11
173.5670096392
 21
163.9583686862
 31
0.0
  0
LINE
  5
229
330
1F
100
AcDbEntity
  8
0
  6
Continuous
 62
     7
370
    25
100
AcDbLine
 10
173.5670096392
 20
176.9583686862
 30
0.0
 11
173.5670096392
 21
176.5766983085
 31
0.0
  0
LINE
  5
22A
330
1F
100
AcDbEntity
  8
0
  6
Continuous
 62
     7
370
    25
100
AcDbLine
 10
173.0670096392
 20
176.1060575683
 30
0.0
 11
173.0670096392
 21
176.4583686862
 31
0.0
  0
LINE
  5
22B
330
1F
100
AcDbEntity
  8
0
  6
Continuous
 62
     7
370
    25
100
AcDbLine
 10
173.0670096392
 20
164.4583686862
 30
0.0
 11
173.0670096392
 21
176.1060575683
 31
0.0
  0
SPLINE
  5
22C
330
1F
100
AcDbEntity
  8
0
  6
Continuous
 62
     7
370
    25
100
AcDbSpline
210
0.0
220
0.0
230
1.0
 70
    24
 71
     3
 72
    10
 73
     6
 74
     0
 42
0.00000001
 43
0.00000001
 40
0.0
 40
0.0
 40
0.0
 40
0.0
 40
0.3696315497205312
 40
0.742308762798986
 40
1.0
 40
1.0
 40
1.0
 40
1.0
 10
208.7449506666868
 20
161.9583686861929
 30
0.0
 10
208.8861532563161
 20
161.9583686861929
 30
0.0
 10
209.1697219064786
 20
161.9583686861929
 30
0.0
 10
209.3888562189663
 20
161.9583686861929
 30
0.0
 10
209.4112471468846
 20
161.9583686861929
 30
0.0
 10
209.4204004379714
 20
161.9583686861929
 30
0.0
  0
SPLINE
  5
22D
330
1F
100
AcDbEntity
  8
0
  6
Continuous
 62
     7
370
    25
100
AcDbSpline
210
0.0
220
0.0
230
1.0
 70
     8
 71
     3
 72
    10
 73
     6
 74
     0
 42
0.00000001
 43
0.00000001
 40
0.0
 40
0.0
 40
0.0
 40
0.0
 40
0.5
 40
0.5
 40
1.0
 40
1.0
 40
1.0
 40
1.0
 10
208.7449506666868
 20
162.2083686861929
 30
0.0
 10
208.7212752722624
 20
162.1339883088156
 30
0.0
 10
208.7081841623778
 20
162.0696876700298
 30
0.0
 10
208.7080978410895
 20
161.9814719852469
 30
0.0
 10
208.7212667750333
 20
161.9583686861929
 30
0.0
 10
208.7449506666868
 20
161.9583686861929
 30
0.0
  0
SPLINE
  5
22E
330
1F
100
AcDbEntity
  8
0
  6
Continuous
 62
     7
370
    25
100
AcDbSpline
210
0.0
220
0.0
230
1.0
 70
     8
 71
     3
 72
    12
 73
     8
 74
     0
 42
0.00000001
 43
0.00000001
 40
0.0
 40
0.0
 40
0.0
 40
0.0
 40
0.053433594748446
 40
0.2881342309192784
 40
0.5228640167703786
 40
0.7614124794287136
 40
1.0
 40
1.0
 40
1.0
 40
1.0
 10
209.4137165837375
 20
166.1179372498515
 30
0.0
 10
209.4158724833732
 20
166.0473391180036
 30
0.0
 10
209.427497912776
 20
165.6666471858944
 30
0.0
 10
209.3617221724851
 20
164.9762539734763
 30
0.0
 10
209.2280522278668
 20
164.048041774148
 30
0.0
 10
209.0211168464918
 20
163.1235338000421
 30
0.0
 10
208.8370110835313
 20
162.5134403713717
 30
0.0
 10
208.7449506666868
 20
162.2083686861929
 30
0.0
  0
SPLINE
  5
22F
330
1F
100
AcDbEntity
  8
0
  6
Continuous
 62
     7
370
    25
100
AcDbSpline
210
0.0
220
0.0
230
1.0
 70
     8
 71
     3
 72
    11
 73
     7
 74
     0
 42
0.00000001
 43
0.00000001
 40
0.0
 40
0.0
 40
0.0
 40
0.0
 40
0.2728577873882187
 40
0.5456484409241814
 40
0.8240996541498589
 40
1.0
 40
1.0
 40
1.0
 40
1.0
 10
208.7449506666868
 20
178.7083686861929
 30
0.0
 10
208.8495039104134
 20
178.3604145874574
 30
0.0
 10
209.0585846736162
 20
177.6645920005137
 30
0.0
 10
209.2767585624879
 20
176.5949905434181
 30
0.0
 10
209.403959988526
 20
175.6416720375988
 30
0.0
 10
209.4078227590304
 20
175.0429402370777
 30
0.0
 10
209.4093182148159
 20
174.8111436718863
 30
0.0
  0
SPLINE
  5
230
330
1F
100
AcDbEntity
  8
0
  6
Continuous
 62
     7
370
    25
100
AcDbSpline
210
0.0
220
0.0
230
1.0
 70
     8
 71
     3
 72
    10
 73
     6
 74
     0
 42
0.00000001
 43
0.00000001
 40
0.0
 40
0.0
 40
0.0
 40
0.0
 40
0.5
 40
0.5
 40
1.0
 40
1.0
 40
1.0
 40
1.0
 10
208.7449506666868
 20
178.9583686861929
 30
0.0
 10
208.7212752722624
 20
178.9583686861929
 30
0.0
 10
208.7081841623778
 20
178.9355762368631
 30
0.0
 10
208.7080978410895
 20
178.84763353277
 30
0.0
 10
208.7212667750333
 20
178.7827757590962
 30
0.0
 10
208.7449506666868
 20
178.7083686861929
 30
0.0
  0
SPLINE
  5
231
330
1F
100
AcDbEntity
  8
0
  6
Continuous
 62
     7
370
    25
100
AcDbSpline
210
0.0
220
0.0
230
1.0
 70
    24
 71
     3
 72
    10
 73
     6
 74
     0
 42
0.00000001
 43
0.00000001
 40
0.0
 40
0.0
 40
0.0
 40
0.0
 40
0.2576880353726418
 40
0.6270662210835857
 40
1.0
 40
1.0
 40
1.0
 40
1.0
 10
209.4190589844397
 20
178.9583686861929
 30
0.0
 10
209.4104560353477
 20
178.9583686861929
 30
0.0
 10
209.3895213467445
 20
178.9583686861929
 30
0.0
 10
209.1705562262015
 20
178.9583686861929
 30
0.0
 10
208.8872714875072
 20
178.9583686861929
 30
0.0
 10
208.7449506666868
 20
178.9583686861929
 30
0.0
  0
LINE
  5
232
330
1F
100
AcDbEntity
  8
0
  6
Continuous
 62
     7
370
    25
100
AcDbLine
 10
209.5670096392
 20
178.7083686862
 30
0.0
 11
209.5670096392
 21
174.7597667958
 31
0.0
  0
LINE
  5
233
330
1F
100
AcDbEntity
  8
0
  6
Continuous
 62
     7
370
    25
100
AcDbLine
 10
209.5670096392
 20
166.1569705766
 30
0.0
 11
209.5670096392
 21
162.2083686862
 31
0.0
  0
SPLINE
  5
234
330
1F
100
AcDbEntity
  8
0
  6
Continuous
 62
     7
370
    25
100
AcDbSpline
210
0.0
220
0.0
230
1.0
 70
     8
 71
     3
 72
    10
 73
     6
 74
     0
 42
0.00000001
 43
0.00000001
 40
0.0
 40
0.0
 40
0.0
 40
0.0
 40
0.5
 40
0.5
 40
1.0
 40
1.0
 40
1.0
 40
1.0
 10
186.7447310445046
 20
170.7083686861929
 30
0.0
 10
186.7684046489957
 20
170.6339939322029
 30
0.0
 10
186.7814974247889
 20
170.546900200637
 30
0.0
 10
186.7815839928899
 20
170.3707343720925
 30
0.0
 10
186.7684141687666
 20
170.2827733482022
 30
0.0
 10
186.7447310445046
 20
170.2083686861929
 30
0.0
  0
SPLINE
  5
235
330
1F
100
AcDbEntity
  8
0
  6
Continuous
 62
     7
370
    25
100
AcDbSpline
210
0.0
220
0.0
230
1.0
 70
     8
 71
     3
 72
    12
 73
     8
 74
     0
 42
0.00000001
 43
0.00000001
 40
0.0
 40
0.0
 40
0.0
 40
0.0
 40
0.2499999999999999
 40
0.2499999999999999
 40
0.5
 40
0.5
 40
1.0
 40
1.0
 40
1.0
 40
1.0
 10
186.0670096392444
 20
166.2083686861929
 30
0.0
 10
186.0670096392444
 20
166.5461246212157
 30
0.0
 10
186.0827559692664
 20
166.8865326360942
 30
0.0
 10
186.1442009938518
 20
167.5610273204946
 30
0.0
 10
186.1897897531055
 20
167.8961526393618
 30
0.0
 10
186.3662407553621
 20
168.895863957702
 30
0.0
 10
186.5366984573256
 20
169.5547980607673
 30
0.0
 10
186.7447310445044
 20
170.2083686861929
 30
0.0
  0
LINE
  5
236
330
1F
100
AcDbEntity
  8
0
  6
Continuous
 62
     7
370
    25
100
AcDbLine
 10
186.0670096392
 20
174.7083686862
 30
0.0
 11
186.0670096392
 21
166.2083686862
 31
0.0
  0
SPLINE
  5
237
330
1F
100
AcDbEntity
  8
0
  6
Continuous
 62
     7
370
    25
100
AcDbSpline
210
0.0
220
0.0
230
1.0
 70
     8
 71
     3
 72
    10
 73
     6
 74
     0
 42
0.00000001
 43
0.00000001
 40
0.0
 40
0.0
 40
0.0
 40
0.0
 40
0.5
 40
0.5
 40
1.0
 40
1.0
 40
1.0
 40
1.0
 10
186.7447310445041
 20
170.7083686861928
 30
0.0
 10
186.5359211198379
 20
171.3643814527979
 30
0.0
 10
186.3653869800906
 20
172.0246483596557
 30
0.0
 10
186.1306011750717
 20
173.3569948782907
 30
0.0
 10
186.0670096392444
 20
174.029147859778
 30
0.0
 10
186.0670096392444
 20
174.7083686861929
 30
0.0
  0
SPLINE
  5
238
330
1F
100
AcDbEntity
  8
0
  6
Continuous
 62
     7
370
    25
100
AcDbSpline
210
0.0
220
0.0
230
1.0
 70
     8
 71
     3
 72
    10
 73
     6
 74
     0
 42
0.00000001
 43
0.00000001
 40
0.0
 40
0.0
 40
0.0
 40
0.0
 40
0.3156032043286427
 40
0.6577735901180607
 40
0.9999999999999999
 40
0.9999999999999999
 40
0.9999999999999999
 40
0.9999999999999999
 10
203.6439569543637
 20
175.9971581843492
 30
0.0
 10
203.6827086068599
 20
176.2860458664605
 30
0.0
 10
203.7634739895805
 20
176.8881395245633
 30
0.0
 10
203.9691926825256
 20
177.7931133852447
 30
0.0
 10
204.152879911689
 20
178.4032669370072
 30
0.0
 10
204.2447310445046
 20
178.7083686861929
 30
0.0
  0
LINE
  5
239
330
1F
100
AcDbEntity
  8
0
  6
Continuous
 62
     7
370
    25
100
AcDbLine
 10
208.7449506667
 20
178.7083686862
 30
0.0
 11
204.2447310445
 21
178.7083686862
 31
0.0
  0
SPLINE
  5
23A
330
1F
100
AcDbEntity
  8
0
  6
Continuous
 62
     7
370
    25
100
AcDbSpline
210
0.0
220
0.0
230
1.0
 70
     8
 71
     3
 72
    12
 73
     8
 74
     0
 42
0.00000001
 43
0.00000001
 40
0.0
 40
0.0
 40
0.0
 40
0.0
 40
0.2500000000000001
 40
0.2500000000000001
 40
0.5000000000000002
 40
0.5000000000000002
 40
1.0
 40
1.0
 40
1.0
 40
1.0
 10
186.0670096392444
 20
174.7083686861929
 30
0.0
 10
186.0670096392444
 20
175.0461246212157
 30
0.0
 10
186.0827559692664
 20
175.3865326360942
 30
0.0
 10
186.1442009938518
 20
176.0610273204946
 30
0.0
 10
186.1897897531055
 20
176.3961526393618
 30
0.0
 10
186.3662407553621
 20
177.3958639577019
 30
0.0
 10
186.5366984573256
 20
178.0547980607672
 30
0.0
 10
186.7447310445044
 20
178.7083686861929
 30
0.0
  0
LINE
  5
23B
330
1F
100
AcDbEntity
  8
0
  6
Continuous
 62
     7
370
    25
100
AcDbLine
 10
190.889288234
 20
178.7083686862
 30
0.0
 11
186.7447310445
 21
178.7083686862
 31
0.0
  0
SPLINE
  5
23C
330
1F
100
AcDbEntity
  8
0
  6
Continuous
 62
     7
370
    25
100
AcDbSpline
210
0.0
220
0.0
230
1.0
 70
     8
 71
     3
 72
    11
 73
     7
 74
     0
 42
0.00000001
 43
0.00000001
 40
0.0
 40
0.0
 40
0.0
 40
0.0
 40
0.2572445125465572
 40
0.5144381338569222
 40
0.7761147457459
 40
1.0
 40
1.0
 40
1.0
 40
1.0
 10
190.8892882339842
 20
178.708368686193
 30
0.0
 10
190.9870507493725
 20
178.3841148290405
 30
0.0
 10
191.18255643958
 20
177.735671262575
 30
0.0
 10
191.3948753144635
 20
176.7411149946903
 30
0.0
 10
191.5337213987619
 20
175.7798776273607
 30
0.0
 10
191.5518306521974
 20
175.1473883430817
 30
0.0
 10
191.5601805558708
 20
174.8557570719759
 30
0.0
  0
SPLINE
  5
23D
330
1F
100
AcDbEntity
  8
0
  6
Continuous
 62
     7
370
    25
100
AcDbSpline
210
0.0
220
0.0
230
1.0
 70
     8
 71
     3
 72
    12
 73
     8
 74
     0
 42
0.00000001
 43
0.00000001
 40
0.0
 40
0.0
 40
0.0
 40
0.0
 40
0.0398726228556076
 40
0.277935694786558
 40
0.5160283340103095
 40
0.7579943582673255
 40
1.0
 40
1.0
 40
1.0
 40
1.0
 10
191.5650070655813
 20
166.0619749955982
 30
0.0
 10
191.5644574871215
 20
166.0100315895817
 30
0.0
 10
191.5606266011625
 20
165.6479554178421
 30
0.0
 10
191.5099557667017
 20
164.9762713879395
 30
0.0
 10
191.3713319142165
 20
164.0480370456312
 30
0.0
 10
191.165720710714
 20
163.1235349903362
 30
0.0
 10
190.9814374213144
 20
162.513440768158
 30
0.0
 10
190.8892882339842
 20
162.2083686861929
 30
0.0
  0
LINE
  5
23E
330
1F
100
AcDbEntity
  8
0
  6
Continuous
 62
     7
370
    25
100
AcDbLine
 10
186.7447310445
 20
162.2083686862
 30
0.0
 11
190.889288234
 21
162.2083686862
 31
0.0
  0
SPLINE
  5
23F
330
1F
100
AcDbEntity
  8
0
  6
Continuous
 62
     7
370
    25
100
AcDbSpline
210
0.0
220
0.0
230
1.0
 70
     8
 71
     3
 72
    10
 73
     6
 74
     0
 42
0.00000001
 43
0.00000001
 40
0.0
 40
0.0
 40
0.0
 40
0.0
 40
0.5
 40
0.5
 40
1.0
 40
1.0
 40
1.0
 40
1.0
 10
186.7447310445041
 20
162.2083686861928
 30
0.0
 10
186.5359211198379
 20
162.8643814527979
 30
0.0
 10
186.3653869800906
 20
163.5246483596557
 30
0.0
 10
186.1306011750717
 20
164.8569948782907
 30
0.0
 10
186.0670096392444
 20
165.529147859778
 30
0.0
 10
186.0670096392444
 20
166.2083686861929
 30
0.0
  0
LINE
  5
240
330
1F
100
AcDbEntity
  8
0
  6
Continuous
 62
     7
370
    25
100
AcDbLine
 10
204.2447310445
 20
162.2083686862
 30
0.0
 11
208.7449506667
 21
162.2083686862
 31
0.0
  0
SPLINE
  5
241
330
1F
100
AcDbEntity
  8
0
  6
Continuous
 62
     7
370
    25
100
AcDbSpline
210
0.0
220
0.0
230
1.0
 70
     8
 71
     3
 72
    10
 73
     6
 74
     0
 42
0.00000001
 43
0.00000001
 40
0.0
 40
0.0
 40
0.0
 40
0.0
 40
0.3653748099084799
 40
0.730677336931056
 40
1.0
 40
1.0
 40
1.0
 40
1.0
 10
204.2447310445046
 20
162.2083686861928
 30
0.0
 10
204.1476646831304
 20
162.5326762366117
 30
0.0
 10
203.9535511632293
 20
163.1812271789879
 30
0.0
 10
203.751419554354
 20
164.082709360966
 30
0.0
 10
203.6816795822881
 20
164.6616413348478
 30
0.0
 10
203.65208328625
 20
164.9073288735337
 30
0.0
  0
LINE
  5
242
330
1F
100
AcDbEntity
  8
0
  6
Continuous
 62
     7
370
    25
100
AcDbLine
 10
203.5670096392
 20
164.9135530822
 30
0.0
 11
203.5670096392
 21
162.9583686862
 31
0.0
  0
LINE
  5
243
330
1F
100
AcDbEntity
  8
0
  6
Continuous
 62
     7
370
    25
100
AcDbLine
 10
203.5670096392
 20
162.9583686862
 30
0.0
 11
191.5670096392
 21
162.9583686862
 31
0.0
  0
LINE
  5
244
330
1F
100
AcDbEntity
  8
0
  6
Continuous
 62
     7
370
    25
100
AcDbLine
 10
191.5670096392
 20
166.0422051928
 30
0.0
 11
191.5670096392
 21
162.9583686862
 31
0.0
  0
LINE
  5
245
330
1F
100
AcDbEntity
  8
0
  6
Continuous
 62
     7
370
    25
100
AcDbLine
 10
191.5670096392
 20
177.9583686862
 30
0.0
 11
191.5670096392
 21
174.8745321796
 31
0.0
  0
LINE
  5
246
330
1F
100
AcDbEntity
  8
0
  6
Continuous
 62
     7
370
    25
100
AcDbLine
 10
191.5670096392
 20
177.9583686862
 30
0.0
 11
203.5670096392
 21
177.9583686862
 31
0.0
  0
LINE
  5
247
330
1F
100
AcDbEntity
  8
0
  6
Continuous
 62
     7
370
    25
100
AcDbLine
 10
203.5670096392
 20
177.9583686862
 30
0.0
 11
203.5670096392
 21
176.0031842902
 31
0.0
  0
SPLINE
  5
248
330
1F
100
AcDbEntity
  8
0
  6
Continuous
 62
     7
370
    25
100
AcDbSpline
210
0.0
220
0.0
230
1.0
 70
     8
 71
     3
 72
     8
 73
     4
 74
     0
 42
0.00000001
 43
0.00000001
 40
0.0
 40
0.0
 40
0.0
 40
0.0
 40
1.0
 40
1.0
 40
1.0
 40
1.0
 10
191.0507735622652
 20
178.9583686861929
 30
0.0
 10
191.224476638485
 20
178.6258572640574
 30
0.0
 10
191.3967788575477
 20
178.2925301641585
 30
0.0
 10
191.5670096392444
 20
177.9583686861929
 30
0.0
  0
SPLINE
  5
249
330
1F
100
AcDbEntity
  8
0
  6
Continuous
 62
     7
370
    25
100
AcDbSpline
210
0.0
220
0.0
230
1.0
 70
     8
 71
     3
 72
    10
 73
     6
 74
     0
 42
0.00000001
 43
0.00000001
 40
0.0
 40
0.0
 40
0.0
 40
0.0
 40
0.5
 40
0.5
 40
1.0
 40
1.0
 40
1.0
 40
1.0
 10
190.8892882339899
 20
178.9583686861929
 30
0.0
 10
190.8656128395656
 20
178.9583686861929
 30
0.0
 10
190.8525217296752
 20
178.9355762368634
 30
0.0
 10
190.8524354083868
 20
178.8476335327704
 30
0.0
 10
190.8656043423307
 20
178.7827757590964
 30
0.0
 10
190.8892882339842
 20
178.708368686193
 30
0.0
  0
SPLINE
  5
24A
330
1F
100
AcDbEntity
  8
0
  6
Continuous
 62
     7
370
    25
100
AcDbSpline
210
0.0
220
0.0
230
1.0
 70
    24
 71
     3
 72
     8
 73
     4
 74
     0
 42
0.00000001
 43
0.00000001
 40
0.0
 40
0.0
 40
0.0
 40
0.0
 40
1.0
 40
1.0
 40
1.0
 40
1.0
 10
191.0507735622652
 20
178.9583686861929
 30
0.0
 10
190.9998748453428
 20
178.9583686861929
 30
0.0
 10
190.9459407090922
 20
178.9583686861929
 30
0.0
 10
190.8892882339846
 20
178.9583686861929
 30
0.0
  0
SPLINE
  5
24B
330
1F
100
AcDbEntity
  8
0
  6
Continuous
 62
     7
370
    25
100
AcDbSpline
210
0.0
220
0.0
230
1.0
 70
     8
 71
     3
 72
     8
 73
     4
 74
     0
 42
0.00000001
 43
0.00000001
 40
0.0
 40
0.0
 40
0.0
 40
0.0
 40
1.0
 40
1.0
 40
1.0
 40
1.0
 10
203.5670096392444
 20
177.9583686861929
 30
0.0
 10
203.7372872465881
 20
178.2926220824782
 30
0.0
 10
203.9095589952138
 20
178.6258885720472
 30
0.0
 10
204.0832457162235
 20
178.9583686861927
 30
0.0
  0
SPLINE
  5
24C
330
1F
100
AcDbEntity
  8
0
  6
Continuous
 62
     7
370
    25
100
AcDbSpline
210
0.0
220
0.0
230
1.0
 70
    24
 71
     3
 72
     8
 73
     4
 74
     0
 42
0.00000001
 43
0.00000001
 40
0.0
 40
0.0
 40
0.0
 40
0.0
 40
1.0
 40
1.0
 40
1.0
 40
1.0
 10
204.083245716223
 20
178.9583686861929
 30
0.0
 10
204.1341419494783
 20
178.9583686861929
 30
0.0
 10
204.1880759044421
 20
178.9583686861929
 30
0.0
 10
204.2447310445046
 20
178.9583686861929
 30
0.0
  0
SPLINE
  5
24D
330
1F
100
AcDbEntity
  8
0
  6
Continuous
 62
     7
370
    25
100
AcDbSpline
210
0.0
220
0.0
230
1.0
 70
     8
 71
     3
 72
    10
 73
     6
 74
     0
 42
0.00000001
 43
0.00000001
 40
0.0
 40
0.0
 40
0.0
 40
0.0
 40
0.5
 40
0.5
 40
1.0
 40
1.0
 40
1.0
 40
1.0
 10
204.2447310445046
 20
178.7083686861929
 30
0.0
 10
204.268406438929
 20
178.7827490635702
 30
0.0
 10
204.2814975488136
 20
178.847049702356
 30
0.0
 10
204.2815838701019
 20
178.9352653871389
 30
0.0
 10
204.2684149361581
 20
178.9583686861929
 30
0.0
 10
204.2447310445046
 20
178.9583686861929
 30
0.0
  0
SPLINE
  5
24E
330
1F
100
AcDbEntity
  8
0
  6
Continuous
 62
     7
370
    25
100
AcDbSpline
210
0.0
220
0.0
230
1.0
 70
     8
 71
     3
 72
    10
 73
     6
 74
     0
 42
0.00000001
 43
0.00000001
 40
0.0
 40
0.0
 40
0.0
 40
0.0
 40
0.5
 40
0.5
 40
1.0
 40
1.0
 40
1.0
 40
1.0
 10
186.7447310445046
 20
178.9583686861929
 30
0.0
 10
186.7684049450605
 20
178.9583686861929
 30
0.0
 10
186.7814975022397
 20
178.9355781145455
 30
0.0
 10
186.781583916222
 20
178.8476321172466
 30
0.0
 10
186.7684135246233
 20
178.7827713245139
 30
0.0
 10
186.7447310445046
 20
178.7083686861929
 30
0.0
  0
SPLINE
  5
24F
330
1F
100
AcDbEntity
  8
0
  6
Continuous
 62
     7
370
    25
100
AcDbSpline
210
0.0
220
0.0
230
1.0
 70
    24
 71
     3
 72
    12
 73
     8
 74
     0
 42
0.00000001
 43
0.00000001
 40
0.0
 40
0.0
 40
0.0
 40
0.0
 40
0.2499999999999999
 40
0.2499999999999999
 40
0.4999999999999998
 40
0.4999999999999998
 40
1.0
 40
1.0
 40
1.0
 40
1.0
 10
186.0670096392444
 20
178.9583686861929
 30
0.0
 10
186.0670096392444
 20
178.9583686861929
 30
0.0
 10
186.0830084442255
 20
178.9583686861929
 30
0.0
 10
186.1447785825399
 20
178.9583686861929
 30
0.0
 10
186.1905207068415
 20
178.9583686861929
 30
0.0
 10
186.3671908541883
 20
178.9583686861929
 30
0.0
 10
186.5374459196686
 20
178.9583686861929
 30
0.0
 10
186.7447310445046
 20
178.9583686861929
 30
0.0
  0
LINE
  5
250
330
1F
100
AcDbEntity
  8
0
  6
Continuous
 62
     7
370
    25
100
AcDbLine
 10
186.0670096392
 20
178.9583686862
 30
0.0
 11
186.0670096392
 21
174.7083686862
 31
0.0
  0
SPLINE
  5
251
330
1F
100
AcDbEntity
  8
0
  6
Continuous
 62
     7
370
    25
100
AcDbSpline
210
0.0
220
0.0
230
1.0
 70
     8
 71
     3
 72
     8
 73
     4
 74
     0
 42
0.00000001
 43
0.00000001
 40
0.0
 40
0.0
 40
0.0
 40
0.0
 40
1.0
 40
1.0
 40
1.0
 40
1.0
 10
191.5670096392444
 20
162.9583686861929
 30
0.0
 10
191.3967320319006
 20
162.6241152899075
 30
0.0
 10
191.2244602832749
 20
162.2908488003385
 30
0.0
 10
191.0507735622652
 20
161.9583686861929
 30
0.0
  0
SPLINE
  5
252
330
1F
100
AcDbEntity
  8
0
  6
Continuous
 62
     7
370
    25
100
AcDbSpline
210
0.0
220
0.0
230
1.0
 70
    24
 71
     3
 72
     8
 73
     4
 74
     0
 42
0.00000001
 43
0.00000001
 40
0.0
 40
0.0
 40
0.0
 40
0.0
 40
1.0
 40
1.0
 40
1.0
 40
1.0
 10
191.0507735622652
 20
161.9583686861929
 30
0.0
 10
190.9998748453427
 20
161.9583686861929
 30
0.0
 10
190.945940709092
 20
161.9583686861929
 30
0.0
 10
190.8892882339842
 20
161.9583686861929
 30
0.0
  0
SPLINE
  5
253
330
1F
100
AcDbEntity
  8
0
  6
Continuous
 62
     7
370
    25
100
AcDbSpline
210
0.0
220
0.0
230
1.0
 70
     8
 71
     3
 72
    10
 73
     6
 74
     0
 42
0.00000001
 43
0.00000001
 40
0.0
 40
0.0
 40
0.0
 40
0.0
 40
0.5
 40
0.5
 40
1.0
 40
1.0
 40
1.0
 40
1.0
 10
190.8892882339842
 20
162.2083686861929
 30
0.0
 10
190.8656128395598
 20
162.1339883088156
 30
0.0
 10
190.8525217296752
 20
162.0696876700298
 30
0.0
 10
190.8524354083869
 20
161.9814719852469
 30
0.0
 10
190.8656043423308
 20
161.9583686861929
 30
0.0
 10
190.8892882339842
 20
161.9583686861929
 30
0.0
  0
SPLINE
  5
254
330
1F
100
AcDbEntity
  8
0
  6
Continuous
 62
     7
370
    25
100
AcDbSpline
210
0.0
220
0.0
230
1.0
 70
     8
 71
     3
 72
     8
 73
     4
 74
     0
 42
0.00000001
 43
0.00000001
 40
0.0
 40
0.0
 40
0.0
 40
0.0
 40
1.0
 40
1.0
 40
1.0
 40
1.0
 10
204.0832457162236
 20
161.9583686861929
 30
0.0
 10
203.9095426400038
 20
162.2908801083284
 30
0.0
 10
203.7372404209411
 20
162.6242072082273
 30
0.0
 10
203.5670096392444
 20
162.9583686861929
 30
0.0
  0
SPLINE
  5
255
330
1F
100
AcDbEntity
  8
0
  6
Continuous
 62
     7
370
    25
100
AcDbSpline
210
0.0
220
0.0
230
1.0
 70
     8
 71
     3
 72
    10
 73
     6
 74
     0
 42
0.00000001
 43
0.00000001
 40
0.0
 40
0.0
 40
0.0
 40
0.0
 40
0.5
 40
0.5
 40
1.0
 40
1.0
 40
1.0
 40
1.0
 10
204.2447310445046
 20
161.9583686861929
 30
0.0
 10
204.268406438929
 20
161.9583686861929
 30
0.0
 10
204.2814975488136
 20
161.9811611355227
 30
0.0
 10
204.2815838701019
 20
162.0691038396157
 30
0.0
 10
204.2684149361581
 20
162.1339616132896
 30
0.0
 10
204.2447310445046
 20
162.2083686861928
 30
0.0
  0
SPLINE
  5
256
330
1F
100
AcDbEntity
  8
0
  6
Continuous
 62
     7
370
    25
100
AcDbSpline
210
0.0
220
0.0
230
1.0
 70
    24
 71
     3
 72
     8
 73
     4
 74
     0
 42
0.00000001
 43
0.00000001
 40
0.0
 40
0.0
 40
0.0
 40
0.0
 40
1.0
 40
1.0
 40
1.0
 40
1.0
 10
204.0832457162236
 20
161.9583686861929
 30
0.0
 10
204.1341419494786
 20
161.9583686861929
 30
0.0
 10
204.1880759044423
 20
161.9583686861929
 30
0.0
 10
204.2447310445046
 20
161.9583686861929
 30
0.0
  0
SPLINE
  5
257
330
1F
100
AcDbEntity
  8
0
  6
Continuous
 62
     7
370
    25
100
AcDbSpline
210
0.0
220
0.0
230
1.0
 70
     8
 71
     3
 72
    10
 73
     6
 74
     0
 42
0.00000001
 43
0.00000001
 40
0.0
 40
0.0
 40
0.0
 40
0.0
 40
0.5
 40
0.5
 40
1.0
 40
1.0
 40
1.0
 40
1.0
 10
186.7447310445046
 20
162.2083686861929
 30
0.0
 10
186.7684032844162
 20
162.1339982192673
 30
0.0
 10
186.7814972743514
 20
162.0696926229795
 30
0.0
 10
186.7815841418129
 20
161.9814698351736
 30
0.0
 10
186.7684143520535
 20
161.9583686861929
 30
0.0
 10
186.7447310445046
 20
161.9583686861929
 30
0.0
  0
SPLINE
  5
258
330
1F
100
AcDbEntity
  8
0
  6
Continuous
 62
     7
370
    25
100
AcDbSpline
210
0.0
220
0.0
230
1.0
 70
    24
 71
     3
 72
    12
 73
     8
 74
     0
 42
0.00000001
 43
0.00000001
 40
0.0
 40
0.0
 40
0.0
 40
0.0
 40
0.2500000000000001
 40
0.2500000000000001
 40
0.5000000000000001
 40
0.5000000000000001
 40
1.0
 40
1.0
 40
1.0
 40
1.0
 10
186.0670096392444
 20
161.9583686861929
 30
0.0
 10
186.0670096392444
 20
161.9583686861929
 30
0.0
 10
186.0830084442255
 20
161.9583686861929
 30
0.0
 10
186.1447785825399
 20
161.9583686861929
 30
0.0
 10
186.1905207068415
 20
161.9583686861929
 30
0.0
 10
186.3671908541883
 20
161.9583686861929
 30
0.0
 10
186.5374459196686
 20
161.9583686861929
 30
0.0
 10
186.7447310445046
 20
161.9583686861929
 30
0.0
  0
LINE
  5
259
330
1F
100
AcDbEntity
  8
0
  6
Continuous
 62
     7
370
    25
100
AcDbLine
 10
186.0670096392
 20
161.9583686862
 30
0.0
 11
186.0670096392
 21
166.2083686862
 31
0.0
  0
LINE
  5
25A
330
1F
100
AcDbEntity
  8
0
  6
Continuous
 62
     7
370
    25
100
AcDbLine
 10
204.2447310445
 20
178.9583686862
 30
0.0
 11
208.7449506667
 21
178.9583686862
 31
0.0
  0
LINE
  5
25B
330
1F
100
AcDbEntity
  8
0
  6
Continuous
 62
     7
370
    25
100
AcDbLine
 10
186.7447310445
 20
178.9583686862
 30
0.0
 11
190.889288234
 21
178.9583686862
 31
0.0
  0
LINE
  5
25C
330
1F
100
AcDbEntity
  8
0
  6
Continuous
 62
     7
370
    25
100
AcDbLine
 10
208.7449506667
 20
161.9583686862
 30
0.0
 11
204.2447310445
 21
161.9583686862
 31
0.0
  0
LINE
  5
25D
330
1F
100
AcDbEntity
  8
0
  6
Continuous
 62
     7
370
    25
100
AcDbLine
 10
190.889288234
 20
161.9583686862
 30
0.0
 11
186.7447310445
 21
161.9583686862
 31
0.0
  0
LINE
  5
25E
330
1F
100
AcDbEntity
  8
0
  6
Continuous
 62
     7
370
    25
100
AcDbLine
 10
204.0832457162
 20
178.9583686862
 30
0.0
 11
191.0507735623
 21
178.9583686862
 31
0.0
  0
LINE
  5
25F
330
1F
100
AcDbEntity
  8
0
  6
Continuous
 62
     7
370
    25
100
AcDbLine
 10
204.0832457162
 20
161.9583686862
 30
0.0
 11
191.0507735623
 21
161.9583686862
 31
0.0
  0
LINE
  5
260
330
1F
100
AcDbEntity
  8
0
  6
Continuous
 62
     7
370
    25
100
AcDbLine
 10
190.1212054516
 20
170.2083686862
 30
0.0
 11
186.7447310445
 21
170.2083686862
 31
0.0
  0
LINE
  5
261
330
1F
100
AcDbEntity
  8
0
  6
Continuous
 62
     7
370
    25
100
AcDbLine
 10
186.7447310445
 20
170.7083686862
 30
0.0
 11
190.1212054516
 21
170.7083686862
 31
0.0
  0
INSERT
  5
26D
330
1F
100
AcDbEntity
  8
FORMAT
100
AcDbBlockReference
  2
SW_CENTERMARKSYMBOL_1
 10
197.5670096392
 20
170.4583686862
 30
0.0
  0
ENDSEC
  0
SECTION
  2
OBJECTS
  0
DICTIONARY
  5
C
330
0
100
AcDbDictionary
281
     1
  3
ACAD_GROUP
350
D
  3
ACAD_LAYOUT
350
1A
  3
ACAD_MLINESTYLE
350
17
  3
ACAD_PLOTSETTINGS
350
19
  3
ACAD_PLOTSTYLENAME
350
E
  3
ACAD_SCALELIST
350
47
  3
DWGPROPS
350
26E
  0
DICTIONARY
  5
D
102
{ACAD_REACTORS
330
C
102
}
330
C
100
AcDbDictionary
281
     1
  0
DICTIONARY
  5
1A
102
{ACAD_REACTORS
330
C
102
}
330
C
100
AcDbDictionary
281
     1
  3
Layout1
350
1E
  3
Layout2
350
26
  3
Model
350
22
  0
DICTIONARY
  5
17
102
{ACAD_REACTORS
330
C
102
}
330
C
100
AcDbDictionary
281
     1
  3
Standard
350
18
  0
DICTIONARY
  5
19
102
{ACAD_REACTORS
330
C
102
}
330
C
100
AcDbDictionary
281
     1
  0
ACDBDICTIONARYWDFLT
  5
E
102
{ACAD_REACTORS
330
C
102
}
330
C
100
AcDbDictionary
281
     1
  3
Normal
350
F
100
AcDbDictionaryWithDefault
340
F
  0
DICTIONARY
  5
47
102
{ACAD_REACTORS
330
C
102
}
330
C
100
AcDbDictionary
281
     1
  3
A0
350
48
  3
A1
350
49
  3
A2
350
4A
  3
A3
350
4B
  3
A4
350
4C
  3
A5
350
4D
  3
A6
350
4E
  3
A7
350
4F
  3
A8
350
50
  3
A9
350
51
  3
B0
350
52
  3
B1
350
53
  3
B2
350
54
  3
B3
350
55
  3
B4
350
56
  3
B5
350
57
  3
B6
350
58
  0
XRECORD
  5
26E
102
{ACAD_REACTORS
330
C
102
}
330
C
100
AcDbXrecord
280
     1
  1
DWGPROPS COOKIE
  2

  3

  4

  6

  7

  8
user28
  9

300
=
301
=
302
=
303
=
304
=
305
=
306
=
307
=
308
=
309
=
 40
0.0
 41
2460326.309504803
 42
2460326.309506053
  1

 90
        0
  0
LAYOUT
  5
1E
102
{ACAD_REACTORS
330
1A
102
}
330
1A
100
AcDbPlotSettings
  1

  2
none_device
  4

  6

 40
0.0
 41
0.0
 42
0.0
 43
0.0
 44
0.0
 45
0.0
 46
0.0
 47
0.0
 48
0.0
 49
0.0
140
0.0
141
0.0
142
1.0
143
1.0
 70
   688
 72
     1
 73
     0
 74
     5
  7

 75
    16
147
1.0
148
0.0
149
0.0
100
AcDbLayout
  1
Layout1
 70
     1
 71
     1
 10
0.0
 20
0.0
 11
420.0
 21
297.0
 12
0.0
 22
0.0
 32
0.0
 14
1.0000000000E+20
 24
1.0000000000E+20
 34
1.0000000000E+20
 15
-1.0000000000E+20
 25
-1.0000000000E+20
 35
-1.0000000000E+20
146
0.0
 13
0.0
 23
0.0
 33
0.0
 16
1.0
 26
0.0
 36
0.0
 17
0.0
 27
1.0
 37
0.0
 76
     0
330
1B
  0
LAYOUT
  5
26
102
{ACAD_REACTORS
330
1A
102
}
330
1A
100
AcDbPlotSettings
  1

  2
none_device
  4

  6

 40
0.0
 41
0.0
 42
0.0
 43
0.0
 44
0.0
 45
0.0
 46
0.0
 47
0.0
 48
0.0
 49
0.0
140
0.0
141
0.0
142
1.0
143
1.0
 70
   688
 72
     1
 73
     0
 74
     5
  7

 75
    16
147
1.0
148
0.0
149
0.0
100
AcDbLayout
  1
Layout2
 70
     1
 71
     2
 10
0.0
 20
0.0
 11
0.0
 21
0.0
 12
0.0
 22
0.0
 32
0.0
 14
0.0
 24
0.0
 34
0.0
 15
0.0
 25
0.0
 35
0.0
146
0.0
 13
0.0
 23
0.0
 33
0.0
 16
1.0
 26
0.0
 36
0.0
 17
0.0
 27
1.0
 37
0.0
 76
     0
330
23
  0
LAYOUT
  5
22
102
{ACAD_REACTORS
330
1A
102
}
330
1A
100
AcDbPlotSettings
  1

  2
none_device
  4
Letter_(8.50_x_11.00_Inches)
  6

 40
6.35
 41
6.35
 42
6.35000508
 43
6.35000508
 44
215.9
 45
279.4
 46
0.0
 47
0.0
 48
0.0
 49
0.0
140
0.0
141
0.0
142
1.0
143
1.0
 70
  1712
 72
     1
 73
     0
 74
     0
  7

 75
     0
147
1.0
148
0.0
149
0.0
100
AcDbLayout
  1
Model
 70
     1
 71
     0
 10
0.0
 20
0.0
 11
594.0
 21
420.0
 12
0.0
 22
0.0
 32
0.0
 14
0.0
 24
0.0
 34
0.0
 15
594.0
 25
420.0
 35
0.0
146
0.0
 13
0.0
 23
0.0
 33
0.0
 16
1.0
 26
0.0
 36
0.0
 17
0.0
 27
1.0
 37
0.0
 76
     0
330
1F
331
29
  0
MLINESTYLE
  5
18
102
{ACAD_REACTORS
330
17
102
}
330
17
100
AcDbMlineStyle
  2
Standard
 70
     0
  3

 62
   256
 51
90.0
 52
90.0
 71
     2
 49
0.5
 62
   256
  6
BYLAYER
 49
-0.5
 62
   256
  6
BYLAYER
  0
ACDBPLACEHOLDER
  5
F
102
{ACAD_REACTORS
330
E
102
}
330
E
  0
SCALE
  5
48
102
{ACAD_REACTORS
330
47
102
}
330
47
100
AcDbScale
 70
     0
300
1:1
140
1.0
141
1.0
290
     1
  0
SCALE
  5
49
102
{ACAD_REACTORS
330
47
102
}
330
47
100
AcDbScale
 70
     0
300
1:2
140
1.0
141
2.0
290
     0
  0
SCALE
  5
4A
102
{ACAD_REACTORS
330
47
102
}
330
47
100
AcDbScale
 70
     0
300
1:4
140
1.0
141
4.0
290
     0
  0
SCALE
  5
4B
102
{ACAD_REACTORS
330
47
102
}
330
47
100
AcDbScale
 70
     0
300
1:5
140
1.0
141
5.0
290
     0
  0
SCALE
  5
4C
102
{ACAD_REACTORS
330
47
102
}
330
47
100
AcDbScale
 70
     0
300
1:8
140
1.0
141
8.0
290
     0
  0
SCALE
  5
4D
102
{ACAD_REACTORS
330
47
102
}
330
47
100
AcDbScale
 70
     0
300
1:10
140
1.0
141
10.0
290
     0
  0
SCALE
  5
4E
102
{ACAD_REACTORS
330
47
102
}
330
47
100
AcDbScale
 70
     0
300
1:16
140
1.0
141
16.0
290
     0
  0
SCALE
  5
4F
102
{ACAD_REACTORS
330
47
102
}
330
47
100
AcDbScale
 70
     0
300
1:20
140
1.0
141
20.0
290
     0
  0
SCALE
  5
50
102
{ACAD_REACTORS
330
47
102
}
330
47
100
AcDbScale
 70
     0
300
1:30
140
1.0
141
30.0
290
     0
  0
SCALE
  5
51
102
{ACAD_REACTORS
330
47
102
}
330
47
100
AcDbScale
 70
     0
300
1:40
140
1.0
141
40.0
290
     0
  0
SCALE
  5
52
102
{ACAD_REACTORS
330
47
102
}
330
47
100
AcDbScale
 70
     0
300
1:50
140
1.0
141
50.0
290
     0
  0
SCALE
  5
53
102
{ACAD_REACTORS
330
47
102
}
330
47
100
AcDbScale
 70
     0
300
1:100
140
1.0
141
100.0
290
     0
  0
SCALE
  5
54
102
{ACAD_REACTORS
330
47
102
}
330
47
100
AcDbScale
 70
     0
300
2:1
140
2.0
141
1.0
290
     0
  0
SCALE
  5
55
102
{ACAD_REACTORS
330
47
102
}
330
47
100
AcDbScale
 70
     0
300
4:1
140
4.0
141
1.0
290
     0
  0
SCALE
  5
56
102
{ACAD_REACTORS
330
47
102
}
330
47
100
AcDbScale
 70
     0
300
8:1
140
8.0
141
1.0
290
     0
  0
SCALE
  5
57
102
{ACAD_REACTORS
330
47
102
}
330
47
100
AcDbScale
 70
     0
300
10:1
140
10.0
141
1.0
290
     0
  0
SCALE
  5
58
102
{ACAD_REACTORS
330
47
102
}
330
47
100
AcDbScale
 70
     0
300
100:1
140
100.0
141
1.0
290
     0
  0
ENDSEC
  0
EOF
