  0
SECTION
  2
HEADER
  9
$ACADVER
  1
AC1015
  9
$ACADMAINTVER
 70
     6
  9
$DWGCODEPAGE
  3
DOS932
  9
$INSBASE
 10
0.0
 20
0.0
 30
0.0
  9
$EXTMIN
 10
0.0
 20
0.0
 30
0.0
  9
$EXTMAX
 10
431.8
 20
279.4
 30
0.0
  9
$LIMMIN
 10
0.0
 20
0.0
  9
$LIMMAX
 10
431.8
 20
279.4
  9
$ORTHOMODE
 70
     0
  9
$REGENMODE
 70
     1
  9
$FILLMODE
 70
     1
  9
$QTEXTMODE
 70
     0
  9
$MIRRTEXT
 70
     1
  9
$LTSCALE
 40
1.0
  9
$ATTMODE
 70
     1
  9
$TEXTSIZE
 40
3.5
  9
$TRACEWID
 40
1.0
  9
$TEXTSTYLE
  7
Standard
  9
$CLAYER
  8
0
  9
$CELTYPE
  6
ByLayer
  9
$CECOLOR
 62
   256
  9
$CELTSCALE
 40
1.0
  9
$DISPSILH
 70
     0
  9
$DIMSCALE
 40
1.0
  9
$DIMASZ
 40
3.556
  9
$DIMEXO
 40
1.0
  9
$DIMDLI
 40
3.75
  9
$DIMRND
 40
0.0
  9
$DIMDLE
 40
0.0
  9
$DIMEXE
 40
1.0
  9
$DIMTP
 40
0.0
  9
$DIMTM
 40
0.0
  9
$DIMTXT
 40
3.5
  9
$DIMCEN
 40
2.5
  9
$DIMTSZ
 40
0.0
  9
$DIMTOL
 70
     0
  9
$DIMLIM
 70
     0
  9
$DIMTIH
 70
     1
  9
$DIMTOH
 70
     1
  9
$DIMSE1
 70
     0
  9
$DIMSE2
 70
     0
  9
$DIMTAD
 70
     1
  9
$DIMZIN
 70
     0
  9
$DIMBLK
  1

  9
$DIMASO
 70
     1
  9
$DIMSHO
 70
     1
  9
$DIMPOST
  1

  9
$DIMAPOST
  1

  9
$DIMALT
 70
     0
  9
$DIMALTD
 70
     3
  9
$DIMALTF
 40
0.0393700787
  9
$DIMLFAC
 40
1.0
  9
$DIMTOFL
 70
     1
  9
$DIMTVP
 40
0.0
  9
$DIMTIX
 70
     0
  9
$DIMSOXD
 70
     0
  9
$DIMSAH
 70
     0
  9
$DIMBLK1
  1

  9
$DIMBLK2
  1

  9
$DIMSTYLE
  2
ISO-25
  9
$DIMCLRD
 70
     0
  9
$DIMCLRE
 70
     0
  9
$DIMCLRT
 70
     0
  9
$DIMTFAC
 40
1.0
  9
$DIMGAP
 40
1.524
  9
$DIMJUST
 70
     0
  9
$DIMSD1
 70
     0
  9
$DIMSD2
 70
     0
  9
$DIMTOLJ
 70
     0
  9
$DIMTZIN
 70
     0
  9
$DIMALTZ
 70
     0
  9
$DIMALTTZ
 70
     0
  9
$DIMUPT
 70
     0
  9
$DIMDEC
 70
     3
  9
$DIMTDEC
 70
     3
  9
$DIMALTU
 70
     2
  9
$DIMALTTD
 70
     3
  9
$DIMTXSTY
  7
Standard
  9
$DIMAUNIT
 70
     0
  9
$DIMADEC
 70
     2
  9
$DIMALTRND
 40
0.0
  9
$DIMAZIN
 70
     0
  9
$DIMDSEP
 70
    44
  9
$DIMATFIT
 70
     3
  9
$DIMFRAC
 70
     0
  9
$DIMLDRBLK
  1

  9
$DIMLUNIT
 70
     2
  9
$DIMLWD
 70
    -2
  9
$DIMLWE
 70
    -2
  9
$DIMTMOVE
 70
     0
  9
$LUNITS
 70
     2
  9
$LUPREC
 70
     3
  9
$SKETCHINC
 40
1.0
  9
$FILLETRAD
 40
0.0
  9
$AUNITS
 70
     0
  9
$AUPREC
 70
     2
  9
$MENU
  1
.
  9
$ELEVATION
 40
0.0
  9
$PELEVATION
 40
0.0
  9
$THICKNESS
 40
0.0
  9
$LIMCHECK
 70
     0
  9
$CHAMFERA
 40
0.0
  9
$CHAMFERB
 40
0.0
  9
$CHAMFERC
 40
0.0
  9
$CHAMFERD
 40
0.0
  9
$SKPOLY
 70
     0
  9
$TDCREATE
 40
2460297.673241077
  9
$TDUCREATE
 40
2460297.298241077
  9
$TDUPDATE
 40
2460297.673242199
  9
$TDUUPDATE
 40
2460297.298242199
  9
$TDINDWG
 40
0.0000000116
  9
$TDUSRTIMER
 40
0.0000000116
  9
$USRTIMER
 70
     1
  9
$ANGBASE
 50
0.0
  9
$ANGDIR
 70
     0
  9
$PDMODE
 70
     0
  9
$PDSIZE
 40
-1.0
  9
$PLINEWID
 40
0.0
  9
$SPLFRAME
 70
     0
  9
$SPLINETYPE
 70
     6
  9
$SPLINESEGS
 70
     8
  9
$HANDSEED
  5
307
  9
$SURFTAB1
 70
     6
  9
$SURFTAB2
 70
     6
  9
$SURFTYPE
 70
     6
  9
$SURFU
 70
     6
  9
$SURFV
 70
     6
  9
$UCSBASE
  2

  9
$UCSNAME
  2

  9
$UCSORG
 10
0.0
 20
0.0
 30
0.0
  9
$UCSXDIR
 10
1.0
 20
0.0
 30
0.0
  9
$UCSYDIR
 10
0.0
 20
1.0
 30
0.0
  9
$UCSORTHOREF
  2

  9
$UCSORTHOVIEW
 70
     0
  9
$UCSORGTOP
 10
0.0
 20
0.0
 30
0.0
  9
$UCSORGBOTTOM
 10
0.0
 20
0.0
 30
0.0
  9
$UCSORGLEFT
 10
0.0
 20
0.0
 30
0.0
  9
$UCSORGRIGHT
 10
0.0
 20
0.0
 30
0.0
  9
$UCSORGFRONT
 10
0.0
 20
0.0
 30
0.0
  9
$UCSORGBACK
 10
0.0
 20
0.0
 30
0.0
  9
$PUCSBASE
  2

  9
$PUCSNAME
  2

  9
$PUCSORG
 10
0.0
 20
0.0
 30
0.0
  9
$PUCSXDIR
 10
1.0
 20
0.0
 30
0.0
  9
$PUCSYDIR
 10
0.0
 20
1.0
 30
0.0
  9
$PUCSORTHOREF
  2

  9
$PUCSORTHOVIEW
 70
     0
  9
$PUCSORGTOP
 10
0.0
 20
0.0
 30
0.0
  9
$PUCSORGBOTTOM
 10
0.0
 20
0.0
 30
0.0
  9
$PUCSORGLEFT
 10
0.0
 20
0.0
 30
0.0
  9
$PUCSORGRIGHT
 10
0.0
 20
0.0
 30
0.0
  9
$PUCSORGFRONT
 10
0.0
 20
0.0
 30
0.0
  9
$PUCSORGBACK
 10
0.0
 20
0.0
 30
0.0
  9
$USERI1
 70
     0
  9
$USERI2
 70
     0
  9
$USERI3
 70
     0
  9
$USERI4
 70
     0
  9
$USERI5
 70
     0
  9
$USERR1
 40
0.0
  9
$USERR2
 40
0.0
  9
$USERR3
 40
0.0
  9
$USERR4
 40
0.0
  9
$USERR5
 40
0.0
  9
$WORLDVIEW
 70
     1
  9
$SHADEDGE
 70
     3
  9
$SHADEDIF
 70
    70
  9
$TILEMODE
 70
     1
  9
$MAXACTVP
 70
    64
  9
$PINSBASE
 10
0.0
 20
0.0
 30
0.0
  9
$PLIMCHECK
 70
     0
  9
$PEXTMIN
 10
1.0000000000E+20
 20
1.0000000000E+20
 30
1.0000000000E+20
  9
$PEXTMAX
 10
-1.0000000000E+20
 20
-1.0000000000E+20
 30
-1.0000000000E+20
  9
$PLIMMIN
 10
0.0
 20
0.0
  9
$PLIMMAX
 10
420.0
 20
297.0
  9
$UNITMODE
 70
     0
  9
$VISRETAIN
 70
     1
  9
$PLINEGEN
 70
     0
  9
$PSLTSCALE
 70
     1
  9
$TREEDEPTH
 70
  3020
  9
$CMLSTYLE
  2
Standard
  9
$CMLJUST
 70
     0
  9
$CMLSCALE
 40
20.0
  9
$PROXYGRAPHICS
 70
     1
  9
$MEASUREMENT
 70
     1
  9
$CELWEIGHT
370
    -1
  9
$ENDCAPS
280
     0
  9
$JOINSTYLE
280
     0
  9
$LWDISPLAY
290
     1
  9
$INSUNITS
 70
     4
  9
$HYPERLINKBASE
  1

  9
$STYLESHEET
  1

  9
$XEDIT
290
     1
  9
$CEPSNTYPE
380
     0
  9
$PSTYLEMODE
290
     1
  9
$FINGERPRINTGUID
  2
{077d2b8e-35cb-4390-a56d-415f5958f0ab}
  9
$VERSIONGUID
  2
{FAEB1C32-E019-11D5-929B-00C0DF256EC4}
  9
$EXTNAMES
290
     1
  9
$PSVPSCALE
 40
0.0
  9
$OLESTARTUP
290
     0
  0
ENDSEC
  0
SECTION
  2
CLASSES
  0
CLASS
  1
ACDBDICTIONARYWDFLT
  2
AcDbDictionaryWithDefault
  3
ObjectDBX Classes
 90
        0
280
     0
281
     0
  0
CLASS
  1
VISUALSTYLE
  2
AcDbVisualStyle
  3
ObjectDBX Classes
 90
     4095
280
     0
281
     0
  0
CLASS
  1
MATERIAL
  2
AcDbMaterial
  3
ObjectDBX Classes
 90
     1153
280
     0
281
     0
  0
CLASS
  1
SCALE
  2
AcDbScale
  3
ObjectDBX Classes
 90
     1153
280
     0
281
     0
  0
CLASS
  1
TABLESTYLE
  2
AcDbTableStyle
  3
ObjectDBX Classes
 90
     4095
280
     0
281
     0
  0
CLASS
  1
MLEADERSTYLE
  2
AcDbMLeaderStyle
  3
ACDB_MLEADERSTYLE_CLASS
 90
     4095
280
     0
281
     0
  0
CLASS
  1
SUN
  2
AcDbSun
  3
SCENEOE
 90
     1153
280
     0
281
     0
  0
CLASS
  1
ACDBPLACEHOLDER
  2
AcDbPlaceHolder
  3
ObjectDBX Classes
 90
        0
280
     0
281
     0
  0
CLASS
  1
LAYOUT
  2
AcDbLayout
  3
ObjectDBX Classes
 90
        0
280
     0
281
     0
  0
ENDSEC
  0
SECTION
  2
TABLES
  0
TABLE
  2
VPORT
  5
8
330
0
100
AcDbSymbolTable
 70
     1
  0
VPORT
  5
29
330
8
100
AcDbSymbolTableRecord
100
AcDbViewportTableRecord
  2
*Active
 70
     0
 10
0.0
 20
0.0
 11
1.0
 21
1.0
 12
215.9
 22
139.7
 13
0.0
 23
0.0
 14
10.0
 24
10.0
 15
10.0
 25
10.0
 16
0.0
 26
0.0
 36
1.0
 17
0.0
 27
0.0
 37
0.0
 40
279.4
 41
1.5454545455
 42
50.0
 43
0.0
 44
0.0
 50
0.0
 51
0.0
 71
     0
 72
  2000
 73
     1
 74
     3
 75
     0
 76
     0
 77
     0
 78
     0
281
     0
 65
     1
110
0.0
120
0.0
130
0.0
111
1.0
121
0.0
131
0.0
112
0.0
122
1.0
132
0.0
 79
     0
146
0.0
  0
ENDTAB
  0
TABLE
  2
LTYPE
  5
5
330
0
100
AcDbSymbolTable
 70
     6
  0
LTYPE
  5
14
330
5
100
AcDbSymbolTableRecord
100
AcDbLinetypeTableRecord
  2
ByBlock
 70
     0
  3

 72
    65
 73
     0
 40
0.0
  0
LTYPE
  5
15
330
5
100
AcDbSymbolTableRecord
100
AcDbLinetypeTableRecord
  2
ByLayer
 70
     0
  3

 72
    65
 73
     0
 40
0.0
  0
LTYPE
  5
16
330
5
100
AcDbSymbolTableRecord
100
AcDbLinetypeTableRecord
  2
Continuous
 70
     0
  3
Solid line
 72
    65
 73
     0
 40
0.0
  0
LTYPE
  5
5E
330
5
100
AcDbSymbolTableRecord
100
AcDbLinetypeTableRecord
  2
HIDDEN
 70
     0
  3
Hidden __ __ __ __ __ __ __ __ __ __ __ __ __ __
 72
    65
 73
     2
 40
1.905
 49
1.27
 74
     0
 49
-0.635
 74
     0
  0
LTYPE
  5
5F
330
5
100
AcDbSymbolTableRecord
100
AcDbLinetypeTableRecord
  2
PHANTOM
 70
     0
  3
Phantom ______  __  __  ______  __  __  ______
 72
    65
 73
     6
 40
12.7
 49
6.35
 74
     0
 49
-1.27
 74
     0
 49
1.27
 74
     0
 49
-1.27
 74
     0
 49
1.27
 74
     0
 49
-1.27
 74
     0
  0
LTYPE
  5
60
330
5
100
AcDbSymbolTableRecord
100
AcDbLinetypeTableRecord
  2
CENTER
 70
     0
  3
Center ____ _ ____ _ ____ _ ____ _ ____ _ ____
 72
    65
 73
     4
 40
10.16
 49
6.35
 74
     0
 49
-1.27
 74
     0
 49
1.27
 74
     0
 49
-1.27
 74
     0
  0
LTYPE
  5
61
330
5
100
AcDbSymbolTableRecord
100
AcDbLinetypeTableRecord
  2
CENTERX2
 70
     0
  3
Center (2x) ________  __  ________  __  _____
 72
    65
 73
     4
 40
20.32
 49
12.7
 74
     0
 49
-2.54
 74
     0
 49
2.54
 74
     0
 49
-2.54
 74
     0
  0
LTYPE
  5
62
330
5
100
AcDbSymbolTableRecord
100
AcDbLinetypeTableRecord
  2
DOT2
 70
     0
  3
Dot (.5x) ........................................
 72
    65
 73
     2
 40
0.635
 49
0.0
 74
     0
 49
-0.635
 74
     0
  0
ENDTAB
  0
TABLE
  2
LAYER
  5
2
330
0
100
AcDbSymbolTable
 70
     1
  0
LAYER
  5
10
330
2
100
AcDbSymbolTableRecord
100
AcDbLayerTableRecord
  2
0
 70
     0
 62
     7
  6
Continuous
370
    -3
390
F
  0
ENDTAB
  0
TABLE
  2
STYLE
  5
3
330
0
100
AcDbSymbolTable
 70
     2
  0
STYLE
  5
11
330
3
100
AcDbSymbolTableRecord
100
AcDbTextStyleTableRecord
  2
Standard
 70
     0
 40
0.0
 41
1.0
 50
0.0
 71
     0
 42
3.5
  3
txt
  4
bigfont
  0
STYLE
  5
63
330
3
100
AcDbSymbolTableRecord
100
AcDbTextStyleTableRecord
  2
SLDTEXTSTYLE0
 70
     0
 40
0.0
 41
0.7
 50
0.0
 71
     0
 42
3.5
  3
TXT
  4
bigfont
  0
ENDTAB
  0
TABLE
  2
VIEW
  5
6
330
0
100
AcDbSymbolTable
 70
     0
  0
ENDTAB
  0
TABLE
  2
UCS
  5
7
330
0
100
AcDbSymbolTable
 70
     0
  0
ENDTAB
  0
TABLE
  2
APPID
  5
9
330
0
100
AcDbSymbolTable
 70
     1
  0
APPID
  5
12
330
9
100
AcDbSymbolTableRecord
100
AcDbRegAppTableRecord
  2
ACAD
 70
     0
  0
ENDTAB
  0
TABLE
  2
DIMSTYLE
  5
A
330
0
100
AcDbSymbolTable
 70
     1
100
AcDbDimStyleTable
  0
DIMSTYLE
105
27
330
A
100
AcDbSymbolTableRecord
100
AcDbDimStyleTableRecord
  2
ISO-25
 70
     0
 41
2.5
 42
0.625
 43
3.75
 44
1.25
 73
     0
 74
     0
 77
     1
 78
     8
140
2.5
141
2.5
143
0.0393700787
147
0.625
171
     3
172
     1
178
     0
271
     2
272
     2
274
     3
278
    44
283
     0
284
     8
340
11
  0
ENDTAB
  0
TABLE
  2
BLOCK_RECORD
  5
1
330
0
100
AcDbSymbolTable
 70
     3
  0
BLOCK_RECORD
  5
1F
330
1
100
AcDbSymbolTableRecord
100
AcDbBlockTableRecord
  2
*Model_Space
340
22
  0
BLOCK_RECORD
  5
1B
330
1
100
AcDbSymbolTableRecord
100
AcDbBlockTableRecord
  2
*Paper_Space
340
1E
  0
BLOCK_RECORD
  5
23
330
1
100
AcDbSymbolTableRecord
100
AcDbBlockTableRecord
  2
*Paper_Space0
340
26
  0
BLOCK_RECORD
  5
217
330
1
100
AcDbSymbolTableRecord
100
AcDbBlockTableRecord
  2
SW_CENTERMARKSYMBOL_0
340
0
102
{BLKREFS
331
222
102
}
  0
BLOCK_RECORD
  5
2F8
330
1
100
AcDbSymbolTableRecord
100
AcDbBlockTableRecord
  2
SW_CENTERMARKSYMBOL_1
340
0
102
{BLKREFS
331
303
102
}
  0
ENDTAB
  0
ENDSEC
  0
SECTION
  2
BLOCKS
  0
BLOCK
  5
20
330
1F
100
AcDbEntity
  8
0
100
AcDbBlockBegin
  2
*Model_Space
 70
     0
 10
0.0
 20
0.0
 30
0.0
  3
*Model_Space
  1

  0
ENDBLK
  5
21
330
1F
100
AcDbEntity
  8
0
100
AcDbBlockEnd
  0
BLOCK
  5
1C
330
1B
100
AcDbEntity
 67
     1
  8
0
100
AcDbBlockBegin
  2
*Paper_Space
 70
     0
 10
0.0
 20
0.0
 30
0.0
  3
*Paper_Space
  1

  0
ENDBLK
  5
1D
330
1B
100
AcDbEntity
 67
     1
  8
0
100
AcDbBlockEnd
  0
BLOCK
  5
24
330
23
100
AcDbEntity
  8
0
100
AcDbBlockBegin
  2
*Paper_Space0
 70
     0
 10
0.0
 20
0.0
 30
0.0
  3
*Paper_Space0
  1

  0
ENDBLK
  5
25
330
23
100
AcDbEntity
  8
0
100
AcDbBlockEnd
  0
BLOCK
  5
218
330
217
100
AcDbEntity
  8
0
100
AcDbBlockBegin
  2
SW_CENTERMARKSYMBOL_0
 70
     0
 10
0.0
 20
0.0
 30
0.0
  3
SW_CENTERMARKSYMBOL_0
  1

  0
LINE
  5
21A
330
217
100
AcDbEntity
  8
0
  6
Continuous
 62
     0
370
    18
100
AcDbLine
 10
0.0
 20
0.0
 30
0.0
 11
0.0
 21
2.5
 31
0.0
  0
LINE
  5
21B
330
217
100
AcDbEntity
  8
0
  6
Continuous
 62
     0
370
    18
100
AcDbLine
 10
0.0
 20
0.0
 30
0.0
 11
-2.5
 21
0.0
 31
0.0
  0
LINE
  5
21C
330
217
100
AcDbEntity
  8
0
  6
Continuous
 62
     0
370
    18
100
AcDbLine
 10
0.0
 20
0.0
 30
0.0
 11
0.0
 21
-2.5
 31
0.0
  0
LINE
  5
21D
330
217
100
AcDbEntity
  8
0
  6
Continuous
 62
     0
370
    18
100
AcDbLine
 10
0.0
 20
0.0
 30
0.0
 11
2.5
 21
0.0
 31
0.0
  0
LINE
  5
21E
330
217
100
AcDbEntity
  8
0
  6
Continuous
 62
     0
370
    18
100
AcDbLine
 10
0.0
 20
5.0
 30
0.0
 11
0.0
 21
43.5798055813
 31
0.0
  0
LINE
  5
21F
330
217
100
AcDbEntity
  8
0
  6
Continuous
 62
     0
370
    18
100
AcDbLine
 10
-5.0
 20
0.0
 30
0.0
 11
-18.5
 21
0.0
 31
0.0
  0
LINE
  5
220
330
217
100
AcDbEntity
  8
0
  6
Continuous
 62
     0
370
    18
100
AcDbLine
 10
0.0
 20
-5.0
 30
0.0
 11
0.0
 21
-18.5
 31
0.0
  0
LINE
  5
221
330
217
100
AcDbEntity
  8
0
  6
Continuous
 62
     0
370
    18
100
AcDbLine
 10
5.0
 20
0.0
 30
0.0
 11
18.5
 21
0.0
 31
0.0
  0
ENDBLK
  5
219
330
217
100
AcDbEntity
  8
0
100
AcDbBlockEnd
  0
BLOCK
  5
2F9
330
2F8
100
AcDbEntity
  8
0
100
AcDbBlockBegin
  2
SW_CENTERMARKSYMBOL_1
 70
     0
 10
0.0
 20
0.0
 30
0.0
  3
SW_CENTERMARKSYMBOL_1
  1

  0
LINE
  5
2FB
330
2F8
100
AcDbEntity
  8
0
  6
Continuous
 62
     0
370
    18
100
AcDbLine
 10
0.0
 20
0.0
 30
0.0
 11
0.0
 21
2.5
 31
0.0
  0
LINE
  5
2FC
330
2F8
100
AcDbEntity
  8
0
  6
Continuous
 62
     0
370
    18
100
AcDbLine
 10
0.0
 20
0.0
 30
0.0
 11
-2.5
 21
0.0
 31
0.0
  0
LINE
  5
2FD
330
2F8
100
AcDbEntity
  8
0
  6
Continuous
 62
     0
370
    18
100
AcDbLine
 10
0.0
 20
0.0
 30
0.0
 11
0.0
 21
-2.5
 31
0.0
  0
LINE
  5
2FE
330
2F8
100
AcDbEntity
  8
0
  6
Continuous
 62
     0
370
    18
100
AcDbLine
 10
0.0
 20
0.0
 30
0.0
 11
2.5
 21
0.0
 31
0.0
  0
LINE
  5
2FF
330
2F8
100
AcDbEntity
  8
0
  6
Continuous
 62
     0
370
    18
100
AcDbLine
 10
0.0
 20
5.0
 30
0.0
 11
0.0
 21
17.4064146627
 31
0.0
  0
LINE
  5
300
330
2F8
100
AcDbEntity
  8
0
  6
Continuous
 62
     0
370
    18
100
AcDbLine
 10
-5.0
 20
0.0
 30
0.0
 11
-56.5563518193
 21
0.0
 31
0.0
  0
LINE
  5
301
330
2F8
100
AcDbEntity
  8
0
  6
Continuous
 62
     0
370
    18
100
AcDbLine
 10
0.0
 20
-5.0
 30
0.0
 11
0.0
 21
-17.347385418
 31
0.0
  0
LINE
  5
302
330
2F8
100
AcDbEntity
  8
0
  6
Continuous
 62
     0
370
    18
100
AcDbLine
 10
5.0
 20
0.0
 30
0.0
 11
30.4341050899
 21
0.0
 31
0.0
  0
ENDBLK
  5
2FA
330
2F8
100
AcDbEntity
  8
0
100
AcDbBlockEnd
  0
ENDSEC
  0
SECTION
  2
ENTITIES
  0
MTEXT
  5
64
330
1F
100
AcDbEntity
  8
0
  6
Continuous
 62
     7
370
     0
100
AcDbMText
 10
167.0049820104
 20
115.7363938955
 30
0.0
 40
4.2333333333
 41
0.0
 71
     1
 72
     1
  1
エースボールZERO　BM-0066
  7
SLDTEXTSTYLE0
 73
     1
 44
1.0
  0
LINE
  5
65
330
1F
100
AcDbEntity
  8
0
  6
Continuous
 62
     7
370
    25
100
AcDbLine
 10
138.8257609351
 20
74.8511570162
 30
0.0
 11
122.0257609351
 21
74.8511570162
 31
0.0
  0
LINE
  5
66
330
1F
100
AcDbEntity
  8
0
  6
Continuous
 62
     7
370
    25
100
AcDbLine
 10
122.0257609351
 20
43.3511570162
 30
0.0
 11
138.8257609351
 21
43.3511570162
 31
0.0
  0
LINE
  5
67
330
1F
100
AcDbEntity
  8
0
  6
Continuous
 62
     7
370
    25
100
AcDbLine
 10
122.0257609351
 20
74.8511570162
 30
0.0
 11
121.8257609351
 21
74.6511570162
 31
0.0
  0
LINE
  5
68
330
1F
100
AcDbEntity
  8
0
  6
Continuous
 62
     7
370
    25
100
AcDbLine
 10
121.8257609351
 20
43.5511570162
 30
0.0
 11
122.0257609351
 21
43.3511570162
 31
0.0
  0
LINE
  5
69
330
1F
100
AcDbEntity
  8
0
  6
Continuous
 62
     7
370
    25
100
AcDbLine
 10
164.8257609351
 20
45.6784695162
 30
0.0
 11
178.2205845962
 21
46.0970577556
 31
0.0
  0
LINE
  5
6A
330
1F
100
AcDbEntity
  8
0
  6
Continuous
 62
     7
370
    25
100
AcDbLine
 10
178.2205845962
 20
72.1052562768
 30
0.0
 11
164.8257609351
 21
72.5238445162
 31
0.0
  0
LINE
  5
6B
330
1F
100
AcDbEntity
  8
0
  6
Continuous
 62
     7
370
    25
100
AcDbLine
 10
178.2205845962
 20
46.0970577556
 30
0.0
 11
180.8257609351
 21
47.6011570162
 31
0.0
  0
LINE
  5
6C
330
1F
100
AcDbEntity
  8
0
  6
Continuous
 62
     7
370
    25
100
AcDbLine
 10
180.8257609351
 20
70.6011570162
 30
0.0
 11
178.2205845962
 21
72.1052562768
 31
0.0
  0
ARC
  5
6D
330
1F
100
AcDbEntity
  8
0
  6
Continuous
 62
     7
370
    25
100
AcDbCircle
 10
160.5757609351
 20
75.6011570162
 30
0.0
 40
0.5
100
AcDbArc
 50
180.0
 51
270.0
  0
ARC
  5
6E
330
1F
100
AcDbEntity
  8
0
  6
Continuous
 62
     7
370
    25
100
AcDbCircle
 10
143.0757609351
 20
75.6011570162
 30
0.0
 40
0.5
100
AcDbArc
 50
270.0
 51
0.0
  0
LINE
  5
6F
330
1F
100
AcDbEntity
  8
0
  6
Continuous
 62
     7
370
    25
100
AcDbLine
 10
160.0757609351
 20
78.5011570162
 30
0.0
 11
159.5757609351
 21
79.0011570162
 31
0.0
  0
LINE
  5
70
330
1F
100
AcDbEntity
  8
0
  6
Continuous
 62
     7
370
    25
100
AcDbLine
 10
144.0757609351
 20
79.0011570162
 30
0.0
 11
143.5757609351
 21
78.5011570162
 31
0.0
  0
LINE
  5
71
330
1F
100
AcDbEntity
  8
0
  6
Continuous
 62
     7
370
    25
100
AcDbLine
 10
160.0757609351
 20
75.6011570162
 30
0.0
 11
160.0757609351
 21
78.5011570162
 31
0.0
  0
LINE
  5
72
330
1F
100
AcDbEntity
  8
0
  6
Continuous
 62
     7
370
    25
100
AcDbLine
 10
143.5757609351
 20
78.5011570162
 30
0.0
 11
143.5757609351
 21
75.6011570162
 31
0.0
  0
LINE
  5
73
330
1F
100
AcDbEntity
  8
0
  6
Continuous
 62
     7
370
    25
100
AcDbLine
 10
146.8257609351
 20
79.5011570162
 30
0.0
 11
146.8257609351
 21
79.0011570162
 31
0.0
  0
LINE
  5
74
330
1F
100
AcDbEntity
  8
0
  6
Continuous
 62
     7
370
    25
100
AcDbLine
 10
156.8257609351
 20
79.0011570162
 30
0.0
 11
156.8257609351
 21
79.5011570162
 31
0.0
  0
ARC
  5
75
330
1F
100
AcDbEntity
  8
0
  6
Continuous
 62
     7
370
    25
100
AcDbCircle
 10
151.8257609351
 20
77.0011570162
 30
0.0
 40
20.6
100
AcDbArc
 50
90.1972081189
 51
93.3558231766
  0
ARC
  5
76
330
1F
100
AcDbEntity
  8
0
  6
Continuous
 62
     7
370
    25
100
AcDbCircle
 10
151.8257609351
 20
77.0011570162
 30
0.0
 40
20.60000000000002
100
AcDbArc
 50
86.6441768145
 51
89.9083590614
  0
ARC
  5
77
330
1F
100
AcDbEntity
  8
0
  6
Continuous
 62
     7
370
    25
100
AcDbCircle
 10
159.8195313035
 20
89.488736321
 30
0.0
 40
0.9999999999999957
100
AcDbArc
 50
354.2894068625
 51
7.1250163489
  0
LINE
  5
78
330
1F
100
AcDbEntity
  8
0
  6
Continuous
 62
     7
370
    25
100
AcDbLine
 10
143.4191330785
 20
83.5674355825
 30
0.0
 11
143.6457609351
 21
81.3011570162
 31
0.0
  0
LINE
  5
79
330
1F
100
AcDbEntity
  8
0
  6
Continuous
 62
     7
370
    25
100
AcDbLine
 10
159.8707857492
 20
79.9514051567
 30
0.0
 11
160.8145684937
 21
89.389232602
 31
0.0
  0
LINE
  5
7A
330
1F
100
AcDbEntity
  8
0
  6
Continuous
 62
     7
370
    25
100
AcDbLine
 10
160.8118091802
 20
89.6127710556
 30
0.0
 11
159.8805087642
 21
97.0631743835
 31
0.0
  0
LINE
  5
7B
330
1F
100
AcDbEntity
  8
0
  6
Continuous
 62
     7
370
    25
100
AcDbLine
 10
143.7710131061
 20
97.0631743835
 30
0.0
 11
143.5757609351
 21
95.5011570162
 31
0.0
  0
ARC
  5
7C
330
1F
100
AcDbEntity
  8
0
  6
Continuous
 62
     7
370
    25
100
AcDbCircle
 10
144.2671520444
 20
97.0011570162
 30
0.0
 40
0.5
100
AcDbArc
 50
90.0
 51
172.8749836511
  0
ARC
  5
7D
330
1F
100
AcDbEntity
  8
0
  6
Continuous
 62
     7
370
    25
100
AcDbCircle
 10
159.3843698259
 20
97.0011570162
 30
0.0
 40
0.5
100
AcDbArc
 50
7.1250163489
 51
90.0
  0
ARC
  5
7E
330
1F
100
AcDbEntity
  8
0
  6
Continuous
 62
     7
370
    25
100
AcDbCircle
 10
159.3732671541
 20
80.0011570162
 30
0.0
 40
0.5
100
AcDbArc
 50
270.0
 51
354.2894068625
  0
LINE
  5
7F
330
1F
100
AcDbEntity
  8
0
  6
Continuous
 62
     7
370
    25
100
AcDbLine
 10
146.3257609351
 20
79.0011570162
 30
0.0
 11
146.3257609351
 21
79.5011570162
 31
0.0
  0
LINE
  5
80
330
1F
100
AcDbEntity
  8
0
  6
Continuous
 62
     7
370
    25
100
AcDbLine
 10
144.3257609351
 20
79.5043917482
 30
0.0
 11
144.3257609351
 21
79.0011570162
 31
0.0
  0
LINE
  5
81
330
1F
100
AcDbEntity
  8
0
  6
Continuous
 62
     7
370
    25
100
AcDbLine
 10
122.0257609351
 20
73.6576943518
 30
0.0
 11
122.0257609351
 21
43.3511570162
 31
0.0
  0
LINE
  5
82
330
1F
100
AcDbEntity
  8
0
  6
Continuous
 62
     7
370
    25
100
AcDbLine
 10
122.0257609351
 20
74.8511570162
 30
0.0
 11
122.0257609351
 21
73.6576943518
 31
0.0
  0
LINE
  5
83
330
1F
100
AcDbEntity
  8
0
  6
Continuous
 62
     7
370
    25
100
AcDbLine
 10
121.8257609351
 20
73.4728494333
 30
0.0
 11
121.8257609351
 21
74.6511570162
 31
0.0
  0
LINE
  5
84
330
1F
100
AcDbEntity
  8
0
  6
Continuous
 62
     7
370
    25
100
AcDbLine
 10
121.8257609351
 20
43.5511570162
 30
0.0
 11
121.8257609351
 21
73.4728494333
 31
0.0
  0
ELLIPSE
  5
85
330
1F
100
AcDbEntity
  8
0
  6
Continuous
 62
     7
370
    25
100
AcDbEllipse
 10
149.3019720751
 20
58.4312705834
 30
0.0
 11
-0.06784129479237322
 21
0.0
 31
0.0
210
0.0
220
0.0
230
1.0
 40
0.9533039403
 41
1.570796326794897
 42
3.48461659214848
  0
LINE
  5
86
330
1F
100
AcDbEntity
  8
0
  6
Continuous
 62
     7
370
    25
100
AcDbLine
 10
149.3658610658
 20
58.4530225928
 30
0.0
 11
149.1229217237
 21
59.1014886865
 31
0.0
  0
ELLIPSE
  5
87
330
1F
100
AcDbEntity
  8
0
  6
Continuous
 62
     7
370
    25
100
AcDbEllipse
 10
149.0590327331
 20
59.0797366771
 30
0.0
 11
0.06784129479271428
 21
0.0
 31
0.0
210
0.0
220
0.0
230
1.0
 40
0.9533039403
 41
0.3430239404191595
 42
2.798568713170634
  0
ELLIPSE
  5
88
330
1F
100
AcDbEntity
  8
0
  6
Continuous
 62
     7
370
    25
100
AcDbEllipse
 10
148.8160933881
 20
58.4312705834
 30
0.0
 11
0.0678412947923448
 21
0.0
 31
0.0
210
0.0
220
0.0
230
1.0
 40
0.9533039403
 41
2.798568711309841
 42
4.712388980384703
  0
LINE
  5
89
330
1F
100
AcDbEntity
  8
0
  6
Continuous
 62
     7
370
    25
100
AcDbLine
 10
148.8160933881
 20
58.3665972098
 30
0.0
 11
149.3019720751
 21
58.3665972098
 31
0.0
  0
LINE
  5
8A
330
1F
100
AcDbEntity
  8
0
  6
Continuous
 62
     7
370
    25
100
AcDbLine
 10
148.5862470306
 20
61.1836149397
 30
0.0
 11
147.5787581577
 21
58.3663151434
 31
0.0
  0
ELLIPSE
  5
8B
330
1F
100
AcDbEntity
  8
0
  6
Continuous
 62
     7
370
    25
100
AcDbEllipse
 10
149.0590327314
 20
60.9737425848
 30
0.0
 11
0.5215299537176747
 21
0.0
 31
0.0
210
0.0
220
0.0
230
1.0
 40
0.9533039403
 41
0.4357918987553373
 42
2.705800754834476
  0
LINE
  5
8C
330
1F
100
AcDbEntity
  8
0
  6
Continuous
 62
     7
370
    25
100
AcDbLine
 10
150.5395421417
 20
58.3656584563
 30
0.0
 11
149.5318184323
 21
61.1836149397
 31
0.0
  0
ELLIPSE
  5
8D
330
1F
100
AcDbEntity
  8
0
  6
Continuous
 62
     7
370
    25
100
AcDbEllipse
 10
151.0532419553
 20
58.5326057483
 30
0.0
 11
0.5427303583402932
 21
3.552713678800501E-13
 31
0.0
210
0.0
220
0.0
230
1.0
 40
0.9533039404
 41
3.47014582413831
 42
5.252469180539273
  0
LINE
  5
8E
330
1F
100
AcDbEntity
  8
0
  6
Continuous
 62
     7
370
    25
100
AcDbLine
 10
151.3656367544
 20
58.1079037152
 30
0.0
 11
151.3323164989
 21
58.0888597713
 31
0.0
  0
LINE
  5
8F
330
1F
100
AcDbEntity
  8
0
  6
Continuous
 62
     7
370
    25
100
AcDbLine
 10
150.7286218267
 20
56.8933660341
 30
0.0
 11
151.3656367544
 21
58.1079037152
 31
0.0
  0
ELLIPSE
  5
90
330
1F
100
AcDbEntity
  8
0
  6
Continuous
 62
     7
370
    25
100
AcDbEllipse
 10
150.667942728
 20
56.922288846
 30
0.0
 11
0.0678412947923448
 21
0.0
 31
0.0
210
0.0
220
0.0
230
1.0
 40
0.9533039403
 41
3.962594650552458
 42
5.819537698178128
  0
ELLIPSE
  5
91
330
1F
100
AcDbEntity
  8
0
  6
Continuous
 62
     7
370
    25
100
AcDbEllipse
 10
149.0590327314
 20
55.2752099496
 30
0.0
 11
2.293035763987632
 21
-1.065814103640150E-12
 31
0.0
210
0.0
220
0.0
230
1.0
 40
0.9533039403
 41
0.8210019969646744
 42
2.32059065662587
  0
LINE
  5
92
330
1F
100
AcDbEntity
  8
0
  6
Continuous
 62
     7
370
    25
100
AcDbLine
 10
146.7524287085
 20
58.1079037152
 30
0.0
 11
147.3894436361
 21
56.8933660341
 31
0.0
  0
LINE
  5
93
330
1F
100
AcDbEntity
  8
0
  6
Continuous
 62
     7
370
    25
100
AcDbLine
 10
146.7936931649
 20
58.0851921592
 30
0.0
 11
146.7524287085
 21
58.1079037152
 31
0.0
  0
ELLIPSE
  5
94
330
1F
100
AcDbEntity
  8
0
  6
Continuous
 62
     7
370
    25
100
AcDbEllipse
 10
147.0650583441
 20
58.5332624354
 30
0.0
 11
-0.5427303583406626
 21
3.552713678800501E-13
 31
0.0
210
0.0
220
0.0
230
1.0
 40
0.9533039403
 41
1.047197551197487
 42
2.813039483038388
  0
LINE
  5
95
330
1F
100
AcDbEntity
  8
0
  6
Continuous
 62
     7
370
    25
100
AcDbLine
 10
148.9951437424
 20
59.1014886865
 30
0.0
 11
148.7522043975
 21
58.453022593
 31
0.0
  0
ELLIPSE
  5
96
330
1F
100
AcDbEntity
  8
0
  6
Continuous
 62
     7
370
    25
100
AcDbEllipse
 10
147.4501227349
 20
56.922288846
 30
0.0
 11
0.06784129479237322
 21
0.0
 31
0.0
210
0.0
220
0.0
230
1.0
 40
0.9533039403
 41
3.605240262599054
 42
5.462183310201223
  0
ARC
  5
97
330
1F
100
AcDbEntity
  8
0
  6
Continuous
 62
     7
370
    25
100
AcDbCircle
 10
153.2996872779
 20
58.1166906931
 30
0.0
 40
1.239109388553857
100
AcDbArc
 50
45.0
 51
315.0
  0
ARC
  5
98
330
1F
100
AcDbEntity
  8
0
  6
Continuous
 62
     7
370
    25
100
AcDbCircle
 10
153.2996872779
 20
58.1166906931
 30
0.0
 40
0.7111999999997725
100
AcDbArc
 50
45.0
 51
315.0
  0
LINE
  5
99
330
1F
100
AcDbEntity
  8
0
  6
Continuous
 62
     7
370
    25
100
AcDbLine
 10
153.8025816207
 20
58.6195850359
 30
0.0
 11
154.1758699292
 21
58.9928733444
 31
0.0
  0
LINE
  5
9A
330
1F
100
AcDbEntity
  8
0
  6
Continuous
 62
     7
370
    25
100
AcDbLine
 10
154.1758699292
 20
57.2405080418
 30
0.0
 11
153.8025816207
 21
57.6137963503
 31
0.0
  0
LINE
  5
9B
330
1F
100
AcDbEntity
  8
0
  6
Continuous
 62
     7
370
    25
100
AcDbLine
 10
156.8495856063
 20
58.3706906931
 30
0.0
 11
155.309106756
 21
58.3706906931
 31
0.0
  0
LINE
  5
9C
330
1F
100
AcDbEntity
  8
0
  6
Continuous
 62
     7
370
    25
100
AcDbLine
 10
156.8495856063
 20
57.8626906931
 30
0.0
 11
156.8495856063
 21
58.3706906931
 31
0.0
  0
LINE
  5
9D
330
1F
100
AcDbEntity
  8
0
  6
Continuous
 62
     7
370
    25
100
AcDbLine
 10
155.309106756
 20
57.8626906931
 30
0.0
 11
156.8495856063
 21
57.8626906931
 31
0.0
  0
ARC
  5
9E
330
1F
100
AcDbEntity
  8
0
  6
Continuous
 62
     7
370
    25
100
AcDbCircle
 10
155.973402955
 20
58.1166906931
 30
0.0
 40
0.7112000000000971
100
AcDbArc
 50
200.9248324276
 51
315.0
  0
LINE
  5
9F
330
1F
100
AcDbEntity
  8
0
  6
Continuous
 62
     7
370
    25
100
AcDbLine
 10
156.8495856063
 20
57.2405080418
 30
0.0
 11
156.4762972978
 21
57.6137963503
 31
0.0
  0
ARC
  5
A0
330
1F
100
AcDbEntity
  8
0
  6
Continuous
 62
     7
370
    25
100
AcDbCircle
 10
155.973402955
 20
58.1166906931
 30
0.0
 40
1.239109388553836
100
AcDbArc
 50
45.0
 51
315.0
  0
LINE
  5
A1
330
1F
100
AcDbEntity
  8
0
  6
Continuous
 62
     7
370
    25
100
AcDbLine
 10
156.4762972978
 20
58.6195850359
 30
0.0
 11
156.8495856063
 21
58.9928733444
 31
0.0
  0
ARC
  5
A2
330
1F
100
AcDbEntity
  8
0
  6
Continuous
 62
     7
370
    25
100
AcDbCircle
 10
155.973402955
 20
58.1166906931
 30
0.0
 40
0.711200000000084
100
AcDbArc
 50
45.0
 51
159.0751675723
  0
SPLINE
  5
A3
330
1F
100
AcDbEntity
  8
0
  6
Continuous
 62
     7
370
    25
100
AcDbSpline
210
0.0
220
0.0
230
1.0
 70
     8
 71
     3
 72
    10
 73
     6
 74
     0
 42
0.00000001
 43
0.00000001
 40
0.0
 40
0.0
 40
0.0
 40
0.0
 40
0.5
 40
0.5
 40
1.0
 40
1.0
 40
1.0
 40
1.0
 10
163.4214669152834
 20
49.94965440735547
 30
0.0
 10
163.8485509760529
 20
51.43956880043427
 30
0.0
 10
164.2058454016056
 20
52.96395187033524
 30
0.0
 10
164.6940527779898
 20
56.01809961558864
 30
0.0
 10
164.8257609351458
 20
57.55428799925123
 30
0.0
 10
164.8257609351458
 20
59.10115701621702
 30
0.0
  0
LINE
  5
A4
330
1F
100
AcDbEntity
  8
0
  6
Continuous
 62
     7
370
    25
100
AcDbLine
 10
140.230054955
 20
49.9496544074
 30
0.0
 11
163.4214669153
 21
49.9496544074
 31
0.0
  0
SPLINE
  5
A5
330
1F
100
AcDbEntity
  8
0
  6
Continuous
 62
     7
370
    25
100
AcDbSpline
210
0.0
220
0.0
230
1.0
 70
     8
 71
     3
 72
    12
 73
     8
 74
     0
 42
0.00000001
 43
0.00000001
 40
0.0
 40
0.0
 40
0.0
 40
0.0
 40
0.25
 40
0.25
 40
0.5
 40
0.5
 40
1.0
 40
1.0
 40
1.0
 40
1.0
 10
140.2300549550081
 20
49.94965440735545
 30
0.0
 10
140.0163917262838
 20
50.69503441328339
 30
0.0
 10
139.8199503426159
 20
51.44907308303481
 30
0.0
 10
139.4732861886782
 20
52.96658775998387
 30
0.0
 10
139.3236459596039
 20
53.72741289611832
 30
0.0
 10
138.9576069504663
 20
56.01712212354482
 30
0.0
 10
138.8257609351458
 20
57.55338588441153
 30
0.0
 10
138.8257609351458
 20
59.10115701621703
 30
0.0
  0
SPLINE
  5
A6
330
1F
100
AcDbEntity
  8
0
  6
Continuous
 62
     7
370
    25
100
AcDbSpline
210
0.0
220
0.0
230
1.0
 70
     8
 71
     3
 72
    12
 73
     8
 74
     0
 42
0.00000001
 43
0.00000001
 40
0.0
 40
0.0
 40
0.0
 40
0.0
 40
0.25
 40
0.25
 40
0.5
 40
0.5
 40
1.0
 40
1.0
 40
1.0
 40
1.0
 10
138.8257609351458
 20
59.10115701621703
 30
0.0
 10
138.8257609351458
 20
59.87556293011438
 30
0.0
 10
138.8584918103912
 20
60.65398033123679
 30
0.0
 10
138.9881711232659
 20
62.21158055643873
 30
0.0
 10
139.0842055804154
 20
62.98221400732402
 30
0.0
 10
139.4529207087892
 20
65.2730105563303
 30
0.0
 10
139.8056835397884
 20
66.77220849700804
 30
0.0
 10
140.2300549550082
 20
68.25265962507859
 30
0.0
  0
LINE
  5
A7
330
1F
100
AcDbEntity
  8
0
  6
Continuous
 62
     7
370
    25
100
AcDbLine
 10
163.4214669153
 20
68.2526596251
 30
0.0
 11
140.230054955
 21
68.2526596251
 31
0.0
  0
SPLINE
  5
A8
330
1F
100
AcDbEntity
  8
0
  6
Continuous
 62
     7
370
    25
100
AcDbSpline
210
0.0
220
0.0
230
1.0
 70
     8
 71
     3
 72
    12
 73
     8
 74
     0
 42
0.00000001
 43
0.00000001
 40
0.0
 40
0.0
 40
0.0
 40
0.0
 40
0.25
 40
0.25
 40
0.5
 40
0.5
 40
1.0
 40
1.0
 40
1.0
 40
1.0
 10
164.8257609351458
 20
59.10115701621702
 30
0.0
 10
164.8257609351458
 20
59.87505386609529
 30
0.0
 10
164.7931732958546
 20
60.65159335127422
 30
0.0
 10
164.6635461014052
 20
62.2098989324505
 30
0.0
 10
164.5674492130074
 20
62.98130069640462
 30
0.0
 10
164.1986136235172
 20
65.27310797293947
 30
0.0
 10
163.8457762310057
 20
66.77242513570654
 30
0.0
 10
163.4214669152834
 20
68.25265962507858
 30
0.0
  0
ARC
  5
A9
330
1F
100
AcDbEntity
  8
0
  6
Continuous
 62
     7
370
    25
100
AcDbCircle
 10
147.8257609351
 20
61.1011570162
 30
0.0
 40
2.0
100
AcDbArc
 50
90.0
 51
180.0
  0
LINE
  5
AA
330
1F
100
AcDbEntity
  8
0
  6
Continuous
 62
     7
370
    25
100
AcDbLine
 10
157.8257609351
 20
57.1011570162
 30
0.0
 11
157.8257609351
 21
61.1011570162
 31
0.0
  0
LINE
  5
AB
330
1F
100
AcDbEntity
  8
0
  6
Continuous
 62
     7
370
    25
100
AcDbLine
 10
145.8257609351
 20
61.1011570162
 30
0.0
 11
145.8257609351
 21
57.1011570162
 31
0.0
  0
ARC
  5
AC
330
1F
100
AcDbEntity
  8
0
  6
Continuous
 62
     7
370
    25
100
AcDbCircle
 10
147.8257609351
 20
57.1011570162
 30
0.0
 40
2.000000000000007
100
AcDbArc
 50
180.0
 51
270.0
  0
LINE
  5
AD
330
1F
100
AcDbEntity
  8
0
  6
Continuous
 62
     7
370
    25
100
AcDbLine
 10
147.8257609351
 20
55.1011570162
 30
0.0
 11
155.8257609351
 21
55.1011570162
 31
0.0
  0
ARC
  5
AE
330
1F
100
AcDbEntity
  8
0
  6
Continuous
 62
     7
370
    25
100
AcDbCircle
 10
155.8257609351
 20
57.1011570162
 30
0.0
 40
2.000000000000007
100
AcDbArc
 50
270.0
 51
0.0
  0
ARC
  5
AF
330
1F
100
AcDbEntity
  8
0
  6
Continuous
 62
     7
370
    25
100
AcDbCircle
 10
155.8257609351
 20
61.1011570162
 30
0.0
 40
2.0
100
AcDbArc
 50
0.0
 51
90.0
  0
LINE
  5
B0
330
1F
100
AcDbEntity
  8
0
  6
Continuous
 62
     7
370
    25
100
AcDbLine
 10
155.8257609351
 20
63.1011570162
 30
0.0
 11
147.8257609351
 21
63.1011570162
 31
0.0
  0
SPLINE
  5
B1
330
1F
100
AcDbEntity
  8
0
  6
Continuous
 62
     7
370
    25
100
AcDbSpline
210
0.0
220
0.0
230
1.0
 70
     8
 71
     3
 72
     8
 73
     4
 74
     0
 42
0.00000001
 43
0.00000001
 40
0.0
 40
0.0
 40
0.0
 40
0.0
 40
1.0
 40
1.0
 40
1.0
 40
1.0
 10
140.2300549550082
 20
49.94965440735546
 30
0.0
 10
140.255068080937
 20
49.86239426407113
 30
0.0
 10
140.2691366081199
 20
49.77369004080294
 30
0.0
 10
140.2691366081199
 20
49.69544600155375
 30
0.0
  0
SPLINE
  5
B2
330
1F
100
AcDbEntity
  8
0
  6
Continuous
 62
     7
370
    25
100
AcDbSpline
210
0.0
220
0.0
230
1.0
 70
     8
 71
     3
 72
     8
 73
     4
 74
     0
 42
0.00000001
 43
0.00000001
 40
0.0
 40
0.0
 40
0.0
 40
0.0
 40
1.0
 40
1.0
 40
1.0
 40
1.0
 10
163.3823852621717
 20
49.69544600155375
 30
0.0
 10
163.3823852621717
 20
49.77370849542915
 30
0.0
 10
163.3964425749759
 20
49.86235514187999
 30
0.0
 10
163.4214669152834
 20
49.94965440735546
 30
0.0
  0
LINE
  5
B3
330
1F
100
AcDbEntity
  8
0
  6
Continuous
 62
     7
370
    25
100
AcDbLine
 10
163.3823852622
 20
49.6954460016
 30
0.0
 11
140.2691366081
 21
49.6954460016
 31
0.0
  0
SPLINE
  5
B4
330
1F
100
AcDbEntity
  8
0
  6
Continuous
 62
     7
370
    25
100
AcDbSpline
210
0.0
220
0.0
230
1.0
 70
     8
 71
     3
 72
     8
 73
     4
 74
     0
 42
0.00000001
 43
0.00000001
 40
0.0
 40
0.0
 40
0.0
 40
0.0
 40
1.0
 40
1.0
 40
1.0
 40
1.0
 10
163.4214669152834
 20
68.25265962507859
 30
0.0
 10
163.3964537893547
 20
68.33991976836293
 30
0.0
 10
163.3823852621717
 20
68.42862399163114
 30
0.0
 10
163.3823852621717
 20
68.5068680308803
 30
0.0
  0
LINE
  5
B5
330
1F
100
AcDbEntity
  8
0
  6
Continuous
 62
     7
370
    25
100
AcDbLine
 10
163.3823852622
 20
75.0317125718
 30
0.0
 11
163.3823852622
 21
68.5068680309
 31
0.0
  0
SPLINE
  5
B6
330
1F
100
AcDbEntity
  8
0
  6
Continuous
 62
     7
370
    25
100
AcDbSpline
210
0.0
220
0.0
230
1.0
 70
     8
 71
     3
 72
     8
 73
     4
 74
     0
 42
0.00000001
 43
0.00000001
 40
0.0
 40
0.0
 40
0.0
 40
0.0
 40
1.0
 40
1.0
 40
1.0
 40
1.0
 10
163.3823852621717
 20
75.03171257177257
 30
0.0
 10
163.3823852621717
 20
75.0779202760872
 30
0.0
 10
163.3964425749759
 20
75.10115701621703
 30
0.0
 10
163.4214669152834
 20
75.10115701621703
 30
0.0
  0
SPLINE
  5
B7
330
1F
100
AcDbEntity
  8
0
  6
Continuous
 62
     7
370
    25
100
AcDbSpline
210
0.0
220
0.0
230
1.0
 70
    24
 71
     3
 72
    12
 73
     8
 74
     0
 42
0.00000001
 43
0.00000001
 40
0.0
 40
0.0
 40
0.0
 40
0.0
 40
0.25
 40
0.25
 40
0.5
 40
0.5
 40
1.0
 40
1.0
 40
1.0
 40
1.0
 10
164.8257609351458
 20
75.10115701621703
 30
0.0
 10
164.8257609351458
 20
75.10115701621703
 30
0.0
 10
164.7931732958546
 20
75.10115701621703
 30
0.0
 10
164.6635461014052
 20
75.10115701621703
 30
0.0
 10
164.5674492130074
 20
75.10115701621703
 30
0.0
 10
164.1986136235172
 20
75.10115701621703
 30
0.0
 10
163.8457762310057
 20
75.10115701621703
 30
0.0
 10
163.4214669152834
 20
75.10115701621703
 30
0.0
  0
LINE
  5
B8
330
1F
100
AcDbEntity
  8
0
  6
Continuous
 62
     7
370
    25
100
AcDbLine
 10
164.8257609351
 20
75.1011570162
 30
0.0
 11
164.8257609351
 21
59.1011570162
 31
0.0
  0
LINE
  5
B9
330
1F
100
AcDbEntity
  8
0
  6
Continuous
 62
     7
370
    25
100
AcDbLine
 10
138.8257609351
 20
59.1011570162
 30
0.0
 11
138.8257609351
 21
75.1011570162
 31
0.0
  0
SPLINE
  5
BA
330
1F
100
AcDbEntity
  8
0
  6
Continuous
 62
     7
370
    25
100
AcDbSpline
210
0.0
220
0.0
230
1.0
 70
    24
 71
     3
 72
    12
 73
     8
 74
     0
 42
0.00000001
 43
0.00000001
 40
0.0
 40
0.0
 40
0.0
 40
0.0
 40
0.2500000000000001
 40
0.2500000000000001
 40
0.5000000000000001
 40
0.5000000000000001
 40
1.0
 40
1.0
 40
1.0
 40
1.0
 10
138.8257609351458
 20
75.10115701621703
 30
0.0
 10
138.8257609351458
 20
75.10115701621703
 30
0.0
 10
138.8584918103912
 20
75.10115701621703
 30
0.0
 10
138.9881711232658
 20
75.10115701621703
 30
0.0
 10
139.0842055804154
 20
75.10115701621703
 30
0.0
 10
139.4529207087892
 20
75.10115701621703
 30
0.0
 10
139.8056835397884
 20
75.10115701621703
 30
0.0
 10
140.2300549550082
 20
75.10115701621703
 30
0.0
  0
SPLINE
  5
BB
330
1F
100
AcDbEntity
  8
0
  6
Continuous
 62
     7
370
    25
100
AcDbSpline
210
0.0
220
0.0
230
1.0
 70
     8
 71
     3
 72
     8
 73
     4
 74
     0
 42
0.00000001
 43
0.00000001
 40
0.0
 40
0.0
 40
0.0
 40
0.0
 40
1.0
 40
1.0
 40
1.0
 40
1.0
 10
140.2300549550082
 20
75.10115701621703
 30
0.0
 10
140.255068080937
 20
75.10115701621703
 30
0.0
 10
140.2691366081199
 20
75.0779093801156
 30
0.0
 10
140.2691366081199
 20
75.03171257177257
 30
0.0
  0
LINE
  5
BC
330
1F
100
AcDbEntity
  8
0
  6
Continuous
 62
     7
370
    25
100
AcDbLine
 10
140.2691366081
 20
68.5068680309
 30
0.0
 11
140.2691366081
 21
75.0317125718
 31
0.0
  0
SPLINE
  5
BD
330
1F
100
AcDbEntity
  8
0
  6
Continuous
 62
     7
370
    25
100
AcDbSpline
210
0.0
220
0.0
230
1.0
 70
     8
 71
     3
 72
     8
 73
     4
 74
     0
 42
0.00000001
 43
0.00000001
 40
0.0
 40
0.0
 40
0.0
 40
0.0
 40
1.0
 40
1.0
 40
1.0
 40
1.0
 10
140.2691366081199
 20
68.5068680308803
 30
0.0
 10
140.2691366081199
 20
68.42860553700483
 30
0.0
 10
140.2550792953157
 20
68.33995889055404
 30
0.0
 10
140.2300549550082
 20
68.25265962507859
 30
0.0
  0
LINE
  5
BE
330
1F
100
AcDbEntity
  8
0
  6
Continuous
 62
     7
370
    25
100
AcDbLine
 10
138.8257609351
 20
43.1011570162
 30
0.0
 11
138.8257609351
 21
59.1011570162
 31
0.0
  0
LINE
  5
BF
330
1F
100
AcDbEntity
  8
0
  6
Continuous
 62
     7
370
    25
100
AcDbLine
 10
140.2691366081
 20
43.1706014607
 30
0.0
 11
140.2691366081
 21
49.6954460016
 31
0.0
  0
SPLINE
  5
C0
330
1F
100
AcDbEntity
  8
0
  6
Continuous
 62
     7
370
    25
100
AcDbSpline
210
0.0
220
0.0
230
1.0
 70
     8
 71
     3
 72
     8
 73
     4
 74
     0
 42
0.00000001
 43
0.00000001
 40
0.0
 40
0.0
 40
0.0
 40
0.0
 40
1.0
 40
1.0
 40
1.0
 40
1.0
 10
140.2691366081199
 20
43.17060146066147
 30
0.0
 10
140.2691366081199
 20
43.12439375634681
 30
0.0
 10
140.2550792953157
 20
43.10115701621702
 30
0.0
 10
140.2300549550082
 20
43.10115701621702
 30
0.0
  0
SPLINE
  5
C1
330
1F
100
AcDbEntity
  8
0
  6
Continuous
 62
     7
370
    25
100
AcDbSpline
210
0.0
220
0.0
230
1.0
 70
    24
 71
     3
 72
    12
 73
     8
 74
     0
 42
0.00000001
 43
0.00000001
 40
0.0
 40
0.0
 40
0.0
 40
0.0
 40
0.2500000000000001
 40
0.2500000000000001
 40
0.5000000000000001
 40
0.5000000000000001
 40
1.0
 40
1.0
 40
1.0
 40
1.0
 10
138.8257609351458
 20
43.10115701621702
 30
0.0
 10
138.8257609351458
 20
43.10115701621702
 30
0.0
 10
138.858491810396
 20
43.10115701621702
 30
0.0
 10
138.9881711232709
 20
43.10115701621702
 30
0.0
 10
139.0842055804194
 20
43.10115701621702
 30
0.0
 10
139.4529207087901
 20
43.10115701621702
 30
0.0
 10
139.8056835397871
 20
43.10115701621702
 30
0.0
 10
140.2300549550082
 20
43.10115701621702
 30
0.0
  0
SPLINE
  5
C2
330
1F
100
AcDbEntity
  8
0
  6
Continuous
 62
     7
370
    25
100
AcDbSpline
210
0.0
220
0.0
230
1.0
 70
     8
 71
     3
 72
     8
 73
     4
 74
     0
 42
0.00000001
 43
0.00000001
 40
0.0
 40
0.0
 40
0.0
 40
0.0
 40
1.0
 40
1.0
 40
1.0
 40
1.0
 10
163.4214669152834
 20
43.10115701621702
 30
0.0
 10
163.3964537893547
 20
43.10115701621702
 30
0.0
 10
163.3823852621717
 20
43.12440465231847
 30
0.0
 10
163.3823852621717
 20
43.17060146066147
 30
0.0
  0
LINE
  5
C3
330
1F
100
AcDbEntity
  8
0
  6
Continuous
 62
     7
370
    25
100
AcDbLine
 10
163.3823852622
 20
49.6954460016
 30
0.0
 11
163.3823852622
 21
43.1706014607
 31
0.0
  0
SPLINE
  5
C4
330
1F
100
AcDbEntity
  8
0
  6
Continuous
 62
     7
370
    25
100
AcDbSpline
210
0.0
220
0.0
230
1.0
 70
    24
 71
     3
 72
    12
 73
     8
 74
     0
 42
0.00000001
 43
0.00000001
 40
0.0
 40
0.0
 40
0.0
 40
0.0
 40
0.25
 40
0.25
 40
0.5
 40
0.5
 40
1.0
 40
1.0
 40
1.0
 40
1.0
 10
164.8257609351458
 20
43.10115701621702
 30
0.0
 10
164.8257609351458
 20
43.10115701621702
 30
0.0
 10
164.7931732958545
 20
43.10115701621702
 30
0.0
 10
164.6635461014045
 20
43.10115701621702
 30
0.0
 10
164.567449213007
 20
43.10115701621702
 30
0.0
 10
164.1986136235171
 20
43.10115701621702
 30
0.0
 10
163.8457762310058
 20
43.10115701621702
 30
0.0
 10
163.4214669152834
 20
43.10115701621702
 30
0.0
  0
LINE
  5
C5
330
1F
100
AcDbEntity
  8
0
  6
Continuous
 62
     7
370
    25
100
AcDbLine
 10
164.8257609351
 20
59.1011570162
 30
0.0
 11
164.8257609351
 21
43.1011570162
 31
0.0
  0
LINE
  5
C6
330
1F
100
AcDbEntity
  8
0
  6
Continuous
 62
     7
370
    25
100
AcDbLine
 10
140.2691366081
 20
68.5068680309
 30
0.0
 11
163.3823852622
 21
68.5068680309
 31
0.0
  0
LINE
  5
C7
330
1F
100
AcDbEntity
  8
0
  6
Continuous
 62
     7
370
    25
100
AcDbLine
 10
140.2691366081
 20
43.1706014607
 30
0.0
 11
163.3823852622
 21
43.1706014607
 31
0.0
  0
LINE
  5
C8
330
1F
100
AcDbEntity
  8
0
  6
Continuous
 62
     7
370
    25
100
AcDbLine
 10
163.3823852622
 20
75.0317125718
 30
0.0
 11
140.2691366081
 21
75.0317125718
 31
0.0
  0
LINE
  5
C9
330
1F
100
AcDbEntity
  8
0
  6
Continuous
 62
     7
370
    25
100
AcDbLine
 10
178.2205845962
 20
59.1011570162
 30
0.0
 11
178.2205845962
 21
72.1052562768
 31
0.0
  0
LINE
  5
CA
330
1F
100
AcDbEntity
  8
0
  6
Continuous
 62
     7
370
    25
100
AcDbLine
 10
178.2205845962
 20
46.0970577556
 30
0.0
 11
178.2205845962
 21
59.1011570162
 31
0.0
  0
LINE
  5
CB
330
1F
100
AcDbEntity
  8
0
  6
Continuous
 62
     7
370
    25
100
AcDbLine
 10
180.8257609351
 20
70.6011570162
 30
0.0
 11
180.8257609351
 21
47.6011570162
 31
0.0
  0
LINE
  5
CC
330
1F
100
AcDbEntity
  8
0
  6
Continuous
 62
     7
370
    25
100
AcDbLine
 10
163.4214669153
 20
43.1011570162
 30
0.0
 11
140.230054955
 21
43.1011570162
 31
0.0
  0
LINE
  5
CD
330
1F
100
AcDbEntity
  8
0
  6
Continuous
 62
     7
370
    25
100
AcDbLine
 10
140.230054955
 20
75.1011570162
 30
0.0
 11
163.4214669153
 21
75.1011570162
 31
0.0
  0
LINE
  5
CE
330
1F
100
AcDbEntity
  8
0
  6
Continuous
 62
     7
370
    25
100
AcDbLine
 10
151.8257609351
 20
79.0011570162
 30
0.0
 11
159.5757609351
 21
79.0011570162
 31
0.0
  0
LINE
  5
CF
330
1F
100
AcDbEntity
  8
0
  6
Continuous
 62
     7
370
    25
100
AcDbLine
 10
144.0757609351
 20
79.0011570162
 30
0.0
 11
151.8257609351
 21
79.0011570162
 31
0.0
  0
LINE
  5
D0
330
1F
100
AcDbEntity
  8
0
  6
Continuous
 62
     7
370
    25
100
AcDbLine
 10
151.8257609351
 20
78.5011570162
 30
0.0
 11
143.5757609351
 21
78.5011570162
 31
0.0
  0
LINE
  5
D1
330
1F
100
AcDbEntity
  8
0
  6
Continuous
 62
     7
370
    25
100
AcDbLine
 10
160.0757609351
 20
78.5011570162
 30
0.0
 11
151.8257609351
 21
78.5011570162
 31
0.0
  0
ARC
  5
D2
330
1F
100
AcDbEntity
  8
0
  6
Continuous
 62
     7
370
    25
100
AcDbCircle
 10
150.7588092659
 20
95.202233067
 30
0.0
 40
2.367678303511633
100
AcDbArc
 50
93.3632881501
 51
99.4868245017
  0
ARC
  5
D3
330
1F
100
AcDbEntity
  8
0
  6
Continuous
 62
     7
370
    25
100
AcDbCircle
 10
152.8927162909
 20
95.2022743177
 30
0.0
 40
2.367636907665296
100
AcDbArc
 50
80.5187694298
 51
86.636742268
  0
SPLINE
  5
D4
330
1F
100
AcDbEntity
  8
0
  6
Continuous
 62
     7
370
    25
100
AcDbSpline
210
0.0
220
0.0
230
1.0
 70
     8
 71
     3
 72
    15
 73
    11
 74
     0
 42
0.00000001
 43
0.00000001
 40
0.0
 40
0.0
 40
0.0
 40
0.0
 40
0.1233867499278388
 40
0.2487396502211601
 40
0.3739317114754985
 40
0.4999973617625659
 40
0.6259591330513601
 40
0.7512551380600303
 40
0.8765613478174267
 40
1.0
 40
1.0
 40
1.0
 40
1.0
 10
151.7628780703397
 20
97.6010499135215
 30
0.0
 10
151.7657562715316
 20
97.60105057259364
 30
0.0
 10
151.7715585376432
 20
97.60105190124014
 30
0.0
 10
151.787087942364
 20
97.6010558508673
 30
0.0
 10
151.8054425242374
 20
97.60105763321668
 30
0.0
 10
151.8257553407203
 20
97.60105918679463
 30
0.0
 10
151.8460737584354
 20
97.60105763265969
 30
0.0
 10
151.8644266275996
 20
97.60105585577914
 30
0.0
 10
151.879964731995
 20
97.60105188826098
 30
0.0
 10
151.8857652940263
 20
97.60105056846501
 30
0.0
 10
151.8886437999519
 20
97.6010499135215
 30
0.0
  0
ARC
  5
D5
330
1F
100
AcDbEntity
  8
0
  6
Continuous
 62
     7
370
    25
100
AcDbCircle
 10
151.763772498
 20
95.0567005007
 30
0.0
 40
2.544349570055241
100
AcDbArc
 50
90.0201414662
 51
95.4127462174
  0
SPLINE
  5
D6
330
1F
100
AcDbEntity
  8
0
  6
Continuous
 62
     7
370
    25
100
AcDbSpline
210
0.0
220
0.0
230
1.0
 70
     8
 71
     3
 72
    15
 73
    11
 74
     0
 42
0.00000001
 43
0.00000001
 40
0.0
 40
0.0
 40
0.0
 40
0.0
 40
0.126158522421064
 40
0.2513121451548799
 40
0.3762846848783793
 40
0.499306278334087
 40
0.6261594278645742
 40
0.7521171342021308
 40
0.875819692269278
 40
1.0
 40
1.0
 40
1.0
 40
1.0
 10
151.586647409468
 20
97.58780678211077
 30
0.0
 10
151.5814163129794
 20
97.5877558563603
 30
0.0
 10
151.5709957876367
 20
97.58765441050195
 30
0.0
 10
151.5562092371223
 20
97.58765022886469
 30
0.0
 10
151.5430188844968
 20
97.58774956768532
 30
0.0
 10
151.5321483096556
 20
97.58797010988837
 30
0.0
 10
151.524140722327
 20
97.58829397728985
 30
0.0
 10
151.5199740952943
 20
97.58871384713734
 30
0.0
 10
151.5193530437827
 20
97.58919256420306
 30
0.0
 10
151.5222921561375
 20
97.58953385344863
 30
0.0
 10
151.5237645446202
 20
97.58970482695825
 30
0.0
  0
ARC
  5
D7
330
1F
100
AcDbEntity
  8
0
  6
Continuous
 62
     7
370
    25
100
AcDbCircle
 10
151.8257609351
 20
77.0011570162
 30
0.0
 40
20.58803836847347
100
AcDbArc
 50
89.3345405821
 51
90.66545941
  0
SPLINE
  5
D8
330
1F
100
AcDbEntity
  8
0
  6
Continuous
 62
     7
370
    25
100
AcDbSpline
210
0.0
220
0.0
230
1.0
 70
     8
 71
     3
 72
    15
 73
    11
 74
     0
 42
0.00000001
 43
0.00000001
 40
0.0
 40
0.0
 40
0.0
 40
0.0
 40
0.1241186784437694
 40
0.2478474916628983
 40
0.3736574149478942
 40
0.5005082335853297
 40
0.6234527658309919
 40
0.7484986612277521
 40
0.8736976492452766
 40
1.0
 40
1.0
 40
1.0
 40
1.0
 10
152.1277573283974
 20
97.58970482692494
 30
0.0
 10
152.1292284010062
 20
97.58953394664645
 30
0.0
 10
152.1321659254846
 20
97.58919272283606
 30
0.0
 10
152.1315491909845
 20
97.58871418654859
 30
0.0
 10
152.1273872293899
 20
97.58829439667669
 30
0.0
 10
152.1193884815915
 20
97.58797060883029
 30
0.0
 10
152.1085223900547
 20
97.5877499106246
 30
0.0
 10
152.0953346722301
 20
97.58765031871441
 30
0.0
 10
152.0805402256548
 20
97.58765423311303
 30
0.0
 10
152.0701116347475
 20
97.58775578391842
 30
0.0
 10
152.0648744636331
 20
97.58780678207815
 30
0.0
  0
ARC
  5
D9
330
1F
100
AcDbEntity
  8
0
  6
Continuous
 62
     7
370
    25
100
AcDbCircle
 10
151.8877493722
 20
95.0567004484
 30
0.0
 40
2.544349622298665
100
AcDbArc
 50
84.5872538302
 51
89.9798585321
  0
ELLIPSE
  5
DA
330
1F
100
AcDbEntity
  8
0
  6
Continuous
 62
     7
370
    25
100
AcDbEllipse
 10
254.3396564076
 20
82.1229797345
 30
0.0
 11
171.000000000001
 21
1.421085471520200E-14
 31
0.0
210
0.0
220
0.0
230
1.0
 40
0.0555555556
 41
2.292395939553285
 42
2.365524293035126
  0
LINE
  5
DB
330
1F
100
AcDbEntity
  8
0
  6
Continuous
 62
     7
370
    25
100
AcDbLine
 10
141.3793775802
 20
89.2551048068
 30
0.0
 11
141.8257609351
 21
89.217642841
 31
0.0
  0
LINE
  5
DC
330
1F
100
AcDbEntity
  8
0
  6
Continuous
 62
     7
370
    25
100
AcDbLine
 10
141.8257609351
 20
84.3890402194
 30
0.0
 11
141.8257609351
 21
89.217642841
 31
0.0
  0
SPLINE
  5
DD
330
1F
100
AcDbEntity
  8
0
  6
Continuous
 62
     7
370
    25
100
AcDbSpline
210
0.0
220
0.0
230
1.0
 70
     8
 71
     3
 72
    12
 73
     8
 74
     0
 42
0.00000001
 43
0.00000001
 40
0.0
 40
0.0
 40
0.0
 40
0.0
 40
0.1374975366677113
 40
0.2750385788614215
 40
0.5575409445665216
 40
0.7769626822980097
 40
1.0
 40
1.0
 40
1.0
 40
1.0
 10
132.3015601677897
 20
88.77752961824326
 30
0.0
 10
132.7868685560468
 20
88.69121146387322
 30
0.0
 10
133.7576388887424
 20
88.51854784324954
 30
0.0
 10
135.6603343444302
 20
87.98588939105309
 30
0.0
 10
137.7435563328355
 20
87.13797012618284
 30
0.0
 10
139.9653329093666
 20
85.87408145044509
 30
0.0
 10
141.2022490823428
 20
84.88674332677299
 30
0.0
 10
141.8257609351458
 20
84.38904021941315
 30
0.0
  0
SPLINE
  5
DE
330
1F
100
AcDbEntity
  8
0
  6
Continuous
 62
     7
370
    25
100
AcDbSpline
210
0.0
220
0.0
230
1.0
 70
     8
 71
     3
 72
    11
 73
     7
 74
     0
 42
0.00000001
 43
0.00000001
 40
0.0
 40
0.0
 40
0.0
 40
0.0
 40
0.2795638428677821
 40
0.5590315779132444
 40
0.7794196683689394
 40
1.0
 40
1.0
 40
1.0
 40
1.0
 10
129.3894329810683
 20
89.00115701621702
 30
0.0
 10
129.2658596352922
 20
89.0396758681651
 30
0.0
 10
129.0187554255037
 20
89.11670033013793
 30
0.0
 10
128.7649995175804
 20
89.64949822792762
 30
0.0
 10
128.6483810766
 20
90.27723479479403
 30
0.0
 10
128.6749004626352
 20
90.67821761096266
 30
0.0
 10
128.6881659362458
 20
90.87879642372727
 30
0.0
  0
SPLINE
  5
DF
330
1F
100
AcDbEntity
  8
0
  6
Continuous
 62
     7
370
    25
100
AcDbSpline
210
0.0
220
0.0
230
1.0
 70
     8
 71
     3
 72
     9
 73
     5
 74
     0
 42
0.00000001
 43
0.00000001
 40
0.0
 40
0.0
 40
0.0
 40
0.0
 40
0.4986740982738611
 40
1.0
 40
1.0
 40
1.0
 40
1.0
 10
129.9797264773146
 20
90.90859744915771
 30
0.0
 10
129.7732528362449
 20
90.91006252841436
 30
0.0
 10
129.3592075874853
 20
90.91300047779195
 30
0.0
 10
128.9122414855404
 20
90.89021719886026
 30
0.0
 10
128.6881658014418
 20
90.87879535100554
 30
0.0
  0
SPLINE
  5
E0
330
1F
100
AcDbEntity
  8
0
  6
Continuous
 62
     7
370
    25
100
AcDbSpline
210
0.0
220
0.0
230
1.0
 70
     8
 71
     3
 72
    13
 73
     9
 74
     0
 42
0.00000001
 43
0.00000001
 40
0.0
 40
0.0
 40
0.0
 40
0.0
 40
0.3327087167328945
 40
0.5628656559531297
 40
0.6987124125384699
 40
0.8016200683166477
 40
0.9052998751809804
 40
1.0
 40
1.0
 40
1.0
 40
1.0
 10
131.9705272175853
 20
88.82570405506789
 30
0.0
 10
131.6081363872581
 20
88.91148962998605
 30
0.0
 10
130.9950555085048
 20
89.05661884202404
 30
0.0
 10
130.3455101838423
 20
89.50698553845135
 30
0.0
 10
130.0028131682443
 20
89.9067266870572
 30
0.0
 10
129.8538895571005
 20
90.26261893346876
 30
0.0
 10
129.8417168376738
 20
90.610052780503
 30
0.0
 10
129.935133431494
 20
90.81213165168208
 30
0.0
 10
129.9797274739451
 20
90.90859752986623
 30
0.0
  0
SPLINE
  5
E1
330
1F
100
AcDbEntity
  8
0
  6
Continuous
 62
     7
370
    25
100
AcDbSpline
210
0.0
220
0.0
230
1.0
 70
     8
 71
     3
 72
     9
 73
     5
 74
     0
 42
0.00000001
 43
0.00000001
 40
0.0
 40
0.0
 40
0.0
 40
0.0
 40
0.5551829690770671
 40
1.0
 40
1.0
 40
1.0
 40
1.0
 10
129.3894329810683
 20
89.00115701621702
 30
0.0
 10
129.9194558547895
 20
88.98815799572596
 30
0.0
 10
130.8741372899969
 20
88.96474405615092
 30
0.0
 10
131.6329807311543
 20
88.86851041679923
 30
0.0
 10
131.9705272175853
 20
88.82570405506789
 30
0.0
  0
LINE
  5
E2
330
1F
100
AcDbEntity
  8
0
  6
Continuous
 62
     7
370
    25
100
AcDbLine
 10
141.3793775802
 20
94.5011570162
 30
0.0
 11
141.3793775802
 21
89.2551048068
 31
0.0
  0
LINE
  5
E3
330
1F
100
AcDbEntity
  8
0
  6
Continuous
 62
     7
370
    25
100
AcDbLine
 10
141.8257609351
 20
94.5011570162
 30
0.0
 11
141.3793775802
 21
94.5011570162
 31
0.0
  0
LINE
  5
E4
330
1F
100
AcDbEntity
  8
0
  6
Continuous
 62
     7
370
    25
100
AcDbLine
 10
141.8257609351
 20
89.217642841
 30
0.0
 11
141.8257609351
 21
94.5011570162
 31
0.0
  0
ARC
  5
E5
330
1F
100
AcDbEntity
  8
0
  6
Continuous
 62
     7
370
    25
100
AcDbCircle
 10
148.2021899938
 20
94.8750031701
 30
0.0
 40
6.833046917555869
100
AcDbArc
 50
170.513808076
 51
183.1363032674
  0
ARC
  5
E6
330
1F
100
AcDbEntity
  8
0
  6
Continuous
 62
     7
370
    25
100
AcDbCircle
 10
141.4581930688
 20
95.2109070678
 30
0.0
 40
0.7902621394874095
100
AcDbArc
 50
62.2819181136
 51
89.6817467964
  0
LINE
  5
E7
330
1F
100
AcDbEntity
  8
0
  6
Continuous
 62
     7
370
    25
100
AcDbLine
 10
141.8257609351
 20
94.5011570162
 30
0.0
 11
141.8257609351
 21
95.9104841634
 31
0.0
  0
LINE
  5
E8
330
1F
100
AcDbEntity
  8
0
  6
Continuous
 62
     7
370
    25
100
AcDbLine
 10
129.9795534036
 20
90.9086979356
 30
0.0
 11
132.0455071385
 21
94.5012680221
 31
0.0
  0
LINE
  5
E9
330
1F
100
AcDbEntity
  8
0
  6
Continuous
 62
     7
370
    25
100
AcDbLine
 10
132.0456995687
 20
94.5011570162
 30
0.0
 11
141.3793775802
 21
94.5011570162
 31
0.0
  0
ARC
  5
EA
330
1F
100
AcDbEntity
  8
0
  6
Continuous
 62
     7
370
    25
100
AcDbCircle
 10
129.3894329811
 20
69.928149769
 30
0.0
 40
19.07300724724769
100
AcDbArc
 50
81.2175477188
 51
82.2224666688
  0
LINE
  5
EB
330
1F
100
AcDbEntity
  8
0
  6
Continuous
 62
     7
370
    25
100
AcDbLine
 10
141.4625826097
 20
96.0011570162
 30
0.0
 11
130.0468533262
 21
96.0011570162
 31
0.0
  0
SPLINE
  5
EC
330
1F
100
AcDbEntity
  8
0
  6
Continuous
 62
     7
370
    25
100
AcDbSpline
210
0.0
220
0.0
230
1.0
 70
     8
 71
     3
 72
    15
 73
    11
 74
     0
 42
0.00000001
 43
0.00000001
 40
0.0
 40
0.0
 40
0.0
 40
0.0
 40
0.2070474010410777
 40
0.4175968630246832
 40
0.5931232720441627
 40
0.6923428991082514
 40
0.7730996831079096
 40
0.8543284120985933
 40
0.926147516637204
 40
1.0
 40
1.0
 40
1.0
 40
1.0
 10
130.0442870394603
 20
96.00114229011102
 30
0.0
 10
130.2753762764252
 20
95.9972920512697
 30
0.0
 10
130.7414634620168
 20
95.9895264495092
 30
0.0
 10
131.3660612613239
 20
95.90287648677173
 30
0.0
 10
131.8277404517546
 20
95.73292597722913
 30
0.0
 10
132.0896441507383
 20
95.5035611198806
 30
0.0
 10
132.2101108068695
 20
95.26576765460123
 30
0.0
 10
132.2289048450652
 20
95.00385467732802
 30
0.0
 10
132.1678664530652
 20
94.73831227531262
 30
0.0
 10
132.0866713594504
 20
94.5810146522989
 30
0.0
 10
132.0455071256646
 20
94.50126800949788
 30
0.0
  0
SPLINE
  5
ED
330
1F
100
AcDbEntity
  8
0
  6
Continuous
 62
     7
370
    25
100
AcDbSpline
210
0.0
220
0.0
230
1.0
 70
     8
 71
     3
 72
    11
 73
     7
 74
     0
 42
0.00000001
 43
0.00000001
 40
0.0
 40
0.0
 40
0.0
 40
0.0
 40
0.2491150002829079
 40
0.4989585322854286
 40
0.7493328274976518
 40
1.0
 40
1.0
 40
1.0
 40
1.0
 10
128.6881659362458
 20
90.87879642372727
 30
0.0
 10
128.2624546549324
 20
90.85254331575842
 30
0.0
 10
127.4097871083764
 20
90.79996032314385
 30
0.0
 10
126.0462213471247
 20
90.71563929291732
 30
0.0
 10
124.6455487299124
 20
90.6289060241056
 30
0.0
 10
123.6947284944252
 20
90.56992845867802
 30
0.0
 10
123.2190404818647
 20
90.54042243867883
 30
0.0
  0
SPLINE
  5
EE
330
1F
100
AcDbEntity
  8
0
  6
Continuous
 62
     7
370
    25
100
AcDbSpline
210
0.0
220
0.0
230
1.0
 70
     8
 71
     3
 72
     9
 73
     5
 74
     0
 42
0.00000001
 43
0.00000001
 40
0.0
 40
0.0
 40
0.0
 40
0.0
 40
0.5599987526606142
 40
1.0
 40
1.0
 40
1.0
 40
1.0
 10
125.782941849522
 20
95.51424549037083
 30
0.0
 10
125.3031755916349
 20
94.58640419052152
 30
0.0
 10
124.4464482228546
 20
92.92954103602153
 30
0.0
 10
123.594082474382
 20
91.27043233611107
 30
0.0
 10
123.2190404818647
 20
90.54042243867885
 30
0.0
  0
SPLINE
  5
EF
330
1F
100
AcDbEntity
  8
0
  6
Continuous
 62
     7
370
    25
100
AcDbSpline
210
0.0
220
0.0
230
1.0
 70
     8
 71
     3
 72
     9
 73
     5
 74
     0
 42
0.00000001
 43
0.00000001
 40
0.0
 40
0.0
 40
0.0
 40
0.0
 40
0.5600000882143288
 40
1.0
 40
1.0
 40
1.0
 40
1.0
 10
126.2874289870742
 20
96.48806854206296
 30
0.0
 10
126.1932165715425
 20
96.30630967123119
 30
0.0
 10
126.0249801417374
 20
95.98174031015952
 30
0.0
 10
125.8568979840689
 20
95.65709110986273
 30
0.0
 10
125.782941849522
 20
95.51424549037083
 30
0.0
  0
SPLINE
  5
F0
330
1F
100
AcDbEntity
  8
0
  6
Continuous
 62
     7
370
    25
100
AcDbSpline
210
0.0
220
0.0
230
1.0
 70
     8
 71
     3
 72
    10
 73
     6
 74
     0
 42
0.00000001
 43
0.00000001
 40
0.0
 40
0.0
 40
0.0
 40
0.0
 40
0.4283493666310629
 40
0.7616603141144171
 40
1.0
 40
1.0
 40
1.0
 40
1.0
 10
126.2874289870744
 20
96.48806854206317
 30
0.0
 10
126.7343561883574
 20
96.38627227924002
 30
0.0
 10
127.529050283957
 20
96.20526541998551
 30
0.0
 10
128.5656050849626
 20
96.03160303703237
 30
0.0
 10
129.1514704179629
 20
96.0101157591366
 30
0.0
 10
129.3957366730629
 20
96.00115701621692
 30
0.0
  0
LINE
  5
F1
330
1F
100
AcDbEntity
  8
0
  6
Continuous
 62
     7
370
    25
100
AcDbLine
 10
129.393636513
 20
96.0011570162
 30
0.0
 11
130.0442899791
 21
96.0011570162
 31
0.0
  0
LINE
  5
F2
330
1F
100
AcDbEntity
  8
0
  6
Continuous
 62
     7
370
    25
100
AcDbLine
 10
141.8257609351
 20
96.0011570162
 30
0.0
 11
141.4625826097
 21
96.0011570162
 31
0.0
  0
LINE
  5
F3
330
1F
100
AcDbEntity
  8
0
  6
Continuous
 62
     7
370
    25
100
AcDbLine
 10
141.8257609351
 20
95.9104841634
 30
0.0
 11
141.8257609351
 21
96.0011570162
 31
0.0
  0
SPLINE
  5
F4
330
1F
100
AcDbEntity
  8
0
  6
Continuous
 62
     7
370
    25
100
AcDbSpline
210
0.0
220
0.0
230
1.0
 70
    24
 71
     3
 72
    11
 73
     7
 74
     0
 42
0.00000001
 43
0.00000001
 40
0.0
 40
0.0
 40
0.0
 40
0.0
 40
0.2799857774483057
 40
0.5599458358671288
 40
0.779998565900937
 40
0.9999999999999999
 40
0.9999999999999999
 40
0.9999999999999999
 40
0.9999999999999999
 10
123.2582924490469
 20
89.00115701621702
 30
0.0
 10
123.8556164361309
 20
89.00115701621702
 30
0.0
 10
125.0502095411073
 20
89.00115701621702
 30
0.0
 10
126.67757129659
 20
89.00115701621702
 30
0.0
 10
128.1333008660881
 20
89.00115701621702
 30
0.0
 10
128.9707548159959
 20
89.00115701621702
 30
0.0
 10
129.3894329810683
 20
89.00115701621702
 30
0.0
  0
SPLINE
  5
F5
330
1F
100
AcDbEntity
  8
0
  6
Continuous
 62
     7
370
    25
100
AcDbSpline
210
0.0
220
0.0
230
1.0
 70
     8
 71
     3
 72
    11
 73
     7
 74
     0
 42
0.00000001
 43
0.00000001
 40
0.0
 40
0.0
 40
0.0
 40
0.0
 40
0.2500000000000004
 40
0.5000000000000004
 40
0.7500000000000011
 40
1.0
 40
1.0
 40
1.0
 40
1.0
 10
123.2582924490469
 20
89.00115701621702
 30
0.0
 10
123.2530614152868
 20
89.02447854852532
 30
0.0
 10
123.2425993477665
 20
89.07112161314194
 30
0.0
 10
123.2294848598992
 20
89.42910268150862
 30
0.0
 10
123.2204605164053
 20
89.93929561955058
 30
0.0
 10
123.2195138267115
 20
90.34004683230275
 30
0.0
 10
123.2190404818647
 20
90.54042243867883
 30
0.0
  0
SPLINE
  5
F6
330
1F
100
AcDbEntity
  8
0
  6
Continuous
 62
     7
370
    25
100
AcDbSpline
210
0.0
220
0.0
230
1.0
 70
     8
 71
     3
 72
    11
 73
     7
 74
     0
 42
0.00000001
 43
0.00000001
 40
0.0
 40
0.0
 40
0.0
 40
0.0
 40
0.2499999999999989
 40
0.4999999999999996
 40
0.749999999999999
 40
1.0
 40
1.0
 40
1.0
 40
1.0
 10
138.8126904013647
 20
96.00115701621701
 30
0.0
 10
138.8143768718687
 20
96.00841932586916
 30
0.0
 10
138.8177498128765
 20
96.02294394517344
 30
0.0
 10
138.8220297097778
 20
96.13491614876592
 30
0.0
 10
138.8250718305916
 20
96.29542772679089
 30
0.0
 10
138.8255402038142
 20
96.42385493697233
 30
0.0
 10
138.8257743904254
 20
96.48806854206308
 30
0.0
  0
SPLINE
  5
F7
330
1F
100
AcDbEntity
  8
0
  6
Continuous
 62
     7
370
    25
100
AcDbSpline
210
0.0
220
0.0
230
1.0
 70
     8
 71
     3
 72
    13
 73
     9
 74
     0
 42
0.00000001
 43
0.00000001
 40
0.0
 40
0.0
 40
0.0
 40
0.0
 40
0.2886949682914854
 40
0.5545536835943153
 40
0.6780091910936106
 40
0.7888922083801199
 40
0.8964194071406489
 40
1.0
 40
1.0
 40
1.0
 40
1.0
 10
138.8257743904254
 20
96.48806854206308
 30
0.0
 10
139.0974995810016
 20
96.44943838818509
 30
0.0
 10
139.6194560468561
 20
96.37523378996283
 30
0.0
 10
140.2170314549593
 20
96.29217107043421
 30
0.0
 10
140.5808856351389
 20
96.24319013982563
 30
0.0
 10
140.7774331267046
 20
96.21717318005413
 30
0.0
 10
140.9037164158107
 20
96.2018143697099
 30
0.0
 10
140.9185049177818
 20
96.20137338602242
 30
0.0
 10
140.9257609351458
 20
96.20115701621704
 30
0.0
  0
SPLINE
  5
F8
330
1F
100
AcDbEntity
  8
0
  6
Continuous
 62
     7
370
    25
100
AcDbSpline
210
0.0
220
0.0
230
1.0
 70
     8
 71
     3
 72
    11
 73
     7
 74
     0
 42
0.00000001
 43
0.00000001
 40
0.0
 40
0.0
 40
0.0
 40
0.0
 40
0.2500000000000007
 40
0.5000000000000022
 40
0.7500000000000036
 40
1.0
 40
1.0
 40
1.0
 40
1.0
 10
140.9257609351458
 20
96.20115701621704
 30
0.0
 10
140.95102087335
 20
96.17177934638525
 30
0.0
 10
141.0015407497583
 20
96.11302400672172
 30
0.0
 10
141.1003993589587
 20
96.05043386384273
 30
0.0
 10
141.2097866387821
 20
96.0089010622098
 30
0.0
 10
141.2871028363579
 20
96.00373836488129
 30
0.0
 10
141.3257609351458
 20
96.00115701621704
 30
0.0
  0
LINE
  5
F9
330
1F
100
AcDbEntity
  8
0
  6
Continuous
 62
     7
370
    25
100
AcDbLine
 10
138.8257743904
 20
96.4880685421
 30
0.0
 11
126.2874289871
 21
96.4880685421
 31
0.0
  0
LINE
  5
FA
330
1F
100
AcDbEntity
  8
0
  6
Continuous
 62
     7
370
    25
100
AcDbLine
 10
140.9257609351
 20
96.2011570162
 30
0.0
 11
138.5257609351
 21
99.4011570162
 31
0.0
  0
LINE
  5
FB
330
1F
100
AcDbEntity
  8
0
  6
Continuous
 62
     7
370
    25
100
AcDbLine
 10
136.7022151369
 20
99.31948088
 30
0.0
 11
138.8257743904
 21
96.4880685421
 31
0.0
  0
ELLIPSE
  5
FC
330
1F
100
AcDbEntity
  8
0
  6
Continuous
 62
     7
370
    25
100
AcDbEllipse
 10
136.7257609351
 20
99.3011570162
 30
0.0
 11
1.560063634884898
 21
0.4198716740992978
 31
0.0
210
0.0
220
0.0
230
1.0
 40
0.0147408623
 41
0.9331929812035047
 42
1.581922327328513
  0
SPLINE
  5
FD
330
1F
100
AcDbEntity
  8
0
  6
Continuous
 62
     7
370
    25
100
AcDbSpline
210
0.0
220
0.0
230
1.0
 70
     8
 71
     3
 72
    11
 73
     7
 74
     0
 42
0.00000001
 43
0.00000001
 40
0.0
 40
0.0
 40
0.0
 40
0.0
 40
0.2307374805226516
 40
0.4903955403005856
 40
0.7438105520730655
 40
1.0
 40
1.0
 40
1.0
 40
1.0
 10
137.6494489387808
 20
99.56957301137034
 30
0.0
 10
137.7410809435403
 20
99.58828886177479
 30
0.0
 10
137.935830086077
 20
99.62806640268614
 30
0.0
 10
138.1833376533149
 20
99.61074641412756
 30
0.0
 10
138.3931463827091
 20
99.53976152180138
 30
0.0
 10
138.4813959321894
 20
99.44752590399769
 30
0.0
 10
138.5257609351458
 20
99.40115701621701
 30
0.0
  0
LINE
  5
FE
330
1F
100
AcDbEntity
  8
0
  6
Continuous
 62
     7
370
    25
100
AcDbLine
 10
123.2190404819
 20
90.5404224387
 30
0.0
 11
101.5914923131
 21
90.5404224387
 31
0.0
  0
LINE
  5
FF
330
1F
100
AcDbEntity
  8
0
  6
Continuous
 62
     7
370
    25
100
AcDbLine
 10
101.5914923131
 20
90.5404224387
 30
0.0
 11
101.8139372243
 21
99.0352508751
 31
0.0
  0
ARC
  5
100
330
1F
100
AcDbEntity
  8
0
  6
Continuous
 62
     7
370
    25
100
AcDbCircle
 10
102.4254773392
 20
98.51948088
 30
0.0
 40
0.7999999999999914
100
AcDbArc
 50
90.0
 51
139.8558773282
  0
LINE
  5
101
330
1F
100
AcDbEntity
  8
0
  6
Continuous
 62
     7
370
    25
100
AcDbLine
 10
102.4254773392
 20
99.31948088
 30
0.0
 11
136.7022151369
 21
99.31948088
 31
0.0
  0
SPLINE
  5
102
330
1F
100
AcDbEntity
  8
0
  6
Continuous
 62
     7
370
    25
100
AcDbSpline
210
0.0
220
0.0
230
1.0
 70
     8
 71
     3
 72
    11
 73
     7
 74
     0
 42
0.00000001
 43
0.00000001
 40
0.0
 40
0.0
 40
0.0
 40
0.0
 40
0.2499999999999975
 40
0.5000000000000014
 40
0.7500000000000004
 40
1.0
 40
1.0
 40
1.0
 40
1.0
 10
102.4254773392107
 20
99.31948088003253
 30
0.0
 10
102.4258052004665
 20
99.40937992715955
 30
0.0
 10
102.4264609229781
 20
99.58917802141356
 30
0.0
 10
102.4307198921174
 20
99.81389423064851
 30
0.0
 10
102.4367117477792
 20
99.97065531567803
 30
0.0
 10
102.4414338651902
 20
99.99098978270402
 30
0.0
 10
102.4437949238957
 20
100.001157016217
 30
0.0
  0
LINE
  5
103
330
1F
100
AcDbEntity
  8
0
  6
Continuous
 62
     7
370
    25
100
AcDbLine
 10
136.7205327216
 20
100.0011570162
 30
0.0
 11
102.4437949239
 21
100.0011570162
 31
0.0
  0
SPLINE
  5
104
330
1F
100
AcDbEntity
  8
0
  6
Continuous
 62
     7
370
    25
100
AcDbSpline
210
0.0
220
0.0
230
1.0
 70
     8
 71
     3
 72
    11
 73
     7
 74
     0
 42
0.00000001
 43
0.00000001
 40
0.0
 40
0.0
 40
0.0
 40
0.0
 40
0.2500000000000006
 40
0.4999999999999992
 40
0.7499999999999969
 40
1.0
 40
1.0
 40
1.0
 40
1.0
 10
136.7205327216334
 20
100.001157016217
 30
0.0
 10
136.7181716629279
 20
99.99098978270402
 30
0.0
 10
136.7134495455169
 20
99.97065531567802
 30
0.0
 10
136.707457689855
 20
99.81389423064854
 30
0.0
 10
136.7031987207158
 20
99.58917802141356
 30
0.0
 10
136.7025429982041
 20
99.40937992715953
 30
0.0
 10
136.7022151369483
 20
99.31948088003253
 30
0.0
  0
LINE
  5
105
330
1F
100
AcDbEntity
  8
0
  6
Continuous
 62
     7
370
    25
100
AcDbLine
 10
137.3257609351
 20
100.0011570162
 30
0.0
 11
136.7205327216
 21
100.0011570162
 31
0.0
  0
SPLINE
  5
106
330
1F
100
AcDbEntity
  8
0
  6
Continuous
 62
     7
370
    25
100
AcDbSpline
210
0.0
220
0.0
230
1.0
 70
     8
 71
     3
 72
    10
 73
     6
 74
     0
 42
0.00000001
 43
0.00000001
 40
0.0
 40
0.0
 40
0.0
 40
0.0
 40
0.2808335173386731
 40
0.561651091741411
 40
1.0
 40
1.0
 40
1.0
 40
1.0
 10
137.3257609351458
 20
100.001157016217
 30
0.0
 10
137.3641113841083
 20
99.9935824079491
 30
0.0
 10
137.4408101048758
 20
99.97843362142422
 30
0.0
 10
137.5659644549178
 20
99.84480268836457
 30
0.0
 10
137.6178335212711
 20
99.67380197400632
 30
0.0
 10
137.6494489387808
 20
99.56957301137032
 30
0.0
  0
LINE
  5
107
330
1F
100
AcDbEntity
  8
0
  6
Continuous
 62
     7
370
    25
100
AcDbLine
 10
101.5914923131
 20
90.5404224387
 30
0.0
 11
101.5484998856
 21
90.4775353538
 31
0.0
  0
ELLIPSE
  5
108
330
1F
100
AcDbEntity
  8
0
  6
Continuous
 62
     7
370
    25
100
AcDbEllipse
 10
97.3257609351
 20
90.5011570162
 30
0.0
 11
0.5000325503426239
 21
1.499994860147524
 31
0.0
210
0.0
220
0.0
230
1.0
 40
0.0078530307
 41
2.363888000155779
 42
3.144210503884971
  0
SPLINE
  5
109
330
1F
100
AcDbEntity
  8
0
  6
Continuous
 62
     7
370
    25
100
AcDbSpline
210
0.0
220
0.0
230
1.0
 70
     8
 71
     3
 72
    12
 73
     8
 74
     0
 42
0.00000001
 43
0.00000001
 40
0.0
 40
0.0
 40
0.0
 40
0.0
 40
0.0715202026166141
 40
0.1260836237049448
 40
0.3855387013103015
 40
0.8475626424815557
 40
1.0
 40
1.0
 40
1.0
 40
1.0
 10
97.30033232214522
 20
89.82946496586622
 30
0.0
 10
97.28587818736635
 20
89.8263563180014
 30
0.0
 10
97.2603968600803
 20
89.82087605405806
 30
0.0
 10
97.19392513243407
 20
89.78128750863769
 30
0.0
 10
97.08922074530113
 20
89.67485337565536
 30
0.0
 10
97.00239218645473
 20
89.54434635994716
 30
0.0
 10
96.9693956197449
 20
89.4568366459838
 30
0.0
 10
96.96120973489397
 20
89.43512698000124
 30
0.0
  0
ELLIPSE
  5
10A
330
1F
100
AcDbEntity
  8
0
  6
Continuous
 62
     7
370
    25
100
AcDbEllipse
 10
65.4016240945
 20
90.5011570162
 30
0.0
 11
36.17607470647087
 21
0.04043410480178978
 31
0.0
210
0.0
220
0.0
230
1.0
 40
0.0414488012
 41
5.791928562280354
 42
6.243021298617556
  0
ELLIPSE
  5
10B
330
1F
100
AcDbEntity
  8
0
  6
Continuous
 62
     7
370
    25
100
AcDbEllipse
 10
101.6307442803
 20
90.5011570162
 30
0.0
 11
0.03725061189166468
 21
1.49999863053587
 31
0.0
210
0.0
220
0.0
230
1.0
 40
0.0544129722
 41
1.585352277991072
 42
1.587896030767899
  0
LINE
  5
10C
330
1F
100
AcDbEntity
  8
0
  6
Continuous
 62
     7
370
    25
100
AcDbLine
 10
96.8257609351
 20
89.0011570162
 30
0.0
 11
123.258292449
 21
89.0011570162
 31
0.0
  0
SPLINE
  5
10D
330
1F
100
AcDbEntity
  8
0
  6
Continuous
 62
     7
370
    25
100
AcDbSpline
210
0.0
220
0.0
230
1.0
 70
     8
 71
     3
 72
    11
 73
     7
 74
     0
 42
0.00000001
 43
0.00000001
 40
0.0
 40
0.0
 40
0.0
 40
0.0
 40
0.2561894651307287
 40
0.5096044939206915
 40
0.7692742066553648
 40
1.0
 40
1.0
 40
1.0
 40
1.0
 10
138.5257609351458
 20
99.40115701621701
 30
0.0
 10
138.4501648028519
 20
99.48916738120545
 30
0.0
 10
138.2997912161773
 20
99.66423499176008
 30
0.0
 10
138.000578430222
 20
99.85442256146163
 30
0.0
 10
137.6730586953352
 20
99.97842136218732
 30
0.0
 10
137.4368803145214
 20
99.99388264806647
 30
0.0
 10
137.3257609351458
 20
100.001157016217
 30
0.0
  0
ARC
  5
10E
330
1F
100
AcDbEntity
  8
0
  6
Continuous
 62
     7
370
    25
100
AcDbCircle
 10
106.0244991573
 20
90.5061610641
 30
0.0
 40
8.750371682181466
100
AcDbArc
 50
182.878079786
 51
184.4353064954
  0
ELLIPSE
  5
10F
330
1F
100
AcDbEntity
  8
0
  6
Continuous
 62
     7
370
    25
100
AcDbEllipse
 10
65.3747537356
 20
90.5145921957
 30
0.0
 11
36.18915847374971
 21
0.02692057091444156
 31
0.0
210
0.0
220
0.0
230
1.0
 40
0.0276225703
 41
5.791964074121207
 42
6.25483629951347
  0
SPLINE
  5
110
330
1F
100
AcDbEntity
  8
0
  6
Continuous
 62
     7
370
    25
100
AcDbSpline
210
0.0
220
0.0
230
1.0
 70
     8
 71
     3
 72
     9
 73
     5
 74
     0
 42
0.00000001
 43
0.00000001
 40
0.0
 40
0.0
 40
0.0
 40
0.0
 40
0.8673350121728702
 40
1.0
 40
1.0
 40
1.0
 40
1.0
 10
101.5493922588214
 20
90.51316701207958
 30
0.0
 10
101.5491548731916
 20
90.50396858870438
 30
0.0
 10
101.5488811777607
 20
90.49336320180531
 30
0.0
 10
101.548625291252
 20
90.48275757720393
 30
0.0
 10
101.5485913440715
 20
90.48135058214527
 30
0.0
  0
LINE
  5
111
330
1F
100
AcDbEntity
  8
0
  6
Continuous
 62
     7
370
    25
100
AcDbLine
 10
101.7986920002
 20
98.9939672508
 30
0.0
 11
101.7718216413
 21
99.0074024303
 31
0.0
  0
LINE
  5
112
330
1F
100
AcDbEntity
  8
0
  6
Continuous
 62
     7
370
    25
100
AcDbLine
 10
101.7986920002
 20
98.9939672508
 30
0.0
 11
101.576763994
 21
90.5188786201
 31
0.0
  0
LINE
  5
113
330
1F
100
AcDbEntity
  8
0
  6
Continuous
 62
     7
370
    25
100
AcDbLine
 10
101.7718216413
 20
99.0074024303
 30
0.0
 11
101.5493922588
 21
90.5131670121
 31
0.0
  0
ARC
  5
114
330
1F
100
AcDbEntity
  8
0
  6
Continuous
 62
     7
370
    25
100
AcDbCircle
 10
102.4061764215
 20
98.5199662674
 30
0.0
 40
0.7999999999999975
100
AcDbArc
 50
142.4614409777
 51
153.4349488229
  0
LINE
  5
115
330
1F
100
AcDbEntity
  8
0
  6
Continuous
 62
     7
370
    25
100
AcDbLine
 10
97.2851648445
 20
90.0667974954
 30
0.0
 11
101.6906346687
 21
98.8777371438
 31
0.0
  0
SPLINE
  5
116
330
1F
100
AcDbEntity
  8
0
  6
Continuous
 62
     7
370
    25
100
AcDbSpline
210
0.0
220
0.0
230
1.0
 70
     8
 71
     3
 72
    12
 73
     8
 74
     0
 42
0.00000001
 43
0.00000001
 40
0.0
 40
0.0
 40
0.0
 40
0.0
 40
0.1396834586182491
 40
0.3831896274038308
 40
0.5513169293013305
 40
0.8194729461607057
 40
1.0
 40
1.0
 40
1.0
 40
1.0
 10
96.52320399424059
 20
90.01407712315648
 30
0.0
 10
96.53344537498687
 20
90.02738949681743
 30
0.0
 10
96.56154026117521
 20
90.0639089498254
 30
0.0
 10
96.66869062252998
 20
90.10158101041678
 30
0.0
 10
96.84902770994294
 20
90.1259483311783
 30
0.0
 10
97.05748385451196
 20
90.12483129641431
 30
0.0
 10
97.21984075521591
 20
90.08344800803675
 30
0.0
 10
97.28516484446429
 20
90.06679749542134
 30
0.0
  0
LWPOLYLINE
  5
117
330
1F
100
AcDbEntity
  8
0
  6
Continuous
 62
     7
370
    25
100
AcDbPolyline
 90
        9
 70
   128
 43
0.0
 10
96.5232039942
 20
90.0140771232
 10
96.5003535044
 20
89.9377466455
 10
96.5032586304
 20
89.8533466463
 10
96.5317601955
 20
89.7655015457
 10
96.5842965499
 20
89.6790245274
 10
96.6579891371
 20
89.5986538151
 10
96.748800214
 20
89.5287930577
 10
96.8517540862
 20
89.4732700457
 10
96.9612097349
 20
89.43512698
  0
SPLINE
  5
118
330
1F
100
AcDbEntity
  8
0
  6
Continuous
 62
     7
370
    25
100
AcDbSpline
210
0.0
220
0.0
230
1.0
 70
    24
 71
     3
 72
    11
 73
     7
 74
     0
 42
0.00000001
 43
0.00000001
 40
0.0
 40
0.0
 40
0.0
 40
0.0
 40
0.2500000000000016
 40
0.4999999999999978
 40
0.7499999999999992
 40
0.9999999999999999
 40
0.9999999999999999
 40
0.9999999999999999
 40
0.9999999999999999
 10
101.6906346686689
 20
98.87773714383046
 30
0.0
 10
101.6123995603366
 20
98.91685469799657
 30
0.0
 10
101.4559293436721
 20
98.99508980632886
 30
0.0
 10
101.2626031922556
 20
99.09175288203706
 30
0.0
 10
101.1282267599766
 20
99.15894109817658
 30
0.0
 10
101.1108450115894
 20
99.16763197237017
 30
0.0
 10
101.1021541373958
 20
99.17197740946696
 30
0.0
  0
LINE
  5
119
330
1F
100
AcDbEntity
  8
0
  6
Continuous
 62
     7
370
    25
100
AcDbLine
 10
101.1021541374
 20
99.1719774095
 30
0.0
 11
96.5232039942
 21
90.0140771232
 31
0.0
  0
LINE
  5
11A
330
1F
100
AcDbEntity
  8
0
  6
Continuous
 62
     7
370
    25
100
AcDbLine
 10
101.6793697803
 20
99.1458695101
 30
0.0
 11
101.2971572084
 21
99.4682257571
 31
0.0
  0
SPLINE
  5
11B
330
1F
100
AcDbEntity
  8
0
  6
Continuous
 62
     7
370
    25
100
AcDbSpline
210
0.0
220
0.0
230
1.0
 70
     8
 71
     3
 72
    12
 73
     8
 74
     0
 42
0.00000001
 43
0.00000001
 40
0.0
 40
0.0
 40
0.0
 40
0.0
 40
0.2198609600791262
 40
0.4397396970008124
 40
0.6583291451397751
 40
0.8791239516843593
 40
1.0
 40
1.0
 40
1.0
 40
1.0
 10
101.8139372243048
 20
99.03525087514751
 30
0.0
 10
101.7540221615759
 20
99.0857390912754
 30
0.0
 10
101.6341871916899
 20
99.18671960575234
 30
0.0
 10
101.4774522034154
 20
99.31838259870237
 30
0.0
 10
101.3608838796292
 20
99.41594392147547
 30
0.0
 10
101.304627187835
 20
99.46260331295217
 30
0.0
 10
101.2991093166187
 20
99.46675645995352
 30
0.0
 10
101.2971572084472
 20
99.46822575705761
 30
0.0
  0
SPLINE
  5
11C
330
1F
100
AcDbEntity
  8
0
  6
Continuous
 62
     7
370
    25
100
AcDbSpline
210
0.0
220
0.0
230
1.0
 70
     8
 71
     3
 72
    12
 73
     8
 74
     0
 42
0.00000001
 43
0.00000001
 40
0.0
 40
0.0
 40
0.0
 40
0.0
 40
0.000686440105742
 40
0.2840613788816766
 40
0.5703177902163536
 40
0.8469872112136393
 40
1.0
 40
1.0
 40
1.0
 40
1.0
 10
101.7766654596153
 20
99.06457456264516
 30
0.0
 10
101.7766247418582
 20
99.06460885728207
 30
0.0
 10
101.7597749946972
 20
99.07880060069132
 30
0.0
 10
101.7305460585834
 20
99.10333288054251
 30
0.0
 10
101.697300012885
 20
99.13116246528827
 30
0.0
 10
101.681617789775
 20
99.14416332826134
 30
0.0
 10
101.680037561969
 20
99.14535614114739
 30
0.0
 10
101.6794748319839
 20
99.14578091001619
 30
0.0
  0
SPLINE
  5
11D
330
1F
100
AcDbEntity
  8
0
  6
Continuous
 62
     7
370
    25
100
AcDbSpline
210
0.0
220
0.0
230
1.0
 70
     8
 71
     3
 72
    12
 73
     8
 74
     0
 42
0.00000001
 43
0.00000001
 40
0.0
 40
0.0
 40
0.0
 40
0.0
 40
0.2225634137435269
 40
0.446206317369568
 40
0.6680851268158052
 40
0.8917990985569332
 40
1.0
 40
1.0
 40
1.0
 40
1.0
 10
101.2543797110273
 20
99.41509982153761
 30
0.0
 10
101.2599662771298
 20
99.4096727489239
 30
0.0
 10
101.2711665056194
 20
99.39879228099646
 30
0.0
 10
101.3652172833064
 20
99.32349884997616
 30
0.0
 10
101.5047083467045
 20
99.21402030522283
 30
0.0
 10
101.6499324465408
 20
99.10130566467637
 30
0.0
 10
101.7418556152709
 20
99.03048820723214
 30
0.0
 10
101.7718216412723
 20
99.00740243026812
 30
0.0
  0
LINE
  5
11E
330
1F
100
AcDbEntity
  8
0
  6
Continuous
 62
     7
370
    25
100
AcDbLine
 10
101.6508514487
 20
99.1104522198
 30
0.0
 11
101.254379711
 21
99.4150998215
 31
0.0
  0
ARC
  5
11F
330
1F
100
AcDbEntity
  8
0
  6
Continuous
 62
     7
370
    25
100
AcDbCircle
 10
102.4437949239
 20
98.5011570162
 30
0.0
 40
1.500000000000001
100
AcDbArc
 50
90.0
 51
139.8558773282
  0
ARC
  5
120
330
1F
100
AcDbEntity
  8
0
  6
Continuous
 62
     7
370
    25
100
AcDbCircle
 10
102.4437949239
 20
98.5011570162
 30
0.0
 40
1.500000000000007
100
AcDbArc
 50
142.4614409777
 51
153.4349488229
  0
LINE
  5
121
330
1F
100
AcDbEntity
  8
0
  6
Continuous
 62
     7
370
    25
100
AcDbLine
 10
96.3785473396
 20
89.724763814
 30
0.0
 11
96.5232039942
 21
90.0140771232
 31
0.0
  0
ARC
  5
122
330
1F
100
AcDbEntity
  8
0
  6
Continuous
 62
     7
370
    25
100
AcDbCircle
 10
96.8257609351
 20
89.5011570162
 30
0.0
 40
0.5
100
AcDbArc
 50
153.4349488229
 51
270.0
  0
SPLINE
  5
123
330
1F
100
AcDbEntity
  8
0
  6
Continuous
 62
     7
370
    25
100
AcDbSpline
210
0.0
220
0.0
230
1.0
 70
     8
 71
     3
 72
     9
 73
     5
 74
     0
 42
0.00000001
 43
0.00000001
 40
0.0
 40
0.0
 40
0.0
 40
0.0
 40
0.5600029565045049
 40
1.0
 40
1.0
 40
1.0
 40
1.0
 10
101.2971572084472
 20
99.46822575705761
 30
0.0
 10
101.2890094490941
 20
99.45843929489766
 30
0.0
 10
101.2744599556343
 20
99.44096356187467
 30
0.0
 10
101.2605153126938
 20
99.42300259420887
 30
0.0
 10
101.2543797110273
 20
99.41509982153761
 30
0.0
  0
LINE
  5
124
330
1F
100
AcDbEntity
  8
0
  6
Continuous
 62
     7
370
    25
100
AcDbLine
 10
143.4197000801
 20
89.389232602
 30
0.0
 11
143.4218401953
 21
89.6127710556
 31
0.0
  0
SPLINE
  5
125
330
1F
100
AcDbEntity
  8
0
  6
Continuous
 62
     7
370
    25
100
AcDbSpline
210
0.0
220
0.0
230
1.0
 70
     8
 71
     3
 72
    10
 73
     6
 74
     0
 42
0.00000001
 43
0.00000001
 40
0.0
 40
0.0
 40
0.0
 40
0.0
 40
0.3536466237081644
 40
0.7182931081305524
 40
1.0
 40
1.0
 40
1.0
 40
1.0
 10
143.570988043935
 20
87.44296395550279
 30
0.0
 10
143.5334810096258
 20
86.99942630538422
 30
0.0
 10
143.4573003183802
 20
86.09855516476367
 30
0.0
 10
143.4957367209934
 20
84.7205458699524
 30
0.0
 10
143.5587188403263
 20
83.80251183864752
 30
0.0
 10
143.5861689902465
 20
83.4023955507541
 30
0.0
  0
LINE
  5
126
330
1F
100
AcDbEntity
  8
0
  6
Continuous
 62
     7
370
    25
100
AcDbLine
 10
143.4197000801
 20
89.389232602
 30
0.0
 11
143.5709880439
 21
87.4429639555
 31
0.0
  0
LINE
  5
127
330
1F
100
AcDbEntity
  8
0
  6
Continuous
 62
     7
370
    25
100
AcDbLine
 10
143.6457609351
 20
81.3011570162
 30
0.0
 11
143.707115728
 21
81.3011570162
 31
0.0
  0
LWPOLYLINE
  5
128
330
1F
100
AcDbEntity
  8
0
  6
Continuous
 62
     7
370
    25
100
AcDbPolyline
 90
        3
 70
   128
 43
0.0
 10
143.8431282705
 20
79.9514051567
 10
143.8018294983
 20
80.3612063013
 10
143.707115728
 20
81.3011570162
  0
SPLINE
  5
129
330
1F
100
AcDbEntity
  8
0
  6
Continuous
 62
     7
370
    25
100
AcDbSpline
210
0.0
220
0.0
230
1.0
 70
     8
 71
     3
 72
    11
 73
     7
 74
     0
 42
0.00000001
 43
0.00000001
 40
0.0
 40
0.0
 40
0.0
 40
0.0
 40
0.2920574028183093
 40
0.5665622171831317
 40
0.8065682389915578
 40
1.0
 40
1.0
 40
1.0
 40
1.0
 10
143.7095553280924
 20
95.50115701621706
 30
0.0
 10
143.7412158644079
 20
95.48432522016836
 30
0.0
 10
143.8026341454686
 20
95.45167321547169
 30
0.0
 10
143.8825465047331
 20
95.19628132843067
 30
0.0
 10
143.9216453184606
 20
94.86055841185605
 30
0.0
 10
143.906228955531
 20
94.61205671703496
 30
0.0
 10
143.8993490425469
 20
94.50115701620493
 30
0.0
  0
LINE
  5
12A
330
1F
100
AcDbEntity
  8
0
  6
Continuous
 62
     7
370
    25
100
AcDbLine
 10
143.8993490425
 20
94.5011570162
 30
0.0
 11
143.4218401953
 21
89.6127710556
 31
0.0
  0
LINE
  5
12B
330
1F
100
AcDbEntity
  8
0
  6
Continuous
 62
     7
370
    25
100
AcDbLine
 10
144.2671520444
 20
97.5011570162
 30
0.0
 11
159.3843698259
 21
97.5011570162
 31
0.0
  0
LINE
  5
12C
330
1F
100
AcDbEntity
  8
0
  6
Continuous
 62
     7
370
    25
100
AcDbLine
 10
159.3732671541
 20
79.5011570162
 30
0.0
 11
144.3447950801
 21
79.5011570162
 31
0.0
  0
SPLINE
  5
12D
330
1F
100
AcDbEntity
  8
0
  6
Continuous
 62
     7
370
    25
100
AcDbSpline
210
0.0
220
0.0
230
1.0
 70
     8
 71
     3
 72
    12
 73
     8
 74
     0
 42
0.00000001
 43
0.00000001
 40
0.0
 40
0.0
 40
0.0
 40
0.0
 40
0.2316347876629371
 40
0.4633066480819593
 40
0.6939442291381481
 40
0.9227406525226349
 40
1.0
 40
1.0
 40
1.0
 40
1.0
 10
144.3447950800575
 20
79.50115701621702
 30
0.0
 10
144.2877417624087
 20
79.50674648124729
 30
0.0
 10
144.1736259958242
 20
79.51792630589226
 30
0.0
 10
144.0217726653461
 20
79.60524937184795
 30
0.0
 10
143.9076052824622
 20
79.73355954562997
 30
0.0
 10
143.8558509500949
 20
79.8582389723278
 30
0.0
 10
143.8456925991079
 20
79.9326269810811
 30
0.0
 10
143.8431282705004
 20
79.95140515670653
 30
0.0
  0
SPLINE
  5
12E
330
1F
100
AcDbEntity
  8
0
  6
Continuous
 62
     7
370
    25
100
AcDbSpline
210
0.0
220
0.0
230
1.0
 70
     8
 71
     3
 72
     9
 73
     5
 74
     0
 42
0.00000001
 43
0.00000001
 40
0.0
 40
0.0
 40
0.0
 40
0.0
 40
0.7210175706402078
 40
0.9999999999999999
 40
0.9999999999999999
 40
0.9999999999999999
 40
0.9999999999999999
 10
142.1696893908433
 20
89.19895715245191
 30
0.0
 10
142.100756171847
 20
89.2622079653612
 30
0.0
 10
142.0051507083976
 20
89.34993233642352
 30
0.0
 10
141.8648909447497
 20
89.39474152276749
 30
0.0
 10
141.8257609351458
 20
89.40724249843134
 30
0.0
  0
ARC
  5
12F
330
1F
100
AcDbEntity
  8
0
  6
Continuous
 62
     7
370
    25
100
AcDbCircle
 10
135.1035345963
 20
82.1229797345
 30
0.0
 40
10.00000000000004
100
AcDbArc
 50
32.1405798582
 51
45.0397956095
  0
SPLINE
  5
130
330
1F
100
AcDbEntity
  8
0
  6
Continuous
 62
     7
370
    25
100
AcDbSpline
210
0.0
220
0.0
230
1.0
 70
     8
 71
     3
 72
     9
 73
     5
 74
     0
 42
0.00000001
 43
0.00000001
 40
0.0
 40
0.0
 40
0.0
 40
0.0
 40
0.4474581094010266
 40
0.9999999999999999
 40
0.9999999999999999
 40
0.9999999999999999
 40
0.9999999999999999
 10
141.8257609351458
 20
85.03346883539412
 30
0.0
 10
142.0994115368242
 20
84.80553589202722
 30
0.0
 10
142.7109785101988
 20
84.2961408479369
 30
0.0
 10
143.2746930774818
 20
83.72047503009672
 30
0.0
 10
143.5861689902465
 20
83.4023955507541
 30
0.0
  0
LINE
  5
131
330
1F
100
AcDbEntity
  8
0
  6
Continuous
 62
     7
370
    25
100
AcDbLine
 10
142.1696893908
 20
94.5011570162
 30
0.0
 11
142.1696893908
 21
89.1989571525
 31
0.0
  0
LINE
  5
132
330
1F
100
AcDbEntity
  8
0
  6
Continuous
 62
     7
370
    25
100
AcDbLine
 10
143.8993490425
 20
94.5011570162
 30
0.0
 11
142.1696893908
 21
94.5011570162
 31
0.0
  0
LINE
  5
133
330
1F
100
AcDbEntity
  8
0
  6
Continuous
 62
     7
370
    25
100
AcDbLine
 10
141.8257609351
 20
95.5011570162
 30
0.0
 11
143.7095553281
 21
95.5011570162
 31
0.0
  0
ARC
  5
134
330
1F
100
AcDbEntity
  8
0
  6
Continuous
 62
     7
370
    25
100
AcDbCircle
 10
104.2132202607
 20
102.2105022374
 30
0.0
 40
4.02194530555942
100
AcDbArc
 50
230.4243196696
 51
233.105861485
  0
LINE
  5
135
330
1F
100
AcDbEntity
  8
0
  6
Continuous
 62
     7
370
    25
100
AcDbLine
 10
143.5757609351
 20
75.6011570162
 30
0.0
 11
160.0757609351
 21
75.6011570162
 31
0.0
  0
LINE
  5
136
330
1F
100
AcDbEntity
  8
0
  6
Continuous
 62
     7
370
    25
100
AcDbLine
 10
151.7628780703
 20
97.5890993516
 30
0.0
 11
151.7628780703
 21
97.6010499135
 31
0.0
  0
LINE
  5
137
330
1F
100
AcDbEntity
  8
0
  6
Continuous
 62
     7
370
    25
100
AcDbLine
 10
151.8886438
 20
97.5890993516
 30
0.0
 11
151.8886438
 21
97.6010499135
 31
0.0
  0
LINE
  5
138
330
1F
100
AcDbEntity
  8
0
  6
Continuous
 62
     7
370
    25
100
AcDbLine
 10
143.4218401953
 20
89.6127710556
 30
0.0
 11
160.8118091802
 21
89.6127710556
 31
0.0
  0
LINE
  5
139
330
1F
100
AcDbEntity
  8
0
  6
Continuous
 62
     7
370
    25
100
AcDbLine
 10
160.8145684937
 20
89.389232602
 30
0.0
 11
143.4197000801
 21
89.389232602
 31
0.0
  0
LINE
  5
13A
330
1F
100
AcDbEntity
  8
0
  6
Continuous
 62
     7
370
    25
100
AcDbLine
 10
143.8431282705
 20
79.9514051567
 30
0.0
 11
159.8707857492
 21
79.9514051567
 31
0.0
  0
LINE
  5
13B
330
1F
100
AcDbEntity
  8
0
  6
Continuous
 62
     7
370
    25
100
AcDbLine
 10
159.8805087642
 20
97.0631743835
 30
0.0
 11
143.7710131061
 21
97.0631743835
 31
0.0
  0
LINE
  5
13C
330
1F
100
AcDbEntity
  8
0
  6
Continuous
 62
     7
370
    25
100
AcDbLine
 10
141.8257609351
 20
94.5011570162
 30
0.0
 11
142.1696893908
 21
94.5011570162
 31
0.0
  0
ARC
  5
13D
330
1F
100
AcDbEntity
  8
0
  6
Continuous
 62
     7
370
    25
100
AcDbCircle
 10
141.063815672
 20
94.5558215993
 30
0.0
 40
1.107223960533197
100
AcDbArc
 50
357.1701084939
 51
46.5155082001
  0
LINE
  5
13E
330
1F
100
AcDbEntity
  8
0
  6
Continuous
 62
     7
370
    25
100
AcDbLine
 10
101.576763994
 20
90.5188786201
 30
0.0
 11
101.7986914304
 21
98.9939454917
 31
0.0
  0
LINE
  5
13F
330
1F
100
AcDbEntity
  8
0
  6
Continuous
 62
     7
370
    18
100
AcDbLine
 10
165.3257609351
 20
46.5582820162
 30
0.0
 11
179.8030549753
 21
47.010697455
 31
0.0
  0
LINE
  5
140
330
1F
100
AcDbEntity
  8
0
  6
Continuous
 62
     7
370
    18
100
AcDbLine
 10
179.8030549753
 20
71.1916165775
 30
0.0
 11
165.3257609351
 21
71.6440320162
 31
0.0
  0
LINE
  5
141
330
1F
100
AcDbEntity
  8
0
  6
CENTERX2
 62
     7
370
    18
100
AcDbLine
 10
182.3658227326
 20
59.1011570162
 30
0.0
 11
120.2751921007
 21
59.1011570162
 31
0.0
  0
LINE
  5
142
330
1F
100
AcDbEntity
  8
0
  6
CENTERX2
 62
     7
370
    18
100
AcDbLine
 10
151.8257609351
 20
41.1201155034
 30
0.0
 11
151.8257609351
 21
99.1843912479
 31
0.0
  0
ARC
  5
143
330
1F
100
AcDbEntity
  8
0
  6
Continuous
 62
     7
370
    25
100
AcDbCircle
 10
227.4337556245
 20
75.6011570162
 30
0.0
 40
0.5
100
AcDbArc
 50
180.0
 51
270.0
  0
ARC
  5
144
330
1F
100
AcDbEntity
  8
0
  6
Continuous
 62
     7
370
    25
100
AcDbCircle
 10
209.9337556245
 20
75.6011570162
 30
0.0
 40
0.5
100
AcDbArc
 50
270.0
 51
0.0
  0
LINE
  5
145
330
1F
100
AcDbEntity
  8
0
  6
Continuous
 62
     7
370
    25
100
AcDbLine
 10
226.9337556245
 20
78.5011570162
 30
0.0
 11
226.4337556245
 21
79.0011570162
 31
0.0
  0
LINE
  5
146
330
1F
100
AcDbEntity
  8
0
  6
Continuous
 62
     7
370
    25
100
AcDbLine
 10
210.9337556245
 20
79.0011570162
 30
0.0
 11
210.4337556245
 21
78.5011570162
 31
0.0
  0
LINE
  5
147
330
1F
100
AcDbEntity
  8
0
  6
Continuous
 62
     7
370
    25
100
AcDbLine
 10
226.9337556245
 20
75.6011570162
 30
0.0
 11
226.9337556245
 21
78.5011570162
 31
0.0
  0
LINE
  5
148
330
1F
100
AcDbEntity
  8
0
  6
Continuous
 62
     7
370
    25
100
AcDbLine
 10
210.4337556245
 20
78.5011570162
 30
0.0
 11
210.4337556245
 21
75.6011570162
 31
0.0
  0
LINE
  5
149
330
1F
100
AcDbEntity
  8
0
  6
Continuous
 62
     7
370
    25
100
AcDbLine
 10
213.6837556245
 20
81.3011570162
 30
0.0
 11
213.6837556245
 21
79.0011570162
 31
0.0
  0
LINE
  5
14A
330
1F
100
AcDbEntity
  8
0
  6
Continuous
 62
     7
370
    25
100
AcDbLine
 10
223.6837556245
 20
79.0011570162
 30
0.0
 11
223.6837556245
 21
79.5011570162
 31
0.0
  0
SPLINE
  5
14B
330
1F
100
AcDbEntity
  8
0
  6
Continuous
 62
     7
370
    25
100
AcDbSpline
210
0.0
220
0.0
230
1.0
 70
     8
 71
     3
 72
     9
 73
     5
 74
     0
 42
0.00000001
 43
0.00000001
 40
0.0
 40
0.0
 40
0.0
 40
0.0
 40
0.4993165458323631
 40
1.0
 40
1.0
 40
1.0
 40
1.0
 10
219.6930484194
 20
99.98872444496872
 30
0.0
 10
219.6699178017527
 20
99.99207548061636
 30
0.0
 10
219.6235932450356
 20
99.99878672556828
 30
0.0
 10
219.5770338519073
 20
99.99445955626263
 30
0.0
 10
219.5537223341319
 20
99.99229301418791
 30
0.0
  0
SPLINE
  5
14C
330
1F
100
AcDbEntity
  8
0
  6
Continuous
 62
     7
370
    25
100
AcDbSpline
210
0.0
220
0.0
230
1.0
 70
     8
 71
     3
 72
     9
 73
     5
 74
     0
 42
0.00000001
 43
0.00000001
 40
0.0
 40
0.0
 40
0.0
 40
0.0
 40
0.5006834545219029
 40
0.9999999999999999
 40
0.9999999999999999
 40
0.9999999999999999
 40
0.9999999999999999
 10
217.8137888622518
 20
99.99229301411549
 30
0.0
 10
217.7904773476008
 20
99.99445955478078
 30
0.0
 10
217.7439179607457
 20
99.99878672126833
 30
0.0
 10
217.6975934104892
 20
99.99207547491368
 30
0.0
 10
217.6744627960842
 20
99.98872443856801
 30
0.0
  0
LINE
  5
14D
330
1F
100
AcDbEntity
  8
0
  6
Continuous
 62
     7
370
    25
100
AcDbLine
 10
216.2079011062
 20
99.3332074057
 30
0.0
 11
216.0771237516
 21
96.4799459156
 31
0.0
  0
LINE
  5
14E
330
1F
100
AcDbEntity
  8
0
  6
Continuous
 62
     7
370
    25
100
AcDbLine
 10
221.2903874974
 20
96.4799459156
 30
0.0
 11
221.1596101428
 21
99.3332074057
 31
0.0
  0
LINE
  5
14F
330
1F
100
AcDbEntity
  8
0
  6
Continuous
 62
     7
370
    25
100
AcDbLine
 10
216.7307816443
 20
99.9783082967
 30
0.0
 11
216.6823507013
 21
99.9571037827
 31
0.0
  0
SPLINE
  5
150
330
1F
100
AcDbEntity
  8
0
  6
Continuous
 62
     7
370
    25
100
AcDbSpline
210
0.0
220
0.0
230
1.0
 70
     8
 71
     3
 72
     9
 73
     5
 74
     0
 42
0.00000001
 43
0.00000001
 40
0.0
 40
0.0
 40
0.0
 40
0.0
 40
0.0503631419175682
 40
1.0
 40
1.0
 40
1.0
 40
1.0
 10
216.2642634302694
 20
99.57171557415784
 30
0.0
 10
216.2623673496753
 20
99.56854551679382
 30
0.0
 10
216.224719170433
 20
99.50560152157622
 30
0.0
 10
216.2181787274177
 20
99.4304539228823
 30
0.0
 10
216.2119676816622
 20
99.35909099336615
 30
0.0
  0
SPLINE
  5
151
330
1F
100
AcDbEntity
  8
0
  6
Continuous
 62
     7
370
    25
100
AcDbSpline
210
0.0
220
0.0
230
1.0
 70
     8
 71
     3
 72
    11
 73
     7
 74
     0
 42
0.00000001
 43
0.00000001
 40
0.0
 40
0.0
 40
0.0
 40
0.0
 40
0.2436788845968631
 40
0.491588446668192
 40
0.7437897073051962
 40
0.9999999999999999
 40
0.9999999999999999
 40
0.9999999999999999
 40
0.9999999999999999
 10
221.155543567339
 20
99.35909099336615
 30
0.0
 10
221.1442396105105
 20
99.42821034526298
 30
0.0
 10
221.1214354410491
 20
99.56764907787985
 30
0.0
 10
221.0082706421446
 20
99.75230297041979
 30
0.0
 10
220.8459870493343
 20
99.902931476229
 30
0.0
 10
220.7068478094158
 20
99.95305095239182
 30
0.0
 10
220.6367296046834
 20
99.9783082967091
 30
0.0
  0
SPLINE
  5
152
330
1F
100
AcDbEntity
  8
0
  6
Continuous
 62
     7
370
    25
100
AcDbSpline
210
0.0
220
0.0
230
1.0
 70
     8
 71
     3
 72
    10
 73
     6
 74
     0
 42
0.00000001
 43
0.00000001
 40
0.0
 40
0.0
 40
0.0
 40
0.0
 40
0.2663464296503018
 40
0.5214744039517479
 40
0.9999999999999999
 40
0.9999999999999999
 40
0.9999999999999999
 40
0.9999999999999999
 10
221.6385228214156
 20
96.02440279428332
 30
0.0
 10
221.593341357499
 20
96.04338886002284
 30
0.0
 10
221.5048814633811
 20
96.08056130242389
 30
0.0
 10
221.3582971239816
 20
96.2101284205398
 30
0.0
 10
221.3042730072046
 20
96.3406078119827
 30
0.0
 10
221.2690357730024
 20
96.42571300479521
 30
0.0
  0
SPLINE
  5
153
330
1F
100
AcDbEntity
  8
0
  6
Continuous
 62
     7
370
    25
100
AcDbSpline
210
0.0
220
0.0
230
1.0
 70
     8
 71
     3
 72
    10
 73
     6
 74
     0
 42
0.00000001
 43
0.00000001
 40
0.0
 40
0.0
 40
0.0
 40
0.0
 40
0.4785255960482591
 40
0.7336535703497044
 40
1.0
 40
1.0
 40
1.0
 40
1.0
 10
216.0984754759988
 20
96.4257130047952
 30
0.0
 10
216.0632382417966
 20
96.34060781198266
 30
0.0
 10
216.0092141250196
 20
96.2101284205398
 30
0.0
 10
215.8626297856201
 20
96.08056130242389
 30
0.0
 10
215.7741698915022
 20
96.04338886002283
 30
0.0
 10
215.7289884275857
 20
96.02440279428332
 30
0.0
  0
ARC
  5
154
330
1F
100
AcDbEntity
  8
0
  6
Continuous
 62
     7
370
    25
100
AcDbCircle
 10
214.9570172003
 20
94.5011570162
 30
0.0
 40
1.5
100
AcDbArc
 50
90.0
 51
180.0
  0
LINE
  5
155
330
1F
100
AcDbEntity
  8
0
  6
Continuous
 62
     7
370
    25
100
AcDbLine
 10
213.4570172003
 20
94.5011570162
 30
0.0
 11
213.4570172003
 21
89.248202384
 31
0.0
  0
ARC
  5
156
330
1F
100
AcDbEntity
  8
0
  6
Continuous
 62
     7
370
    25
100
AcDbCircle
 10
222.4104940487
 20
94.5011570162
 30
0.0
 40
1.5
100
AcDbArc
 50
0.0
 51
90.0
  0
LINE
  5
157
330
1F
100
AcDbEntity
  8
0
  6
Continuous
 62
     7
370
    25
100
AcDbLine
 10
223.9104940487
 20
89.248202384
 30
0.0
 11
223.9104940487
 21
94.5011570162
 31
0.0
  0
LINE
  5
158
330
1F
100
AcDbEntity
  8
0
  6
Continuous
 62
     7
370
    25
100
AcDbLine
 10
209.6949480659
 20
89.389232602
 30
0.0
 11
210.5037556245
 21
81.3011570162
 31
0.0
  0
LINE
  5
159
330
1F
100
AcDbEntity
  8
0
  6
Continuous
 62
     7
370
    25
100
AcDbLine
 10
226.7287804385
 20
79.9514051567
 30
0.0
 11
227.6725631831
 21
89.389232602
 31
0.0
  0
ARC
  5
15A
330
1F
100
AcDbEntity
  8
0
  6
Continuous
 62
     7
370
    25
100
AcDbCircle
 10
226.6775259929
 20
89.488736321
 30
0.0
 40
0.9999999999999957
100
AcDbArc
 50
354.2894068625
 51
7.1250163489
  0
ARC
  5
15B
330
1F
100
AcDbEntity
  8
0
  6
Continuous
 62
     7
370
    25
100
AcDbCircle
 10
210.6899852561
 20
89.488736321
 30
0.0
 40
1.000000000000005
100
AcDbArc
 50
172.8749836511
 51
185.7105931375
  0
LINE
  5
15C
330
1F
100
AcDbEntity
  8
0
  6
Continuous
 62
     7
370
    25
100
AcDbLine
 10
227.6698038696
 20
89.6127710556
 30
0.0
 11
226.7385034536
 21
97.0631743835
 31
0.0
  0
LINE
  5
15D
330
1F
100
AcDbEntity
  8
0
  6
Continuous
 62
     7
370
    25
100
AcDbLine
 10
210.6290077954
 20
97.0631743835
 30
0.0
 11
209.6977073794
 21
89.6127710556
 31
0.0
  0
ARC
  5
15E
330
1F
100
AcDbEntity
  8
0
  6
Continuous
 62
     7
370
    25
100
AcDbCircle
 10
211.1251467338
 20
97.0011570162
 30
0.0
 40
0.5
100
AcDbArc
 50
90.0
 51
172.8749836511
  0
ARC
  5
15F
330
1F
100
AcDbEntity
  8
0
  6
Continuous
 62
     7
370
    25
100
AcDbCircle
 10
226.2423645152
 20
97.0011570162
 30
0.0
 40
0.5
100
AcDbArc
 50
7.1250163489
 51
90.0
  0
ARC
  5
160
330
1F
100
AcDbEntity
  8
0
  6
Continuous
 62
     7
370
    25
100
AcDbCircle
 10
226.2312618434
 20
80.0011570162
 30
0.0
 40
0.5
100
AcDbArc
 50
270.0
 51
354.2894068625
  0
ARC
  5
161
330
1F
100
AcDbEntity
  8
0
  6
Continuous
 62
     7
370
    25
100
AcDbCircle
 10
217.8837556245
 20
80.8011570162
 30
0.0
 40
0.1999999999999886
100
AcDbArc
 50
90.0
 51
180.0
  0
ARC
  5
162
330
1F
100
AcDbEntity
  8
0
  6
Continuous
 62
     7
370
    25
100
AcDbCircle
 10
219.4837556245
 20
80.8011570162
 30
0.0
 40
0.1999999999999886
100
AcDbArc
 50
0.0
 51
90.0
  0
LINE
  5
163
330
1F
100
AcDbEntity
  8
0
  6
Continuous
 62
     7
370
    25
100
AcDbLine
 10
219.6837556245
 20
79.0011570162
 30
0.0
 11
219.6837556245
 21
79.4723658626
 31
0.0
  0
LINE
  5
164
330
1F
100
AcDbEntity
  8
0
  6
Continuous
 62
     7
370
    25
100
AcDbLine
 10
217.6837556245
 20
80.8011570162
 30
0.0
 11
217.6837556245
 21
79.0011570162
 31
0.0
  0
CIRCLE
  5
165
330
1F
100
AcDbEntity
  8
0
  6
Continuous
 62
     7
370
    25
100
AcDbCircle
 10
218.6837556245
 20
59.1011570162
 30
0.0
 40
15.55000000000001
  0
CIRCLE
  5
166
330
1F
100
AcDbEntity
  8
0
  6
Continuous
 62
     7
370
    25
100
AcDbCircle
 10
218.6837556245
 20
59.1011570162
 30
0.0
 40
15.75
  0
CIRCLE
  5
167
330
1F
100
AcDbEntity
  8
0
  6
Continuous
 62
     7
370
    25
100
AcDbCircle
 10
218.6837556245
 20
59.1011570162
 30
0.0
 40
13.25
  0
CIRCLE
  5
168
330
1F
100
AcDbEntity
  8
0
  6
Continuous
 62
     7
370
    25
100
AcDbCircle
 10
218.6837556245
 20
59.1011570162
 30
0.0
 40
12.25000000000001
  0
CIRCLE
  5
169
330
1F
100
AcDbEntity
  8
0
  6
Continuous
 62
     7
370
    25
100
AcDbCircle
 10
218.6837556245
 20
59.1011570162
 30
0.0
 40
6.500000000000008
  0
SPLINE
  5
16A
330
1F
100
AcDbEntity
  8
0
  6
Continuous
 62
     7
370
    25
100
AcDbSpline
210
0.0
220
0.0
230
1.0
 70
     8
 71
     3
 72
     8
 73
     4
 74
     0
 42
0.00000001
 43
0.00000001
 40
0.0
 40
0.0
 40
0.0
 40
0.0
 40
1.0
 40
1.0
 40
1.0
 40
1.0
 10
202.7532000689451
 20
49.69544600155375
 30
0.0
 10
202.7069923646304
 20
49.77370849542922
 30
0.0
 10
202.6837556245006
 20
49.86235514188
 30
0.0
 10
202.6837556245006
 20
49.94965440735547
 30
0.0
  0
SPLINE
  5
16B
330
1F
100
AcDbEntity
  8
0
  6
Continuous
 62
     7
370
    25
100
AcDbSpline
210
0.0
220
0.0
230
1.0
 70
    24
 71
     3
 72
    12
 73
     8
 74
     0
 42
0.00000001
 43
0.00000001
 40
0.0
 40
0.0
 40
0.0
 40
0.0
 40
0.25
 40
0.25
 40
0.5
 40
0.5
 40
1.0
 40
1.0
 40
1.0
 40
1.0
 10
202.6837556245006
 20
49.94965440735546
 30
0.0
 10
202.6837556245006
 20
50.69503441328341
 30
0.0
 10
202.6837556245006
 20
51.44907308303483
 30
0.0
 10
202.6837556245006
 20
52.96658775998388
 30
0.0
 10
202.6837556245006
 20
53.72741289611832
 30
0.0
 10
202.6837556245006
 20
56.01712212354483
 30
0.0
 10
202.6837556245006
 20
57.55338588441153
 30
0.0
 10
202.6837556245006
 20
59.10115701621703
 30
0.0
  0
ARC
  5
16C
330
1F
100
AcDbEntity
  8
0
  6
Continuous
 62
     7
370
    25
100
AcDbCircle
 10
218.6837556245
 20
59.1011570162
 30
0.0
 40
16.0
100
AcDbArc
 50
180.0
 51
270.0
  0
SPLINE
  5
16D
330
1F
100
AcDbEntity
  8
0
  6
Continuous
 62
     7
370
    25
100
AcDbSpline
210
0.0
220
0.0
230
1.0
 70
    24
 71
     3
 72
    12
 73
     8
 74
     0
 42
0.00000001
 43
0.00000001
 40
0.0
 40
0.0
 40
0.0
 40
0.0
 40
0.2500000000000001
 40
0.2500000000000001
 40
0.5000000000000001
 40
0.5000000000000001
 40
1.0
 40
1.0
 40
1.0
 40
1.0
 10
209.532253015639
 20
43.10115701621702
 30
0.0
 10
210.2776330215598
 20
43.10115701621702
 30
0.0
 10
211.0316716912999
 20
43.10115701621702
 30
0.0
 10
212.5491863682437
 20
43.10115701621702
 30
0.0
 10
213.3100115043769
 20
43.10115701621702
 30
0.0
 10
215.5997207318047
 20
43.10115701621702
 30
0.0
 10
217.1359844926791
 20
43.10115701621702
 30
0.0
 10
218.6837556245006
 20
43.10115701621702
 30
0.0
  0
SPLINE
  5
16E
330
1F
100
AcDbEntity
  8
0
  6
Continuous
 62
     7
370
    25
100
AcDbSpline
210
0.0
220
0.0
230
1.0
 70
     8
 71
     3
 72
     8
 73
     4
 74
     0
 42
0.00000001
 43
0.00000001
 40
0.0
 40
0.0
 40
0.0
 40
0.0
 40
1.0
 40
1.0
 40
1.0
 40
1.0
 10
209.532253015639
 20
43.10115701621702
 30
0.0
 10
209.4449928723547
 20
43.10115701621702
 30
0.0
 10
209.3562886490865
 20
43.12440465231845
 30
0.0
 10
209.2780446098373
 20
43.17060146066147
 30
0.0
  0
ARC
  5
16F
330
1F
100
AcDbEntity
  8
0
  6
Continuous
 62
     7
370
    25
100
AcDbCircle
 10
218.6837556245
 20
59.1011570162
 30
0.0
 40
18.5
100
AcDbArc
 50
210.5584317859
 51
239.4415682141
  0
SPLINE
  5
170
330
1F
100
AcDbEntity
  8
0
  6
Continuous
 62
     7
370
    25
100
AcDbSpline
210
0.0
220
0.0
230
1.0
 70
     8
 71
     3
 72
     8
 73
     4
 74
     0
 42
0.00000001
 43
0.00000001
 40
0.0
 40
0.0
 40
0.0
 40
0.0
 40
1.0
 40
1.0
 40
1.0
 40
1.0
 10
202.6837556245006
 20
68.25265962507859
 30
0.0
 10
202.6837556245006
 20
68.33991976836293
 30
0.0
 10
202.7070032606021
 20
68.42862399163111
 30
0.0
 10
202.7532000689451
 20
68.50686803088031
 30
0.0
  0
ARC
  5
171
330
1F
100
AcDbEntity
  8
0
  6
Continuous
 62
     7
370
    25
100
AcDbCircle
 10
218.6837556245
 20
59.1011570162
 30
0.0
 40
18.5
100
AcDbArc
 50
120.5584317859
 51
149.4415682141
  0
SPLINE
  5
172
330
1F
100
AcDbEntity
  8
0
  6
Continuous
 62
     7
370
    25
100
AcDbSpline
210
0.0
220
0.0
230
1.0
 70
     8
 71
     3
 72
     8
 73
     4
 74
     0
 42
0.00000001
 43
0.00000001
 40
0.0
 40
0.0
 40
0.0
 40
0.0
 40
1.0
 40
1.0
 40
1.0
 40
1.0
 10
209.2780446098373
 20
75.03171257177259
 30
0.0
 10
209.3563071037128
 20
75.07792027608726
 30
0.0
 10
209.4449537501636
 20
75.10115701621703
 30
0.0
 10
209.532253015639
 20
75.10115701621703
 30
0.0
  0
SPLINE
  5
173
330
1F
100
AcDbEntity
  8
0
  6
Continuous
 62
     7
370
    25
100
AcDbSpline
210
0.0
220
0.0
230
1.0
 70
    24
 71
     3
 72
    12
 73
     8
 74
     0
 42
0.00000001
 43
0.00000001
 40
0.0
 40
0.0
 40
0.0
 40
0.0
 40
0.2499999999999999
 40
0.2499999999999999
 40
0.4999999999999998
 40
0.4999999999999998
 40
1.0
 40
1.0
 40
1.0
 40
1.0
 10
209.532253015639
 20
75.10115701621703
 30
0.0
 10
210.277633021567
 20
75.10115701621703
 30
0.0
 10
211.0316716913184
 20
75.10115701621703
 30
0.0
 10
212.5491863682675
 20
75.10115701621703
 30
0.0
 10
213.3100115044019
 20
75.10115701621703
 30
0.0
 10
215.5997207318284
 20
75.10115701621703
 30
0.0
 10
217.1359844926951
 20
75.10115701621703
 30
0.0
 10
218.6837556245006
 20
75.10115701621703
 30
0.0
  0
ARC
  5
174
330
1F
100
AcDbEntity
  8
0
  6
Continuous
 62
     7
370
    25
100
AcDbCircle
 10
218.6837556245
 20
59.1011570162
 30
0.0
 40
16.0
100
AcDbArc
 50
90.0
 51
180.0
  0
SPLINE
  5
175
330
1F
100
AcDbEntity
  8
0
  6
Continuous
 62
     7
370
    25
100
AcDbSpline
210
0.0
220
0.0
230
1.0
 70
    24
 71
     3
 72
    12
 73
     8
 74
     0
 42
0.00000001
 43
0.00000001
 40
0.0
 40
0.0
 40
0.0
 40
0.0
 40
0.25
 40
0.25
 40
0.5
 40
0.5
 40
1.0
 40
1.0
 40
1.0
 40
1.0
 10
202.6837556245006
 20
59.10115701621703
 30
0.0
 10
202.6837556245006
 20
59.87556293011438
 30
0.0
 10
202.6837556245006
 20
60.6539803312368
 30
0.0
 10
202.6837556245006
 20
62.21158055643874
 30
0.0
 10
202.6837556245006
 20
62.98221400732402
 30
0.0
 10
202.6837556245006
 20
65.27301055633032
 30
0.0
 10
202.6837556245006
 20
66.77220849700804
 30
0.0
 10
202.6837556245006
 20
68.25265962507859
 30
0.0
  0
ARC
  5
176
330
1F
100
AcDbEntity
  8
0
  6
Continuous
 62
     7
370
    25
100
AcDbCircle
 10
218.6837556245
 20
59.1011570162
 30
0.0
 40
16.0
100
AcDbArc
 50
0.0
 51
90.0
  0
ARC
  5
177
330
1F
100
AcDbEntity
  8
0
  6
Continuous
 62
     7
370
    25
100
AcDbCircle
 10
218.6837556245
 20
59.1011570162
 30
0.0
 40
16.0
100
AcDbArc
 50
270.0
 51
0.0
  0
SPLINE
  5
178
330
1F
100
AcDbEntity
  8
0
  6
Continuous
 62
     7
370
    25
100
AcDbSpline
210
0.0
220
0.0
230
1.0
 70
    24
 71
     3
 72
    12
 73
     8
 74
     0
 42
0.00000001
 43
0.00000001
 40
0.0
 40
0.0
 40
0.0
 40
0.0
 40
0.25
 40
0.25
 40
0.5
 40
0.5
 40
1.0
 40
1.0
 40
1.0
 40
1.0
 10
234.6837556245006
 20
49.94965440735545
 30
0.0
 10
234.6837556245006
 20
50.69503441328339
 30
0.0
 10
234.6837556245006
 20
51.44907308303481
 30
0.0
 10
234.6837556245006
 20
52.96658775998387
 30
0.0
 10
234.6837556245006
 20
53.72741289611832
 30
0.0
 10
234.6837556245006
 20
56.01712212354482
 30
0.0
 10
234.6837556245006
 20
57.55338588441153
 30
0.0
 10
234.6837556245006
 20
59.10115701621703
 30
0.0
  0
SPLINE
  5
179
330
1F
100
AcDbEntity
  8
0
  6
Continuous
 62
     7
370
    25
100
AcDbSpline
210
0.0
220
0.0
230
1.0
 70
     8
 71
     3
 72
     8
 73
     4
 74
     0
 42
0.00000001
 43
0.00000001
 40
0.0
 40
0.0
 40
0.0
 40
0.0
 40
1.0
 40
1.0
 40
1.0
 40
1.0
 10
234.6837556245006
 20
49.94965440735546
 30
0.0
 10
234.6837556245006
 20
49.86239426407113
 30
0.0
 10
234.6605079883992
 20
49.77369004080294
 30
0.0
 10
234.6143111800561
 20
49.69544600155375
 30
0.0
  0
ARC
  5
17A
330
1F
100
AcDbEntity
  8
0
  6
Continuous
 62
     7
370
    25
100
AcDbCircle
 10
218.6837556245
 20
59.1011570162
 30
0.0
 40
18.5
100
AcDbArc
 50
300.5584317859
 51
329.4415682141
  0
SPLINE
  5
17B
330
1F
100
AcDbEntity
  8
0
  6
Continuous
 62
     7
370
    25
100
AcDbSpline
210
0.0
220
0.0
230
1.0
 70
     8
 71
     3
 72
     8
 73
     4
 74
     0
 42
0.00000001
 43
0.00000001
 40
0.0
 40
0.0
 40
0.0
 40
0.0
 40
1.0
 40
1.0
 40
1.0
 40
1.0
 10
228.0894666391639
 20
43.17060146066147
 30
0.0
 10
228.0112041452884
 20
43.12439375634681
 30
0.0
 10
227.9225574988376
 20
43.10115701621702
 30
0.0
 10
227.8352582333622
 20
43.10115701621702
 30
0.0
  0
SPLINE
  5
17C
330
1F
100
AcDbEntity
  8
0
  6
Continuous
 62
     7
370
    25
100
AcDbSpline
210
0.0
220
0.0
230
1.0
 70
    24
 71
     3
 72
    12
 73
     8
 74
     0
 42
0.00000001
 43
0.00000001
 40
0.0
 40
0.0
 40
0.0
 40
0.0
 40
0.2500000000000001
 40
0.2500000000000001
 40
0.5000000000000001
 40
0.5000000000000001
 40
1.0
 40
1.0
 40
1.0
 40
1.0
 10
218.6837556245006
 20
43.10115701621702
 30
0.0
 10
219.4581615384179
 20
43.10115701621702
 30
0.0
 10
220.2365789395971
 20
43.10115701621702
 30
0.0
 10
221.7941791647636
 20
43.10115701621702
 30
0.0
 10
222.5648126156357
 20
43.10115701621702
 30
0.0
 10
224.8556091646136
 20
43.10115701621702
 30
0.0
 10
226.354807105287
 20
43.10115701621702
 30
0.0
 10
227.8352582333622
 20
43.10115701621702
 30
0.0
  0
SPLINE
  5
17D
330
1F
100
AcDbEntity
  8
0
  6
Continuous
 62
     7
370
    25
100
AcDbSpline
210
0.0
220
0.0
230
1.0
 70
     8
 71
     3
 72
     8
 73
     4
 74
     0
 42
0.00000001
 43
0.00000001
 40
0.0
 40
0.0
 40
0.0
 40
0.0
 40
1.0
 40
1.0
 40
1.0
 40
1.0
 10
227.8352582333622
 20
75.10115701621703
 30
0.0
 10
227.9225183766465
 20
75.10115701621703
 30
0.0
 10
228.0112225999147
 20
75.0779093801156
 30
0.0
 10
228.0894666391639
 20
75.03171257177257
 30
0.0
  0
ARC
  5
17E
330
1F
100
AcDbEntity
  8
0
  6
Continuous
 62
     7
370
    25
100
AcDbCircle
 10
218.6837556245
 20
59.1011570162
 30
0.0
 40
18.49999999999999
100
AcDbArc
 50
30.5584317859
 51
59.4415682141
  0
SPLINE
  5
17F
330
1F
100
AcDbEntity
  8
0
  6
Continuous
 62
     7
370
    25
100
AcDbSpline
210
0.0
220
0.0
230
1.0
 70
     8
 71
     3
 72
     8
 73
     4
 74
     0
 42
0.00000001
 43
0.00000001
 40
0.0
 40
0.0
 40
0.0
 40
0.0
 40
1.0
 40
1.0
 40
1.0
 40
1.0
 10
234.6143111800561
 20
68.5068680308803
 30
0.0
 10
234.6605188843708
 20
68.42860553700483
 30
0.0
 10
234.6837556245006
 20
68.33995889055404
 30
0.0
 10
234.6837556245006
 20
68.25265962507859
 30
0.0
  0
SPLINE
  5
180
330
1F
100
AcDbEntity
  8
0
  6
Continuous
 62
     7
370
    25
100
AcDbSpline
210
0.0
220
0.0
230
1.0
 70
    24
 71
     3
 72
    12
 73
     8
 74
     0
 42
0.00000001
 43
0.00000001
 40
0.0
 40
0.0
 40
0.0
 40
0.0
 40
0.25
 40
0.25
 40
0.5
 40
0.5
 40
1.0
 40
1.0
 40
1.0
 40
1.0
 10
234.6837556245006
 20
59.10115701621703
 30
0.0
 10
234.6837556245006
 20
59.87556293011438
 30
0.0
 10
234.6837556245006
 20
60.65398033123679
 30
0.0
 10
234.6837556245006
 20
62.21158055643873
 30
0.0
 10
234.6837556245006
 20
62.98221400732402
 30
0.0
 10
234.6837556245006
 20
65.2730105563303
 30
0.0
 10
234.6837556245006
 20
66.77220849700804
 30
0.0
 10
234.6837556245006
 20
68.25265962507859
 30
0.0
  0
SPLINE
  5
181
330
1F
100
AcDbEntity
  8
0
  6
Continuous
 62
     7
370
    25
100
AcDbSpline
210
0.0
220
0.0
230
1.0
 70
    24
 71
     3
 72
    12
 73
     8
 74
     0
 42
0.00000001
 43
0.00000001
 40
0.0
 40
0.0
 40
0.0
 40
0.0
 40
0.2500000000000001
 40
0.2500000000000001
 40
0.5000000000000001
 40
0.5000000000000001
 40
1.0
 40
1.0
 40
1.0
 40
1.0
 10
218.6837556245006
 20
75.10115701621703
 30
0.0
 10
219.4581615383979
 20
75.10115701621703
 30
0.0
 10
220.2365789395204
 20
75.10115701621703
 30
0.0
 10
221.7941791647223
 20
75.10115701621703
 30
0.0
 10
222.5648126156076
 20
75.10115701621703
 30
0.0
 10
224.8556091646139
 20
75.10115701621703
 30
0.0
 10
226.3548071052916
 20
75.10115701621703
 30
0.0
 10
227.8352582333622
 20
75.10115701621703
 30
0.0
  0
LINE
  5
182
330
1F
100
AcDbEntity
  8
0
  6
Continuous
 62
     7
370
    25
100
AcDbLine
 10
210.9337556245
 20
79.0011570162
 30
0.0
 11
226.4337556245
 21
79.0011570162
 31
0.0
  0
LINE
  5
183
330
1F
100
AcDbEntity
  8
0
  6
Continuous
 62
     7
370
    25
100
AcDbLine
 10
226.9337556245
 20
78.5011570162
 30
0.0
 11
210.4337556245
 21
78.5011570162
 31
0.0
  0
ELLIPSE
  5
184
330
1F
100
AcDbEntity
  8
0
  6
Continuous
 62
     7
370
    25
100
AcDbEllipse
 10
218.5092170694
 20
90.724763814
 30
0.0
 11
0.7234244958980298
 21
-0.7001325129304662
 31
0.0
210
0.0
220
0.0
230
1.0
 40
0.9869902583
 41
4.707649545362581
 42
5.487972049091463
  0
LINE
  5
185
330
1F
100
AcDbEntity
  8
0
  6
Continuous
 62
     7
370
    25
100
AcDbLine
 10
218.5223100302
 20
89.724763814
 30
0.0
 11
218.5223100302
 21
89.0011570162
 31
0.0
  0
ELLIPSE
  5
186
330
1F
100
AcDbEntity
  8
0
  6
Continuous
 62
     7
370
    25
100
AcDbEllipse
 10
218.5092170694
 20
90.5011570162
 30
0.0
 11
1.074619436156752
 21
-1.056020081253678
 31
0.0
210
0.0
220
0.0
230
0.9999999999999999
 40
0.9913091236
 41
4.713099434383467
 42
5.493421938112342
  0
LWPOLYLINE
  5
187
330
1F
100
AcDbEntity
  8
0
  6
Continuous
 62
     7
370
    25
100
AcDbPolyline
 90
        9
 70
   128
 43
0.0
 10
217.81477225
 20
90.0140771232
 10
217.7290433679
 20
89.9377466455
 10
217.648011718
 20
89.8533466463
 10
217.5761171631
 20
89.7655015457
 10
217.5172989289
 20
89.6790245274
 10
217.4747797672
 20
89.5986538151
 10
217.4508893755
 20
89.5287930577
 10
217.4469367494
 20
89.4732700457
 10
217.46313846
 20
89.43512698
  0
ELLIPSE
  5
188
330
1F
100
AcDbEntity
  8
0
  6
Continuous
 62
     7
370
    25
100
AcDbEllipse
 10
218.8582941796
 20
90.724763814
 30
0.0
 11
0.7234244958980298
 21
0.7001325129304662
 31
0.0
210
0.0
220
0.0
230
1.0
 40
0.9869902583
 41
3.93680591167801
 42
4.717128415406846
  0
LWPOLYLINE
  5
189
330
1F
100
AcDbEntity
  8
0
  6
Continuous
 62
     7
370
    25
100
AcDbPolyline
 90
        9
 70
   128
 43
0.0
 10
219.552738999
 20
90.0140771232
 10
219.6384678811
 20
89.9377466455
 10
219.719499531
 20
89.8533466463
 10
219.7913940859
 20
89.7655015457
 10
219.8502123201
 20
89.6790245274
 10
219.8927314818
 20
89.5986538151
 10
219.9166218735
 20
89.5287930577
 10
219.9205744996
 20
89.4732700457
 10
219.904372789
 20
89.43512698
  0
ELLIPSE
  5
18A
330
1F
100
AcDbEntity
  8
0
  6
Continuous
 62
     7
370
    25
100
AcDbEllipse
 10
218.8582941796
 20
90.5011570162
 30
0.0
 11
1.07461943615678
 21
1.056020081253663
 31
0.0
210
0.0
220
0.0
230
0.9999999999999998
 40
0.9913091236
 41
3.931356022657126
 42
4.711678526385953
  0
LINE
  5
18B
330
1F
100
AcDbEntity
  8
0
  6
Continuous
 62
     7
370
    25
100
AcDbLine
 10
218.8452012188
 20
89.724763814
 30
0.0
 11
218.8452012188
 21
89.0011570162
 31
0.0
  0
LINE
  5
18C
330
1F
100
AcDbEntity
  8
0
  6
Continuous
 62
     7
370
    25
100
AcDbLine
 10
218.5223100302
 20
89.724763814
 30
0.0
 11
218.8452012188
 21
89.724763814
 31
0.0
  0
LINE
  5
18D
330
1F
100
AcDbEntity
  8
0
  6
Continuous
 62
     7
370
    25
100
AcDbLine
 10
218.8452012188
 20
89.0011570162
 30
0.0
 11
218.5223100302
 21
89.0011570162
 31
0.0
  0
LINE
  5
18E
330
1F
100
AcDbEntity
  8
0
  6
Continuous
 62
     7
370
    25
100
AcDbLine
 10
217.81477225
 20
90.0140771232
 30
0.0
 11
217.81477225
 21
99.1719774095
 31
0.0
  0
LINE
  5
18F
330
1F
100
AcDbEntity
  8
0
  6
Continuous
 62
     7
370
    25
100
AcDbLine
 10
217.81477225
 20
99.1719774095
 30
0.0
 11
219.552738999
 21
99.1719774095
 31
0.0
  0
LINE
  5
190
330
1F
100
AcDbEntity
  8
0
  6
Continuous
 62
     7
370
    25
100
AcDbLine
 10
219.552738999
 20
99.1719774095
 30
0.0
 11
219.552738999
 21
90.0140771232
 31
0.0
  0
SPLINE
  5
191
330
1F
100
AcDbEntity
  8
0
  6
Continuous
 62
     7
370
    25
100
AcDbSpline
210
0.0
220
0.0
230
1.0
 70
     8
 71
     3
 72
    12
 73
     8
 74
     0
 42
0.00000001
 43
0.00000001
 40
0.0
 40
0.0
 40
0.0
 40
0.0
 40
0.1396834586182491
 40
0.3831896274038308
 40
0.5513169293013305
 40
0.8194729461607057
 40
1.0
 40
1.0
 40
1.0
 40
1.0
 10
219.5527389990193
 20
90.01407712315648
 30
0.0
 10
219.6024539194978
 20
90.02738949681743
 30
0.0
 10
219.7388354355556
 20
90.0639089498254
 30
0.0
 10
219.9187515447677
 20
90.10158101041678
 30
0.0
 10
220.0970929731526
 20
90.1259483311783
 30
0.0
 10
220.2176131977041
 20
90.12483129641431
 30
0.0
 10
220.241759211011
 20
90.08344800803675
 30
0.0
 10
220.2514743282706
 20
90.06679749542134
 30
0.0
  0
ARC
  5
192
330
1F
100
AcDbEntity
  8
0
  6
Continuous
 62
     7
370
    25
100
AcDbCircle
 10
219.7532201476
 20
90.0519445097
 30
0.0
 40
0.4984755156837257
100
AcDbArc
 50
333.4921832491
 51
1.7074848132
  0
SPLINE
  5
193
330
1F
100
AcDbEntity
  8
0
  6
Continuous
 62
     7
370
    25
100
AcDbSpline
210
0.0
220
0.0
230
1.0
 70
     8
 71
     3
 72
    12
 73
     8
 74
     0
 42
0.00000001
 43
0.00000001
 40
0.0
 40
0.0
 40
0.0
 40
0.0
 40
0.0715202026166141
 40
0.1260836237049448
 40
0.3855387013103015
 40
0.8475626424815557
 40
1.0
 40
1.0
 40
1.0
 40
1.0
 10
220.1992926667095
 20
89.82946496586622
 30
0.0
 10
220.1973566210043
 20
89.8263563180014
 30
0.0
 10
220.1939435482048
 20
89.82087605405806
 30
0.0
 10
220.1717610976995
 20
89.78128750863769
 30
0.0
 10
220.1087476229332
 20
89.67485337565536
 30
0.0
 10
220.0117012974612
 20
89.54434635994716
 30
0.0
 10
219.925706604243
 20
89.4568366459838
 30
0.0
 10
219.9043727890414
 20
89.43512698000124
 30
0.0
  0
SPLINE
  5
194
330
1F
100
AcDbEntity
  8
0
  6
Continuous
 62
     7
370
    25
100
AcDbSpline
210
0.0
220
0.0
230
1.0
 70
     8
 71
     3
 72
    11
 73
     7
 74
     0
 42
0.00000001
 43
0.00000001
 40
0.0
 40
0.0
 40
0.0
 40
0.0
 40
0.2500000000000016
 40
0.4999999999999978
 40
0.7499999999999992
 40
0.9999999999999999
 40
0.9999999999999999
 40
0.9999999999999999
 40
0.9999999999999999
 10
220.2514743282706
 20
98.87773714383046
 30
0.0
 10
220.236475023104
 20
98.91685469799657
 30
0.0
 10
220.2064764127709
 20
98.99508980632886
 30
0.0
 10
220.0429567099742
 20
99.09175288203706
 30
0.0
 10
219.8173770958919
 20
99.15894109817658
 30
0.0
 10
219.6409516979768
 20
99.16763197237017
 30
0.0
 10
219.5527389990193
 20
99.17197740946696
 30
0.0
  0
LINE
  5
195
330
1F
100
AcDbEntity
  8
0
  6
Continuous
 62
     7
370
    25
100
AcDbLine
 10
220.2514743283
 20
90.0667974954
 30
0.0
 11
220.2514743283
 21
98.8777371438
 31
0.0
  0
SPLINE
  5
196
330
1F
100
AcDbEntity
  8
0
  6
Continuous
 62
     7
370
    25
100
AcDbSpline
210
0.0
220
0.0
230
1.0
 70
     8
 71
     3
 72
    13
 73
     9
 74
     0
 42
0.00000001
 43
0.00000001
 40
0.0
 40
0.0
 40
0.0
 40
0.0
 40
0.1143463544469914
 40
0.2890454840074684
 40
0.5294852105593205
 40
0.7014879056604271
 40
0.9335094878266192
 40
1.0
 40
1.0
 40
1.0
 40
1.0
 10
217.1160369207306
 20
90.06679749542133
 30
0.0
 10
217.1208715122357
 20
90.0781843271793
 30
0.0
 10
217.1330924251658
 20
90.10696803709918
 30
0.0
 10
217.2057405202068
 20
90.12721821454805
 30
0.0
 10
217.3362527866136
 20
90.11936088780244
 30
0.0
 10
217.5231203857832
 20
90.08683347147449
 30
0.0
 10
217.6844937905398
 20
90.0497121165226
 30
0.0
 10
217.7910401413918
 20
90.02056855340363
 30
0.0
 10
217.8147722499819
 20
90.01407712315648
 30
0.0
  0
SPLINE
  5
197
330
1F
100
AcDbEntity
  8
0
  6
Continuous
 62
     7
370
    25
100
AcDbSpline
210
0.0
220
0.0
230
1.0
 70
     8
 71
     3
 72
    11
 73
     7
 74
     0
 42
0.00000001
 43
0.00000001
 40
0.0
 40
0.0
 40
0.0
 40
0.0
 40
0.3325271082490199
 40
0.7778992719027311
 40
0.9254453528959206
 40
1.0
 40
1.0
 40
1.0
 40
1.0
 10
217.4631384599598
 20
89.43512698000126
 30
0.0
 10
217.4179076368136
 20
89.48306352812943
 30
0.0
 10
217.3120966411979
 20
89.5952041776025
 30
0.0
 10
217.2243366667204
 20
89.73056439561971
 30
0.0
 10
217.1767237747826
 20
89.81556502939816
 30
0.0
 10
217.1703560848543
 20
89.8259716704643
 30
0.0
 10
217.1682185822917
 20
89.82946496586622
 30
0.0
  0
ARC
  5
198
330
1F
100
AcDbEntity
  8
0
  6
Continuous
 62
     7
370
    25
100
AcDbCircle
 10
217.6142911014
 20
90.0519445097
 30
0.0
 40
0.4984755156846287
100
AcDbArc
 50
178.2925151868
 51
206.5078167509
  0
SPLINE
  5
199
330
1F
100
AcDbEntity
  8
0
  6
Continuous
 62
     7
370
    25
100
AcDbSpline
210
0.0
220
0.0
230
1.0
 70
     8
 71
     3
 72
    11
 73
     7
 74
     0
 42
0.00000001
 43
0.00000001
 40
0.0
 40
0.0
 40
0.0
 40
0.0
 40
0.2500000000000013
 40
0.5000000000000017
 40
0.7500000000000001
 40
1.0
 40
1.0
 40
1.0
 40
1.0
 10
217.1160369207306
 20
98.87773714383044
 30
0.0
 10
217.1310362258972
 20
98.91685469799657
 30
0.0
 10
217.1610348362303
 20
98.99508980632885
 30
0.0
 10
217.324554539027
 20
99.09175288203707
 30
0.0
 10
217.5501341531093
 20
99.15894109817657
 30
0.0
 10
217.7265595510244
 20
99.16763197237016
 30
0.0
 10
217.8147722499819
 20
99.17197740946696
 30
0.0
  0
LINE
  5
19A
330
1F
100
AcDbEntity
  8
0
  6
Continuous
 62
     7
370
    25
100
AcDbLine
 10
217.1160369207
 20
98.8777371438
 30
0.0
 11
217.1160369207
 21
90.0667974954
 31
0.0
  0
LINE
  5
19B
330
1F
100
AcDbEntity
  8
0
  6
Continuous
 62
     7
370
    25
100
AcDbLine
 10
217.8301498331
 20
89.0011570162
 30
0.0
 11
218.5223100302
 21
89.0011570162
 31
0.0
  0
SPLINE
  5
19C
330
1F
100
AcDbEntity
  8
0
  6
Continuous
 62
     7
370
    25
100
AcDbSpline
210
0.0
220
0.0
230
1.0
 70
     8
 71
     3
 72
    11
 73
     7
 74
     0
 42
0.00000001
 43
0.00000001
 40
0.0
 40
0.0
 40
0.0
 40
0.0
 40
0.2500000000000002
 40
0.4999999999999997
 40
0.75
 40
1.0
 40
1.0
 40
1.0
 40
1.0
 10
216.3311776820035
 20
90.54042243867883
 30
0.0
 10
216.3492539924216
 20
90.34004683230275
 30
0.0
 10
216.3854066132576
 20
89.93929561955058
 30
0.0
 10
216.7300323874582
 20
89.42910268150862
 30
0.0
 10
217.2308544735783
 20
89.07112161314193
 30
0.0
 10
217.630384713239
 20
89.02447854852532
 30
0.0
 10
217.8301498330694
 20
89.00115701621702
 30
0.0
  0
LINE
  5
19D
330
1F
100
AcDbEntity
  8
0
  6
Continuous
 62
     7
370
    25
100
AcDbLine
 10
216.8975149621
 20
90.5404224387
 30
0.0
 11
216.331177682
 21
90.5404224387
 31
0.0
  0
SPLINE
  5
19E
330
1F
100
AcDbEntity
  8
0
  6
Continuous
 62
     7
370
    25
100
AcDbSpline
210
0.0
220
0.0
230
1.0
 70
     8
 71
     3
 72
     9
 73
     5
 74
     0
 42
0.00000001
 43
0.00000001
 40
0.0
 40
0.0
 40
0.0
 40
0.0
 40
0.540774756067758
 40
1.0
 40
1.0
 40
1.0
 40
1.0
 10
216.897514962084
 20
90.54042243867885
 30
0.0
 10
216.8974854616711
 20
90.52908848487814
 30
0.0
 10
216.8974309095447
 20
90.50812975173922
 30
0.0
 10
216.8980351546796
 20
90.48716355887126
 30
0.0
 10
216.8983126392991
 20
90.47753535383714
 30
0.0
  0
ELLIPSE
  5
19F
330
1F
100
AcDbEntity
  8
0
  6
Continuous
 62
     7
370
    25
100
AcDbEllipse
 10
218.3964871131
 20
90.5011570162
 30
0.0
 11
-0.3999861399325937
 21
1.445826639360078
 31
0.0
210
0.0
220
0.0
230
1.0
 40
0.9987379186
 41
1.314426961368802
 42
1.31697071413655
  0
ELLIPSE
  5
1A0
330
1F
100
AcDbEntity
  8
0
  6
Continuous
 62
     7
370
    25
100
AcDbEllipse
 10
219.3451800129
 20
90.5011570162
 30
0.0
 11
2.447559743736974
 21
-0.02501587584978892
 31
0.0
210
0.0
220
0.0
230
1.0
 40
0.6127700831
 41
3.171475350442034
 42
3.622568086779178
  0
LINE
  5
1A1
330
1F
100
AcDbEntity
  8
0
  6
Continuous
 62
     7
370
    25
100
AcDbLine
 10
220.4699962869
 20
90.5404224387
 30
0.0
 11
220.4691986097
 21
90.4775353538
 31
0.0
  0
LINE
  5
1A2
330
1F
100
AcDbEntity
  8
0
  6
Continuous
 62
     7
370
    25
100
AcDbLine
 10
221.036333567
 20
90.5404224387
 30
0.0
 11
220.4699962869
 21
90.5404224387
 31
0.0
  0
SPLINE
  5
1A3
330
1F
100
AcDbEntity
  8
0
  6
Continuous
 62
     7
370
    25
100
AcDbSpline
210
0.0
220
0.0
230
1.0
 70
     8
 71
     3
 72
    11
 73
     7
 74
     0
 42
0.00000001
 43
0.00000001
 40
0.0
 40
0.0
 40
0.0
 40
0.0
 40
0.2500000000000004
 40
0.5000000000000004
 40
0.7500000000000011
 40
1.0
 40
1.0
 40
1.0
 40
1.0
 10
219.5373614159318
 20
89.00115701621702
 30
0.0
 10
219.7371265357622
 20
89.02447854852532
 30
0.0
 10
220.1366567754229
 20
89.07112161314194
 30
0.0
 10
220.6374788615431
 20
89.42910268150862
 30
0.0
 10
220.9821046357436
 20
89.93929561955058
 30
0.0
 10
221.0182572565797
 20
90.34004683230275
 30
0.0
 10
221.0363335669977
 20
90.54042243867883
 30
0.0
  0
LINE
  5
1A4
330
1F
100
AcDbEntity
  8
0
  6
Continuous
 62
     7
370
    25
100
AcDbLine
 10
218.8452012188
 20
89.0011570162
 30
0.0
 11
219.5373614159
 21
89.0011570162
 31
0.0
  0
ELLIPSE
  5
1A5
330
1F
100
AcDbEntity
  8
0
  6
Continuous
 62
     7
370
    25
100
AcDbEllipse
 10
218.0223312361
 20
90.5011570162
 30
0.0
 11
2.447559743736946
 21
0.02501587584980314
 31
0.0
210
0.0
220
0.0
230
1.0
 40
0.6127700831
 41
5.802209873990217
 42
6.253302610327353
  0
ELLIPSE
  5
1A6
330
1F
100
AcDbEntity
  8
0
  6
Continuous
 62
     7
370
    25
100
AcDbEllipse
 10
218.9710241359
 20
90.5011570162
 30
0.0
 11
0.3999861399326505
 21
1.445826639360064
 31
0.0
210
0.0
220
0.0
230
0.9999999999999999
 40
0.9987379186
 41
4.966214593033991
 42
4.968758345810821
  0
ELLIPSE
  5
1A7
330
1F
100
AcDbEntity
  8
0
  6
Continuous
 62
     7
370
    25
100
AcDbEllipse
 10
217.0678827627
 20
98.5199662674
 30
0.0
 11
0.02159772760037982
 21
0.7999991561933372
 31
0.0
210
0.0
220
0.0
230
1.0
 40
0.0537988877
 41
5.177489007048654
 42
5.369012849440088
  0
ELLIPSE
  5
1A8
330
1F
100
AcDbEntity
  8
0
  6
Continuous
 62
     7
370
    25
100
AcDbEllipse
 10
218.8460833491
 20
90.5145921957
 30
0.0
 11
1.947791790405574
 21
-0.0177698114313074
 31
0.0
210
0.0
220
0.0
230
1.0
 40
0.513320833
 41
3.160788584408924
 42
3.623660809788572
  0
LINE
  5
1A9
330
1F
100
AcDbEntity
  8
0
  6
Continuous
 62
     7
370
    25
100
AcDbLine
 10
216.8984753254
 20
90.5131670121
 30
0.0
 11
217.1151564366
 21
99.0074024303
 31
0.0
  0
ELLIPSE
  5
1AA
330
1F
100
AcDbEntity
  8
0
  6
Continuous
 62
     7
370
    25
100
AcDbEllipse
 10
220.2996284863
 20
98.5199662674
 30
0.0
 11
-0.02159772760037982
 21
0.7999991561933372
 31
0.0
210
0.0
220
0.0
230
1.0
 40
0.0537988877
 41
0.9141724577388735
 42
1.105696300130701
  0
LINE
  5
1AB
330
1F
100
AcDbEntity
  8
0
  6
Continuous
 62
     7
370
    25
100
AcDbLine
 10
220.2523548124
 20
99.0074024303
 30
0.0
 11
220.4690359236
 21
90.5131670121
 31
0.0
  0
ELLIPSE
  5
1AC
330
1F
100
AcDbEntity
  8
0
  6
Continuous
 62
     7
370
    25
100
AcDbEllipse
 10
218.5214278999
 20
90.5145921957
 30
0.0
 11
1.947791790405518
 21
0.0177698114312932
 31
0.0
210
0.0
220
0.0
230
1.0
 40
0.513320833
 41
5.801117150980865
 42
6.263989376373016
  0
LINE
  5
1AD
330
1F
100
AcDbEntity
  8
0
  6
Continuous
 62
     7
370
    25
100
AcDbLine
 10
216.8982549902
 20
90.4813505821
 30
0.0
 11
216.8984753254
 21
90.5131670121
 31
0.0
  0
SPLINE
  5
1AE
330
1F
100
AcDbEntity
  8
0
  6
Continuous
 62
     7
370
    25
100
AcDbSpline
210
0.0
220
0.0
230
1.0
 70
     8
 71
     3
 72
     9
 73
     5
 74
     0
 42
0.00000001
 43
0.00000001
 40
0.0
 40
0.0
 40
0.0
 40
0.0
 40
0.8673350121728702
 40
1.0
 40
1.0
 40
1.0
 40
1.0
 10
220.469035923626
 20
90.51316701207958
 30
0.0
 10
220.4692066558133
 20
90.50396858870438
 30
0.0
 10
220.4694035026889
 20
90.49336320180531
 30
0.0
 10
220.4692735049236
 20
90.48275757720393
 30
0.0
 10
220.4692562587717
 20
90.48135058214527
 30
0.0
  0
ELLIPSE
  5
1AF
330
1F
100
AcDbEntity
  8
0
  6
Continuous
 62
     7
370
    25
100
AcDbEllipse
 10
217.784207254
 20
98.5011570162
 30
0.0
 11
0.0209600052571659
 21
1.499999971448744
 31
0.0
210
0.0
220
0.0
230
1.0
 40
0.013963099
 41
5.413231207420211
 42
6.283380418266685
  0
LINE
  5
1B0
330
1F
100
AcDbEntity
  8
0
  6
Continuous
 62
     7
370
    25
100
AcDbLine
 10
219.5623480766
 20
100.0011570162
 30
0.0
 11
217.8051631724
 21
100.0011570162
 31
0.0
  0
ELLIPSE
  5
1B1
330
1F
100
AcDbEntity
  8
0
  6
Continuous
 62
     7
370
    25
100
AcDbEllipse
 10
219.583303995
 20
98.5011570162
 30
0.0
 11
-0.0209600052571659
 21
1.499999971448744
 31
0.0
210
0.0
220
0.0
230
1.0
 40
0.013963099
 41
6.282990196093469
 42
7.153139406940912
  0
SPLINE
  5
1B2
330
1F
100
AcDbEntity
  8
0
  6
Continuous
 62
     7
370
    25
100
AcDbSpline
210
0.0
220
0.0
230
1.0
 70
     8
 71
     3
 72
     9
 73
     5
 74
     0
 42
0.00000001
 43
0.00000001
 40
0.0
 40
0.0
 40
0.0
 40
0.0
 40
0.5600029565045049
 40
1.0
 40
1.0
 40
1.0
 40
1.0
 10
219.5537797111245
 20
99.46822575705761
 30
0.0
 10
219.5537853491908
 20
99.45843929489766
 30
0.0
 10
219.553795417113
 20
99.44096356187467
 30
0.0
 10
219.5536732405096
 20
99.42300259420887
 30
0.0
 10
219.5536194831653
 20
99.41509982153761
 30
0.0
  0
ELLIPSE
  5
1B3
330
1F
100
AcDbEntity
  8
0
  6
Continuous
 62
     7
370
    25
100
AcDbEllipse
 10
219.600893157
 20
98.5011570162
 30
0.0
 11
-0.02155295842285909
 21
1.499999872388898
 31
0.0
210
0.0
220
0.0
230
0.9999999999999998
 40
0.0287076702
 41
0.9152123852431806
 42
1.106736227634701
  0
ELLIPSE
  5
1B4
330
1F
100
AcDbEntity
  8
0
  6
Continuous
 62
     7
370
    25
100
AcDbEllipse
 10
217.766618092
 20
98.5011570162
 30
0.0
 11
0.02155295842280225
 21
1.499999872388898
 31
0.0
210
0.0
220
0.0
230
1.0
 40
0.0287076702
 41
5.176449079545307
 42
5.367972921936889
  0
SPLINE
  5
1B5
330
1F
100
AcDbEntity
  8
0
  6
Continuous
 62
     7
370
    25
100
AcDbSpline
210
0.0
220
0.0
230
1.0
 70
     8
 71
     3
 72
     9
 73
     5
 74
     0
 42
0.00000001
 43
0.00000001
 40
0.0
 40
0.0
 40
0.0
 40
0.0
 40
0.5599925069634167
 40
1.0
 40
1.0
 40
1.0
 40
1.0
 10
217.8138917658359
 20
99.4150998215376
 30
0.0
 10
217.8138260206846
 20
99.42514741584047
 30
0.0
 10
217.8137086170576
 20
99.4430897886007
 30
0.0
 10
217.8137245342103
 20
99.46054523142197
 30
0.0
 10
217.8137315378767
 20
99.46822575705761
 30
0.0
  0
SPLINE
  5
1B6
330
1F
100
AcDbEntity
  8
0
  6
Continuous
 62
     7
370
    25
100
AcDbSpline
210
0.0
220
0.0
230
1.0
 70
     8
 71
     3
 72
    12
 73
     8
 74
     0
 42
0.00000001
 43
0.00000001
 40
0.0
 40
0.0
 40
0.0
 40
0.0
 40
0.2225634137434379
 40
0.4462063173695243
 40
0.6680851268156931
 40
0.8917990985568365
 40
1.0
 40
1.0
 40
1.0
 40
1.0
 10
217.1151564365846
 20
99.00740243026812
 30
0.0
 10
217.1275095441514
 20
99.05498837357446
 30
0.0
 10
217.1522756750384
 20
99.15039106426893
 30
0.0
 10
217.2848596030362
 20
99.27460979684183
 30
0.0
 10
217.4712170065308
 20
99.36649959794634
 30
0.0
 10
217.6593078178841
 20
99.40895517695641
 30
0.0
 10
217.7758878507725
 20
99.41358918247157
 30
0.0
 10
217.8138917658359
 20
99.41509982153761
 30
0.0
  0
SPLINE
  5
1B7
330
1F
100
AcDbEntity
  8
0
  6
Continuous
 62
     7
370
    25
100
AcDbSpline
210
0.0
220
0.0
230
1.0
 70
     8
 71
     3
 72
    12
 73
     8
 74
     0
 42
0.00000001
 43
0.00000001
 40
0.0
 40
0.0
 40
0.0
 40
0.0
 40
0.2225634137435269
 40
0.446206317369568
 40
0.6680851268158052
 40
0.8917990985569332
 40
1.0
 40
1.0
 40
1.0
 40
1.0
 10
219.5536194831653
 20
99.41509982153761
 30
0.0
 10
219.6321231432079
 20
99.4096727489239
 30
0.0
 10
219.7895112262645
 20
99.39879228099646
 30
0.0
 10
219.9988627638919
 20
99.32349884997616
 30
0.0
 10
220.157622058362
 20
99.21402030522283
 30
0.0
 10
220.2354709286786
 20
99.10130566467637
 30
0.0
 10
220.248203969512
 20
99.03048820723214
 30
0.0
 10
220.2523548124166
 20
99.00740243026812
 30
0.0
  0
SPLINE
  5
1B8
330
1F
100
AcDbEntity
  8
0
  6
Continuous
 62
     7
370
    25
100
AcDbSpline
210
0.0
220
0.0
230
1.0
 70
     8
 71
     3
 72
    12
 73
     8
 74
     0
 42
0.00000001
 43
0.00000001
 40
0.0
 40
0.0
 40
0.0
 40
0.0
 40
0.2198609600791262
 40
0.4397396970008124
 40
0.6583291451397751
 40
0.8791239516843593
 40
1.0
 40
1.0
 40
1.0
 40
1.0
 10
220.2533000482887
 20
99.03525087514751
 30
0.0
 10
220.2426280536446
 20
99.0857390912754
 30
0.0
 10
220.221283201473
 20
99.18671960575234
 30
0.0
 10
220.093164806206
 20
99.31838259870237
 30
0.0
 10
219.9102268701409
 20
99.41594392147547
 30
0.0
 10
219.7186776982538
 20
99.46260331295217
 30
0.0
 10
219.5968720265687
 20
99.46675645995352
 30
0.0
 10
219.5537797111245
 20
99.46822575705761
 30
0.0
  0
SPLINE
  5
1B9
330
1F
100
AcDbEntity
  8
0
  6
Continuous
 62
     7
370
    25
100
AcDbSpline
210
0.0
220
0.0
230
1.0
 70
     8
 71
     3
 72
    12
 73
     8
 74
     0
 42
0.00000001
 43
0.00000001
 40
0.0
 40
0.0
 40
0.0
 40
0.0
 40
0.2198610998683209
 40
0.4397399767664978
 40
0.6583294271823329
 40
0.8791242261983195
 40
1.0
 40
1.0
 40
1.0
 40
1.0
 10
217.8137315378767
 20
99.46822575705761
 30
0.0
 10
217.7350406281575
 20
99.463401963708
 30
0.0
 10
217.5776524461082
 20
99.45375398697742
 30
0.0
 10
217.3683706976232
 20
99.37657984931566
 30
0.0
 10
217.2097213769589
 20
99.26271234010353
 30
0.0
 10
217.1296213142436
 20
99.14123177059989
 30
0.0
 10
217.1182382769419
 20
99.06294652735542
 30
0.0
 10
217.1142112007126
 20
99.03525087514753
 30
0.0
  0
LINE
  5
1BA
330
1F
100
AcDbEntity
  8
0
  6
Continuous
 62
     7
370
    25
100
AcDbLine
 10
219.6898377342
 20
99.9762226379
 30
0.0
 11
219.5623480766
 21
100.0011570162
 31
0.0
  0
ELLIPSE
  5
1BB
330
1F
100
AcDbEntity
  8
0
  6
Continuous
 62
     7
370
    25
100
AcDbEllipse
 10
220.2828243321
 20
98.51948088
 30
0.0
 11
-0.02097028290364733
 21
0.7999998117962832
 31
0.0
210
0.0
220
0.0
230
0.9999999999999999
 40
0.0261679535
 41
6.282499370390492
 42
7.152648581238275
  0
ELLIPSE
  5
1BC
330
1F
100
AcDbEntity
  8
0
  6
Continuous
 62
     7
370
    25
100
AcDbEllipse
 10
217.0846869169
 20
98.51948088
 30
0.0
 11
0.02097028290364733
 21
0.7999998117962832
 31
0.0
210
0.0
220
0.0
230
0.9999999999999999
 40
0.0261679535
 41
5.413722033121134
 42
6.283871243969204
  0
SPLINE
  5
1BD
330
1F
100
AcDbEntity
  8
0
  6
Continuous
 62
     7
370
    25
100
AcDbSpline
210
0.0
220
0.0
230
1.0
 70
     8
 71
     3
 72
    11
 73
     7
 74
     0
 42
0.00000001
 43
0.00000001
 40
0.0
 40
0.0
 40
0.0
 40
0.0
 40
0.2500000000000021
 40
0.4999999999999994
 40
0.7500000000000007
 40
0.9999999999999999
 40
0.9999999999999999
 40
0.9999999999999999
 40
0.9999999999999999
 10
217.1056428351872
 20
99.31948088003253
 30
0.0
 10
217.1181633514097
 20
99.40937992715953
 30
0.0
 10
217.1432043838549
 20
99.58917802141355
 30
0.0
 10
217.3058478534774
 20
99.81389423064851
 30
0.0
 10
217.5346675895319
 20
99.97065531567802
 30
0.0
 10
217.7149979780781
 20
99.99098978270402
 30
0.0
 10
217.8051631723513
 20
100.001157016217
 30
0.0
  0
LINE
  5
1BE
330
1F
100
AcDbEntity
  8
0
  6
Continuous
 62
     7
370
    25
100
AcDbLine
 10
220.4683417652
 20
90.5403790987
 30
0.0
 11
220.4699962869
 21
90.5404224387
 31
0.0
  0
LINE
  5
1BF
330
1F
100
AcDbEntity
  8
0
  6
Continuous
 62
     7
370
    25
100
AcDbLine
 10
216.8991694838
 20
90.5403790987
 30
0.0
 11
216.8975149621
 21
90.5404224387
 31
0.0
  0
SPLINE
  5
1C0
330
1F
100
AcDbEntity
  8
0
  6
Continuous
 62
     7
370
    25
100
AcDbSpline
210
0.0
220
0.0
230
1.0
 70
     8
 71
     3
 72
     9
 73
     5
 74
     0
 42
0.00000001
 43
0.00000001
 40
0.0
 40
0.0
 40
0.0
 40
0.0
 40
0.5600012771711204
 40
1.0
 40
1.0
 40
1.0
 40
1.0
 10
216.3311776820035
 20
90.54042243867883
 30
0.0
 10
216.3430120943486
 20
91.46947207810702
 30
0.0
 10
216.3641449253393
 20
93.12848550772154
 30
0.0
 10
216.3851056547518
 20
94.78526474288812
 30
0.0
 10
216.3943283489228
 20
95.51424549037083
 30
0.0
  0
SPLINE
  5
1C1
330
1F
100
AcDbEntity
  8
0
  6
Continuous
 62
     7
370
    25
100
AcDbSpline
210
0.0
220
0.0
230
1.0
 70
     8
 71
     3
 72
     9
 73
     5
 74
     0
 42
0.00000001
 43
0.00000001
 40
0.0
 40
0.0
 40
0.0
 40
0.0
 40
0.5599999095971008
 40
1.0
 40
1.0
 40
1.0
 40
1.0
 10
216.3943283489228
 20
95.51424549037083
 30
0.0
 10
216.39662575882
 20
95.69604720511964
 30
0.0
 10
216.4007282771559
 20
96.02069317672276
 30
0.0
 10
216.404824670349
 20
96.34525938227725
 30
0.0
 10
216.4066270837242
 20
96.48806854206296
 30
0.0
  0
LINE
  5
1C2
330
1F
100
AcDbEntity
  8
0
  6
Continuous
 62
     7
370
    25
100
AcDbLine
 10
216.4066270837
 20
96.4880685421
 30
0.0
 11
216.0782989544
 21
96.4880685421
 31
0.0
  0
LINE
  5
1C3
330
1F
100
AcDbEntity
  8
0
  6
Continuous
 62
     7
370
    25
100
AcDbLine
 10
216.0782989544
 20
96.4880685421
 30
0.0
 11
216.2080748676
 21
99.31948088
 31
0.0
  0
LINE
  5
1C4
330
1F
100
AcDbEntity
  8
0
  6
Continuous
 62
     7
370
    25
100
AcDbLine
 10
216.2080748676
 20
99.31948088
 30
0.0
 11
217.1056428352
 21
99.31948088
 31
0.0
  0
LINE
  5
1C5
330
1F
100
AcDbEntity
  8
0
  6
Continuous
 62
     7
370
    25
100
AcDbLine
 10
217.1142112007
 20
99.0352508751
 30
0.0
 11
216.8975149621
 21
90.5404224387
 31
0.0
  0
LINE
  5
1C6
330
1F
100
AcDbEntity
  8
0
  6
Continuous
 62
     7
370
    25
100
AcDbLine
 10
221.2892122946
 20
96.4880685421
 30
0.0
 11
220.9608841653
 21
96.4880685421
 31
0.0
  0
SPLINE
  5
1C7
330
1F
100
AcDbEntity
  8
0
  6
Continuous
 62
     7
370
    25
100
AcDbSpline
210
0.0
220
0.0
230
1.0
 70
     8
 71
     3
 72
     9
 73
     5
 74
     0
 42
0.00000001
 43
0.00000001
 40
0.0
 40
0.0
 40
0.0
 40
0.0
 40
0.5600000882143288
 40
1.0
 40
1.0
 40
1.0
 40
1.0
 10
220.960884165277
 20
96.48806854206296
 30
0.0
 10
220.9631782814181
 20
96.30630967123119
 30
0.0
 10
220.9672749167389
 20
95.98174031015952
 30
0.0
 10
220.9713776831983
 20
95.65709110986273
 30
0.0
 10
220.9731829000784
 20
95.51424549037083
 30
0.0
  0
SPLINE
  5
1C8
330
1F
100
AcDbEntity
  8
0
  6
Continuous
 62
     7
370
    25
100
AcDbSpline
210
0.0
220
0.0
230
1.0
 70
     8
 71
     3
 72
     9
 73
     5
 74
     0
 42
0.00000001
 43
0.00000001
 40
0.0
 40
0.0
 40
0.0
 40
0.0
 40
0.5599987526606142
 40
1.0
 40
1.0
 40
1.0
 40
1.0
 10
220.9731829000784
 20
95.51424549037083
 30
0.0
 10
220.9849244866008
 20
94.58640419052152
 30
0.0
 10
221.0058916520929
 20
92.92954103602153
 30
0.0
 10
221.027031852465
 20
91.27043233611107
 30
0.0
 10
221.0363335669977
 20
90.54042243867885
 30
0.0
  0
LINE
  5
1C9
330
1F
100
AcDbEntity
  8
0
  6
Continuous
 62
     7
370
    25
100
AcDbLine
 10
220.4699962869
 20
90.5404224387
 30
0.0
 11
220.2533000483
 21
99.0352508751
 31
0.0
  0
LINE
  5
1CA
330
1F
100
AcDbEntity
  8
0
  6
Continuous
 62
     7
370
    25
100
AcDbLine
 10
220.2618684138
 20
99.31948088
 30
0.0
 11
221.1594363814
 21
99.31948088
 31
0.0
  0
LINE
  5
1CB
330
1F
100
AcDbEntity
  8
0
  6
Continuous
 62
     7
370
    25
100
AcDbLine
 10
221.1594363814
 20
99.31948088
 30
0.0
 11
221.2892122946
 21
96.4880685421
 31
0.0
  0
LINE
  5
1CC
330
1F
100
AcDbEntity
  8
0
  6
Continuous
 62
     7
370
    25
100
AcDbLine
 10
217.8051631724
 20
100.0011570162
 30
0.0
 11
216.9075952047
 21
100.0011570162
 31
0.0
  0
SPLINE
  5
1CD
330
1F
100
AcDbEntity
  8
0
  6
Continuous
 62
     7
370
    25
100
AcDbSpline
210
0.0
220
0.0
230
1.0
 70
     8
 71
     3
 72
    11
 73
     7
 74
     0
 42
0.00000001
 43
0.00000001
 40
0.0
 40
0.0
 40
0.0
 40
0.0
 40
0.2499999999999988
 40
0.499999999999999
 40
0.7499999999999993
 40
1.0
 40
1.0
 40
1.0
 40
1.0
 10
216.208074867568
 20
99.31948088003253
 30
0.0
 10
216.2205953837906
 20
99.40937992715956
 30
0.0
 10
216.2456364162357
 20
99.58917802141357
 30
0.0
 10
216.4082798858583
 20
99.81389423064851
 30
0.0
 10
216.6370996219127
 20
99.97065531567803
 30
0.0
 10
216.817430010459
 20
99.99098978270402
 30
0.0
 10
216.9075952047321
 20
100.001157016217
 30
0.0
  0
LINE
  5
1CE
330
1F
100
AcDbEntity
  8
0
  6
Continuous
 62
     7
370
    25
100
AcDbLine
 10
220.4599160443
 20
100.0011570162
 30
0.0
 11
219.5623480766
 21
100.0011570162
 31
0.0
  0
SPLINE
  5
1CF
330
1F
100
AcDbEntity
  8
0
  6
Continuous
 62
     7
370
    25
100
AcDbSpline
210
0.0
220
0.0
230
1.0
 70
     8
 71
     3
 72
    11
 73
     7
 74
     0
 42
0.00000001
 43
0.00000001
 40
0.0
 40
0.0
 40
0.0
 40
0.0
 40
0.2500000000000006
 40
0.4999999999999992
 40
0.7499999999999969
 40
1.0
 40
1.0
 40
1.0
 40
1.0
 10
220.4599160442691
 20
100.001157016217
 30
0.0
 10
220.5500812385422
 20
99.99098978270402
 30
0.0
 10
220.7304116270885
 20
99.97065531567802
 30
0.0
 10
220.9592313631429
 20
99.81389423064854
 30
0.0
 10
221.1218748327655
 20
99.58917802141356
 30
0.0
 10
221.1469158652106
 20
99.40937992715953
 30
0.0
 10
221.1594363814332
 20
99.31948088003253
 30
0.0
  0
LINE
  5
1D0
330
1F
100
AcDbEntity
  8
0
  6
Continuous
 62
     7
370
    25
100
AcDbLine
 10
215.8188072123
 20
96.0011570162
 30
0.0
 11
215.5847120785
 21
96.0011570162
 31
0.0
  0
SPLINE
  5
1D1
330
1F
100
AcDbEntity
  8
0
  6
Continuous
 62
     7
370
    25
100
AcDbSpline
210
0.0
220
0.0
230
1.0
 70
     8
 71
     3
 72
    10
 73
     6
 74
     0
 42
0.00000001
 43
0.00000001
 40
0.0
 40
0.0
 40
0.0
 40
0.0
 40
0.2383396858856107
 40
0.571650633368965
 40
1.0
 40
1.0
 40
1.0
 40
1.0
 10
215.8252331824459
 20
96.00115701621692
 30
0.0
 10
215.8998313848728
 20
96.01011575913658
 30
0.0
 10
216.0787529501466
 20
96.0316030370323
 30
0.0
 10
216.3150970624016
 20
96.20526541998541
 30
0.0
 10
216.3736804385871
 20
96.38627227923999
 30
0.0
 10
216.4066270837242
 20
96.48806854206316
 30
0.0
  0
SPLINE
  5
1D2
330
1F
100
AcDbEntity
  8
0
  6
Continuous
 62
     7
370
    25
100
AcDbSpline
210
0.0
220
0.0
230
1.0
 70
     8
 71
     3
 72
    11
 73
     7
 74
     0
 42
0.00000001
 43
0.00000001
 40
0.0
 40
0.0
 40
0.0
 40
0.0
 40
0.2506671725023491
 40
0.5010414677145718
 40
0.7508849997170934
 40
1.0
 40
1.0
 40
1.0
 40
1.0
 10
216.3311776820035
 20
90.54042243867883
 30
0.0
 10
216.3043031153483
 20
90.56992845867802
 30
0.0
 10
216.2505853820421
 20
90.62890602410562
 30
0.0
 10
215.9651199183882
 20
90.71563929291734
 30
0.0
 10
215.5435917717686
 20
90.79996032314385
 30
0.0
 10
215.1272346940716
 20
90.85254331575842
 30
0.0
 10
214.9193601176951
 20
90.87879642372725
 30
0.0
  0
SPLINE
  5
1D3
330
1F
100
AcDbEntity
  8
0
  6
Continuous
 62
     7
370
    25
100
AcDbSpline
210
0.0
220
0.0
230
1.0
 70
     8
 71
     3
 72
     9
 73
     5
 74
     0
 42
0.00000001
 43
0.00000001
 40
0.0
 40
0.0
 40
0.0
 40
0.0
 40
0.5013259021989908
 40
1.0
 40
1.0
 40
1.0
 40
1.0
 10
214.9193600643309
 20
90.87879618944001
 30
0.0
 10
214.7943174068608
 20
90.89021803655261
 30
0.0
 10
214.5448935152933
 20
90.91300131398258
 30
0.0
 10
214.243125406872
 20
90.9100633600751
 30
0.0
 10
214.0926414676599
 20
90.9085982785609
 30
0.0
  0
LINE
  5
1D4
330
1F
100
AcDbEntity
  8
0
  6
Continuous
 62
     7
370
    25
100
AcDbLine
 10
213.9778750283
 20
94.5012680221
 30
0.0
 11
214.0926502358
 21
90.9086979355
 31
0.0
  0
SPLINE
  5
1D5
330
1F
100
AcDbEntity
  8
0
  6
Continuous
 62
     7
370
    25
100
AcDbSpline
210
0.0
220
0.0
230
1.0
 70
     8
 71
     3
 72
    14
 73
    10
 74
     0
 42
0.00000001
 43
0.00000001
 40
0.0
 40
0.0
 40
0.0
 40
0.0
 40
0.0829413618596714
 40
0.1664594845668899
 40
0.2437726390188662
 40
0.3161479456895724
 40
0.435372571819233
 40
0.6486290670514198
 40
1.0
 40
1.0
 40
1.0
 40
1.0
 10
213.9778750331633
 20
94.50126800947773
 30
0.0
 10
213.9796902227457
 20
94.5911319170676
 30
0.0
 10
213.9833332244459
 20
94.77148463136092
 30
0.0
 10
214.0649943569335
 20
95.05936934214681
 30
0.0
 10
214.1982778372183
 20
95.31089536957357
 30
0.0
 10
214.386604293456
 20
95.54484469947458
 30
0.0
 10
214.6848713731183
 20
95.78565566998256
 30
0.0
 10
215.1428985319036
 20
95.97759727322197
 30
0.0
 10
215.4152340605814
 20
95.99211057684484
 30
0.0
 10
215.5847100442312
 20
96.00114229011206
 30
0.0
  0
LINE
  5
1D6
330
1F
100
AcDbEntity
  8
0
  6
Continuous
 62
     7
370
    25
100
AcDbLine
 10
223.2748610132
 20
90.9086979356
 30
0.0
 11
223.3896362207
 21
94.5012680221
 31
0.0
  0
SPLINE
  5
1D7
330
1F
100
AcDbEntity
  8
0
  6
Continuous
 62
     7
370
    25
100
AcDbSpline
210
0.0
220
0.0
230
1.0
 70
     8
 71
     3
 72
     9
 73
     5
 74
     0
 42
0.00000001
 43
0.00000001
 40
0.0
 40
0.0
 40
0.0
 40
0.0
 40
0.4986740982738611
 40
1.0
 40
1.0
 40
1.0
 40
1.0
 10
223.2748699631765
 20
90.90859744915771
 30
0.0
 10
223.1243860268975
 20
90.91006252841436
 30
0.0
 10
222.8226179246441
 20
90.91300047779195
 30
0.0
 10
222.5731940330219
 20
90.89021719886026
 30
0.0
 10
222.4481513756423
 20
90.87879535100554
 30
0.0
  0
SPLINE
  5
1D8
330
1F
100
AcDbEntity
  8
0
  6
Continuous
 62
     7
370
    25
100
AcDbSpline
210
0.0
220
0.0
230
1.0
 70
     8
 71
     3
 72
    11
 73
     7
 74
     0
 42
0.00000001
 43
0.00000001
 40
0.0
 40
0.0
 40
0.0
 40
0.0
 40
0.2491150002829079
 40
0.4989585322854286
 40
0.7493328274976518
 40
1.0
 40
1.0
 40
1.0
 40
1.0
 10
222.4481511313061
 20
90.87879642372727
 30
0.0
 10
222.2402765549296
 20
90.85254331575842
 30
0.0
 10
221.8239194772327
 20
90.79996032314385
 30
0.0
 10
221.402391330613
 20
90.71563929291732
 30
0.0
 10
221.1169258669591
 20
90.6289060241056
 30
0.0
 10
221.0632081336529
 20
90.56992845867802
 30
0.0
 10
221.0363335669977
 20
90.54042243867883
 30
0.0
  0
SPLINE
  5
1D9
330
1F
100
AcDbEntity
  8
0
  6
Continuous
 62
     7
370
    25
100
AcDbSpline
210
0.0
220
0.0
230
1.0
 70
     8
 71
     3
 72
    10
 73
     6
 74
     0
 42
0.00000001
 43
0.00000001
 40
0.0
 40
0.0
 40
0.0
 40
0.0
 40
0.4283493666310629
 40
0.7616603141144171
 40
1.0
 40
1.0
 40
1.0
 40
1.0
 10
220.960884165277
 20
96.48806854206317
 30
0.0
 10
220.9938308104141
 20
96.38627227924002
 30
0.0
 10
221.0524141865996
 20
96.20526541998551
 30
0.0
 10
221.2887582988545
 20
96.03160303703237
 30
0.0
 10
221.4676798641283
 20
96.0101157591366
 30
0.0
 10
221.5422780665552
 20
96.00115701621692
 30
0.0
  0
LINE
  5
1DA
330
1F
100
AcDbEntity
  8
0
  6
Continuous
 62
     7
370
    25
100
AcDbLine
 10
221.5487040369
 20
96.0011570162
 30
0.0
 11
221.7827991707
 21
96.0011570162
 31
0.0
  0
SPLINE
  5
1DB
330
1F
100
AcDbEntity
  8
0
  6
Continuous
 62
     7
370
    25
100
AcDbSpline
210
0.0
220
0.0
230
1.0
 70
     8
 71
     3
 72
    15
 73
    11
 74
     0
 42
0.00000001
 43
0.00000001
 40
0.0
 40
0.0
 40
0.0
 40
0.0
 40
0.2091652517822445
 40
0.4176299509274902
 40
0.5931463878153087
 40
0.6923603779431098
 40
0.7731125739307014
 40
0.854336688096843
 40
0.9261517123972136
 40
1.0
 40
1.0
 40
1.0
 40
1.0
 10
221.7828012050014
 20
96.00114229011103
 30
0.0
 10
221.8804988374909
 20
95.99805079961254
 30
0.0
 10
222.0755668859101
 20
95.9918781728776
 30
0.0
 10
222.4248467392626
 20
95.90160471306741
 30
0.0
 10
222.7577369262061
 20
95.73299826096401
 30
0.0
 10
223.019355012242
 20
95.50354955291102
 30
0.0
 10
223.1999490251559
 20
95.26577050965469
 30
0.0
 10
223.3220431884662
 20
95.00385401281619
 30
0.0
 10
223.3860931777846
 20
94.73831243807822
 30
0.0
 10
223.3884442638226
 20
94.58101470705664
 30
0.0
 10
223.389636215836
 20
94.50126800949788
 30
0.0
  0
SPLINE
  5
1DC
330
1F
100
AcDbEntity
  8
0
  6
Continuous
 62
     7
370
    25
100
AcDbSpline
210
0.0
220
0.0
230
1.0
 70
     8
 71
     3
 72
    11
 73
     7
 74
     0
 42
0.00000001
 43
0.00000001
 40
0.0
 40
0.0
 40
0.0
 40
0.0
 40
0.279563842830427
 40
0.5590315778757576
 40
0.7794196683313495
 40
1.0
 40
1.0
 40
1.0
 40
1.0
 10
214.9193601176951
 20
90.87879642372725
 30
0.0
 10
214.8956109415682
 20
90.62153081354641
 30
0.0
 10
214.848120753749
 20
90.10708803533709
 30
0.0
 10
215.1838078351672
 20
89.46457383609791
 30
0.0
 10
215.6625227244305
 20
89.07290053490401
 30
0.0
 10
216.0144082950998
 20
89.02507847182603
 30
0.0
 10
216.1904277831025
 20
89.00115701621702
 30
0.0
  0
SPLINE
  5
1DD
330
1F
100
AcDbEntity
  8
0
  6
Continuous
 62
     7
370
    25
100
AcDbSpline
210
0.0
220
0.0
230
1.0
 70
    24
 71
     3
 72
    11
 73
     7
 74
     0
 42
0.00000001
 43
0.00000001
 40
0.0
 40
0.0
 40
0.0
 40
0.0
 40
0.2799317596299056
 40
0.5599103390525025
 40
0.7799480709991914
 40
1.0
 40
1.0
 40
1.0
 40
1.0
 10
216.1904277831025
 20
89.00115701621702
 30
0.0
 10
216.457995740542
 20
89.00115701621702
 30
0.0
 10
216.9931764073146
 20
89.00115701621702
 30
0.0
 10
217.467043200977
 20
89.00115701621701
 30
0.0
 10
217.7522929585258
 20
89.00115701621702
 30
0.0
 10
217.804196983423
 20
89.00115701621702
 30
0.0
 10
217.8301498330694
 20
89.00115701621702
 30
0.0
  0
SPLINE
  5
1DE
330
1F
100
AcDbEntity
  8
0
  6
Continuous
 62
     7
370
    25
100
AcDbSpline
210
0.0
220
0.0
230
1.0
 70
     8
 71
     3
 72
    11
 73
     7
 74
     0
 42
0.00000001
 43
0.00000001
 40
0.0
 40
0.0
 40
0.0
 40
0.0
 40
0.2795638428677821
 40
0.5590315779132444
 40
0.7794196683689394
 40
1.0
 40
1.0
 40
1.0
 40
1.0
 10
221.1770834658987
 20
89.00115701621702
 30
0.0
 10
221.401063881465
 20
89.0396758681651
 30
0.0
 10
221.8489477131194
 20
89.11670033013793
 30
0.0
 10
222.3088879482249
 20
89.64949822792762
 30
0.0
 10
222.5202623891242
 20
90.27723479479403
 30
0.0
 10
222.4721952022449
 20
90.67821761096266
 30
0.0
 10
222.4481511313061
 20
90.87879642372727
 30
0.0
  0
SPLINE
  5
1DF
330
1F
100
AcDbEntity
  8
0
  6
Continuous
 62
     7
370
    25
100
AcDbSpline
210
0.0
220
0.0
230
1.0
 70
    24
 71
     3
 72
    11
 73
     7
 74
     0
 42
0.00000001
 43
0.00000001
 40
0.0
 40
0.0
 40
0.0
 40
0.0
 40
0.2799857774483057
 40
0.5599458358671288
 40
0.779998565900937
 40
0.9999999999999999
 40
0.9999999999999999
 40
0.9999999999999999
 40
0.9999999999999999
 10
219.5373614159318
 20
89.00115701621702
 30
0.0
 10
219.5751151355397
 20
89.00115701621702
 30
0.0
 10
219.6506191067613
 20
89.00115701621702
 30
0.0
 10
220.0321722570701
 20
89.00115701621702
 30
0.0
 10
220.5356029388832
 20
89.00115701621702
 30
0.0
 10
220.9632732410206
 20
89.00115701621702
 30
0.0
 10
221.1770834658987
 20
89.00115701621702
 30
0.0
  0
SPLINE
  5
1E0
330
1F
100
AcDbEntity
  8
0
  6
Continuous
 62
     7
370
    25
100
AcDbSpline
210
0.0
220
0.0
230
1.0
 70
     8
 71
     3
 72
    11
 73
     7
 74
     0
 42
0.00000001
 43
0.00000001
 40
0.0
 40
0.0
 40
0.0
 40
0.0
 40
0.2499999999999989
 40
0.4999999999999996
 40
0.749999999999999
 40
1.0
 40
1.0
 40
1.0
 40
1.0
 10
221.7888696783052
 20
96.00115701621701
 30
0.0
 10
221.7244659681101
 20
96.00841932586916
 30
0.0
 10
221.5956585477199
 20
96.02294394517344
 30
0.0
 10
221.4322158791096
 20
96.13491614876592
 30
0.0
 10
221.3160419722363
 20
96.29542772679089
 30
0.0
 10
221.2981555204898
 20
96.42385493697233
 30
0.0
 10
221.2892122946165
 20
96.48806854206308
 30
0.0
  0
SPLINE
  5
1E1
330
1F
100
AcDbEntity
  8
0
  6
Continuous
 62
     7
370
    25
100
AcDbSpline
210
0.0
220
0.0
230
1.0
 70
     8
 71
     3
 72
    11
 73
     7
 74
     0
 42
0.00000001
 43
0.00000001
 40
0.0
 40
0.0
 40
0.0
 40
0.0
 40
0.2500000000000009
 40
0.5000000000000002
 40
0.7500000000000007
 40
0.9999999999999999
 40
0.9999999999999999
 40
0.9999999999999999
 40
0.9999999999999999
 10
216.0782989543847
 20
96.48806854206308
 30
0.0
 10
216.0693557285114
 20
96.42385493697235
 30
0.0
 10
216.0514692767649
 20
96.29542772679089
 30
0.0
 10
215.9352953698916
 20
96.13491614876592
 30
0.0
 10
215.7718527012813
 20
96.02294394517344
 30
0.0
 10
215.6430452808911
 20
96.00841932586916
 30
0.0
 10
215.578641570696
 20
96.00115701621701
 30
0.0
  0
SPLINE
  5
1E2
330
1F
100
AcDbEntity
  8
0
  6
Continuous
 62
     7
370
    25
100
AcDbSpline
210
0.0
220
0.0
230
1.0
 70
     8
 71
     3
 72
     9
 73
     5
 74
     0
 42
0.00000001
 43
0.00000001
 40
0.0
 40
0.0
 40
0.0
 40
0.0
 40
0.5642319118445199
 40
1.0
 40
1.0
 40
1.0
 40
1.0
 10
213.9820405795012
 20
88.82570405506789
 30
0.0
 10
214.4574721907747
 20
88.87928602379522
 30
0.0
 10
215.3000895636901
 20
88.97425046590227
 30
0.0
 10
215.9202023985952
 20
88.99299064444274
 30
0.0
 10
216.1904277831025
 20
89.00115701621702
 30
0.0
  0
SPLINE
  5
1E3
330
1F
100
AcDbEntity
  8
0
  6
Continuous
 62
     7
370
    25
100
AcDbSpline
210
0.0
220
0.0
230
1.0
 70
     8
 71
     3
 72
    13
 73
     9
 74
     0
 42
0.00000001
 43
0.00000001
 40
0.0
 40
0.0
 40
0.0
 40
0.0
 40
0.0926677825201017
 40
0.1856533156297215
 40
0.2733112842947874
 40
0.413548892575832
 40
0.6528449691515644
 40
1.0
 40
1.0
 40
1.0
 40
1.0
 10
214.092640565259
 20
90.90859752986623
 30
0.0
 10
214.0950752327101
 20
90.81436281274743
 30
0.0
 10
214.0999529158968
 20
90.62557025502396
 30
0.0
 10
214.0998784287508
 20
90.3123598508031
 30
0.0
 10
214.0934913716945
 20
89.97062571601003
 30
0.0
 10
214.0755767255976
 20
89.55377155910664
 30
0.0
 10
214.0385149848312
 20
89.07054291344377
 30
0.0
 10
214.0030401992774
 20
88.91674570309051
 30
0.0
 10
213.9820405795012
 20
88.8257040550679
 30
0.0
  0
SPLINE
  5
1E4
330
1F
100
AcDbEntity
  8
0
  6
Continuous
 62
     7
370
    25
100
AcDbSpline
210
0.0
220
0.0
230
1.0
 70
     8
 71
     3
 72
     9
 73
     5
 74
     0
 42
0.00000001
 43
0.00000001
 40
0.0
 40
0.0
 40
0.0
 40
0.0
 40
0.5551829690770671
 40
1.0
 40
1.0
 40
1.0
 40
1.0
 10
221.1770834658987
 20
89.00115701621702
 30
0.0
 10
221.5273379246468
 20
88.98815799572596
 30
0.0
 10
222.1582190543946
 20
88.96474405615092
 30
0.0
 10
223.0076356855935
 20
88.86851041679923
 30
0.0
 10
223.3854706695
 20
88.82570405506789
 30
0.0
  0
SPLINE
  5
1E5
330
1F
100
AcDbEntity
  8
0
  6
Continuous
 62
     7
370
    25
100
AcDbSpline
210
0.0
220
0.0
230
1.0
 70
     8
 71
     3
 72
    13
 73
     9
 74
     0
 42
0.00000001
 43
0.00000001
 40
0.0
 40
0.0
 40
0.0
 40
0.0
 40
0.3327087167328945
 40
0.5628656559531297
 40
0.6987124125384699
 40
0.8016200683166477
 40
0.9052998751809804
 40
1.0
 40
1.0
 40
1.0
 40
1.0
 10
223.3854706695
 20
88.82570405506789
 30
0.0
 10
223.3653378455929
 20
88.91148962998605
 30
0.0
 10
223.3312777967733
 20
89.05661884202404
 30
0.0
 10
223.2951919454031
 20
89.50698553845135
 30
0.0
 10
223.2761532223144
 20
89.9067266870572
 30
0.0
 10
223.2678796883619
 20
90.26261893346876
 30
0.0
 10
223.2672034261716
 20
90.610052780503
 30
0.0
 10
223.2723932369394
 20
90.81213165168208
 30
0.0
 10
223.2748706837422
 20
90.90859752986623
 30
0.0
  0
SPLINE
  5
1E6
330
1F
100
AcDbEntity
  8
0
  6
Continuous
 62
     7
370
    25
100
AcDbSpline
210
0.0
220
0.0
230
1.0
 70
     8
 71
     3
 72
    13
 73
     9
 74
     0
 42
0.00000001
 43
0.00000001
 40
0.0
 40
0.0
 40
0.0
 40
0.0
 40
0.1400312919410834
 40
0.2800978778503042
 40
0.4240602241121906
 40
0.568031699545236
 40
0.7822812815056387
 40
0.9999999999999999
 40
0.9999999999999999
 40
0.9999999999999999
 40
0.9999999999999999
 10
216.4095330929958
 20
84.38904021514557
 30
0.0
 10
216.3206874726865
 20
84.70716583528619
 30
0.0
 10
216.1429738391124
 20
85.34349725704219
 30
0.0
 10
215.788757820114
 20
86.17660534846563
 30
0.0
 10
215.3975818943009
 20
86.91890212316851
 30
0.0
 10
214.9228091310333
 20
87.65736049496466
 30
0.0
 10
214.3824589475122
 20
88.34051511964692
 30
0.0
 10
214.1039983280886
 20
88.63108027598652
 30
0.0
 10
213.9636498600454
 20
88.77752961824328
 30
0.0
  0
ELLIPSE
  5
1E7
330
1F
100
AcDbEntity
  8
0
  6
Continuous
 62
     7
370
    25
100
AcDbEllipse
 10
214.1254347037
 20
69.928149769
 30
0.0
 11
0.0
 21
19.07300724724768
 31
0.0
210
0.0
220
0.0
230
1.0
 40
0.0555555556
 41
0.1357435643135544
 42
0.1532827087060874
  0
ELLIPSE
  5
1E8
330
1F
100
AcDbEntity
  8
0
  6
Continuous
 62
     7
370
    25
100
AcDbEllipse
 10
223.2420765453
 20
69.928149769
 30
0.0
 11
0.0
 21
19.07300724724768
 31
0.0
210
0.0
220
0.0
230
1.0
 40
0.0555555556
 41
6.129902598473738
 42
6.147441742866246
  0
SPLINE
  5
1E9
330
1F
100
AcDbEntity
  8
0
  6
Continuous
 62
     7
370
    25
100
AcDbSpline
210
0.0
220
0.0
230
1.0
 70
     8
 71
     3
 72
    12
 73
     8
 74
     0
 42
0.00000001
 43
0.00000001
 40
0.0
 40
0.0
 40
0.0
 40
0.0
 40
0.1374975366677113
 40
0.2750385788614215
 40
0.5575409445665216
 40
0.7769626822980097
 40
1.0
 40
1.0
 40
1.0
 40
1.0
 10
223.4038613889558
 20
88.77752961824326
 30
0.0
 10
223.3205854621935
 20
88.69121146387322
 30
0.0
 10
223.1540072593751
 20
88.51854784324954
 30
0.0
 10
222.6910646913971
 20
87.98588939105309
 30
0.0
 10
222.0811040226604
 20
87.13797012618284
 30
0.0
 10
221.4034654417597
 20
85.87408145044509
 30
0.0
 10
221.1072806822997
 20
84.88674332677299
 30
0.0
 10
220.9579781570536
 20
84.38904021941315
 30
0.0
  0
LINE
  5
1EA
330
1F
100
AcDbEntity
  8
0
  6
Continuous
 62
     7
370
    25
100
AcDbLine
 10
216.409533093
 20
84.3890402151
 30
0.0
 11
220.9579781571
 21
84.3890402194
 31
0.0
  0
LINE
  5
1EB
330
1F
100
AcDbEntity
  8
0
  6
Continuous
 62
     7
370
    25
100
AcDbLine
 10
213.4593266705
 20
94.5011570162
 30
0.0
 11
213.9778643378
 21
94.5011570162
 31
0.0
  0
ARC
  5
1EC
330
1F
100
AcDbEntity
  8
0
  6
Continuous
 62
     7
370
    25
100
AcDbCircle
 10
207.1837556245
 20
82.1229797345
 30
0.0
 40
9.499999999999993
100
AcDbArc
 50
44.4654416734
 51
48.6553876907
  0
LINE
  5
1ED
330
1F
100
AcDbEntity
  8
0
  6
Continuous
 62
     7
370
    25
100
AcDbLine
 10
213.4593266705
 20
89.2551048068
 30
0.0
 11
213.4593266705
 21
94.5011570162
 31
0.0
  0
LINE
  5
1EE
330
1F
100
AcDbEntity
  8
0
  6
Continuous
 62
     7
370
    25
100
AcDbLine
 10
223.9081845785
 20
94.5011570162
 30
0.0
 11
223.9081845785
 21
89.2551048068
 31
0.0
  0
ARC
  5
1EF
330
1F
100
AcDbEntity
  8
0
  6
Continuous
 62
     7
370
    25
100
AcDbCircle
 10
230.1837556245
 20
82.1229797345
 30
0.0
 40
9.499999999999993
100
AcDbArc
 50
131.3446123093
 51
135.5345583266
  0
LINE
  5
1F0
330
1F
100
AcDbEntity
  8
0
  6
Continuous
 62
     7
370
    25
100
AcDbLine
 10
223.3896469112
 20
94.5011570162
 30
0.0
 11
223.9081845785
 21
94.5011570162
 31
0.0
  0
ARC
  5
1F1
330
1F
100
AcDbEntity
  8
0
  6
Continuous
 62
     7
370
    25
100
AcDbCircle
 10
222.4093384233
 20
94.5023108624
 30
0.0
 40
1.498846599345494
100
AcDbArc
 50
359.9558924033
 51
89.9558243884
  0
LINE
  5
1F2
330
1F
100
AcDbEntity
  8
0
  6
Continuous
 62
     7
370
    25
100
AcDbLine
 10
222.4104940487
 20
96.0011570162
 30
0.0
 11
221.7762868663
 21
96.0011570162
 31
0.0
  0
ARC
  5
1F3
330
1F
100
AcDbEntity
  8
0
  6
Continuous
 62
     7
370
    25
100
AcDbCircle
 10
214.9581728257
 20
94.5023108624
 30
0.0
 40
1.498846599345494
100
AcDbArc
 50
90.0441756116
 51
180.0441075967
  0
LINE
  5
1F4
330
1F
100
AcDbEntity
  8
0
  6
Continuous
 62
     7
370
    25
100
AcDbLine
 10
215.5912243827
 20
96.0011570162
 30
0.0
 11
214.9570172003
 21
96.0011570162
 31
0.0
  0
LINE
  5
1F5
330
1F
100
AcDbEntity
  8
0
  6
Continuous
 62
     7
370
    25
100
AcDbLine
 10
216.1232930116
 20
96.4315509104
 30
0.0
 11
216.0857697397
 21
96.4786843895
 31
0.0
  0
LINE
  5
1F6
330
1F
100
AcDbEntity
  8
0
  6
Continuous
 62
     7
370
    25
100
AcDbLine
 10
221.2817415093
 20
96.4786843895
 30
0.0
 11
221.2442182374
 21
96.4315509104
 31
0.0
  0
ELLIPSE
  5
1F7
330
1F
100
AcDbEntity
  8
0
  6
Continuous
 62
     7
370
    25
100
AcDbEllipse
 10
219.6595043879
 20
99.3011570162
 30
0.0
 11
1.500207016110437
 21
0.02894030982643869
 31
0.0
210
0.0
220
0.0
230
1.0
 40
0.2796306798
 41
6.257897524076058
 42
6.35256100448251
  0
LINE
  5
1F8
330
1F
100
AcDbEntity
  8
0
  6
Continuous
 62
     7
370
    25
100
AcDbLine
 10
213.467124312
 20
89.248202384
 30
0.0
 11
213.4593266705
 21
89.2551048068
 31
0.0
  0
LINE
  5
1F9
330
1F
100
AcDbEntity
  8
0
  6
Continuous
 62
     7
370
    25
100
AcDbLine
 10
223.9081845785
 20
89.2551048068
 30
0.0
 11
223.900386937
 21
89.248202384
 31
0.0
  0
SPLINE
  5
1FA
330
1F
100
AcDbEntity
  8
0
  6
Continuous
 62
     7
370
    25
100
AcDbSpline
210
0.0
220
0.0
230
1.0
 70
     8
 71
     3
 72
     9
 73
     5
 74
     0
 42
0.00000001
 43
0.00000001
 40
0.0
 40
0.0
 40
0.0
 40
0.0
 40
0.0576289627817998
 40
0.9999999999999999
 40
0.9999999999999999
 40
0.9999999999999999
 40
0.9999999999999999
 10
220.4462691750285
 20
84.38904021893303
 30
0.0
 10
220.4414131029327
 20
84.37153694591467
 30
0.0
 10
220.3571486660706
 20
84.06781339835335
 30
0.0
 10
220.3101905428993
 20
83.72523320391623
 30
0.0
 10
220.2659385676606
 20
83.4023955507541
 30
0.0
  0
SPLINE
  5
1FB
330
1F
100
AcDbEntity
  8
0
  6
Continuous
 62
     7
370
    25
100
AcDbSpline
210
0.0
220
0.0
230
1.0
 70
     8
 71
     3
 72
    10
 73
     6
 74
     0
 42
0.00000001
 43
0.00000001
 40
0.0
 40
0.0
 40
0.0
 40
0.0
 40
0.2746918501531821
 40
0.557335934681242
 40
1.0
 40
1.0
 40
1.0
 40
1.0
 10
220.2659385676606
 20
83.4023955507541
 30
0.0
 10
219.9813178093063
 20
83.4556195939172
 30
0.0
 10
219.4038366197528
 20
83.56360849794652
 30
0.0
 10
218.3248186765861
 20
83.60539457118507
 30
0.0
 10
217.5651856321534
 20
83.47933263065454
 30
0.0
 10
217.1015726813406
 20
83.4023955507541
 30
0.0
  0
LINE
  5
1FC
330
1F
100
AcDbEntity
  8
0
  6
Continuous
 62
     7
370
    25
100
AcDbLine
 10
217.1015726813
 20
83.4023955508
 30
0.0
 11
216.8863378956
 21
84.3890402156
 31
0.0
  0
LINE
  5
1FD
330
1F
100
AcDbEntity
  8
0
  6
Continuous
 62
     7
370
    25
100
AcDbLine
 10
210.5037556245
 20
81.3011570162
 30
0.0
 11
219.6837556245
 21
81.3011570162
 31
0.0
  0
LWPOLYLINE
  5
1FE
330
1F
100
AcDbEntity
  8
0
  6
Continuous
 62
     7
370
    25
100
AcDbPolyline
 90
        3
 70
   128
 43
0.0
 10
210.5651104173
 20
81.3011570162
 10
210.6585940935
 20
80.3734128268
 10
210.7011229599
 20
79.9514051567
  0
LINE
  5
1FF
330
1F
100
AcDbEntity
  8
0
  6
Continuous
 62
     7
370
    25
100
AcDbLine
 10
219.6837556245
 20
79.9514051567
 30
0.0
 11
219.6837556245
 21
81.3011570162
 31
0.0
  0
LINE
  5
200
330
1F
100
AcDbEntity
  8
0
  6
Continuous
 62
     7
370
    25
100
AcDbLine
 10
211.1251467338
 20
97.5011570162
 30
0.0
 11
216.1239302874
 21
97.5011570162
 31
0.0
  0
LINE
  5
201
330
1F
100
AcDbEntity
  8
0
  6
Continuous
 62
     7
370
    25
100
AcDbLine
 10
221.2435809616
 20
97.5011570162
 30
0.0
 11
226.2423644594
 21
97.5011570162
 31
0.0
  0
SPLINE
  5
202
330
1F
100
AcDbEntity
  8
0
  6
Continuous
 62
     7
370
    25
100
AcDbSpline
210
0.0
220
0.0
230
1.0
 70
     8
 71
     3
 72
    12
 73
     8
 74
     0
 42
0.00000001
 43
0.00000001
 40
0.0
 40
0.0
 40
0.0
 40
0.0
 40
0.2271543139929638
 40
0.4542742953683996
 40
0.6823371405829713
 40
0.9121899191033221
 40
1.0
 40
1.0
 40
1.0
 40
1.0
 10
210.7011229598552
 20
79.95140515670653
 30
0.0
 10
210.7122269050536
 20
79.89628534981216
 30
0.0
 10
210.7344331171749
 20
79.78605406695588
 30
0.0
 10
210.8349293287134
 20
79.64620000736747
 30
0.0
 10
210.9723916035438
 20
79.54595161828192
 30
0.0
 10
211.1033651869
 20
79.50502292770716
 30
0.0
 10
211.1812581707148
 20
79.50199422621785
 30
0.0
 10
211.2027897694122
 20
79.50115701621702
 30
0.0
  0
LINE
  5
203
330
1F
100
AcDbEntity
  8
0
  6
Continuous
 62
     7
370
    25
100
AcDbLine
 10
226.2312618434
 20
79.5011570162
 30
0.0
 11
219.6837556245
 21
79.5011570162
 31
0.0
  0
SPLINE
  5
204
330
1F
100
AcDbEntity
  8
0
  6
Continuous
 62
     7
370
    25
100
AcDbSpline
210
0.0
220
0.0
230
1.0
 70
    24
 71
     3
 72
    12
 73
     8
 74
     0
 42
0.00000001
 43
0.00000001
 40
0.0
 40
0.0
 40
0.0
 40
0.0
 40
0.2316347876629371
 40
0.4633066480819593
 40
0.6939442291381481
 40
0.9227406525226349
 40
1.0
 40
1.0
 40
1.0
 40
1.0
 10
219.6837556245006
 20
79.50115701621702
 30
0.0
 10
219.6837556245006
 20
79.50674648124729
 30
0.0
 10
219.6837556245006
 20
79.51792630589226
 30
0.0
 10
219.6837556245006
 20
79.60524937184795
 30
0.0
 10
219.6837556245006
 20
79.73355954562997
 30
0.0
 10
219.6837556245006
 20
79.8582389723278
 30
0.0
 10
219.6837556245006
 20
79.9326269810811
 30
0.0
 10
219.6837556245006
 20
79.95140515670653
 30
0.0
  0
SPLINE
  5
205
330
1F
100
AcDbEntity
  8
0
  6
Continuous
 62
     7
370
    25
100
AcDbSpline
210
0.0
220
0.0
230
1.0
 70
     8
 71
     3
 72
    11
 73
     7
 74
     0
 42
0.00000001
 43
0.00000001
 40
0.0
 40
0.0
 40
0.0
 40
0.0
 40
0.2981995125517625
 40
0.5964325929955623
 40
0.8933636912282922
 40
1.0
 40
1.0
 40
1.0
 40
1.0
 10
212.767675841401
 20
79.50115701621702
 30
0.0
 10
212.8836983330094
 20
79.51235378182264
 30
0.0
 10
213.1157563767118
 20
79.53474857343775
 30
0.0
 10
213.4176602268801
 20
79.71409749958185
 30
0.0
 10
213.6176073552999
 20
79.91224419315117
 30
0.0
 10
213.6699301523586
 20
80.05986061500269
 30
0.0
 10
213.6837556245006
 20
80.09886592134586
 30
0.0
  0
LINE
  5
206
330
1F
100
AcDbEntity
  8
0
  6
Continuous
 62
     7
370
    25
100
AcDbLine
 10
213.6837556245
 20
79.5011570162
 30
0.0
 11
212.7676758414
 21
79.5011570162
 31
0.0
  0
LINE
  5
207
330
1F
100
AcDbEntity
  8
0
  6
Continuous
 62
     7
370
    25
100
AcDbLine
 10
211.2027897694
 20
79.5011570162
 30
0.0
 11
212.7676758414
 21
79.5011570162
 31
0.0
  0
LINE
  5
208
330
1F
100
AcDbEntity
  8
0
  6
Continuous
 62
     7
370
    25
100
AcDbLine
 10
217.8837556245
 20
81.0011570162
 30
0.0
 11
219.4837556245
 21
81.0011570162
 31
0.0
  0
LINE
  5
209
330
1F
100
AcDbEntity
  8
0
  6
Continuous
 62
     7
370
    25
100
AcDbLine
 10
210.4337556245
 20
75.6011570162
 30
0.0
 11
226.9337556245
 21
75.6011570162
 31
0.0
  0
SPLINE
  5
20A
330
1F
100
AcDbEntity
  8
0
  6
Continuous
 62
     7
370
    25
100
AcDbSpline
210
0.0
220
0.0
230
1.0
 70
     8
 71
     3
 72
    11
 73
     7
 74
     0
 42
0.00000001
 43
0.00000001
 40
0.0
 40
0.0
 40
0.0
 40
0.0
 40
0.2843931288920258
 40
0.568786257784059
 40
0.8531793866760864
 40
1.0
 40
1.0
 40
1.0
 40
1.0
 10
220.2618684138141
 20
99.31948088003253
 30
0.0
 10
220.2494018901987
 20
99.40954350088097
 30
0.0
 10
220.2244688429679
 20
99.58966874257784
 30
0.0
 10
220.0610154842377
 20
99.81193134599145
 30
0.0
 10
219.8716735457315
 20
99.95123547912858
 30
0.0
 10
219.7360239947527
 20
99.96987590446804
 30
0.0
 10
219.6898377341538
 20
99.97622263791602
 30
0.0
  0
LINE
  5
20B
330
1F
100
AcDbEntity
  8
0
  6
Continuous
 62
     7
370
    25
100
AcDbLine
 10
216.0857697397
 20
96.4786843895
 30
0.0
 11
216.0782989544
 21
96.4880685421
 31
0.0
  0
ELLIPSE
  5
20C
330
1F
100
AcDbEntity
  8
0
  6
Continuous
 62
     7
370
    25
100
AcDbEllipse
 10
217.7080068611
 20
99.3011570162
 30
0.0
 11
1.500207016110437
 21
-0.02894030982646712
 31
0.0
210
0.0
220
0.0
230
1.0
 40
0.2796306798
 41
3.072248304391469
 42
3.16688043669349
  0
LINE
  5
20D
330
1F
100
AcDbEntity
  8
0
  6
Continuous
 62
     7
370
    25
100
AcDbLine
 10
213.4593266705
 20
94.5011570162
 30
0.0
 11
213.4570172003
 21
94.5011570162
 31
0.0
  0
LINE
  5
20E
330
1F
100
AcDbEntity
  8
0
  6
Continuous
 62
     7
370
    25
100
AcDbLine
 10
223.9104940487
 20
94.5011570162
 30
0.0
 11
223.9081845785
 21
94.5011570162
 31
0.0
  0
LINE
  5
20F
330
1F
100
AcDbEntity
  8
0
  6
Continuous
 62
     7
370
    25
100
AcDbLine
 10
213.4570172003
 20
89.389232602
 30
0.0
 11
209.6949480659
 21
89.389232602
 31
0.0
  0
LINE
  5
210
330
1F
100
AcDbEntity
  8
0
  6
Continuous
 62
     7
370
    25
100
AcDbLine
 10
227.6725631831
 20
89.389232602
 30
0.0
 11
223.9104940487
 21
89.389232602
 31
0.0
  0
LINE
  5
211
330
1F
100
AcDbEntity
  8
0
  6
Continuous
 62
     7
370
    25
100
AcDbLine
 10
219.6837556245
 20
79.9514051567
 30
0.0
 11
226.7287804385
 21
79.9514051567
 31
0.0
  0
LINE
  5
212
330
1F
100
AcDbEntity
  8
0
  6
Continuous
 62
     7
370
    25
100
AcDbLine
 10
223.9104940487
 20
89.6127710556
 30
0.0
 11
227.6698038696
 21
89.6127710556
 31
0.0
  0
LINE
  5
213
330
1F
100
AcDbEntity
  8
0
  6
Continuous
 62
     7
370
    25
100
AcDbLine
 10
209.6977073794
 20
89.6127710556
 30
0.0
 11
213.4570172003
 21
89.6127710556
 31
0.0
  0
LINE
  5
214
330
1F
100
AcDbEntity
  8
0
  6
Continuous
 62
     7
370
    25
100
AcDbLine
 10
226.7385034536
 20
97.0631743835
 30
0.0
 11
221.2636556061
 21
97.0631743835
 31
0.0
  0
LINE
  5
215
330
1F
100
AcDbEntity
  8
0
  6
Continuous
 62
     7
370
    25
100
AcDbLine
 10
216.1038556429
 20
97.0631743835
 30
0.0
 11
210.6290077954
 21
97.0631743835
 31
0.0
  0
LINE
  5
216
330
1F
100
AcDbEntity
  8
0
  6
Continuous
 62
     7
370
    25
100
AcDbLine
 10
219.6837556245
 20
80.8011570162
 30
0.0
 11
217.6837556245
 21
80.8011570162
 31
0.0
  0
INSERT
  5
222
330
1F
100
AcDbEntity
  8
0
  6
Continuous
 62
     7
370
    18
100
AcDbBlockReference
  2
SW_CENTERMARKSYMBOL_0
 10
218.6837556245
 20
59.1011570162
 30
0.0
  0
LINE
  5
223
330
1F
100
AcDbEntity
  8
0
  6
Continuous
 62
     7
370
    25
100
AcDbLine
 10
138.8257609351
 20
158.0292566037
 30
0.0
 11
122.0257609351
 21
158.0292566037
 31
0.0
  0
LINE
  5
224
330
1F
100
AcDbEntity
  8
0
  6
Continuous
 62
     7
370
    25
100
AcDbLine
 10
122.0257609351
 20
126.5292566037
 30
0.0
 11
138.8257609351
 21
126.5292566037
 31
0.0
  0
LINE
  5
225
330
1F
100
AcDbEntity
  8
0
  6
Continuous
 62
     7
370
    25
100
AcDbLine
 10
122.0257609351
 20
158.0292566037
 30
0.0
 11
121.8257609351
 21
157.8292566037
 31
0.0
  0
LINE
  5
226
330
1F
100
AcDbEntity
  8
0
  6
Continuous
 62
     7
370
    25
100
AcDbLine
 10
121.8257609351
 20
126.7292566037
 30
0.0
 11
122.0257609351
 21
126.5292566037
 31
0.0
  0
LINE
  5
227
330
1F
100
AcDbEntity
  8
0
  6
Continuous
 62
     7
370
    25
100
AcDbLine
 10
164.8257609351
 20
128.8565691037
 30
0.0
 11
178.2205845962
 21
129.2751573431
 31
0.0
  0
LINE
  5
228
330
1F
100
AcDbEntity
  8
0
  6
Continuous
 62
     7
370
    25
100
AcDbLine
 10
178.2205845962
 20
155.2833558643
 30
0.0
 11
164.8257609351
 21
155.7019441037
 31
0.0
  0
LINE
  5
229
330
1F
100
AcDbEntity
  8
0
  6
Continuous
 62
     7
370
    25
100
AcDbLine
 10
178.2205845962
 20
129.2751573431
 30
0.0
 11
180.8257609351
 21
130.7792566037
 31
0.0
  0
LINE
  5
22A
330
1F
100
AcDbEntity
  8
0
  6
Continuous
 62
     7
370
    25
100
AcDbLine
 10
180.8257609351
 20
153.7792566037
 30
0.0
 11
178.2205845962
 21
155.2833558643
 31
0.0
  0
LINE
  5
22B
330
1F
100
AcDbEntity
  8
0
  6
Continuous
 62
     7
370
    25
100
AcDbLine
 10
101.281935543
 20
141.4092275213
 30
0.0
 11
101.2993545334
 21
141.4092275213
 31
0.0
  0
LINE
  5
22C
330
1F
100
AcDbEntity
  8
0
  6
Continuous
 62
     7
370
    25
100
AcDbLine
 10
129.8601086125
 20
146.8744149631
 30
0.0
 11
128.6678685557
 21
146.0804417248
 31
0.0
  0
LINE
  5
22D
330
1F
100
AcDbEntity
  8
0
  6
Continuous
 62
     7
370
    25
100
AcDbLine
 10
128.6678684964
 20
138.4780713752
 30
0.0
 11
129.8644877685
 21
137.6811818526
 31
0.0
  0
SPLINE
  5
22E
330
1F
100
AcDbEntity
  8
0
  6
Continuous
 62
     7
370
    25
100
AcDbSpline
210
0.0
220
0.0
230
1.0
 70
     8
 71
     3
 72
    11
 73
     7
 74
     0
 42
0.00000001
 43
0.00000001
 40
0.0
 40
0.0
 40
0.0
 40
0.0
 40
0.2485427336868729
 40
0.4982459407376389
 40
0.748834762140144
 40
1.0
 40
1.0
 40
1.0
 40
1.0
 10
128.6677887136941
 20
146.0805864408644
 30
0.0
 10
128.246508570638
 20
145.8668212074092
 30
0.0
 10
127.401981281196
 20
145.4382926471091
 30
0.0
 10
126.0453757139619
 20
144.9995986854958
 30
0.0
 10
124.6472786078355
 20
144.6986697410017
 30
0.0
 10
123.6959227088548
 20
144.637389056889
 30
0.0
 10
123.2196982992144
 20
144.6067135151226
 30
0.0
  0
SPLINE
  5
22F
330
1F
100
AcDbEntity
  8
0
  6
Continuous
 62
     7
370
    25
100
AcDbSpline
210
0.0
220
0.0
230
1.0
 70
     8
 71
     3
 72
    10
 73
     6
 74
     0
 42
0.00000001
 43
0.00000001
 40
0.0
 40
0.0
 40
0.0
 40
0.0
 40
0.0711023749285985
 40
0.5366329433438194
 40
1.0
 40
1.0
 40
1.0
 40
1.0
 10
125.8282736263508
 20
139.579350646513
 30
0.0
 10
125.8992480187042
 20
139.5651242929104
 30
0.0
 10
126.4349150355778
 20
139.4577533363916
 30
0.0
 10
127.4001902508617
 20
139.1112636367108
 30
0.0
 10
128.2459124882513
 20
138.6887109983522
 30
0.0
 10
128.6677887136941
 20
138.4779267665555
 30
0.0
  0
LINE
  5
230
330
1F
100
AcDbEntity
  8
0
  6
Continuous
 62
     7
370
    25
100
AcDbLine
 10
123.2190270266
 20
144.6323483826
 30
0.0
 11
101.5646359968
 21
144.0653081975
 31
0.0
  0
LINE
  5
231
330
1F
100
AcDbEntity
  8
0
  6
Continuous
 62
     7
370
    25
100
AcDbLine
 10
101.5646395154
 20
140.4932049178
 30
0.0
 11
123.2190270266
 21
139.9261648248
 31
0.0
  0
SPLINE
  5
232
330
1F
100
AcDbEntity
  8
0
  6
Continuous
 62
     7
370
    25
100
AcDbSpline
210
0.0
220
0.0
230
1.0
 70
     8
 71
     3
 72
    12
 73
     8
 74
     0
 42
0.00000001
 43
0.00000001
 40
0.0
 40
0.0
 40
0.0
 40
0.0
 40
0.1165036045003207
 40
0.3370869653880983
 40
0.605722765701641
 40
0.8581413683010871
 40
1.0
 40
1.0
 40
1.0
 40
1.0
 10
96.52617336112534
 20
141.1942636034331
 30
0.0
 10
96.54189242160912
 20
141.1606680575988
 30
0.0
 10
96.58737333543961
 20
141.0634640213423
 30
0.0
 10
96.722246145813
 20
140.9267681403884
 30
0.0
 10
96.9130783898697
 20
140.8044981000607
 30
0.0
 10
97.11049209469377
 20
140.7275114434301
 30
0.0
 10
97.23989226363453
 20
140.7195174560853
 30
0.0
 10
97.28644968392337
 20
140.71664126642
 30
0.0
  0
SPLINE
  5
233
330
1F
100
AcDbEntity
  8
0
  6
Continuous
 62
     7
370
    25
100
AcDbSpline
210
0.0
220
0.0
230
1.0
 70
     8
 71
     3
 72
    12
 73
     8
 74
     0
 42
0.00000001
 43
0.00000001
 40
0.0
 40
0.0
 40
0.0
 40
0.0
 40
0.0692908629448852
 40
0.2376681021482158
 40
0.4634447155515683
 40
0.7685177771848254
 40
1.0
 40
1.0
 40
1.0
 40
1.0
 10
97.28623027911799
 20
143.8428068077011
 30
0.0
 10
97.26354673250115
 20
143.8427107856263
 30
0.0
 10
97.18574202282815
 20
143.8423814292966
 30
0.0
 10
97.03984888040938
 20
143.8022524797943
 30
0.0
 10
96.84191724803523
 20
143.7173910631533
 30
0.0
 10
96.647609719425
 20
143.5768500106053
 30
0.0
 10
96.56180533837517
 20
143.4296491271049
 30
0.0
 10
96.52478736571068
 20
143.3661432989066
 30
0.0
  0
SPLINE
  5
234
330
1F
100
AcDbEntity
  8
0
  6
Continuous
 62
     7
370
    25
100
AcDbSpline
210
0.0
220
0.0
230
1.0
 70
     8
 71
     3
 72
    10
 73
     6
 74
     0
 42
0.00000001
 43
0.00000001
 40
0.0
 40
0.0
 40
0.0
 40
0.0
 40
0.2300377891738615
 40
0.6400276735950723
 40
1.0
 40
1.0
 40
1.0
 40
1.0
 10
96.52114795419297
 20
143.3676865425101
 30
0.0
 10
96.4939792003868
 20
143.305947614355
 30
0.0
 10
96.41838834048724
 20
143.1341731302615
 30
0.0
 10
96.3424054722869
 20
142.8209050261351
 30
0.0
 10
96.33106351910902
 20
142.5618264685423
 30
0.0
 10
96.32576093514582
 20
142.440702198043
 30
0.0
  0
SPLINE
  5
235
330
1F
100
AcDbEntity
  8
0
  6
Continuous
 62
     7
370
    25
100
AcDbSpline
210
0.0
220
0.0
230
1.0
 70
     8
 71
     3
 72
    10
 73
     6
 74
     0
 42
0.00000001
 43
0.00000001
 40
0.0
 40
0.0
 40
0.0
 40
0.0
 40
0.2051460793843666
 40
0.5980144775682193
 40
1.0
 40
1.0
 40
1.0
 40
1.0
 10
96.32576093514582
 20
142.1178110093768
 30
0.0
 10
96.3275596085971
 20
142.0489182364285
 30
0.0
 10
96.33280286144166
 20
141.8480912172305
 30
0.0
 10
96.38609921231253
 20
141.5197651583064
 30
0.0
 10
96.47578878812111
 20
141.3013080773365
 30
0.0
 10
96.52114795419298
 20
141.1908266649097
 30
0.0
  0
LINE
  5
236
330
1F
100
AcDbEntity
  8
0
  6
Continuous
 62
     7
370
    25
100
AcDbLine
 10
96.3257609351
 20
142.440702198
 30
0.0
 11
96.3257609351
 21
142.1178110094
 31
0.0
  0
ARC
  5
237
330
1F
100
AcDbEntity
  8
0
  6
Continuous
 62
     7
370
    25
100
AcDbCircle
 10
151.8257609351
 20
142.2792566037
 30
0.0
 40
8.993770368365606
100
AcDbArc
 50
200.7386616217
 51
90.0
  0
ARC
  5
238
330
1F
100
AcDbEntity
  8
0
  6
Continuous
 62
     7
370
    25
100
AcDbCircle
 10
151.8257609351
 20
142.2792566037
 30
0.0
 40
8.993770368365603
100
AcDbArc
 50
90.0
 51
159.2585871234
  0
LINE
  5
239
330
1F
100
AcDbEntity
  8
0
  6
Continuous
 62
     7
370
    25
100
AcDbLine
 10
122.0257609351
 20
136.2651298344
 30
0.0
 11
122.0257609351
 21
126.5292566037
 31
0.0
  0
LINE
  5
23A
330
1F
100
AcDbEntity
  8
0
  6
Continuous
 62
     7
370
    25
100
AcDbLine
 10
122.0257609351
 20
158.0292566037
 30
0.0
 11
122.0257609351
 21
144.6011016103
 31
0.0
  0
LINE
  5
23B
330
1F
100
AcDbEntity
  8
0
  6
Continuous
 62
     7
370
    25
100
AcDbLine
 10
122.0257609351
 20
139.9574115971
 30
0.0
 11
122.0257609351
 21
136.2651298344
 31
0.0
  0
LINE
  5
23C
330
1F
100
AcDbEntity
  8
0
  6
Continuous
 62
     7
370
    25
100
AcDbLine
 10
121.8257609351
 20
136.3414996981
 30
0.0
 11
121.8257609351
 21
139.9626487814
 31
0.0
  0
LINE
  5
23D
330
1F
100
AcDbEntity
  8
0
  6
Continuous
 62
     7
370
    25
100
AcDbLine
 10
121.8257609351
 20
144.595864426
 30
0.0
 11
121.8257609351
 21
157.8292566037
 31
0.0
  0
LINE
  5
23E
330
1F
100
AcDbEntity
  8
0
  6
Continuous
 62
     7
370
    25
100
AcDbLine
 10
121.8257609351
 20
126.7292566037
 30
0.0
 11
121.8257609351
 21
136.3414996981
 31
0.0
  0
LINE
  5
23F
330
1F
100
AcDbEntity
  8
0
  6
Continuous
 62
     7
370
    25
100
AcDbLine
 10
164.8257609351
 20
158.2792566037
 30
0.0
 11
164.8257609351
 21
142.2792566037
 31
0.0
  0
SPLINE
  5
240
330
1F
100
AcDbEntity
  8
0
  6
Continuous
 62
     7
370
    25
100
AcDbSpline
210
0.0
220
0.0
230
1.0
 70
     8
 71
     3
 72
    10
 73
     6
 74
     0
 42
0.00000001
 43
0.00000001
 40
0.0
 40
0.0
 40
0.0
 40
0.0
 40
0.5
 40
0.5
 40
1.0
 40
1.0
 40
1.0
 40
1.0
 10
163.4214669152834
 20
151.4307592125714
 30
0.0
 10
163.8485509760529
 20
149.9408448194927
 30
0.0
 10
164.2058454016056
 20
148.4164617495917
 30
0.0
 10
164.6940527779898
 20
145.3623140043383
 30
0.0
 10
164.8257609351458
 20
143.8261256206757
 30
0.0
 10
164.8257609351458
 20
142.2792566037099
 30
0.0
  0
SPLINE
  5
241
330
1F
100
AcDbEntity
  8
0
  6
Continuous
 62
     7
370
    25
100
AcDbSpline
210
0.0
220
0.0
230
1.0
 70
     8
 71
     3
 72
     8
 73
     4
 74
     0
 42
0.00000001
 43
0.00000001
 40
0.0
 40
0.0
 40
0.0
 40
0.0
 40
1.0
 40
1.0
 40
1.0
 40
1.0
 10
163.4214669152834
 20
151.4307592125714
 30
0.0
 10
163.3964537893547
 20
151.5180193558558
 30
0.0
 10
163.3823852621717
 20
151.606723579124
 30
0.0
 10
163.3823852621717
 20
151.6849676183732
 30
0.0
  0
LINE
  5
242
330
1F
100
AcDbEntity
  8
0
  6
Continuous
 62
     7
370
    25
100
AcDbLine
 10
163.3823852622
 20
158.2098121593
 30
0.0
 11
163.3823852622
 21
151.6849676184
 31
0.0
  0
SPLINE
  5
243
330
1F
100
AcDbEntity
  8
0
  6
Continuous
 62
     7
370
    25
100
AcDbSpline
210
0.0
220
0.0
230
1.0
 70
     8
 71
     3
 72
     8
 73
     4
 74
     0
 42
0.00000001
 43
0.00000001
 40
0.0
 40
0.0
 40
0.0
 40
0.0
 40
1.0
 40
1.0
 40
1.0
 40
1.0
 10
163.3823852621717
 20
158.2098121592655
 30
0.0
 10
163.3823852621717
 20
158.2560198635801
 30
0.0
 10
163.3964425749759
 20
158.2792566037099
 30
0.0
 10
163.4214669152834
 20
158.2792566037099
 30
0.0
  0
SPLINE
  5
244
330
1F
100
AcDbEntity
  8
0
  6
Continuous
 62
     7
370
    25
100
AcDbSpline
210
0.0
220
0.0
230
1.0
 70
    24
 71
     3
 72
    12
 73
     8
 74
     0
 42
0.00000001
 43
0.00000001
 40
0.0
 40
0.0
 40
0.0
 40
0.0
 40
0.25
 40
0.25
 40
0.5
 40
0.5
 40
1.0
 40
1.0
 40
1.0
 40
1.0
 10
164.8257609351458
 20
158.2792566037099
 30
0.0
 10
164.8257609351458
 20
158.2792566037099
 30
0.0
 10
164.7931732958546
 20
158.2792566037099
 30
0.0
 10
164.6635461014052
 20
158.2792566037099
 30
0.0
 10
164.5674492130074
 20
158.2792566037099
 30
0.0
 10
164.1986136235172
 20
158.2792566037099
 30
0.0
 10
163.8457762310057
 20
158.2792566037099
 30
0.0
 10
163.4214669152834
 20
158.2792566037099
 30
0.0
  0
SPLINE
  5
245
330
1F
100
AcDbEntity
  8
0
  6
Continuous
 62
     7
370
    25
100
AcDbSpline
210
0.0
220
0.0
230
1.0
 70
     8
 71
     3
 72
     8
 73
     4
 74
     0
 42
0.00000001
 43
0.00000001
 40
0.0
 40
0.0
 40
0.0
 40
0.0
 40
1.0
 40
1.0
 40
1.0
 40
1.0
 10
140.2300549550082
 20
158.2792566037099
 30
0.0
 10
140.255068080937
 20
158.2792566037099
 30
0.0
 10
140.2691366081199
 20
158.2560089676085
 30
0.0
 10
140.2691366081199
 20
158.2098121592655
 30
0.0
  0
LINE
  5
246
330
1F
100
AcDbEntity
  8
0
  6
Continuous
 62
     7
370
    25
100
AcDbLine
 10
140.2691366081
 20
151.6849676184
 30
0.0
 11
140.2691366081
 21
158.2098121593
 31
0.0
  0
SPLINE
  5
247
330
1F
100
AcDbEntity
  8
0
  6
Continuous
 62
     7
370
    25
100
AcDbSpline
210
0.0
220
0.0
230
1.0
 70
     8
 71
     3
 72
     8
 73
     4
 74
     0
 42
0.00000001
 43
0.00000001
 40
0.0
 40
0.0
 40
0.0
 40
0.0
 40
1.0
 40
1.0
 40
1.0
 40
1.0
 10
140.2691366081199
 20
151.6849676183732
 30
0.0
 10
140.2691366081199
 20
151.6067051244977
 30
0.0
 10
140.2550792953157
 20
151.5180584780469
 30
0.0
 10
140.2300549550082
 20
151.4307592125714
 30
0.0
  0
SPLINE
  5
248
330
1F
100
AcDbEntity
  8
0
  6
Continuous
 62
     7
370
    25
100
AcDbSpline
210
0.0
220
0.0
230
1.0
 70
     8
 71
     3
 72
     9
 73
     5
 74
     0
 42
0.00000001
 43
0.00000001
 40
0.0
 40
0.0
 40
0.0
 40
0.0
 40
0.5366158295761146
 40
1.0
 40
1.0
 40
1.0
 40
1.0
 10
139.3347092302422
 20
147.3900928716346
 30
0.0
 10
139.4557227500111
 20
148.1216386150959
 30
0.0
 10
139.681235142861
 20
149.4848964676256
 30
0.0
 10
140.0562698215457
 20
150.8145970235516
 30
0.0
 10
140.2300549550082
 20
151.4307592125714
 30
0.0
  0
LINE
  5
249
330
1F
100
AcDbEntity
  8
0
  6
Continuous
 62
     7
370
    25
100
AcDbLine
 10
138.8257609351
 20
147.3618179664
 30
0.0
 11
138.8257609351
 21
158.2792566037
 31
0.0
  0
SPLINE
  5
24A
330
1F
100
AcDbEntity
  8
0
  6
Continuous
 62
     7
370
    25
100
AcDbSpline
210
0.0
220
0.0
230
1.0
 70
    24
 71
     3
 72
    12
 73
     8
 74
     0
 42
0.00000001
 43
0.00000001
 40
0.0
 40
0.0
 40
0.0
 40
0.0
 40
0.25
 40
0.25
 40
0.5
 40
0.5
 40
1.0
 40
1.0
 40
1.0
 40
1.0
 10
138.8257609351458
 20
158.2792566037099
 30
0.0
 10
138.8257609351458
 20
158.2792566037099
 30
0.0
 10
138.8584918103912
 20
158.2792566037099
 30
0.0
 10
138.9881711232658
 20
158.2792566037099
 30
0.0
 10
139.0842055804154
 20
158.2792566037099
 30
0.0
 10
139.4529207087892
 20
158.2792566037099
 30
0.0
 10
139.8056835397884
 20
158.2792566037099
 30
0.0
 10
140.2300549550082
 20
158.2792566037099
 30
0.0
  0
SPLINE
  5
24B
330
1F
100
AcDbEntity
  8
0
  6
Continuous
 62
     7
370
    25
100
AcDbSpline
210
0.0
220
0.0
230
1.0
 70
     8
 71
     3
 72
    12
 73
     8
 74
     0
 42
0.00000001
 43
0.00000001
 40
0.0
 40
0.0
 40
0.0
 40
0.0
 40
0.25
 40
0.25
 40
0.5
 40
0.5
 40
1.0
 40
1.0
 40
1.0
 40
1.0
 10
164.8257609351458
 20
142.2792566037099
 30
0.0
 10
164.8257609351458
 20
141.5053597538316
 30
0.0
 10
164.7931732958546
 20
140.7288202686527
 30
0.0
 10
164.6635461014052
 20
139.1705146874764
 30
0.0
 10
164.5674492130074
 20
138.3991129235223
 30
0.0
 10
164.1986136235172
 20
136.1073056469874
 30
0.0
 10
163.8457762310057
 20
134.6079884842204
 30
0.0
 10
163.4214669152834
 20
133.1277539948483
 30
0.0
  0
LINE
  5
24C
330
1F
100
AcDbEntity
  8
0
  6
Continuous
 62
     7
370
    25
100
AcDbLine
 10
140.230054955
 20
133.1277539948
 30
0.0
 11
163.4214669153
 21
133.1277539948
 31
0.0
  0
SPLINE
  5
24D
330
1F
100
AcDbEntity
  8
0
  6
Continuous
 62
     7
370
    25
100
AcDbSpline
210
0.0
220
0.0
230
1.0
 70
     8
 71
     3
 72
     9
 73
     5
 74
     0
 42
0.00000001
 43
0.00000001
 40
0.0
 40
0.0
 40
0.0
 40
0.0
 40
0.8506680104315828
 40
1.0
 40
1.0
 40
1.0
 40
1.0
 10
140.2300549550082
 20
133.1277539948483
 30
0.0
 10
139.9035330840039
 20
134.2611482360115
 30
0.0
 10
139.5196913654954
 20
135.5935061327051
 30
0.0
 10
139.340998598301
 20
136.9647785612553
 30
0.0
 10
139.3143140518544
 20
137.1695534012511
 30
0.0
  0
LINE
  5
24E
330
1F
100
AcDbEntity
  8
0
  6
Continuous
 62
     7
370
    25
100
AcDbLine
 10
163.4214669153
 20
151.4307592126
 30
0.0
 11
140.230054955
 21
151.4307592126
 31
0.0
  0
LINE
  5
24F
330
1F
100
AcDbEntity
  8
0
  6
Continuous
 62
     7
370
    25
100
AcDbLine
 10
140.2691366081
 20
151.6849676184
 30
0.0
 11
163.3823852622
 21
151.6849676184
 31
0.0
  0
SPLINE
  5
250
330
1F
100
AcDbEntity
  8
0
  6
Continuous
 62
     7
370
    25
100
AcDbSpline
210
0.0
220
0.0
230
1.0
 70
     8
 71
     3
 72
     8
 73
     4
 74
     0
 42
0.00000001
 43
0.00000001
 40
0.0
 40
0.0
 40
0.0
 40
0.0
 40
1.0
 40
1.0
 40
1.0
 40
1.0
 10
140.2300549550082
 20
133.1277539948483
 30
0.0
 10
140.255068080937
 20
133.040493851564
 30
0.0
 10
140.2691366081199
 20
132.9517896282958
 30
0.0
 10
140.2691366081199
 20
132.8735455890466
 30
0.0
  0
LINE
  5
251
330
1F
100
AcDbEntity
  8
0
  6
Continuous
 62
     7
370
    25
100
AcDbLine
 10
140.2691366081
 20
126.3487010482
 30
0.0
 11
140.2691366081
 21
132.873545589
 31
0.0
  0
SPLINE
  5
252
330
1F
100
AcDbEntity
  8
0
  6
Continuous
 62
     7
370
    25
100
AcDbSpline
210
0.0
220
0.0
230
1.0
 70
     8
 71
     3
 72
     8
 73
     4
 74
     0
 42
0.00000001
 43
0.00000001
 40
0.0
 40
0.0
 40
0.0
 40
0.0
 40
1.0
 40
1.0
 40
1.0
 40
1.0
 10
140.2691366081199
 20
126.3487010481544
 30
0.0
 10
140.2691366081199
 20
126.3024933438397
 30
0.0
 10
140.2550792953157
 20
126.2792566037099
 30
0.0
 10
140.2300549550082
 20
126.2792566037099
 30
0.0
  0
SPLINE
  5
253
330
1F
100
AcDbEntity
  8
0
  6
Continuous
 62
     7
370
    25
100
AcDbSpline
210
0.0
220
0.0
230
1.0
 70
    24
 71
     3
 72
    12
 73
     8
 74
     0
 42
0.00000001
 43
0.00000001
 40
0.0
 40
0.0
 40
0.0
 40
0.0
 40
0.25
 40
0.25
 40
0.5
 40
0.5
 40
1.0
 40
1.0
 40
1.0
 40
1.0
 10
138.8257609351458
 20
126.2792566037099
 30
0.0
 10
138.8257609351458
 20
126.2792566037099
 30
0.0
 10
138.8584918103912
 20
126.2792566037099
 30
0.0
 10
138.9881711232659
 20
126.2792566037099
 30
0.0
 10
139.0842055804154
 20
126.2792566037099
 30
0.0
 10
139.4529207087892
 20
126.2792566037099
 30
0.0
 10
139.8056835397884
 20
126.2792566037099
 30
0.0
 10
140.2300549550082
 20
126.2792566037099
 30
0.0
  0
LINE
  5
254
330
1F
100
AcDbEntity
  8
0
  6
Continuous
 62
     7
370
    25
100
AcDbLine
 10
138.8257609351
 20
126.2792566037
 30
0.0
 11
138.8257609351
 21
137.1966952411
 31
0.0
  0
SPLINE
  5
255
330
1F
100
AcDbEntity
  8
0
  6
Continuous
 62
     7
370
    25
100
AcDbSpline
210
0.0
220
0.0
230
1.0
 70
     8
 71
     3
 72
     8
 73
     4
 74
     0
 42
0.00000001
 43
0.00000001
 40
0.0
 40
0.0
 40
0.0
 40
0.0
 40
1.0
 40
1.0
 40
1.0
 40
1.0
 10
163.4214669152834
 20
126.2792566037099
 30
0.0
 10
163.3964537893547
 20
126.2792566037099
 30
0.0
 10
163.3823852621717
 20
126.3025042398114
 30
0.0
 10
163.3823852621717
 20
126.3487010481544
 30
0.0
  0
LINE
  5
256
330
1F
100
AcDbEntity
  8
0
  6
Continuous
 62
     7
370
    25
100
AcDbLine
 10
163.3823852622
 20
132.873545589
 30
0.0
 11
163.3823852622
 21
126.3487010482
 31
0.0
  0
SPLINE
  5
257
330
1F
100
AcDbEntity
  8
0
  6
Continuous
 62
     7
370
    25
100
AcDbSpline
210
0.0
220
0.0
230
1.0
 70
     8
 71
     3
 72
     8
 73
     4
 74
     0
 42
0.00000001
 43
0.00000001
 40
0.0
 40
0.0
 40
0.0
 40
0.0
 40
1.0
 40
1.0
 40
1.0
 40
1.0
 10
163.3823852621717
 20
132.8735455890466
 30
0.0
 10
163.3823852621717
 20
132.9518080829221
 30
0.0
 10
163.3964425749759
 20
133.0404547293729
 30
0.0
 10
163.4214669152834
 20
133.1277539948483
 30
0.0
  0
SPLINE
  5
258
330
1F
100
AcDbEntity
  8
0
  6
Continuous
 62
     7
370
    25
100
AcDbSpline
210
0.0
220
0.0
230
1.0
 70
    24
 71
     3
 72
    12
 73
     8
 74
     0
 42
0.00000001
 43
0.00000001
 40
0.0
 40
0.0
 40
0.0
 40
0.0
 40
0.25
 40
0.25
 40
0.5
 40
0.5
 40
1.0
 40
1.0
 40
1.0
 40
1.0
 10
164.8257609351458
 20
126.2792566037099
 30
0.0
 10
164.8257609351458
 20
126.2792566037099
 30
0.0
 10
164.7931732958546
 20
126.2792566037099
 30
0.0
 10
164.6635461014052
 20
126.2792566037099
 30
0.0
 10
164.5674492130074
 20
126.2792566037099
 30
0.0
 10
164.1986136235172
 20
126.2792566037099
 30
0.0
 10
163.8457762310057
 20
126.2792566037099
 30
0.0
 10
163.4214669152834
 20
126.2792566037099
 30
0.0
  0
LINE
  5
259
330
1F
100
AcDbEntity
  8
0
  6
Continuous
 62
     7
370
    25
100
AcDbLine
 10
164.8257609351
 20
142.2792566037
 30
0.0
 11
164.8257609351
 21
126.2792566037
 31
0.0
  0
LINE
  5
25A
330
1F
100
AcDbEntity
  8
0
  6
Continuous
 62
     7
370
    25
100
AcDbLine
 10
163.3823852622
 20
132.873545589
 30
0.0
 11
140.2691366081
 21
132.873545589
 31
0.0
  0
LINE
  5
25B
330
1F
100
AcDbEntity
  8
0
  6
Continuous
 62
     7
370
    25
100
AcDbLine
 10
163.3823852622
 20
158.2098121593
 30
0.0
 11
140.2691366081
 21
158.2098121593
 31
0.0
  0
LINE
  5
25C
330
1F
100
AcDbEntity
  8
0
  6
Continuous
 62
     7
370
    25
100
AcDbLine
 10
140.2691366081
 20
126.3487010482
 30
0.0
 11
163.3823852622
 21
126.3487010482
 31
0.0
  0
LINE
  5
25D
330
1F
100
AcDbEntity
  8
0
  6
Continuous
 62
     7
370
    25
100
AcDbLine
 10
178.2205845962
 20
129.2751573431
 30
0.0
 11
178.2205845962
 21
155.2833558643
 31
0.0
  0
LINE
  5
25E
330
1F
100
AcDbEntity
  8
0
  6
Continuous
 62
     7
370
    25
100
AcDbLine
 10
180.8257609351
 20
153.7792566037
 30
0.0
 11
180.8257609351
 21
130.7792566037
 31
0.0
  0
LINE
  5
25F
330
1F
100
AcDbEntity
  8
0
  6
Continuous
 62
     7
370
    25
100
AcDbLine
 10
140.230054955
 20
158.2792566037
 30
0.0
 11
163.4214669153
 21
158.2792566037
 31
0.0
  0
LINE
  5
260
330
1F
100
AcDbEntity
  8
0
  6
Continuous
 62
     7
370
    25
100
AcDbLine
 10
163.4214669153
 20
126.2792566037
 30
0.0
 11
140.230054955
 21
126.2792566037
 31
0.0
  0
LINE
  5
261
330
1F
100
AcDbEntity
  8
0
  6
Continuous
 62
     7
370
    25
100
AcDbLine
 10
149.5882769136
 20
141.3039840587
 30
0.0
 11
149.5554813866
 21
141.322728098
 31
0.0
  0
SPLINE
  5
262
330
1F
100
AcDbEntity
  8
0
  6
Continuous
 62
     7
370
    25
100
AcDbSpline
210
0.0
220
0.0
230
1.0
 70
     8
 71
     3
 72
    15
 73
    11
 74
     0
 42
0.00000001
 43
0.00000001
 40
0.0
 40
0.0
 40
0.0
 40
0.0
 40
0.1241930067305288
 40
0.2496556654892302
 40
0.374370385315121
 40
0.4998404796364201
 40
0.6240146704162363
 40
0.7475381382242062
 40
0.8745858500551823
 40
1.0
 40
1.0
 40
1.0
 40
1.0
 10
150.3685666352764
 20
141.5764237092957
 30
0.0
 10
150.3530062401666
 20
141.5405765065518
 30
0.0
 10
150.3217263726551
 20
141.46851562734
 30
0.0
 10
150.2442900131668
 20
141.3786401139971
 30
0.0
 10
150.1509360094278
 20
141.3063163362027
 30
0.0
 10
150.0437104034069
 20
141.2573889176982
 30
0.0
 10
149.9293244926859
 20
141.2310608642434
 30
0.0
 10
149.8116537298006
 20
141.2302017702408
 30
0.0
 10
149.6947700045754
 20
141.2515845308704
 30
0.0
 10
149.6236211536807
 20
141.2865930573311
 30
0.0
 10
149.5882769135972
 20
141.3039840587126
 30
0.0
  0
LINE
  5
263
330
1F
100
AcDbEntity
  8
0
  6
Continuous
 62
     7
370
    25
100
AcDbLine
 10
151.36042068
 20
144.3500029252
 30
0.0
 11
150.3685666353
 21
141.5764237093
 31
0.0
  0
SPLINE
  5
264
330
1F
100
AcDbEntity
  8
0
  6
Continuous
 62
     7
370
    25
100
AcDbSpline
210
0.0
220
0.0
230
1.0
 70
     8
 71
     3
 72
    15
 73
    11
 74
     0
 42
0.00000001
 43
0.00000001
 40
0.0
 40
0.0
 40
0.0
 40
0.0
 40
0.1233025178081761
 40
0.2485158700387114
 40
0.3756924668130948
 40
0.499999088042933
 40
0.6243057092728392
 40
0.751482306047304
 40
0.8766757256079954
 40
1.0
 40
1.0
 40
1.0
 40
1.0
 10
152.2911011934975
 20
144.3500029252091
 30
0.0
 10
152.2669502215351
 20
144.3906480611448
 30
0.0
 10
152.2182740070004
 20
144.4725682157327
 30
0.0
 10
152.1029233487953
 20
144.5623871715451
 30
0.0
 10
151.9697637265334
 20
144.6199613197063
 30
0.0
 10
151.8257610831646
 20
144.6391200153764
 30
0.0
 10
151.6817575544661
 20
144.6199619124913
 30
0.0
 10
151.5486076815006
 20
144.5623877987528
 30
0.0
 10
151.4332453239662
 20
144.4725822366061
 30
0.0
 10
151.384573538295
 20
144.3906573050813
 30
0.0
 10
151.3604206799782
 20
144.3500029252092
 30
0.0
  0
LINE
  5
265
330
1F
100
AcDbEntity
  8
0
  6
Continuous
 62
     7
370
    25
100
AcDbLine
 10
153.2827240999
 20
141.5770700549
 30
0.0
 11
152.2911011935
 21
144.3500029252
 31
0.0
  0
SPLINE
  5
266
330
1F
100
AcDbEntity
  8
0
  6
Continuous
 62
     7
370
    25
100
AcDbSpline
210
0.0
220
0.0
230
1.0
 70
     8
 71
     3
 72
    15
 73
    11
 74
     0
 42
0.00000001
 43
0.00000001
 40
0.0
 40
0.0
 40
0.0
 40
0.0
 40
0.1253320172137762
 40
0.2522975129251759
 40
0.3758847553984063
 40
0.5001929511416491
 40
0.6255758307380151
 40
0.7502289462456483
 40
0.8757444935777824
 40
1.0
 40
1.0
 40
1.0
 40
1.0
 10
154.0554258644113
 20
141.3003742042548
 30
0.0
 10
154.0201749477833
 20
141.283699895772
 30
0.0
 10
153.9492136819289
 20
141.2501339590427
 30
0.0
 10
153.8332267911406
 20
141.2303523427886
 30
0.0
 10
153.7166304249002
 20
141.2324251231351
 30
0.0
 10
153.6035098183187
 20
141.2595031494857
 30
0.0
 10
153.4976341039792
 20
141.3087159651929
 30
0.0
 10
153.4055250193601
 20
141.3808017290668
 30
0.0
 10
153.3290933554917
 20
141.4700892505662
 30
0.0
 10
153.2981284479924
 20
141.5415299210032
 30
0.0
 10
153.2827240998712
 20
141.5770700548613
 30
0.0
  0
LINE
  5
267
330
1F
100
AcDbEntity
  8
0
  6
Continuous
 62
     7
370
    25
100
AcDbLine
 10
154.0960404869
 20
141.322728098
 30
0.0
 11
154.0554258644
 21
141.3003742043
 31
0.0
  0
LINE
  5
268
330
1F
100
AcDbEntity
  8
0
  6
Continuous
 62
     7
370
    25
100
AcDbLine
 10
153.4690572904
 20
140.1273169945
 30
0.0
 11
154.0960404869
 21
141.322728098
 31
0.0
  0
SPLINE
  5
269
330
1F
100
AcDbEntity
  8
0
  6
Continuous
 62
     7
370
    25
100
AcDbSpline
210
0.0
220
0.0
230
1.0
 70
     8
 71
     3
 72
    15
 73
    11
 74
     0
 42
0.00000001
 43
0.00000001
 40
0.0
 40
0.0
 40
0.0
 40
0.0
 40
0.124633218643857
 40
0.2519059530189797
 40
0.3765391000744913
 40
0.4994035903146549
 40
0.6264494152300148
 40
0.7526064410610425
 40
0.8746804377363274
 40
1.0
 40
1.0
 40
1.0
 40
1.0
 10
153.3638288016023
 20
140.1091998277572
 30
0.0
 10
153.3678432772704
 20
140.1060945929046
 30
0.0
 10
153.3759572482491
 20
140.0998183597028
 30
0.0
 10
153.3903958400856
 20
140.0942053462229
 30
0.0
 10
153.4055292900187
 20
140.0916689935962
 30
0.0
 10
153.4208918323005
 20
140.092554397164
 30
0.0
 10
153.4358224111372
 20
140.0966854676796
 30
0.0
 10
153.4493243111665
 20
140.1041761676255
 30
0.0
 10
153.4610099660529
 20
140.1143147495398
 30
0.0
 10
153.4663514903937
 20
140.1229451718826
 30
0.0
 10
153.4690572903954
 20
140.1273169944749
 30
0.0
  0
SPLINE
  5
26A
330
1F
100
AcDbEntity
  8
0
  6
Continuous
 62
     7
370
    25
100
AcDbSpline
210
0.0
220
0.0
230
1.0
 70
     8
 71
     3
 72
    11
 73
     7
 74
     0
 42
0.00000001
 43
0.00000001
 40
0.0
 40
0.0
 40
0.0
 40
0.0
 40
0.2506252605986012
 40
0.4999999999996215
 40
0.7493747394010043
 40
1.0
 40
1.0
 40
1.0
 40
1.0
 10
150.2876930718734
 20
140.1091998277572
 30
0.0
 10
150.5174207660467
 20
140.2720541197182
 30
0.0
 10
150.9757299038097
 20
140.596950124957
 30
0.0
 10
151.8257609367458
 20
140.7306820718942
 30
0.0
 10
152.675791969676
 20
140.5969501249519
 30
0.0
 10
153.1341011074323
 20
140.2720541197165
 30
0.0
 10
153.3638288016023
 20
140.1091998277573
 30
0.0
  0
SPLINE
  5
26B
330
1F
100
AcDbEntity
  8
0
  6
Continuous
 62
     7
370
    25
100
AcDbSpline
210
0.0
220
0.0
230
1.0
 70
     8
 71
     3
 72
    15
 73
    11
 74
     0
 42
0.00000001
 43
0.00000001
 40
0.0
 40
0.0
 40
0.0
 40
0.0
 40
0.1253191957979125
 40
0.2473928354984055
 40
0.37344924164897
 40
0.500595004607996
 40
0.6235484391777584
 40
0.7480947836179481
 40
0.8753671458153865
 40
1.0
 40
1.0
 40
1.0
 40
1.0
 10
150.1824645830802
 20
140.1273169944749
 30
0.0
 10
150.1851703794126
 20
140.122945166191
 30
0.0
 10
150.1905118965098
 20
140.1143147326122
 30
0.0
 10
150.2021944690989
 20
140.1041789551124
 30
0.0
 10
150.2156954490861
 20
140.0966868392388
 30
0.0
 10
150.2306294779362
 20
140.0925543939466
 30
0.0
 10
150.2459964891252
 20
140.0916664521731
 30
0.0
 10
150.2611292255635
 20
140.0942073944306
 30
0.0
 10
150.2755646553451
 20
140.0998181726978
 30
0.0
 10
150.2836786061744
 20
140.1060945310066
 30
0.0
 10
150.2876930718734
 20
140.1091998277572
 30
0.0
  0
LINE
  5
26C
330
1F
100
AcDbEntity
  8
0
  6
Continuous
 62
     7
370
    25
100
AcDbLine
 10
149.5554813866
 20
141.322728098
 30
0.0
 11
150.1824645831
 21
140.1273169945
 31
0.0
  0
SPLINE
  5
26D
330
1F
100
AcDbEntity
  8
0
  6
Continuous
 62
     7
370
    25
100
AcDbSpline
210
0.0
220
0.0
230
1.0
 70
     8
 71
     3
 72
    15
 73
    11
 74
     0
 42
0.00000001
 43
0.00000001
 40
0.0
 40
0.0
 40
0.0
 40
0.0
 40
0.1233867499278388
 40
0.2487396502211601
 40
0.3739317114754985
 40
0.4999973617625659
 40
0.6259591330513601
 40
0.7512551380600303
 40
0.8765613478174267
 40
1.0
 40
1.0
 40
1.0
 40
1.0
 10
151.7628780703397
 20
142.3006660618527
 30
0.0
 10
151.7657562715316
 20
142.3066808579356
 30
0.0
 10
151.7715585376432
 20
142.3188062950244
 30
0.0
 10
151.787087942364
 20
142.3321975553744
 30
0.0
 10
151.8054425242374
 20
142.3410752669544
 30
0.0
 10
151.8257553407203
 20
142.3438319302508
 30
0.0
 10
151.8460737584354
 20
142.3410772490502
 30
0.0
 10
151.8644266275996
 20
142.3322015507608
 30
0.0
 10
151.879964731995
 20
142.3188111835071
 30
0.0
 10
151.8857652940263
 20
142.306684085961
 30
0.0
 10
151.8886437999519
 20
142.3006660618527
 30
0.0
  0
LINE
  5
26E
330
1F
100
AcDbEntity
  8
0
  6
Continuous
 62
     7
370
    25
100
AcDbLine
 10
151.5237645446
 20
141.6624120326
 30
0.0
 11
151.7628780703
 21
142.3006660619
 31
0.0
  0
SPLINE
  5
26F
330
1F
100
AcDbEntity
  8
0
  6
Continuous
 62
     7
370
    25
100
AcDbSpline
210
0.0
220
0.0
230
1.0
 70
     8
 71
     3
 72
    15
 73
    11
 74
     0
 42
0.00000001
 43
0.00000001
 40
0.0
 40
0.0
 40
0.0
 40
0.0
 40
0.126158522421064
 40
0.2513121451548799
 40
0.3762846848783793
 40
0.499306278334087
 40
0.6261594278645742
 40
0.7521171342021308
 40
0.875819692269278
 40
1.0
 40
1.0
 40
1.0
 40
1.0
 10
151.586647409468
 20
141.5773476792302
 30
0.0
 10
151.5814163129794
 20
141.5776699858225
 30
0.0
 10
151.5709957876367
 20
141.578312031715
 30
0.0
 10
151.5562092371223
 20
141.5837602720902
 30
0.0
 10
151.5430188844968
 20
141.5919828746758
 30
0.0
 10
151.5321483096556
 20
141.6032394809884
 30
0.0
 10
151.524140722327
 20
141.6167602263295
 30
0.0
 10
151.5199740952943
 20
141.6318971139063
 30
0.0
 10
151.5193530437827
 20
141.6475862454774
 30
0.0
 10
151.5222921561375
 20
141.6574637578361
 30
0.0
 10
151.5237645446202
 20
141.6624120325801
 30
0.0
  0
LINE
  5
270
330
1F
100
AcDbEntity
  8
0
  6
Continuous
 62
     7
370
    25
100
AcDbLine
 10
152.0648744636
 20
141.5773476792
 30
0.0
 11
151.5866474095
 21
141.5773476792
 31
0.0
  0
SPLINE
  5
271
330
1F
100
AcDbEntity
  8
0
  6
Continuous
 62
     7
370
    25
100
AcDbSpline
210
0.0
220
0.0
230
1.0
 70
     8
 71
     3
 72
    15
 73
    11
 74
     0
 42
0.00000001
 43
0.00000001
 40
0.0
 40
0.0
 40
0.0
 40
0.0
 40
0.1241186784437694
 40
0.2478474916628983
 40
0.3736574149478942
 40
0.5005082335853297
 40
0.6234527658309919
 40
0.7484986612277521
 40
0.8736976492452766
 40
1.0
 40
1.0
 40
1.0
 40
1.0
 10
152.1277573283974
 20
141.6624120328032
 30
0.0
 10
152.1292284010062
 20
141.6574661871451
 30
0.0
 10
152.1321659254846
 20
141.647590031067
 30
0.0
 10
152.1315491909845
 20
141.6319086354412
 30
0.0
 10
152.1273872293899
 20
141.6167761033609
 30
0.0
 10
152.1193884815915
 20
141.6032611957465
 30
0.0
 10
152.1085223900547
 20
141.5920011345505
 30
0.0
 10
152.0953346722301
 20
141.5837714221171
 30
0.0
 10
152.0805402256548
 20
141.578311851732
 30
0.0
 10
152.0701116347475
 20
141.5776700086751
 30
0.0
 10
152.0648744636331
 20
141.5773476792302
 30
0.0
  0
LINE
  5
272
330
1F
100
AcDbEntity
  8
0
  6
Continuous
 62
     7
370
    25
100
AcDbLine
 10
151.8886438
 20
142.3006660619
 30
0.0
 11
152.1277573284
 21
141.6624120328
 31
0.0
  0
CIRCLE
  5
273
330
1F
100
AcDbEntity
  8
0
  6
Continuous
 62
     7
370
    25
100
AcDbCircle
 10
151.8257609351
 20
142.2792566037
 30
0.0
 40
4.499999999999972
  0
LINE
  5
274
330
1F
100
AcDbEntity
  8
0
  6
Continuous
 62
     7
370
    25
100
AcDbLine
 10
102.4437949239
 20
143.1578490559
 30
0.0
 11
136.7205327216
 21
144.0554170235
 31
0.0
  0
SPLINE
  5
275
330
1F
100
AcDbEntity
  8
0
  6
Continuous
 62
     7
370
    25
100
AcDbSpline
210
0.0
220
0.0
230
1.0
 70
    24
 71
     3
 72
    11
 73
     7
 74
     0
 42
0.00000001
 43
0.00000001
 40
0.0
 40
0.0
 40
0.0
 40
0.0
 40
0.2500000000000021
 40
0.4999999999999994
 40
0.7500000000000007
 40
0.9999999999999999
 40
0.9999999999999999
 40
0.9999999999999999
 40
0.9999999999999999
 10
102.4254773392107
 20
143.8573693930234
 30
0.0
 10
102.4258052004665
 20
143.8448488768008
 30
0.0
 10
102.4264609229781
 20
143.8198078443557
 30
0.0
 10
102.4307198921174
 20
143.6571643747331
 30
0.0
 10
102.4367117477792
 20
143.4283446386786
 30
0.0
 10
102.4414338651902
 20
143.2480142501324
 30
0.0
 10
102.4437949238957
 20
143.1578490558593
 30
0.0
  0
LINE
  5
276
330
1F
100
AcDbEntity
  8
0
  6
Continuous
 62
     7
370
    25
100
AcDbLine
 10
136.7022151369
 20
144.7549373606
 30
0.0
 11
102.4254773392
 21
143.857369393
 31
0.0
  0
SPLINE
  5
277
330
1F
100
AcDbEntity
  8
0
  6
Continuous
 62
     7
370
    25
100
AcDbSpline
210
0.0
220
0.0
230
1.0
 70
    24
 71
     3
 72
    11
 73
     7
 74
     0
 42
0.00000001
 43
0.00000001
 40
0.0
 40
0.0
 40
0.0
 40
0.0
 40
0.2499999999999988
 40
0.499999999999999
 40
0.7499999999999993
 40
1.0
 40
1.0
 40
1.0
 40
1.0
 10
136.7022151369483
 20
144.7549373606425
 30
0.0
 10
136.7025429982041
 20
144.7424168444199
 30
0.0
 10
136.7031987207157
 20
144.7173758119748
 30
0.0
 10
136.707457689855
 20
144.5547323423522
 30
0.0
 10
136.7134495455169
 20
144.3259126062977
 30
0.0
 10
136.7181716629279
 20
144.1455822177515
 30
0.0
 10
136.7205327216333
 20
144.0554170234784
 30
0.0
  0
LINE
  5
278
330
1F
100
AcDbEntity
  8
0
  6
Continuous
 62
     7
370
    25
100
AcDbLine
 10
136.7205327216
 20
140.5030961839
 30
0.0
 11
102.4437949239
 21
141.4006641516
 31
0.0
  0
LINE
  5
279
330
1F
100
AcDbEntity
  8
0
  6
Continuous
 62
     7
370
    25
100
AcDbLine
 10
102.4437949239
 20
141.4006641516
 30
0.0
 11
102.4437949239
 21
143.1578490559
 31
0.0
  0
ELLIPSE
  5
27A
330
1F
100
AcDbEntity
  8
0
  6
Continuous
 62
     7
370
    25
100
AcDbEllipse
 10
136.7257609351
 20
143.2550053671
 30
0.0
 11
0.9988086229566305
 21
0.06103964413864559
 31
0.0
210
0.0
220
0.0
230
0.9999999999999998
 40
0.7994627403
 41
0.8784769082855979
 42
1.527206254409821
  0
LINE
  5
27B
330
1F
100
AcDbEntity
  8
0
  6
Continuous
 62
     7
370
    25
100
AcDbLine
 10
137.3257609351
 20
143.9086357533
 30
0.0
 11
137.3257609351
 21
140.6498774541
 31
0.0
  0
ELLIPSE
  5
27C
330
1F
100
AcDbEntity
  8
0
  6
Continuous
 62
     7
370
    25
100
AcDbEllipse
 10
136.7257609351
 20
141.3035078403
 30
0.0
 11
0.9988086229566305
 21
-0.06103964413864559
 31
0.0
210
0.0
220
0.0
230
0.9999999999999998
 40
0.7994627403
 41
4.755979052769776
 42
5.404708398894002
  0
LINE
  5
27D
330
1F
100
AcDbEntity
  8
0
  6
Continuous
 62
     7
370
    25
100
AcDbLine
 10
138.5257609351
 20
141.2668403691
 30
0.0
 11
138.5257609351
 21
143.2916728383
 31
0.0
  0
SPLINE
  5
27E
330
1F
100
AcDbEntity
  8
0
  6
Continuous
 62
     7
370
    25
100
AcDbSpline
210
0.0
220
0.0
230
1.0
 70
     8
 71
     3
 72
    11
 73
     7
 74
     0
 42
0.00000001
 43
0.00000001
 40
0.0
 40
0.0
 40
0.0
 40
0.0
 40
0.2561894651307287
 40
0.5096044939206915
 40
0.7692742066553648
 40
1.0
 40
1.0
 40
1.0
 40
1.0
 10
138.5257609351458
 20
141.2668403690765
 30
0.0
 10
138.4501648028519
 20
141.2073283284281
 30
0.0
 10
138.2997912161773
 20
141.0889487403317
 30
0.0
 10
138.000578430222
 20
140.9183111981963
 30
0.0
 10
137.6730586953352
 20
140.7666872872956
 30
0.0
 10
137.4368803145214
 20
140.6872512516244
 30
0.0
 10
137.3257609351458
 20
140.6498774541015
 30
0.0
  0
SPLINE
  5
27F
330
1F
100
AcDbEntity
  8
0
  6
Continuous
 62
     7
370
    25
100
AcDbSpline
210
0.0
220
0.0
230
1.0
 70
     8
 71
     3
 72
    11
 73
     7
 74
     0
 42
0.00000001
 43
0.00000001
 40
0.0
 40
0.0
 40
0.0
 40
0.0
 40
0.2307374805224084
 40
0.4903955403005853
 40
0.743810552073066
 40
1.0
 40
1.0
 40
1.0
 40
1.0
 10
137.3257609351458
 20
143.9086357533184
 30
0.0
 10
137.4368861689022
 20
143.8712605624054
 30
0.0
 10
137.6730650459777
 20
143.7918255833108
 30
0.0
 10
138.0005826869288
 20
143.6401989035471
 30
0.0
 10
138.2997912835913
 20
143.4695645985987
 30
0.0
 10
138.4501648254047
 20
143.3511849229874
 30
0.0
 10
138.5257609351458
 20
143.2916728383433
 30
0.0
  0
LINE
  5
280
330
1F
100
AcDbEntity
  8
0
  6
Continuous
 62
     7
370
    25
100
AcDbLine
 10
102.4254773392
 20
140.7011438144
 30
0.0
 11
136.7022151369
 21
139.8035758468
 31
0.0
  0
SPLINE
  5
281
330
1F
100
AcDbEntity
  8
0
  6
Continuous
 62
     7
370
    25
100
AcDbSpline
210
0.0
220
0.0
230
1.0
 70
    24
 71
     3
 72
    11
 73
     7
 74
     0
 42
0.00000001
 43
0.00000001
 40
0.0
 40
0.0
 40
0.0
 40
0.0
 40
0.2499999999999975
 40
0.5000000000000014
 40
0.7500000000000004
 40
1.0
 40
1.0
 40
1.0
 40
1.0
 10
102.4254773392107
 20
140.7011438143964
 30
0.0
 10
102.4258052004665
 20
140.713664330619
 30
0.0
 10
102.4264609229781
 20
140.7387053630642
 30
0.0
 10
102.4307198921174
 20
140.9013488326867
 30
0.0
 10
102.4367117477792
 20
141.1301685687412
 30
0.0
 10
102.4414338651902
 20
141.3104989572874
 30
0.0
 10
102.4437949238957
 20
141.4006641515606
 30
0.0
  0
SPLINE
  5
282
330
1F
100
AcDbEntity
  8
0
  6
Continuous
 62
     7
370
    25
100
AcDbSpline
210
0.0
220
0.0
230
1.0
 70
    24
 71
     3
 72
    11
 73
     7
 74
     0
 42
0.00000001
 43
0.00000001
 40
0.0
 40
0.0
 40
0.0
 40
0.0
 40
0.2500000000000006
 40
0.4999999999999992
 40
0.7499999999999969
 40
1.0
 40
1.0
 40
1.0
 40
1.0
 10
136.7205327216334
 20
140.5030961839414
 30
0.0
 10
136.7181716629279
 20
140.4129309896683
 30
0.0
 10
136.7134495455169
 20
140.232600601122
 30
0.0
 10
136.707457689855
 20
140.0037808650676
 30
0.0
 10
136.7031987207158
 20
139.841137395445
 30
0.0
 10
136.7025429982041
 20
139.8160963629998
 30
0.0
 10
136.7022151369483
 20
139.8035758467773
 30
0.0
  0
ELLIPSE
  5
283
330
1F
100
AcDbEntity
  8
0
  6
Continuous
 62
     7
370
    25
100
AcDbEllipse
 10
102.4437949239
 20
143.1788049742
 30
0.0
 11
1.49999997144873
 21
0.02095282558966005
 31
0.0
210
0.0
220
0.0
230
1.0
 40
0.0139678873
 41
3.842044658401198
 42
4.712193869245415
  0
ELLIPSE
  5
284
330
1F
100
AcDbEntity
  8
0
  6
Continuous
 62
     7
370
    25
100
AcDbEllipse
 10
102.4437949239
 20
141.3797082332
 30
0.0
 11
1.49999997144873
 21
-0.02095282558966005
 31
0.0
210
0.0
220
0.0
230
1.0
 40
0.0139678873
 41
1.570991437934171
 42
2.441140648781746
  0
SPLINE
  5
285
330
1F
100
AcDbEntity
  8
0
  6
Continuous
 62
     7
370
    25
100
AcDbSpline
210
0.0
220
0.0
230
1.0
 70
     8
 71
     3
 72
     9
 73
     5
 74
     0
 42
0.00000001
 43
0.00000001
 40
0.0
 40
0.0
 40
0.0
 40
0.0
 40
0.5600029565045049
 40
1.0
 40
1.0
 40
1.0
 40
1.0
 10
101.2971572084472
 20
141.4092325170859
 30
0.0
 10
101.2890094490941
 20
141.4092268790197
 30
0.0
 10
101.2744599556343
 20
141.4092168110975
 30
0.0
 10
101.2605153126938
 20
141.4093389877009
 30
0.0
 10
101.2543797110273
 20
141.4093927450452
 30
0.0
  0
ELLIPSE
  5
286
330
1F
100
AcDbEntity
  8
0
  6
Continuous
 62
     7
370
    25
100
AcDbEllipse
 10
102.4437949239
 20
141.3621190712
 30
0.0
 11
1.499999872704151
 21
-0.04307925670957503
 31
0.0
210
0.0
220
0.0
230
1.0
 40
0.0143449667
 41
2.486833182544535
 42
2.678357024934877
  0
LINE
  5
287
330
1F
100
AcDbEntity
  8
0
  6
Continuous
 62
     7
370
    25
100
AcDbLine
 10
101.1021541374
 20
143.1482399782
 30
0.0
 11
101.1021541374
 21
141.4102732292
 31
0.0
  0
ELLIPSE
  5
288
330
1F
100
AcDbEntity
  8
0
  6
Continuous
 62
     7
370
    25
100
AcDbEllipse
 10
102.4437949239
 20
143.1963941362
 30
0.0
 11
1.499999872704151
 21
0.0430792567095466
 31
0.0
210
0.0
220
0.0
230
1.0
 40
0.0143449667
 41
3.604828282246561
 42
3.796352124637542
  0
SPLINE
  5
289
330
1F
100
AcDbEntity
  8
0
  6
Continuous
 62
     7
370
    25
100
AcDbSpline
210
0.0
220
0.0
230
1.0
 70
     8
 71
     3
 72
     9
 73
     5
 74
     0
 42
0.00000001
 43
0.00000001
 40
0.0
 40
0.0
 40
0.0
 40
0.0
 40
0.5599925069634167
 40
1.0
 40
1.0
 40
1.0
 40
1.0
 10
101.2543797110273
 20
143.1491204623746
 30
0.0
 10
101.2622025208842
 20
143.149186207526
 30
0.0
 10
101.2761720111178
 20
143.149303611153
 30
0.0
 10
101.2907449889884
 20
143.1492876940003
 30
0.0
 10
101.2971572084472
 20
143.1492806903338
 30
0.0
  0
ELLIPSE
  5
28A
330
1F
100
AcDbEntity
  8
0
  6
Continuous
 62
     7
370
    25
100
AcDbEllipse
 10
102.4254773392
 20
140.6801878961
 30
0.0
 11
0.7999998117959422
 21
-0.02096310677475799
 31
0.0
210
0.0
220
0.0
230
1.0
 40
0.026176936
 41
1.571482264229186
 42
2.441631475075622
  0
SPLINE
  5
28B
330
1F
100
AcDbEntity
  8
0
  6
Continuous
 62
     7
370
    25
100
AcDbSpline
210
0.0
220
0.0
230
1.0
 70
     8
 71
     3
 72
    12
 73
     8
 74
     0
 42
0.00000001
 43
0.00000001
 40
0.0
 40
0.0
 40
0.0
 40
0.0
 40
0.2198609600791262
 40
0.4397396970008124
 40
0.6583291451397751
 40
0.8791239516843593
 40
1.0
 40
1.0
 40
1.0
 40
1.0
 10
101.8139372243048
 20
140.7097121799219
 30
0.0
 10
101.7540221615759
 20
140.7203841745659
 30
0.0
 10
101.6341871916899
 20
140.7417290267375
 30
0.0
 10
101.4774522034154
 20
140.8698474220045
 30
0.0
 10
101.3608838796292
 20
141.0527853580696
 30
0.0
 10
101.304627187835
 20
141.2443345299567
 30
0.0
 10
101.2991093166187
 20
141.3661402016418
 30
0.0
 10
101.2971572084472
 20
141.4092325170859
 30
0.0
  0
ELLIPSE
  5
28C
330
1F
100
AcDbEntity
  8
0
  6
Continuous
 62
     7
370
    25
100
AcDbEllipse
 10
102.4254773392
 20
143.8783253113
 30
0.0
 11
0.7999998117959422
 21
0.02096310677478641
 31
0.0
210
0.0
220
0.0
230
1.0
 40
0.026176936
 41
3.841553832102481
 42
4.7117030429504
  0
SPLINE
  5
28D
330
1F
100
AcDbEntity
  8
0
  6
Continuous
 62
     7
370
    25
100
AcDbSpline
210
0.0
220
0.0
230
1.0
 70
     8
 71
     3
 72
    12
 73
     8
 74
     0
 42
0.00000001
 43
0.00000001
 40
0.0
 40
0.0
 40
0.0
 40
0.0
 40
0.2198610998683209
 40
0.4397399767664978
 40
0.6583294271823329
 40
0.8791242261983195
 40
1.0
 40
1.0
 40
1.0
 40
1.0
 10
101.2971572084472
 20
143.1492806903338
 30
0.0
 10
101.3032601583425
 20
143.227971600053
 30
0.0
 10
101.3154665515917
 20
143.3853597821023
 30
0.0
 10
101.40799049269
 20
143.5946415305873
 30
0.0
 10
101.5437744401117
 20
143.7532908512516
 30
0.0
 10
101.6882023034751
 20
143.8333909139669
 30
0.0
 10
101.7810793151239
 20
143.8447739512686
 30
0.0
 10
101.8139372243048
 20
143.848801027498
 30
0.0
  0
SPLINE
  5
28E
330
1F
100
AcDbEntity
  8
0
  6
Continuous
 62
     7
370
    25
100
AcDbSpline
210
0.0
220
0.0
230
1.0
 70
     8
 71
     3
 72
    11
 73
     7
 74
     0
 42
0.00000001
 43
0.00000001
 40
0.0
 40
0.0
 40
0.0
 40
0.0
 40
0.2561894651307131
 40
0.5096044939206585
 40
0.769274206644471
 40
1.0
 40
1.0
 40
1.0
 40
1.0
 10
138.5257609351458
 20
143.2916728383433
 30
0.0
 10
138.481395944529
 20
143.4051803736646
 30
0.0
 10
138.3931464195943
 20
143.6309662000414
 30
0.0
 10
138.1833343326699
 20
143.9561685358009
 30
0.0
 10
137.9358264631782
 20
144.2461248937301
 30
0.0
 10
137.7410766324401
 20
144.3971867149085
 30
0.0
 10
137.6494489387808
 20
144.4682596715426
 30
0.0
  0
SPLINE
  5
28F
330
1F
100
AcDbEntity
  8
0
  6
Continuous
 62
     7
370
    25
100
AcDbSpline
210
0.0
220
0.0
230
1.0
 70
    24
 71
     3
 72
    10
 73
     6
 74
     0
 42
0.00000001
 43
0.00000001
 40
0.0
 40
0.0
 40
0.0
 40
0.0
 40
0.2808335173386717
 40
0.5616510917414109
 40
1.0
 40
1.0
 40
1.0
 40
1.0
 10
137.6494489387808
 20
144.4682596715426
 30
0.0
 10
137.631240819136
 20
144.4367796687476
 30
0.0
 10
137.5948256135224
 20
144.3738214502793
 30
0.0
 10
137.485042528722
 20
144.1840175669694
 30
0.0
 10
137.3860805759882
 20
144.0129223298211
 30
0.0
 10
137.3257609351458
 20
143.9086357533184
 30
0.0
  0
ELLIPSE
  5
290
330
1F
100
AcDbEntity
  8
0
  6
Continuous
 62
     7
370
    25
100
AcDbEllipse
 10
136.7257609351
 20
143.2550053671
 30
0.0
 11
1.557390436637263
 21
0.09517594847733335
 31
0.0
210
0.0
220
0.0
230
0.9999999999999999
 40
0.9613560848
 41
0.8784769082856322
 42
1.527206254409843
  0
SPLINE
  5
291
330
1F
100
AcDbEntity
  8
0
  6
Continuous
 62
     7
370
    25
100
AcDbSpline
210
0.0
220
0.0
230
1.0
 70
    24
 71
     3
 72
    10
 73
     6
 74
     0
 42
0.00000001
 43
0.00000001
 40
0.0
 40
0.0
 40
0.0
 40
0.0
 40
0.2808335173386731
 40
0.561651091741411
 40
1.0
 40
1.0
 40
1.0
 40
1.0
 10
137.3257609351458
 20
140.6498774541015
 30
0.0
 10
137.3641113841083
 20
140.5835733950291
 30
0.0
 10
137.4408101048758
 20
140.45096904097
 30
0.0
 10
137.5659644549178
 20
140.2345897900656
 30
0.0
 10
137.6178335212711
 20
140.1449134047152
 30
0.0
 10
137.6494489387808
 20
140.0902535358772
 30
0.0
  0
ELLIPSE
  5
292
330
1F
100
AcDbEntity
  8
0
  6
Continuous
 62
     7
370
    25
100
AcDbEllipse
 10
136.7257609351
 20
141.3035078403
 30
0.0
 11
1.557390436637263
 21
-0.09517594847736179
 31
0.0
210
0.0
220
0.0
230
1.0
 40
0.9613560848
 41
4.755979052769774
 42
5.404708398894005
  0
SPLINE
  5
293
330
1F
100
AcDbEntity
  8
0
  6
Continuous
 62
     7
370
    25
100
AcDbSpline
210
0.0
220
0.0
230
1.0
 70
     8
 71
     3
 72
    11
 73
     7
 74
     0
 42
0.00000001
 43
0.00000001
 40
0.0
 40
0.0
 40
0.0
 40
0.0
 40
0.2307374805226516
 40
0.4903955403005856
 40
0.7438105520730655
 40
1.0
 40
1.0
 40
1.0
 40
1.0
 10
137.6494489387808
 20
140.0902535358773
 30
0.0
 10
137.7410809435403
 20
140.1613305540674
 30
0.0
 10
137.935830086077
 20
140.3123933664867
 30
0.0
 10
138.1833376533149
 20
140.6023493956422
 30
0.0
 10
138.3931463827091
 20
140.9275470561908
 30
0.0
 10
138.4813959321894
 20
141.153332850085
 30
0.0
 10
138.5257609351458
 20
141.2668403690765
 30
0.0
  0
LINE
  5
294
330
1F
100
AcDbEntity
  8
0
  6
Continuous
 62
     7
370
    25
100
AcDbLine
 10
138.8257743904
 20
144.8847132738
 30
0.0
 11
136.7022151369
 21
144.7549373606
 31
0.0
  0
SPLINE
  5
295
330
1F
100
AcDbEntity
  8
0
  6
Continuous
 62
     7
370
    25
100
AcDbSpline
210
0.0
220
0.0
230
1.0
 70
     8
 71
     3
 72
    13
 73
     9
 74
     0
 42
0.00000001
 43
0.00000001
 40
0.0
 40
0.0
 40
0.0
 40
0.0
 40
0.1035746466401555
 40
0.2111076158583393
 40
0.3219769626223818
 40
0.4454462032504118
 40
0.7113049728010375
 40
1.0
 40
1.0
 40
1.0
 40
1.0
 10
140.9257609351458
 20
143.4383427234101
 30
0.0
 10
140.9185047703854
 20
143.5366855018589
 30
0.0
 10
140.9037151312938
 20
143.7371294345073
 30
0.0
 10
140.7774425217319
 20
144.0200714847372
 30
0.0
 10
140.5808951336011
 20
144.2783297097562
 30
0.0
 10
140.2170434605138
 20
144.5814250595112
 30
0.0
 10
139.6194560737785
 20
144.8469547257947
 30
0.0
 10
139.0974995902188
 20
144.8717862412095
 30
0.0
 10
138.8257743904254
 20
144.8847132738258
 30
0.0
  0
LINE
  5
296
330
1F
100
AcDbEntity
  8
0
  6
Continuous
 62
     7
370
    25
100
AcDbLine
 10
138.5257609351
 20
143.2916728383
 30
0.0
 11
140.9257609351
 21
143.4383427234
 31
0.0
  0
LINE
  5
297
330
1F
100
AcDbEntity
  8
0
  6
Continuous
 62
     7
370
    25
100
AcDbLine
 10
140.9257609351
 20
141.120170484
 30
0.0
 11
138.5257609351
 21
141.2668403691
 31
0.0
  0
SPLINE
  5
298
330
1F
100
AcDbEntity
  8
0
  6
Continuous
 62
     7
370
    25
100
AcDbSpline
210
0.0
220
0.0
230
1.0
 70
     8
 71
     3
 72
    13
 73
     9
 74
     0
 42
0.00000001
 43
0.00000001
 40
0.0
 40
0.0
 40
0.0
 40
0.0
 40
0.2886949682914854
 40
0.5545536835943153
 40
0.6780091910936106
 40
0.7888922083801199
 40
0.8964194071406489
 40
1.0
 40
1.0
 40
1.0
 40
1.0
 10
138.8257743904254
 20
139.673799933594
 30
0.0
 10
139.0974995810016
 20
139.6867269390767
 30
0.0
 10
139.6194560468561
 20
139.7115584023708
 30
0.0
 10
140.2170314549593
 20
139.9770830038033
 30
0.0
 10
140.5808856351389
 20
140.2801740004076
 30
0.0
 10
140.7774331267046
 20
140.5384257545282
 30
0.0
 10
140.9037164158107
 20
140.8213771206964
 30
0.0
 10
140.9185049177818
 20
141.0218217833875
 30
0.0
 10
140.9257609351458
 20
141.1201704840097
 30
0.0
  0
LINE
  5
299
330
1F
100
AcDbEntity
  8
0
  6
Continuous
 62
     7
370
    25
100
AcDbLine
 10
136.7022151369
 20
139.8035758468
 30
0.0
 11
138.8257743904
 21
139.6737999336
 31
0.0
  0
SPLINE
  5
29A
330
1F
100
AcDbEntity
  8
0
  6
Continuous
 62
     7
370
    25
100
AcDbSpline
210
0.0
220
0.0
230
1.0
 70
     8
 71
     3
 72
    12
 73
     8
 74
     0
 42
0.00000001
 43
0.00000001
 40
0.0
 40
0.0
 40
0.0
 40
0.0
 40
0.2225634137434379
 40
0.4462063173695243
 40
0.6680851268156931
 40
0.8917990985568365
 40
1.0
 40
1.0
 40
1.0
 40
1.0
 10
101.7718216412723
 20
143.8478557916259
 30
0.0
 10
101.7101250756374
 20
143.8355026840592
 30
0.0
 10
101.586432700133
 20
143.8107365531721
 30
0.0
 10
101.4272663583396
 20
143.6781526251743
 30
0.0
 10
101.3111844703226
 20
143.4917952216797
 30
0.0
 10
101.2594694195947
 20
143.3037044103264
 30
0.0
 10
101.2556309978178
 20
143.187124377438
 30
0.0
 10
101.2543797110273
 20
143.1491204623746
 30
0.0
  0
SPLINE
  5
29B
330
1F
100
AcDbEntity
  8
0
  6
Continuous
 62
     7
370
    25
100
AcDbSpline
210
0.0
220
0.0
230
1.0
 70
     8
 71
     3
 72
    12
 73
     8
 74
     0
 42
0.00000001
 43
0.00000001
 40
0.0
 40
0.0
 40
0.0
 40
0.0
 40
0.2225634137435269
 40
0.446206317369568
 40
0.6680851268158052
 40
0.8917990985569332
 40
1.0
 40
1.0
 40
1.0
 40
1.0
 10
101.2543797110273
 20
141.4093927450452
 30
0.0
 10
101.2599662771298
 20
141.3308890850026
 30
0.0
 10
101.2711665056194
 20
141.173501001946
 30
0.0
 10
101.3652172833064
 20
140.9641494643186
 30
0.0
 10
101.5047083467045
 20
140.8053901698485
 30
0.0
 10
101.6499324465408
 20
140.7275412995319
 30
0.0
 10
101.7418556152709
 20
140.7148082586985
 30
0.0
 10
101.7718216412723
 20
140.7106574157939
 30
0.0
  0
SPLINE
  5
29C
330
1F
100
AcDbEntity
  8
0
  6
Continuous
 62
     7
370
    25
100
AcDbSpline
210
0.0
220
0.0
230
1.0
 70
     8
 71
     3
 72
    11
 73
     7
 74
     0
 42
0.00000001
 43
0.00000001
 40
0.0
 40
0.0
 40
0.0
 40
0.0
 40
0.2500000000000013
 40
0.5000000000000017
 40
0.7500000000000001
 40
1.0
 40
1.0
 40
1.0
 40
1.0
 10
101.6906346686689
 20
143.8469753074799
 30
0.0
 10
101.6123995603366
 20
143.8319760023134
 30
0.0
 10
101.4559293436721
 20
143.8019773919802
 30
0.0
 10
101.2626031922556
 20
143.6384576891836
 30
0.0
 10
101.1282267599766
 20
143.4128780751012
 30
0.0
 10
101.1108450115894
 20
143.2364526771861
 30
0.0
 10
101.1021541373958
 20
143.1482399782286
 30
0.0
  0
ELLIPSE
  5
29D
330
1F
100
AcDbEntity
  8
0
  6
Continuous
 62
     7
370
    25
100
AcDbEllipse
 10
102.4061764215
 20
143.8951294655
 30
0.0
 11
0.7999991634988818
 21
0.04310148564323413
 31
0.0
210
0.0
220
0.0
230
1.0
 40
0.0268411366
 41
3.603794146005541
 42
3.795317988396935
  0
ELLIPSE
  5
29E
330
1F
100
AcDbEntity
  8
0
  6
Continuous
 62
     7
370
    25
100
AcDbEllipse
 10
102.4061764215
 20
140.6633837419
 30
0.0
 11
0.7999991634988818
 21
-0.04310148564320571
 31
0.0
210
0.0
220
0.0
230
0.9999999999999999
 40
0.0268411366
 41
2.487867318781103
 42
2.679391161173482
  0
SPLINE
  5
29F
330
1F
100
AcDbEntity
  8
0
  6
Continuous
 62
     7
370
    25
100
AcDbSpline
210
0.0
220
0.0
230
1.0
 70
     8
 71
     3
 72
    11
 73
     7
 74
     0
 42
0.00000001
 43
0.00000001
 40
0.0
 40
0.0
 40
0.0
 40
0.0
 40
0.2500000000000016
 40
0.4999999999999978
 40
0.7499999999999992
 40
0.9999999999999999
 40
0.9999999999999999
 40
0.9999999999999999
 40
0.9999999999999999
 10
101.6906346686689
 20
140.7115378999399
 30
0.0
 10
101.6123995603366
 20
140.7265372051065
 30
0.0
 10
101.4559293436721
 20
140.7565358154396
 30
0.0
 10
101.2626031922556
 20
140.9200555182363
 30
0.0
 10
101.1282267599766
 20
141.1456351323187
 30
0.0
 10
101.1108450115894
 20
141.3220605302337
 30
0.0
 10
101.1021541373958
 20
141.4102732291912
 30
0.0
  0
LINE
  5
2A0
330
1F
100
AcDbEntity
  8
0
  6
Continuous
 62
     7
370
    25
100
AcDbLine
 10
140.9257609351
 20
143.4383427234
 30
0.0
 11
140.9257609351
 21
141.120170484
 31
0.0
  0
LINE
  5
2A1
330
1F
100
AcDbEntity
  8
0
  6
Continuous
 62
     7
370
    25
100
AcDbLine
 10
101.5914923131
 20
144.0654972661
 30
0.0
 11
123.2190404819
 21
144.6318345462
 31
0.0
  0
SPLINE
  5
2A2
330
1F
100
AcDbEntity
  8
0
  6
Continuous
 62
     7
370
    25
100
AcDbSpline
210
0.0
220
0.0
230
1.0
 70
     8
 71
     3
 72
     9
 73
     5
 74
     0
 42
0.00000001
 43
0.00000001
 40
0.0
 40
0.0
 40
0.0
 40
0.0
 40
0.5600012771711204
 40
1.0
 40
1.0
 40
1.0
 40
1.0
 10
123.2190404818647
 20
144.631834546207
 30
0.0
 10
123.6964706183897
 20
144.620000133862
 30
0.0
 10
124.5490224892296
 20
144.5988673028712
 30
0.0
 10
125.4059116938731
 20
144.5779065734588
 30
0.0
 10
125.782941849522
 20
144.5686838792877
 30
0.0
  0
SPLINE
  5
2A3
330
1F
100
AcDbEntity
  8
0
  6
Continuous
 62
     7
370
    25
100
AcDbSpline
210
0.0
220
0.0
230
1.0
 70
     8
 71
     3
 72
     9
 73
     5
 74
     0
 42
0.00000001
 43
0.00000001
 40
0.0
 40
0.0
 40
0.0
 40
0.0
 40
0.5599999095971008
 40
1.0
 40
1.0
 40
1.0
 40
1.0
 10
125.782941849522
 20
144.5686838792877
 30
0.0
 10
125.8770713401845
 20
144.5663864693905
 30
0.0
 10
126.0451597435027
 20
144.5622839510546
 30
0.0
 10
126.2134022631984
 20
144.5581875578615
 30
0.0
 10
126.2874289870742
 20
144.5563851444863
 30
0.0
  0
LINE
  5
2A4
330
1F
100
AcDbEntity
  8
0
  6
Continuous
 62
     7
370
    25
100
AcDbLine
 10
126.2874289871
 20
144.5563851445
 30
0.0
 11
138.8257743904
 21
144.8847132738
 31
0.0
  0
LINE
  5
2A5
330
1F
100
AcDbEntity
  8
0
  6
Continuous
 62
     7
370
    25
100
AcDbLine
 10
101.8139372243
 20
143.8488010275
 30
0.0
 11
101.5914923131
 21
144.0654972661
 31
0.0
  0
LINE
  5
2A6
330
1F
100
AcDbEntity
  8
0
  6
Continuous
 62
     7
370
    25
100
AcDbLine
 10
138.8257743904
 20
139.6737999336
 30
0.0
 11
126.2874289871
 21
140.0021280629
 31
0.0
  0
SPLINE
  5
2A7
330
1F
100
AcDbEntity
  8
0
  6
Continuous
 62
     7
370
    25
100
AcDbSpline
210
0.0
220
0.0
230
1.0
 70
     8
 71
     3
 72
     9
 73
     5
 74
     0
 42
0.00000001
 43
0.00000001
 40
0.0
 40
0.0
 40
0.0
 40
0.0
 40
0.5600000882143288
 40
1.0
 40
1.0
 40
1.0
 40
1.0
 10
126.2874289870742
 20
140.0021280629335
 30
0.0
 10
126.1932165715425
 20
139.9998339467924
 30
0.0
 10
126.0249801417374
 20
139.9957373114716
 30
0.0
 10
125.8568979840689
 20
139.9916345450123
 30
0.0
 10
125.782941849522
 20
139.9898293281321
 30
0.0
  0
SPLINE
  5
2A8
330
1F
100
AcDbEntity
  8
0
  6
Continuous
 62
     7
370
    25
100
AcDbSpline
210
0.0
220
0.0
230
1.0
 70
     8
 71
     3
 72
     9
 73
     5
 74
     0
 42
0.00000001
 43
0.00000001
 40
0.0
 40
0.0
 40
0.0
 40
0.0
 40
0.5599987526606142
 40
1.0
 40
1.0
 40
1.0
 40
1.0
 10
125.782941849522
 20
139.9898293281321
 30
0.0
 10
125.3031755916349
 20
139.9780877416097
 30
0.0
 10
124.4464482228546
 20
139.9571205761176
 30
0.0
 10
123.594082474382
 20
139.9359803757455
 30
0.0
 10
123.2190404818647
 20
139.9266786612128
 30
0.0
  0
LINE
  5
2A9
330
1F
100
AcDbEntity
  8
0
  6
Continuous
 62
     7
370
    25
100
AcDbLine
 10
123.2190404819
 20
139.9266786612
 30
0.0
 11
101.5914923131
 21
140.4930159413
 31
0.0
  0
LINE
  5
2AA
330
1F
100
AcDbEntity
  8
0
  6
Continuous
 62
     7
370
    25
100
AcDbLine
 10
101.5914923131
 20
140.4930159413
 30
0.0
 11
101.8139372243
 21
140.7097121799
 31
0.0
  0
LINE
  5
2AB
330
1F
100
AcDbEntity
  8
0
  6
Continuous
 62
     7
370
    25
100
AcDbLine
 10
96.5232039942
 20
143.1482399782
 30
0.0
 11
101.1021541374
 21
143.1482399782
 31
0.0
  0
SPLINE
  5
2AC
330
1F
100
AcDbEntity
  8
0
  6
Continuous
 62
     7
370
    25
100
AcDbSpline
210
0.0
220
0.0
230
1.0
 70
     8
 71
     3
 72
    13
 73
     9
 74
     0
 42
0.00000001
 43
0.00000001
 40
0.0
 40
0.0
 40
0.0
 40
0.0
 40
0.1143463544469914
 40
0.2890454840074684
 40
0.5294852105593205
 40
0.7014879056604271
 40
0.9335094878266192
 40
1.0
 40
1.0
 40
1.0
 40
1.0
 10
97.28516484446429
 20
143.8469753074799
 30
0.0
 10
97.24396364375535
 20
143.8421407159748
 30
0.0
 10
97.13981497143251
 20
143.8299198030448
 30
0.0
 10
96.95245547705267
 20
143.7572717080037
 30
0.0
 10
96.77042774704388
 20
143.626759441597
 30
0.0
 10
96.6181441658295
 20
143.4398918424273
 30
0.0
 10
96.5456408889495
 20
143.2785184376707
 30
0.0
 10
96.5272911996308
 20
143.1719720868188
 30
0.0
 10
96.5232039942406
 20
143.1482399782286
 30
0.0
  0
LINE
  5
2AD
330
1F
100
AcDbEntity
  8
0
  6
Continuous
 62
     7
370
    25
100
AcDbLine
 10
101.6906346687
 20
143.8469753075
 30
0.0
 11
97.2851648445
 21
143.8469753075
 31
0.0
  0
ELLIPSE
  5
2AE
330
1F
100
AcDbEntity
  8
0
  6
Continuous
 62
     7
370
    25
100
AcDbEllipse
 10
96.8785473396
 20
142.4537951588
 30
0.0
 11
0.008721666502694349
 21
1.000418978703749
 31
0.0
210
0.0
220
0.0
230
0.9999999999999999
 40
0.499714557
 41
0.8079180407726692
 42
1.588240544501486
  0
LINE
  5
2AF
330
1F
100
AcDbEntity
  8
0
  6
Continuous
 62
     7
370
    25
100
AcDbLine
 10
101.1021541374
 20
141.4102732292
 30
0.0
 11
96.5232039942
 21
141.4102732292
 31
0.0
  0
ELLIPSE
  5
2B0
330
1F
100
AcDbEntity
  8
0
  6
Continuous
 62
     7
370
    25
100
AcDbEllipse
 10
96.8785473396
 20
142.1047180486
 30
0.0
 11
-0.008721666502694349
 21
1.000418978703721
 31
0.0
210
0.0
220
0.0
230
0.9999999999999999
 40
0.499714557
 41
1.553352109088278
 42
2.333674612817118
  0
LINE
  5
2B1
330
1F
100
AcDbEntity
  8
0
  6
Continuous
 62
     7
370
    25
100
AcDbLine
 10
96.3785473396
 20
142.440702198
 30
0.0
 11
96.3785473396
 21
142.1178110094
 31
0.0
  0
LINE
  5
2B2
330
1F
100
AcDbEntity
  8
0
  6
Continuous
 62
     7
370
    25
100
AcDbLine
 10
97.2851648445
 20
140.7115378999
 30
0.0
 11
101.6906346687
 21
140.7115378999
 31
0.0
  0
SPLINE
  5
2B3
330
1F
100
AcDbEntity
  8
0
  6
Continuous
 62
     7
370
    25
100
AcDbSpline
210
0.0
220
0.0
230
1.0
 70
     8
 71
     3
 72
    12
 73
     8
 74
     0
 42
0.00000001
 43
0.00000001
 40
0.0
 40
0.0
 40
0.0
 40
0.0
 40
0.1396834586182491
 40
0.3831896274038308
 40
0.5513169293013305
 40
0.8194729461607057
 40
1.0
 40
1.0
 40
1.0
 40
1.0
 10
96.52320399424059
 20
141.4102732291912
 30
0.0
 10
96.53344537498687
 20
141.3605583087127
 30
0.0
 10
96.56154026117521
 20
141.2241767926549
 30
0.0
 10
96.66869062252998
 20
141.0442606834428
 30
0.0
 10
96.84902770994294
 20
140.8659192550579
 30
0.0
 10
97.05748385451196
 20
140.7453990305065
 30
0.0
 10
97.21984075521591
 20
140.7212530171995
 30
0.0
 10
97.28516484446429
 20
140.7115378999399
 30
0.0
  0
LINE
  5
2B4
330
1F
100
AcDbEntity
  8
0
  6
Continuous
 62
     7
370
    25
100
AcDbLine
 10
101.5926201704
 20
144.0224261358
 30
0.0
 11
101.5914923131
 21
144.0654972661
 31
0.0
  0
LINE
  5
2B5
330
1F
100
AcDbEntity
  8
0
  6
Continuous
 62
     7
370
    25
100
AcDbLine
 10
101.5926201704
 20
140.5360870716
 30
0.0
 11
101.5914923131
 21
140.4930159413
 31
0.0
  0
ELLIPSE
  5
2B6
330
1F
100
AcDbEntity
  8
0
  6
Continuous
 62
     7
370
    25
100
AcDbEllipse
 10
65.3747537356
 20
142.1169288791
 30
0.0
 11
36.1891584525919
 21
1.947628334984188
 31
0.0
210
0.0
220
0.0
230
1.0
 40
0.0007414247
 41
0.0282885576648297
 42
0.4911607830440054
  0
LINE
  5
2B7
330
1F
100
AcDbEntity
  8
0
  6
Continuous
 62
     7
370
    25
100
AcDbLine
 10
101.5493922588
 20
144.0645369028
 30
0.0
 11
101.7718216413
 21
143.8478557916
 31
0.0
  0
LINE
  5
2B8
330
1F
100
AcDbEntity
  8
0
  6
Continuous
 62
     7
370
    25
100
AcDbLine
 10
101.7718216413
 20
140.7106574158
 30
0.0
 11
101.5493922588
 21
140.4939763046
 31
0.0
  0
ELLIPSE
  5
2B9
330
1F
100
AcDbEntity
  8
0
  6
Continuous
 62
     7
370
    25
100
AcDbEllipse
 10
65.3747537356
 20
142.4415843283
 30
0.0
 11
36.18915845257648
 21
-1.947628334983363
 31
0.0
210
0.0
220
0.0
230
1.0
 40
0.0007414247
 41
5.792024524149819
 42
6.25489674954798
  0
LINE
  5
2BA
330
1F
100
AcDbEntity
  8
0
  6
Continuous
 62
     7
370
    25
100
AcDbLine
 10
129.3936365131
 20
145.1442050159
 30
0.0
 11
130.0442899792
 21
145.3783001497
 31
0.0
  0
SPLINE
  5
2BB
330
1F
100
AcDbEntity
  8
0
  6
Continuous
 62
     7
370
    25
100
AcDbSpline
210
0.0
220
0.0
230
1.0
 70
     8
 71
     3
 72
    10
 73
     6
 74
     0
 42
0.00000001
 43
0.00000001
 40
0.0
 40
0.0
 40
0.0
 40
0.0
 40
0.2383396858856107
 40
0.571650633368965
 40
1.0
 40
1.0
 40
1.0
 40
1.0
 10
129.3957366730629
 20
145.1377790457647
 30
0.0
 10
129.1514704179629
 20
145.0631808433377
 30
0.0
 10
128.5656050849624
 20
144.8842592780639
 30
0.0
 10
127.5290502839569
 20
144.6479151658089
 30
0.0
 10
126.7343561883574
 20
144.5893317896234
 30
0.0
 10
126.2874289870743
 20
144.5563851444863
 30
0.0
  0
SPLINE
  5
2BC
330
1F
100
AcDbEntity
  8
0
  6
Continuous
 62
     7
370
    25
100
AcDbSpline
210
0.0
220
0.0
230
1.0
 70
     8
 71
     3
 72
    11
 73
     7
 74
     0
 42
0.00000001
 43
0.00000001
 40
0.0
 40
0.0
 40
0.0
 40
0.0
 40
0.2506671725023491
 40
0.5010414677145718
 40
0.7508849997170934
 40
1.0
 40
1.0
 40
1.0
 40
1.0
 10
123.2190404818647
 20
144.631834546207
 30
0.0
 10
123.6947284944252
 20
144.6587091128622
 30
0.0
 10
124.6455487299124
 20
144.7124268461684
 30
0.0
 10
126.0462213471247
 20
144.9978923098223
 30
0.0
 10
127.4097871083764
 20
145.419420456442
 30
0.0
 10
128.2624546549324
 20
145.8357775341389
 30
0.0
 10
128.6881659362458
 20
146.0436521105154
 30
0.0
  0
SPLINE
  5
2BD
330
1F
100
AcDbEntity
  8
0
  6
Continuous
 62
     7
370
    25
100
AcDbSpline
210
0.0
220
0.0
230
1.0
 70
     8
 71
     3
 72
     9
 73
     5
 74
     0
 42
0.00000001
 43
0.00000001
 40
0.0
 40
0.0
 40
0.0
 40
0.0
 40
0.5013259021989908
 40
1.0
 40
1.0
 40
1.0
 40
1.0
 10
128.688165906804
 20
146.0436521638796
 30
0.0
 10
128.912241607638
 20
146.1686948213497
 30
0.0
 10
129.3592077425438
 20
146.4181187129173
 30
0.0
 10
129.7732530222393
 20
146.7198868213385
 30
0.0
 10
129.9797266785402
 20
146.8703707605506
 30
0.0
  0
LINE
  5
2BE
330
1F
100
AcDbEntity
  8
0
  6
Continuous
 62
     7
370
    25
100
AcDbLine
 10
132.0455071385
 20
146.9851371999
 30
0.0
 11
129.9795534036
 21
146.8703619924
 31
0.0
  0
SPLINE
  5
2BF
330
1F
100
AcDbEntity
  8
0
  6
Continuous
 62
     7
370
    25
100
AcDbSpline
210
0.0
220
0.0
230
1.0
 70
     8
 71
     3
 72
    14
 73
    10
 74
     0
 42
0.00000001
 43
0.00000001
 40
0.0
 40
0.0
 40
0.0
 40
0.0
 40
0.0829413618596714
 40
0.1664594845668899
 40
0.2437726390188662
 40
0.3161479456895724
 40
0.435372571819233
 40
0.6486290670514198
 40
1.0
 40
1.0
 40
1.0
 40
1.0
 10
132.0455071256995
 20
146.9851371950472
 30
0.0
 10
132.0913064269745
 20
146.9833220054649
 30
0.0
 10
132.1832235104755
 20
146.9796790037646
 30
0.0
 10
132.2337685430118
 20
146.898017871277
 30
0.0
 10
132.1928636465716
 20
146.7647343909922
 30
0.0
 10
132.0572626004671
 20
146.5764079347546
 30
0.0
 10
131.7403543297223
 20
146.2781408550923
 30
0.0
 10
131.0633657194891
 20
145.8201136963069
 30
0.0
 10
130.4351989032757
 20
145.5477781676291
 30
0.0
 10
130.0442870395509
 20
145.3783021839793
 30
0.0
  0
LINE
  5
2C0
330
1F
100
AcDbEntity
  8
0
  6
Continuous
 62
     7
370
    25
100
AcDbLine
 10
129.9795534036
 20
137.688151215
 30
0.0
 11
132.0455071385
 21
137.5733760075
 31
0.0
  0
SPLINE
  5
2C1
330
1F
100
AcDbEntity
  8
0
  6
Continuous
 62
     7
370
    25
100
AcDbSpline
210
0.0
220
0.0
230
1.0
 70
     8
 71
     3
 72
     9
 73
     5
 74
     0
 42
0.00000001
 43
0.00000001
 40
0.0
 40
0.0
 40
0.0
 40
0.0
 40
0.4986740982738611
 40
1.0
 40
1.0
 40
1.0
 40
1.0
 10
129.9797264773146
 20
137.688142265034
 30
0.0
 10
129.7732528362449
 20
137.838626201313
 30
0.0
 10
129.3592075874853
 20
138.1403943035664
 30
0.0
 10
128.9122414855404
 20
138.3898181951887
 30
0.0
 10
128.6881658014418
 20
138.5148608525682
 30
0.0
  0
SPLINE
  5
2C2
330
1F
100
AcDbEntity
  8
0
  6
Continuous
 62
     7
370
    25
100
AcDbSpline
210
0.0
220
0.0
230
1.0
 70
     8
 71
     3
 72
    11
 73
     7
 74
     0
 42
0.00000001
 43
0.00000001
 40
0.0
 40
0.0
 40
0.0
 40
0.0
 40
0.2491150002829079
 40
0.4989585322854286
 40
0.7493328274976518
 40
1.0
 40
1.0
 40
1.0
 40
1.0
 10
128.6881659362458
 20
138.5148610969044
 30
0.0
 10
128.2624546549324
 20
138.7227356732809
 30
0.0
 10
127.4097871083764
 20
139.1390927509779
 30
0.0
 10
126.0462213471247
 20
139.5606208975975
 30
0.0
 10
124.6455487299124
 20
139.8460863612515
 30
0.0
 10
123.6947284944252
 20
139.8998040945576
 30
0.0
 10
123.2190404818647
 20
139.9266786612128
 30
0.0
  0
SPLINE
  5
2C3
330
1F
100
AcDbEntity
  8
0
  6
Continuous
 62
     7
370
    25
100
AcDbSpline
210
0.0
220
0.0
230
1.0
 70
     8
 71
     3
 72
    10
 73
     6
 74
     0
 42
0.00000001
 43
0.00000001
 40
0.0
 40
0.0
 40
0.0
 40
0.0
 40
0.4283493666310629
 40
0.7616603141144171
 40
1.0
 40
1.0
 40
1.0
 40
1.0
 10
126.2874289870744
 20
140.0021280629335
 30
0.0
 10
126.7343561883574
 20
139.9691814177964
 30
0.0
 10
127.529050283957
 20
139.910598041611
 30
0.0
 10
128.5656050849626
 20
139.674253929356
 30
0.0
 10
129.1514704179629
 20
139.4953323640822
 30
0.0
 10
129.3957366730629
 20
139.4207341616553
 30
0.0
  0
LINE
  5
2C4
330
1F
100
AcDbEntity
  8
0
  6
Continuous
 62
     7
370
    25
100
AcDbLine
 10
129.393636513
 20
139.4143081913
 30
0.0
 11
130.0442899791
 21
139.1802130575
 31
0.0
  0
SPLINE
  5
2C5
330
1F
100
AcDbEntity
  8
0
  6
Continuous
 62
     7
370
    25
100
AcDbSpline
210
0.0
220
0.0
230
1.0
 70
     8
 71
     3
 72
    15
 73
    11
 74
     0
 42
0.00000001
 43
0.00000001
 40
0.0
 40
0.0
 40
0.0
 40
0.0
 40
0.2091652517822445
 40
0.4176299509274902
 40
0.5931463878153087
 40
0.6923603779431098
 40
0.7731125739307014
 40
0.854336688096843
 40
0.9261517123972136
 40
1.0
 40
1.0
 40
1.0
 40
1.0
 10
130.0442870394603
 20
139.1802110232091
 30
0.0
 10
130.2778712515557
 20
139.0825133907197
 30
0.0
 10
130.7442573372158
 20
138.8874453423004
 30
0.0
 10
131.367907484395
 20
138.5381654889479
 30
0.0
 10
131.8277571136956
 20
138.2052753020045
 30
0.0
 10
132.0896414844654
 20
137.9436572159685
 30
0.0
 10
132.2101114649807
 20
137.7630632030547
 30
0.0
 10
132.2289046918903
 20
137.6409690397444
 30
0.0
 10
132.1678664905839
 20
137.5769190504259
 30
0.0
 10
132.0866713720725
 20
137.574567964388
 30
0.0
 10
132.0455071256646
 20
137.5733760123745
 30
0.0
  0
SPLINE
  5
2C6
330
1F
100
AcDbEntity
  8
0
  6
Continuous
 62
     7
370
    25
100
AcDbSpline
210
0.0
220
0.0
230
1.0
 70
    24
 71
     3
 72
    11
 73
     7
 74
     0
 42
0.00000001
 43
0.00000001
 40
0.0
 40
0.0
 40
0.0
 40
0.0
 40
0.2499999999999989
 40
0.4999999999999996
 40
0.749999999999999
 40
1.0
 40
1.0
 40
1.0
 40
1.0
 10
138.8126904013647
 20
139.1741425499054
 30
0.0
 10
138.8143768718687
 20
139.2385462601004
 30
0.0
 10
138.8177498128765
 20
139.3673536804906
 30
0.0
 10
138.8220297097778
 20
139.5307963491009
 30
0.0
 10
138.8250718305916
 20
139.6469702559742
 30
0.0
 10
138.8255402038142
 20
139.6648567077208
 30
0.0
 10
138.8257743904254
 20
139.673799933594
 30
0.0
  0
LINE
  5
2C7
330
1F
100
AcDbEntity
  8
0
  6
Continuous
 62
     7
370
    25
100
AcDbLine
 10
129.3957366731
 20
139.4207341617
 30
0.0
 11
138.8126904014
 21
139.1741425499
 31
0.0
  0
LINE
  5
2C8
330
1F
100
AcDbEntity
  8
0
  6
Continuous
 62
     7
370
    25
100
AcDbLine
 10
138.8126904014
 20
145.3843706575
 30
0.0
 11
129.3957366731
 21
145.1377790458
 31
0.0
  0
SPLINE
  5
2C9
330
1F
100
AcDbEntity
  8
0
  6
Continuous
 62
     7
370
    25
100
AcDbSpline
210
0.0
220
0.0
230
1.0
 70
    24
 71
     3
 72
    11
 73
     7
 74
     0
 42
0.00000001
 43
0.00000001
 40
0.0
 40
0.0
 40
0.0
 40
0.0
 40
0.2500000000000009
 40
0.5000000000000002
 40
0.7500000000000007
 40
0.9999999999999999
 40
0.9999999999999999
 40
0.9999999999999999
 40
0.9999999999999999
 10
138.8257743904254
 20
144.8847132738258
 30
0.0
 10
138.8255402038141
 20
144.8936564996991
 30
0.0
 10
138.8250718305916
 20
144.9115429514456
 30
0.0
 10
138.8220297097778
 20
145.0277168583189
 30
0.0
 10
138.8177498128765
 20
145.1911595269292
 30
0.0
 10
138.8143768718686
 20
145.3199669473194
 30
0.0
 10
138.8126904013647
 20
145.3843706575145
 30
0.0
  0
ELLIPSE
  5
2CA
330
1F
100
AcDbEntity
  8
0
  6
Continuous
 62
     7
370
    25
100
AcDbEllipse
 10
138.8257609351
 20
141.1751716909
 30
0.0
 11
2.497021557391577
 21
-0.1525991103465856
 31
2.131628207280301E-14
210
-8.504919643681410E-15
220
5.197564944337115E-16
230
1.0
 40
0.7994627403
 41
4.75597905276978
 42
6.332003616895578
  0
SPLINE
  5
2CB
330
1F
100
AcDbEntity
  8
0
  6
Continuous
 62
     7
370
    25
100
AcDbSpline
210
0.0
220
0.0
230
1.0
 70
    24
 71
     3
 72
    11
 73
     7
 74
     0
 42
0.00000001
 43
0.00000001
 40
0.0
 40
0.0
 40
0.0
 40
0.0
 40
0.2500000000000007
 40
0.5000000000000022
 40
0.7500000000000036
 40
1.0
 40
1.0
 40
1.0
 40
1.0
 10
140.9257609351458
 20
141.1201704840097
 30
0.0
 10
140.95102087335
 20
141.1201704840097
 30
0.0
 10
141.0015407497583
 20
141.1201704840097
 30
0.0
 10
141.1003993589587
 20
141.1201704840097
 30
0.0
 10
141.2097866387821
 20
141.1201704840097
 30
0.0
 10
141.2871028363579
 20
141.1201704840097
 30
0.0
 10
141.3257609351458
 20
141.1201704840097
 30
0.0
  0
ELLIPSE
  5
2CC
330
1F
100
AcDbEntity
  8
0
  6
Continuous
 62
     7
370
    25
100
AcDbEllipse
 10
138.8257609351
 20
143.3833415165
 30
0.0
 11
2.497021557391577
 21
0.1525991103465572
 31
2.131628207280301E-14
210
-8.504919643681429E-15
220
-5.197564944334779E-16
230
1.0
 40
0.7994627403
 41
6.234366997463612
 42
7.810391561589425
  0
SPLINE
  5
2CD
330
1F
100
AcDbEntity
  8
0
  6
Continuous
 62
     7
370
    25
100
AcDbSpline
210
0.0
220
0.0
230
1.0
 70
    24
 71
     3
 72
    11
 73
     7
 74
     0
 42
0.00000001
 43
0.00000001
 40
0.0
 40
0.0
 40
0.0
 40
0.0
 40
0.2499999999999994
 40
0.4999999999999963
 40
0.7500000000000001
 40
0.9999999999999999
 40
0.9999999999999999
 40
0.9999999999999999
 40
0.9999999999999999
 10
141.3257609351458
 20
143.4383427234101
 30
0.0
 10
141.2871028363579
 20
143.4383427234101
 30
0.0
 10
141.2097866387821
 20
143.4383427234101
 30
0.0
 10
141.1003993589587
 20
143.4383427234101
 30
0.0
 10
141.0015407497583
 20
143.4383427234101
 30
0.0
 10
140.95102087335
 20
143.4383427234101
 30
0.0
 10
140.9257609351458
 20
143.4383427234101
 30
0.0
  0
LINE
  5
2CE
330
1F
100
AcDbEntity
  8
0
  6
Continuous
 62
     7
370
    25
100
AcDbLine
 10
141.4625826097
 20
138.5525181795
 30
0.0
 11
130.0468533262
 21
139.1867253619
 31
0.0
  0
LINE
  5
2CF
330
1F
100
AcDbEntity
  8
0
  6
Continuous
 62
     7
370
    25
100
AcDbLine
 10
141.3793775802
 20
137.0548276497
 30
0.0
 11
141.4625826097
 21
138.5525181795
 31
0.0
  0
LINE
  5
2D0
330
1F
100
AcDbEntity
  8
0
  6
Continuous
 62
     7
370
    25
100
AcDbLine
 10
132.0456995687
 20
137.573365317
 30
0.0
 11
141.3793775802
 21
137.0548276497
 31
0.0
  0
LINE
  5
2D1
330
1F
100
AcDbEntity
  8
0
  6
Continuous
 62
     7
370
    25
100
AcDbLine
 10
141.3257609351
 20
141.120170484
 30
0.0
 11
141.3257609351
 21
143.4383427234
 31
0.0
  0
LINE
  5
2D2
330
1F
100
AcDbEntity
  8
0
  6
Continuous
 62
     7
370
    25
100
AcDbLine
 10
141.3793775802
 20
147.5036855577
 30
0.0
 11
132.0456995687
 21
146.9851478904
 31
0.0
  0
LINE
  5
2D3
330
1F
100
AcDbEntity
  8
0
  6
Continuous
 62
     7
370
    25
100
AcDbLine
 10
141.4625826097
 20
146.0059950279
 30
0.0
 11
141.3793775802
 21
147.5036855577
 31
0.0
  0
LINE
  5
2D4
330
1F
100
AcDbEntity
  8
0
  6
Continuous
 62
     7
370
    25
100
AcDbLine
 10
130.0468533262
 20
145.3717878455
 30
0.0
 11
141.4625826097
 21
146.0059950279
 31
0.0
  0
LINE
  5
2D5
330
1F
100
AcDbEntity
  8
0
  6
Continuous
 62
     7
370
    25
100
AcDbLine
 10
141.8257609351
 20
138.915696505
 30
0.0
 11
141.4625826097
 21
138.5525181795
 31
0.0
  0
LINE
  5
2D6
330
1F
100
AcDbEntity
  8
0
  6
Continuous
 62
     7
370
    25
100
AcDbLine
 10
141.4625826097
 20
146.0059950279
 30
0.0
 11
141.8257609351
 21
145.6428167024
 31
0.0
  0
LINE
  5
2D7
330
1F
100
AcDbEntity
  8
0
  6
Continuous
 62
     7
370
    25
100
AcDbLine
 10
141.8257609351
 20
138.915696505
 30
0.0
 11
141.8257609351
 21
145.6428167024
 31
0.0
  0
LINE
  5
2D8
330
1F
100
AcDbEntity
  8
0
  6
Continuous
 62
     7
370
    25
100
AcDbLine
 10
141.8257609351
 20
146.3691733534
 30
0.0
 11
141.4625826097
 21
146.0059950279
 31
0.0
  0
ARC
  5
2D9
330
1F
100
AcDbEntity
  8
0
  6
Continuous
 62
     7
370
    25
100
AcDbCircle
 10
141.4625826097
 20
146.0059950279
 30
0.0
 40
1.500000000000007
100
AcDbArc
 50
75.9883675978
 51
93.1798301199
  0
LINE
  5
2DA
330
1F
100
AcDbEntity
  8
0
  6
Continuous
 62
     7
370
    25
100
AcDbLine
 10
141.8257609351
 20
146.3691733534
 30
0.0
 11
141.8257609351
 21
147.4613649135
 31
0.0
  0
LINE
  5
2DB
330
1F
100
AcDbEntity
  8
0
  6
Continuous
 62
     7
370
    25
100
AcDbLine
 10
141.8257609351
 20
145.6428167024
 30
0.0
 11
141.8257609351
 21
146.3691733534
 31
0.0
  0
LINE
  5
2DC
330
1F
100
AcDbEntity
  8
0
  6
Continuous
 62
     7
370
    25
100
AcDbLine
 10
141.4625826097
 20
138.5525181795
 30
0.0
 11
141.8257609351
 21
138.189339854
 31
0.0
  0
LINE
  5
2DD
330
1F
100
AcDbEntity
  8
0
  6
Continuous
 62
     7
370
    25
100
AcDbLine
 10
141.8257609351
 20
138.189339854
 30
0.0
 11
141.8257609351
 21
138.915696505
 31
0.0
  0
ARC
  5
2DE
330
1F
100
AcDbEntity
  8
0
  6
Continuous
 62
     7
370
    25
100
AcDbCircle
 10
141.4625826097
 20
138.5525181795
 30
0.0
 40
1.500000000000007
100
AcDbArc
 50
266.8201698801
 51
284.0116324022
  0
LINE
  5
2DF
330
1F
100
AcDbEntity
  8
0
  6
Continuous
 62
     7
370
    25
100
AcDbLine
 10
141.8257609351
 20
137.0971482939
 30
0.0
 11
141.8257609351
 21
138.189339854
 31
0.0
  0
SPLINE
  5
2E0
330
1F
100
AcDbEntity
  8
0
  6
Continuous
 62
     7
370
    25
100
AcDbSpline
210
0.0
220
0.0
230
1.0
 70
    24
 71
     3
 72
     9
 73
     5
 74
     0
 42
0.00000001
 43
0.00000001
 40
0.0
 40
0.0
 40
0.0
 40
0.0
 40
0.5389665913333166
 40
1.0
 40
1.0
 40
1.0
 40
1.0
 10
129.9797274739451
 20
146.8703716629515
 30
0.0
 10
129.9338015321676
 20
146.8678202217416
 30
0.0
 10
129.8485904216536
 20
146.8630862711575
 30
0.0
 10
129.8611716138167
 20
146.8637852262777
 30
0.0
 10
129.8669719637247
 20
146.8641074679393
 30
0.0
  0
SPLINE
  5
2E1
330
1F
100
AcDbEntity
  8
0
  6
Continuous
 62
     7
370
    25
100
AcDbSpline
210
0.0
220
0.0
230
1.0
 70
    24
 71
     3
 72
     9
 73
     5
 74
     0
 42
0.00000001
 43
0.00000001
 40
0.0
 40
0.0
 40
0.0
 40
0.0
 40
0.4490009010282568
 40
1.0
 40
1.0
 40
1.0
 40
1.0
 10
129.87307003489
 20
137.6940669577492
 30
0.0
 10
129.8646844822983
 20
137.694532821782
 30
0.0
 10
129.8460084560977
 20
137.6955703787932
 30
0.0
 10
129.9322232178832
 20
137.6907806698051
 30
0.0
 10
129.9797274739451
 20
137.6881415444683
 30
0.0
  0
SPLINE
  5
2E2
330
1F
100
AcDbEntity
  8
0
  6
Continuous
 62
     7
370
    25
100
AcDbSpline
210
0.0
220
0.0
230
1.0
 70
     8
 71
     3
 72
     9
 73
     5
 74
     0
 42
0.00000001
 43
0.00000001
 40
0.0
 40
0.0
 40
0.0
 40
0.0
 40
0.540774756067758
 40
1.0
 40
1.0
 40
1.0
 40
1.0
 10
101.5914923131237
 20
144.0654972661266
 30
0.0
 10
101.5837362710763
 20
144.0655267665394
 30
0.0
 10
101.5693938078595
 20
144.0655813186658
 30
0.0
 10
101.5550753040516
 20
144.0649770735309
 30
0.0
 10
101.5484998856476
 20
144.0646995889114
 30
0.0
  0
LINE
  5
2E3
330
1F
100
AcDbEntity
  8
0
  6
Continuous
 62
     7
370
    25
100
AcDbLine
 10
101.5914923131
 20
140.4930159413
 30
0.0
 11
101.5484998856
 21
140.4938136185
 31
0.0
  0
CIRCLE
  5
2E4
330
1F
100
AcDbEntity
  8
0
  6
Continuous
 62
     7
370
    25
100
AcDbCircle
 10
151.8257609351
 20
142.2792566037
 30
0.0
 40
7.558608890731335
  0
CIRCLE
  5
2E5
330
1F
100
AcDbEntity
  8
0
  6
Continuous
 62
     7
370
    25
100
AcDbCircle
 10
151.8257609351
 20
142.2792566037
 30
0.0
 40
5.5
  0
CIRCLE
  5
2E6
330
1F
100
AcDbEntity
  8
0
  6
Continuous
 62
     7
370
    25
100
AcDbCircle
 10
151.8257609351
 20
142.2792566037
 30
0.0
 40
8.0547478290882
  0
SPLINE
  5
2E7
330
1F
100
AcDbEntity
  8
0
  6
Continuous
 62
     7
370
    25
100
AcDbSpline
210
0.0
220
0.0
230
1.0
 70
     8
 71
     3
 72
    11
 73
     7
 74
     0
 42
0.00000001
 43
0.00000001
 40
0.0
 40
0.0
 40
0.0
 40
0.0
 40
0.2920574028183093
 40
0.5665622171831317
 40
0.8065682389915578
 40
1.0
 40
1.0
 40
1.0
 40
1.0
 10
143.7095553280924
 20
140.7994908979189
 30
0.0
 10
143.7412158644079
 20
140.6318903624953
 30
0.0
 10
143.8026341454686
 20
140.3067620485597
 30
0.0
 10
143.8825465047331
 20
139.9061583826935
 30
0.0
 10
143.9216453184606
 20
139.6483181866883
 30
0.0
 10
143.906228955531
 20
139.5976727584067
 30
0.0
 10
143.8993490425469
 20
139.5750710500003
 30
0.0
  0
ARC
  5
2E8
330
1F
100
AcDbEntity
  8
0
  6
Continuous
 62
     7
370
    25
100
AcDbCircle
 10
151.8257609351
 20
142.2792566037
 30
0.0
 40
8.249999999999996
100
AcDbArc
 50
169.6671934996
 51
190.3328065004
  0
SPLINE
  5
2E9
330
1F
100
AcDbEntity
  8
0
  6
Continuous
 62
     7
370
    25
100
AcDbSpline
210
0.0
220
0.0
230
1.0
 70
     8
 71
     3
 72
    12
 73
     8
 74
     0
 42
0.00000001
 43
0.00000001
 40
0.0
 40
0.0
 40
0.0
 40
0.0
 40
0.1882084234719071
 40
0.375913419809593
 40
0.5768476463044262
 40
0.8018243756979394
 40
0.9999999999999999
 40
0.9999999999999999
 40
0.9999999999999999
 40
0.9999999999999999
 10
143.8993490425503
 20
144.9834421574162
 30
0.0
 10
143.9062206339198
 20
144.9618389629035
 30
0.0
 10
143.9199454362617
 20
144.9186903589343
 30
0.0
 10
143.8941207363036
 20
144.7251505011517
 30
0.0
 10
143.8430409416619
 20
144.4503214431127
 30
0.0
 10
143.7758009399938
 20
144.1145813057433
 30
0.0
 10
143.7306846928735
 20
143.8724296057306
 30
0.0
 10
143.7095553280924
 20
143.7590223095009
 30
0.0
  0
ARC
  5
2EA
330
1F
100
AcDbEntity
  8
0
  6
Continuous
 62
     7
370
    25
100
AcDbCircle
 10
151.8257609351
 20
142.2792566037
 30
0.0
 40
8.986048245082024
100
AcDbArc
 50
200.7364869057
 51
159.2635130943
  0
LINE
  5
2EB
330
1F
100
AcDbEntity
  8
0
  6
Continuous
 62
     7
370
    25
100
AcDbLine
 10
143.8993490425
 20
139.57507105
 30
0.0
 11
142.1696893908
 21
137.8454113983
 31
0.0
  0
LINE
  5
2EC
330
1F
100
AcDbEntity
  8
0
  6
Continuous
 62
     7
370
    25
100
AcDbLine
 10
142.1696893908
 20
146.7131018091
 30
0.0
 11
143.8993490426
 21
144.9834421574
 31
0.0
  0
ARC
  5
2ED
330
1F
100
AcDbEntity
  8
0
  6
Continuous
 62
     7
370
    25
100
AcDbCircle
 10
141.4625826097
 20
146.0059950279
 30
0.0
 40
1.000000000000008
100
AcDbArc
 50
45.0
 51
68.7044833353
  0
ARC
  5
2EE
330
1F
100
AcDbEntity
  8
0
  6
Continuous
 62
     7
370
    25
100
AcDbCircle
 10
141.4625826097
 20
138.5525181795
 30
0.0
 40
1.000000000000008
100
AcDbArc
 50
291.2955166647
 51
315.0
  0
LINE
  5
2EF
330
1F
100
AcDbEntity
  8
0
  6
Continuous
 62
     7
370
    25
100
AcDbLine
 10
128.6750883608
 20
138.4911575971
 30
0.0
 11
128.6881659362
 21
138.5148610969
 31
0.0
  0
ARC
  5
2F0
330
1F
100
AcDbEntity
  8
0
  6
Continuous
 62
     7
370
    25
100
AcDbCircle
 10
96.7616333107
 20
141.2982628953
 30
0.0
 40
0.2634290300177353
100
AcDbArc
 50
154.8366020113
 51
203.8392493387
  0
ARC
  5
2F1
330
1F
100
AcDbEntity
  8
0
  6
Continuous
 62
     7
370
    25
100
AcDbCircle
 10
96.7615109963
 20
143.2602255489
 30
0.0
 40
0.2633077957091989
100
AcDbArc
 50
156.0185908991
 51
205.1698378663
  0
LINE
  5
2F2
330
1F
100
AcDbEntity
  8
0
  6
Continuous
 62
     7
370
    25
100
AcDbLine
 10
96.3785473396
 20
142.440702198
 30
0.0
 11
96.325761021
 21
142.440702198
 31
0.0
  0
LINE
  5
2F3
330
1F
100
AcDbEntity
  8
0
  6
Continuous
 62
     7
370
    25
100
AcDbLine
 10
96.3785473396
 20
142.1178110094
 30
0.0
 11
96.3257610029
 21
142.1178110094
 31
0.0
  0
LINE
  5
2F4
330
1F
100
AcDbEntity
  8
0
  6
Continuous
 62
     7
370
    25
100
AcDbLine
 10
142.1696893908
 20
137.8454113983
 30
0.0
 11
141.8257609351
 21
138.189339854
 31
0.0
  0
LINE
  5
2F5
330
1F
100
AcDbEntity
  8
0
  6
Continuous
 62
     7
370
    25
100
AcDbLine
 10
141.8257609351
 20
138.915696505
 30
0.0
 11
143.7095553281
 21
140.7994908979
 31
0.0
  0
LINE
  5
2F6
330
1F
100
AcDbEntity
  8
0
  6
Continuous
 62
     7
370
    25
100
AcDbLine
 10
143.7095553281
 20
143.7590223095
 30
0.0
 11
141.8257609351
 21
145.6428167024
 31
0.0
  0
LINE
  5
2F7
330
1F
100
AcDbEntity
  8
0
  6
Continuous
 62
     7
370
    25
100
AcDbLine
 10
142.1696893908
 20
146.7131018091
 30
0.0
 11
141.8257609351
 21
146.3691733534
 31
0.0
  0
INSERT
  5
303
330
1F
100
AcDbEntity
  8
0
  6
Continuous
 62
     7
370
    18
100
AcDbBlockReference
  2
SW_CENTERMARKSYMBOL_1
 10
151.8257609351
 20
142.2792566037
 30
0.0
  0
LINE
  5
304
330
1F
100
AcDbEntity
  8
0
  6
Continuous
 62
     7
370
    18
100
AcDbLine
 10
165.3257609351
 20
129.7363816037
 30
0.0
 11
179.8030549753
 21
130.1887970425
 31
0.0
  0
LINE
  5
305
330
1F
100
AcDbEntity
  8
0
  6
Continuous
 62
     7
370
    18
100
AcDbLine
 10
179.8030549753
 20
154.369716165
 30
0.0
 11
165.3257609351
 21
154.8221316037
 31
0.0
  0
ENDSEC
  0
SECTION
  2
OBJECTS
  0
DICTIONARY
  5
C
330
0
100
AcDbDictionary
281
     1
  3
ACAD_GROUP
350
D
  3
ACAD_LAYOUT
350
1A
  3
ACAD_MLINESTYLE
350
17
  3
ACAD_PLOTSETTINGS
350
19
  3
ACAD_PLOTSTYLENAME
350
E
  3
ACAD_SCALELIST
350
47
  3
DWGPROPS
350
306
  0
DICTIONARY
  5
D
102
{ACAD_REACTORS
330
C
102
}
330
C
100
AcDbDictionary
281
     1
  0
DICTIONARY
  5
1A
102
{ACAD_REACTORS
330
C
102
}
330
C
100
AcDbDictionary
281
     1
  3
Layout1
350
1E
  3
Layout2
350
26
  3
Model
350
22
  0
DICTIONARY
  5
17
102
{ACAD_REACTORS
330
C
102
}
330
C
100
AcDbDictionary
281
     1
  3
Standard
350
18
  0
DICTIONARY
  5
19
102
{ACAD_REACTORS
330
C
102
}
330
C
100
AcDbDictionary
281
     1
  0
ACDBDICTIONARYWDFLT
  5
E
102
{ACAD_REACTORS
330
C
102
}
330
C
100
AcDbDictionary
281
     1
  3
Normal
350
F
100
AcDbDictionaryWithDefault
340
F
  0
DICTIONARY
  5
47
102
{ACAD_REACTORS
330
C
102
}
330
C
100
AcDbDictionary
281
     1
  3
A0
350
48
  3
A1
350
49
  3
A2
350
4A
  3
A3
350
4B
  3
A4
350
4C
  3
A5
350
4D
  3
A6
350
4E
  3
A7
350
4F
  3
A8
350
50
  3
A9
350
51
  3
B0
350
52
  3
B1
350
53
  3
B2
350
54
  3
B3
350
55
  3
B4
350
56
  3
B5
350
57
  3
B6
350
58
  0
XRECORD
  5
306
102
{ACAD_REACTORS
330
C
102
}
330
C
100
AcDbXrecord
280
     1
  1
DWGPROPS COOKIE
  2

  3

  4

  6

  7

  8
user28
  9

300
=
301
=
302
=
303
=
304
=
305
=
306
=
307
=
308
=
309
=
 40
0.0
 41
2460297.298241077
 42
2460297.298242199
  1

 90
        0
  0
LAYOUT
  5
1E
102
{ACAD_REACTORS
330
1A
102
}
330
1A
100
AcDbPlotSettings
  1

  2
none_device
  4

  6

 40
0.0
 41
0.0
 42
0.0
 43
0.0
 44
0.0
 45
0.0
 46
0.0
 47
0.0
 48
0.0
 49
0.0
140
0.0
141
0.0
142
1.0
143
1.0
 70
   688
 72
     1
 73
     0
 74
     5
  7

 75
    16
147
1.0
148
0.0
149
0.0
100
AcDbLayout
  1
Layout1
 70
     1
 71
     1
 10
0.0
 20
0.0
 11
420.0
 21
297.0
 12
0.0
 22
0.0
 32
0.0
 14
1.0000000000E+20
 24
1.0000000000E+20
 34
1.0000000000E+20
 15
-1.0000000000E+20
 25
-1.0000000000E+20
 35
-1.0000000000E+20
146
0.0
 13
0.0
 23
0.0
 33
0.0
 16
1.0
 26
0.0
 36
0.0
 17
0.0
 27
1.0
 37
0.0
 76
     0
330
1B
  0
LAYOUT
  5
26
102
{ACAD_REACTORS
330
1A
102
}
330
1A
100
AcDbPlotSettings
  1

  2
none_device
  4

  6

 40
0.0
 41
0.0
 42
0.0
 43
0.0
 44
0.0
 45
0.0
 46
0.0
 47
0.0
 48
0.0
 49
0.0
140
0.0
141
0.0
142
1.0
143
1.0
 70
   688
 72
     1
 73
     0
 74
     5
  7

 75
    16
147
1.0
148
0.0
149
0.0
100
AcDbLayout
  1
Layout2
 70
     1
 71
     2
 10
0.0
 20
0.0
 11
0.0
 21
0.0
 12
0.0
 22
0.0
 32
0.0
 14
0.0
 24
0.0
 34
0.0
 15
0.0
 25
0.0
 35
0.0
146
0.0
 13
0.0
 23
0.0
 33
0.0
 16
1.0
 26
0.0
 36
0.0
 17
0.0
 27
1.0
 37
0.0
 76
     0
330
23
  0
LAYOUT
  5
22
102
{ACAD_REACTORS
330
1A
102
}
330
1A
100
AcDbPlotSettings
  1

  2
none_device
  4
Letter_(8.50_x_11.00_Inches)
  6

 40
6.35
 41
6.35
 42
6.35000508
 43
6.35000508
 44
215.9
 45
279.4
 46
0.0
 47
0.0
 48
0.0
 49
0.0
140
0.0
141
0.0
142
1.0
143
1.0
 70
  1712
 72
     1
 73
     0
 74
     0
  7

 75
     0
147
1.0
148
0.0
149
0.0
100
AcDbLayout
  1
Model
 70
     1
 71
     0
 10
0.0
 20
0.0
 11
431.8
 21
279.4
 12
0.0
 22
0.0
 32
0.0
 14
0.0
 24
0.0
 34
0.0
 15
431.8
 25
279.4
 35
0.0
146
0.0
 13
0.0
 23
0.0
 33
0.0
 16
1.0
 26
0.0
 36
0.0
 17
0.0
 27
1.0
 37
0.0
 76
     0
330
1F
331
29
  0
MLINESTYLE
  5
18
102
{ACAD_REACTORS
330
17
102
}
330
17
100
AcDbMlineStyle
  2
Standard
 70
     0
  3

 62
   256
 51
90.0
 52
90.0
 71
     2
 49
0.5
 62
   256
  6
BYLAYER
 49
-0.5
 62
   256
  6
BYLAYER
  0
ACDBPLACEHOLDER
  5
F
102
{ACAD_REACTORS
330
E
102
}
330
E
  0
SCALE
  5
48
102
{ACAD_REACTORS
330
47
102
}
330
47
100
AcDbScale
 70
     0
300
1:1
140
1.0
141
1.0
290
     1
  0
SCALE
  5
49
102
{ACAD_REACTORS
330
47
102
}
330
47
100
AcDbScale
 70
     0
300
1:2
140
1.0
141
2.0
290
     0
  0
SCALE
  5
4A
102
{ACAD_REACTORS
330
47
102
}
330
47
100
AcDbScale
 70
     0
300
1:4
140
1.0
141
4.0
290
     0
  0
SCALE
  5
4B
102
{ACAD_REACTORS
330
47
102
}
330
47
100
AcDbScale
 70
     0
300
1:5
140
1.0
141
5.0
290
     0
  0
SCALE
  5
4C
102
{ACAD_REACTORS
330
47
102
}
330
47
100
AcDbScale
 70
     0
300
1:8
140
1.0
141
8.0
290
     0
  0
SCALE
  5
4D
102
{ACAD_REACTORS
330
47
102
}
330
47
100
AcDbScale
 70
     0
300
1:10
140
1.0
141
10.0
290
     0
  0
SCALE
  5
4E
102
{ACAD_REACTORS
330
47
102
}
330
47
100
AcDbScale
 70
     0
300
1:16
140
1.0
141
16.0
290
     0
  0
SCALE
  5
4F
102
{ACAD_REACTORS
330
47
102
}
330
47
100
AcDbScale
 70
     0
300
1:20
140
1.0
141
20.0
290
     0
  0
SCALE
  5
50
102
{ACAD_REACTORS
330
47
102
}
330
47
100
AcDbScale
 70
     0
300
1:30
140
1.0
141
30.0
290
     0
  0
SCALE
  5
51
102
{ACAD_REACTORS
330
47
102
}
330
47
100
AcDbScale
 70
     0
300
1:40
140
1.0
141
40.0
290
     0
  0
SCALE
  5
52
102
{ACAD_REACTORS
330
47
102
}
330
47
100
AcDbScale
 70
     0
300
1:50
140
1.0
141
50.0
290
     0
  0
SCALE
  5
53
102
{ACAD_REACTORS
330
47
102
}
330
47
100
AcDbScale
 70
     0
300
1:100
140
1.0
141
100.0
290
     0
  0
SCALE
  5
54
102
{ACAD_REACTORS
330
47
102
}
330
47
100
AcDbScale
 70
     0
300
2:1
140
2.0
141
1.0
290
     0
  0
SCALE
  5
55
102
{ACAD_REACTORS
330
47
102
}
330
47
100
AcDbScale
 70
     0
300
4:1
140
4.0
141
1.0
290
     0
  0
SCALE
  5
56
102
{ACAD_REACTORS
330
47
102
}
330
47
100
AcDbScale
 70
     0
300
8:1
140
8.0
141
1.0
290
     0
  0
SCALE
  5
57
102
{ACAD_REACTORS
330
47
102
}
330
47
100
AcDbScale
 70
     0
300
10:1
140
10.0
141
1.0
290
     0
  0
SCALE
  5
58
102
{ACAD_REACTORS
330
47
102
}
330
47
100
AcDbScale
 70
     0
300
100:1
140
100.0
141
1.0
290
     0
  0
ENDSEC
  0
EOF
