  0
SECTION
  2
HEADER
  9
$ACADVER
  1
AC1015
  9
$ACADMAINTVER
 70
     6
  9
$DWGCODEPAGE
  3
DOS932
  9
$INSBASE
 10
0.0
 20
0.0
 30
0.0
  9
$EXTMIN
 10
0.0
 20
0.0
 30
0.0
  9
$EXTMAX
 10
431.8
 20
279.4
 30
0.0
  9
$LIMMIN
 10
0.0
 20
0.0
  9
$LIMMAX
 10
431.8
 20
279.4
  9
$ORTHOMODE
 70
     0
  9
$REGENMODE
 70
     1
  9
$FILLMODE
 70
     1
  9
$QTEXTMODE
 70
     0
  9
$MIRRTEXT
 70
     1
  9
$LTSCALE
 40
1.0
  9
$ATTMODE
 70
     1
  9
$TEXTSIZE
 40
3.5
  9
$TRACEWID
 40
1.0
  9
$TEXTSTYLE
  7
Standard
  9
$CLAYER
  8
0
  9
$CELTYPE
  6
ByLayer
  9
$CECOLOR
 62
   256
  9
$CELTSCALE
 40
1.0
  9
$DISPSILH
 70
     0
  9
$DIMSCALE
 40
1.0
  9
$DIMASZ
 40
3.556
  9
$DIMEXO
 40
1.0
  9
$DIMDLI
 40
3.75
  9
$DIMRND
 40
0.0
  9
$DIMDLE
 40
0.0
  9
$DIMEXE
 40
1.0
  9
$DIMTP
 40
0.0
  9
$DIMTM
 40
0.0
  9
$DIMTXT
 40
3.5
  9
$DIMCEN
 40
2.5
  9
$DIMTSZ
 40
0.0
  9
$DIMTOL
 70
     0
  9
$DIMLIM
 70
     0
  9
$DIMTIH
 70
     1
  9
$DIMTOH
 70
     1
  9
$DIMSE1
 70
     0
  9
$DIMSE2
 70
     0
  9
$DIMTAD
 70
     1
  9
$DIMZIN
 70
     0
  9
$DIMBLK
  1

  9
$DIMASO
 70
     1
  9
$DIMSHO
 70
     1
  9
$DIMPOST
  1

  9
$DIMAPOST
  1

  9
$DIMALT
 70
     0
  9
$DIMALTD
 70
     3
  9
$DIMALTF
 40
0.0393700787
  9
$DIMLFAC
 40
1.0
  9
$DIMTOFL
 70
     1
  9
$DIMTVP
 40
0.0
  9
$DIMTIX
 70
     0
  9
$DIMSOXD
 70
     0
  9
$DIMSAH
 70
     0
  9
$DIMBLK1
  1

  9
$DIMBLK2
  1

  9
$DIMSTYLE
  2
ISO-25
  9
$DIMCLRD
 70
     0
  9
$DIMCLRE
 70
     0
  9
$DIMCLRT
 70
     0
  9
$DIMTFAC
 40
1.0
  9
$DIMGAP
 40
1.524
  9
$DIMJUST
 70
     0
  9
$DIMSD1
 70
     0
  9
$DIMSD2
 70
     0
  9
$DIMTOLJ
 70
     0
  9
$DIMTZIN
 70
     0
  9
$DIMALTZ
 70
     0
  9
$DIMALTTZ
 70
     0
  9
$DIMUPT
 70
     0
  9
$DIMDEC
 70
     3
  9
$DIMTDEC
 70
     3
  9
$DIMALTU
 70
     2
  9
$DIMALTTD
 70
     3
  9
$DIMTXSTY
  7
Standard
  9
$DIMAUNIT
 70
     0
  9
$DIMADEC
 70
     2
  9
$DIMALTRND
 40
0.0
  9
$DIMAZIN
 70
     0
  9
$DIMDSEP
 70
    44
  9
$DIMATFIT
 70
     3
  9
$DIMFRAC
 70
     0
  9
$DIMLDRBLK
  1

  9
$DIMLUNIT
 70
     2
  9
$DIMLWD
 70
    -2
  9
$DIMLWE
 70
    -2
  9
$DIMTMOVE
 70
     0
  9
$LUNITS
 70
     2
  9
$LUPREC
 70
     3
  9
$SKETCHINC
 40
1.0
  9
$FILLETRAD
 40
0.0
  9
$AUNITS
 70
     0
  9
$AUPREC
 70
     2
  9
$MENU
  1
.
  9
$ELEVATION
 40
0.0
  9
$PELEVATION
 40
0.0
  9
$THICKNESS
 40
0.0
  9
$LIMCHECK
 70
     0
  9
$CHAMFERA
 40
0.0
  9
$CHAMFERB
 40
0.0
  9
$CHAMFERC
 40
0.0
  9
$CHAMFERD
 40
0.0
  9
$SKPOLY
 70
     0
  9
$TDCREATE
 40
2460297.67693419
  9
$TDUCREATE
 40
2460297.30193419
  9
$TDUPDATE
 40
2460297.676935081
  9
$TDUUPDATE
 40
2460297.301935081
  9
$TDINDWG
 40
0.0000000116
  9
$TDUSRTIMER
 40
0.0000000116
  9
$USRTIMER
 70
     1
  9
$ANGBASE
 50
0.0
  9
$ANGDIR
 70
     0
  9
$PDMODE
 70
     0
  9
$PDSIZE
 40
-1.0
  9
$PLINEWID
 40
0.0
  9
$SPLFRAME
 70
     0
  9
$SPLINETYPE
 70
     6
  9
$SPLINESEGS
 70
     8
  9
$HANDSEED
  5
2D7
  9
$SURFTAB1
 70
     6
  9
$SURFTAB2
 70
     6
  9
$SURFTYPE
 70
     6
  9
$SURFU
 70
     6
  9
$SURFV
 70
     6
  9
$UCSBASE
  2

  9
$UCSNAME
  2

  9
$UCSORG
 10
0.0
 20
0.0
 30
0.0
  9
$UCSXDIR
 10
1.0
 20
0.0
 30
0.0
  9
$UCSYDIR
 10
0.0
 20
1.0
 30
0.0
  9
$UCSORTHOREF
  2

  9
$UCSORTHOVIEW
 70
     0
  9
$UCSORGTOP
 10
0.0
 20
0.0
 30
0.0
  9
$UCSORGBOTTOM
 10
0.0
 20
0.0
 30
0.0
  9
$UCSORGLEFT
 10
0.0
 20
0.0
 30
0.0
  9
$UCSORGRIGHT
 10
0.0
 20
0.0
 30
0.0
  9
$UCSORGFRONT
 10
0.0
 20
0.0
 30
0.0
  9
$UCSORGBACK
 10
0.0
 20
0.0
 30
0.0
  9
$PUCSBASE
  2

  9
$PUCSNAME
  2

  9
$PUCSORG
 10
0.0
 20
0.0
 30
0.0
  9
$PUCSXDIR
 10
1.0
 20
0.0
 30
0.0
  9
$PUCSYDIR
 10
0.0
 20
1.0
 30
0.0
  9
$PUCSORTHOREF
  2

  9
$PUCSORTHOVIEW
 70
     0
  9
$PUCSORGTOP
 10
0.0
 20
0.0
 30
0.0
  9
$PUCSORGBOTTOM
 10
0.0
 20
0.0
 30
0.0
  9
$PUCSORGLEFT
 10
0.0
 20
0.0
 30
0.0
  9
$PUCSORGRIGHT
 10
0.0
 20
0.0
 30
0.0
  9
$PUCSORGFRONT
 10
0.0
 20
0.0
 30
0.0
  9
$PUCSORGBACK
 10
0.0
 20
0.0
 30
0.0
  9
$USERI1
 70
     0
  9
$USERI2
 70
     0
  9
$USERI3
 70
     0
  9
$USERI4
 70
     0
  9
$USERI5
 70
     0
  9
$USERR1
 40
0.0
  9
$USERR2
 40
0.0
  9
$USERR3
 40
0.0
  9
$USERR4
 40
0.0
  9
$USERR5
 40
0.0
  9
$WORLDVIEW
 70
     1
  9
$SHADEDGE
 70
     3
  9
$SHADEDIF
 70
    70
  9
$TILEMODE
 70
     1
  9
$MAXACTVP
 70
    64
  9
$PINSBASE
 10
0.0
 20
0.0
 30
0.0
  9
$PLIMCHECK
 70
     0
  9
$PEXTMIN
 10
1.0000000000E+20
 20
1.0000000000E+20
 30
1.0000000000E+20
  9
$PEXTMAX
 10
-1.0000000000E+20
 20
-1.0000000000E+20
 30
-1.0000000000E+20
  9
$PLIMMIN
 10
0.0
 20
0.0
  9
$PLIMMAX
 10
420.0
 20
297.0
  9
$UNITMODE
 70
     0
  9
$VISRETAIN
 70
     1
  9
$PLINEGEN
 70
     0
  9
$PSLTSCALE
 70
     1
  9
$TREEDEPTH
 70
  3020
  9
$CMLSTYLE
  2
Standard
  9
$CMLJUST
 70
     0
  9
$CMLSCALE
 40
20.0
  9
$PROXYGRAPHICS
 70
     1
  9
$MEASUREMENT
 70
     1
  9
$CELWEIGHT
370
    -1
  9
$ENDCAPS
280
     0
  9
$JOINSTYLE
280
     0
  9
$LWDISPLAY
290
     1
  9
$INSUNITS
 70
     4
  9
$HYPERLINKBASE
  1

  9
$STYLESHEET
  1

  9
$XEDIT
290
     1
  9
$CEPSNTYPE
380
     0
  9
$PSTYLEMODE
290
     1
  9
$FINGERPRINTGUID
  2
{7a2cd0f8-20c1-45cd-8155-e9fd1b2b20ff}
  9
$VERSIONGUID
  2
{FAEB1C32-E019-11D5-929B-00C0DF256EC4}
  9
$EXTNAMES
290
     1
  9
$PSVPSCALE
 40
0.0
  9
$OLESTARTUP
290
     0
  0
ENDSEC
  0
SECTION
  2
CLASSES
  0
CLASS
  1
ACDBDICTIONARYWDFLT
  2
AcDbDictionaryWithDefault
  3
ObjectDBX Classes
 90
        0
280
     0
281
     0
  0
CLASS
  1
VISUALSTYLE
  2
AcDbVisualStyle
  3
ObjectDBX Classes
 90
     4095
280
     0
281
     0
  0
CLASS
  1
MATERIAL
  2
AcDbMaterial
  3
ObjectDBX Classes
 90
     1153
280
     0
281
     0
  0
CLASS
  1
SCALE
  2
AcDbScale
  3
ObjectDBX Classes
 90
     1153
280
     0
281
     0
  0
CLASS
  1
TABLESTYLE
  2
AcDbTableStyle
  3
ObjectDBX Classes
 90
     4095
280
     0
281
     0
  0
CLASS
  1
MLEADERSTYLE
  2
AcDbMLeaderStyle
  3
ACDB_MLEADERSTYLE_CLASS
 90
     4095
280
     0
281
     0
  0
CLASS
  1
SUN
  2
AcDbSun
  3
SCENEOE
 90
     1153
280
     0
281
     0
  0
CLASS
  1
ACDBPLACEHOLDER
  2
AcDbPlaceHolder
  3
ObjectDBX Classes
 90
        0
280
     0
281
     0
  0
CLASS
  1
LAYOUT
  2
AcDbLayout
  3
ObjectDBX Classes
 90
        0
280
     0
281
     0
  0
ENDSEC
  0
SECTION
  2
TABLES
  0
TABLE
  2
VPORT
  5
8
330
0
100
AcDbSymbolTable
 70
     1
  0
VPORT
  5
29
330
8
100
AcDbSymbolTableRecord
100
AcDbViewportTableRecord
  2
*Active
 70
     0
 10
0.0
 20
0.0
 11
1.0
 21
1.0
 12
215.9
 22
139.7
 13
0.0
 23
0.0
 14
10.0
 24
10.0
 15
10.0
 25
10.0
 16
0.0
 26
0.0
 36
1.0
 17
0.0
 27
0.0
 37
0.0
 40
279.4
 41
1.5454545455
 42
50.0
 43
0.0
 44
0.0
 50
0.0
 51
0.0
 71
     0
 72
  2000
 73
     1
 74
     3
 75
     0
 76
     0
 77
     0
 78
     0
281
     0
 65
     1
110
0.0
120
0.0
130
0.0
111
1.0
121
0.0
131
0.0
112
0.0
122
1.0
132
0.0
 79
     0
146
0.0
  0
ENDTAB
  0
TABLE
  2
LTYPE
  5
5
330
0
100
AcDbSymbolTable
 70
     6
  0
LTYPE
  5
14
330
5
100
AcDbSymbolTableRecord
100
AcDbLinetypeTableRecord
  2
ByBlock
 70
     0
  3

 72
    65
 73
     0
 40
0.0
  0
LTYPE
  5
15
330
5
100
AcDbSymbolTableRecord
100
AcDbLinetypeTableRecord
  2
ByLayer
 70
     0
  3

 72
    65
 73
     0
 40
0.0
  0
LTYPE
  5
16
330
5
100
AcDbSymbolTableRecord
100
AcDbLinetypeTableRecord
  2
Continuous
 70
     0
  3
Solid line
 72
    65
 73
     0
 40
0.0
  0
LTYPE
  5
5E
330
5
100
AcDbSymbolTableRecord
100
AcDbLinetypeTableRecord
  2
HIDDEN
 70
     0
  3
Hidden __ __ __ __ __ __ __ __ __ __ __ __ __ __
 72
    65
 73
     2
 40
1.905
 49
1.27
 74
     0
 49
-0.635
 74
     0
  0
LTYPE
  5
5F
330
5
100
AcDbSymbolTableRecord
100
AcDbLinetypeTableRecord
  2
PHANTOM
 70
     0
  3
Phantom ______  __  __  ______  __  __  ______
 72
    65
 73
     6
 40
12.7
 49
6.35
 74
     0
 49
-1.27
 74
     0
 49
1.27
 74
     0
 49
-1.27
 74
     0
 49
1.27
 74
     0
 49
-1.27
 74
     0
  0
LTYPE
  5
60
330
5
100
AcDbSymbolTableRecord
100
AcDbLinetypeTableRecord
  2
CENTER
 70
     0
  3
Center ____ _ ____ _ ____ _ ____ _ ____ _ ____
 72
    65
 73
     4
 40
10.16
 49
6.35
 74
     0
 49
-1.27
 74
     0
 49
1.27
 74
     0
 49
-1.27
 74
     0
  0
LTYPE
  5
61
330
5
100
AcDbSymbolTableRecord
100
AcDbLinetypeTableRecord
  2
CENTERX2
 70
     0
  3
Center (2x) ________  __  ________  __  _____
 72
    65
 73
     4
 40
20.32
 49
12.7
 74
     0
 49
-2.54
 74
     0
 49
2.54
 74
     0
 49
-2.54
 74
     0
  0
LTYPE
  5
62
330
5
100
AcDbSymbolTableRecord
100
AcDbLinetypeTableRecord
  2
DOT2
 70
     0
  3
Dot (.5x) ........................................
 72
    65
 73
     2
 40
0.635
 49
0.0
 74
     0
 49
-0.635
 74
     0
  0
ENDTAB
  0
TABLE
  2
LAYER
  5
2
330
0
100
AcDbSymbolTable
 70
     1
  0
LAYER
  5
10
330
2
100
AcDbSymbolTableRecord
100
AcDbLayerTableRecord
  2
0
 70
     0
 62
     7
  6
Continuous
370
    -3
390
F
  0
ENDTAB
  0
TABLE
  2
STYLE
  5
3
330
0
100
AcDbSymbolTable
 70
     2
  0
STYLE
  5
11
330
3
100
AcDbSymbolTableRecord
100
AcDbTextStyleTableRecord
  2
Standard
 70
     0
 40
0.0
 41
1.0
 50
0.0
 71
     0
 42
3.5
  3
txt
  4
bigfont
  0
STYLE
  5
63
330
3
100
AcDbSymbolTableRecord
100
AcDbTextStyleTableRecord
  2
SLDTEXTSTYLE0
 70
     0
 40
0.0
 41
0.7
 50
0.0
 71
     0
 42
3.5
  3
TXT
  4
bigfont
  0
ENDTAB
  0
TABLE
  2
VIEW
  5
6
330
0
100
AcDbSymbolTable
 70
     0
  0
ENDTAB
  0
TABLE
  2
UCS
  5
7
330
0
100
AcDbSymbolTable
 70
     0
  0
ENDTAB
  0
TABLE
  2
APPID
  5
9
330
0
100
AcDbSymbolTable
 70
     1
  0
APPID
  5
12
330
9
100
AcDbSymbolTableRecord
100
AcDbRegAppTableRecord
  2
ACAD
 70
     0
  0
ENDTAB
  0
TABLE
  2
DIMSTYLE
  5
A
330
0
100
AcDbSymbolTable
 70
     1
100
AcDbDimStyleTable
  0
DIMSTYLE
105
27
330
A
100
AcDbSymbolTableRecord
100
AcDbDimStyleTableRecord
  2
ISO-25
 70
     0
 41
2.5
 42
0.625
 43
3.75
 44
1.25
 73
     0
 74
     0
 77
     1
 78
     8
140
2.5
141
2.5
143
0.0393700787
147
0.625
171
     3
172
     1
178
     0
271
     2
272
     2
274
     3
278
    44
283
     0
284
     8
340
11
  0
ENDTAB
  0
TABLE
  2
BLOCK_RECORD
  5
1
330
0
100
AcDbSymbolTable
 70
     3
  0
BLOCK_RECORD
  5
1F
330
1
100
AcDbSymbolTableRecord
100
AcDbBlockTableRecord
  2
*Model_Space
340
22
  0
BLOCK_RECORD
  5
1B
330
1
100
AcDbSymbolTableRecord
100
AcDbBlockTableRecord
  2
*Paper_Space
340
1E
  0
BLOCK_RECORD
  5
23
330
1
100
AcDbSymbolTableRecord
100
AcDbBlockTableRecord
  2
*Paper_Space0
340
26
  0
BLOCK_RECORD
  5
1EB
330
1
100
AcDbSymbolTableRecord
100
AcDbBlockTableRecord
  2
SW_CENTERMARKSYMBOL_0
340
0
102
{BLKREFS
331
1F6
102
}
  0
BLOCK_RECORD
  5
2C8
330
1
100
AcDbSymbolTableRecord
100
AcDbBlockTableRecord
  2
SW_CENTERMARKSYMBOL_1
340
0
102
{BLKREFS
331
2D3
102
}
  0
ENDTAB
  0
ENDSEC
  0
SECTION
  2
BLOCKS
  0
BLOCK
  5
20
330
1F
100
AcDbEntity
  8
0
100
AcDbBlockBegin
  2
*Model_Space
 70
     0
 10
0.0
 20
0.0
 30
0.0
  3
*Model_Space
  1

  0
ENDBLK
  5
21
330
1F
100
AcDbEntity
  8
0
100
AcDbBlockEnd
  0
BLOCK
  5
1C
330
1B
100
AcDbEntity
 67
     1
  8
0
100
AcDbBlockBegin
  2
*Paper_Space
 70
     0
 10
0.0
 20
0.0
 30
0.0
  3
*Paper_Space
  1

  0
ENDBLK
  5
1D
330
1B
100
AcDbEntity
 67
     1
  8
0
100
AcDbBlockEnd
  0
BLOCK
  5
24
330
23
100
AcDbEntity
  8
0
100
AcDbBlockBegin
  2
*Paper_Space0
 70
     0
 10
0.0
 20
0.0
 30
0.0
  3
*Paper_Space0
  1

  0
ENDBLK
  5
25
330
23
100
AcDbEntity
  8
0
100
AcDbBlockEnd
  0
BLOCK
  5
1EC
330
1EB
100
AcDbEntity
  8
0
100
AcDbBlockBegin
  2
SW_CENTERMARKSYMBOL_0
 70
     0
 10
0.0
 20
0.0
 30
0.0
  3
SW_CENTERMARKSYMBOL_0
  1

  0
LINE
  5
1EE
330
1EB
100
AcDbEntity
  8
0
  6
Continuous
 62
     0
370
    18
100
AcDbLine
 10
0.0
 20
0.0
 30
0.0
 11
0.0
 21
2.5
 31
0.0
  0
LINE
  5
1EF
330
1EB
100
AcDbEntity
  8
0
  6
Continuous
 62
     0
370
    18
100
AcDbLine
 10
0.0
 20
0.0
 30
0.0
 11
-2.5
 21
0.0
 31
0.0
  0
LINE
  5
1F0
330
1EB
100
AcDbEntity
  8
0
  6
Continuous
 62
     0
370
    18
100
AcDbLine
 10
0.0
 20
0.0
 30
0.0
 11
0.0
 21
-2.5
 31
0.0
  0
LINE
  5
1F1
330
1EB
100
AcDbEntity
  8
0
  6
Continuous
 62
     0
370
    18
100
AcDbLine
 10
0.0
 20
0.0
 30
0.0
 11
2.5
 21
0.0
 31
0.0
  0
LINE
  5
1F2
330
1EB
100
AcDbEntity
  8
0
  6
Continuous
 62
     0
370
    18
100
AcDbLine
 10
0.0
 20
5.0
 30
0.0
 11
0.0
 21
42.8735484154
 31
0.0
  0
LINE
  5
1F3
330
1EB
100
AcDbEntity
  8
0
  6
Continuous
 62
     0
370
    18
100
AcDbLine
 10
-5.0
 20
0.0
 30
0.0
 11
-16.5
 21
0.0
 31
0.0
  0
LINE
  5
1F4
330
1EB
100
AcDbEntity
  8
0
  6
Continuous
 62
     0
370
    18
100
AcDbLine
 10
0.0
 20
-5.0
 30
0.0
 11
0.0
 21
-26.1505728828
 31
0.0
  0
LINE
  5
1F5
330
1EB
100
AcDbEntity
  8
0
  6
Continuous
 62
     0
370
    18
100
AcDbLine
 10
5.0
 20
0.0
 30
0.0
 11
16.5
 21
0.0
 31
0.0
  0
ENDBLK
  5
1ED
330
1EB
100
AcDbEntity
  8
0
100
AcDbBlockEnd
  0
BLOCK
  5
2C9
330
2C8
100
AcDbEntity
  8
0
100
AcDbBlockBegin
  2
SW_CENTERMARKSYMBOL_1
 70
     0
 10
0.0
 20
0.0
 30
0.0
  3
SW_CENTERMARKSYMBOL_1
  1

  0
LINE
  5
2CB
330
2C8
100
AcDbEntity
  8
0
  6
Continuous
 62
     0
370
    18
100
AcDbLine
 10
0.0
 20
0.0
 30
0.0
 11
0.0
 21
2.5
 31
0.0
  0
LINE
  5
2CC
330
2C8
100
AcDbEntity
  8
0
  6
Continuous
 62
     0
370
    18
100
AcDbLine
 10
0.0
 20
0.0
 30
0.0
 11
-2.5
 21
0.0
 31
0.0
  0
LINE
  5
2CD
330
2C8
100
AcDbEntity
  8
0
  6
Continuous
 62
     0
370
    18
100
AcDbLine
 10
0.0
 20
0.0
 30
0.0
 11
0.0
 21
-2.5
 31
0.0
  0
LINE
  5
2CE
330
2C8
100
AcDbEntity
  8
0
  6
Continuous
 62
     0
370
    18
100
AcDbLine
 10
0.0
 20
0.0
 30
0.0
 11
2.5
 21
0.0
 31
0.0
  0
LINE
  5
2CF
330
2C8
100
AcDbEntity
  8
0
  6
Continuous
 62
     0
370
    18
100
AcDbLine
 10
0.0
 20
5.0
 30
0.0
 11
0.0
 21
16.2390368441
 31
0.0
  0
LINE
  5
2D0
330
2C8
100
AcDbEntity
  8
0
  6
Continuous
 62
     0
370
    18
100
AcDbLine
 10
-5.0
 20
0.0
 30
0.0
 11
-62.7438898846
 21
0.0
 31
0.0
  0
LINE
  5
2D1
330
2C8
100
AcDbEntity
  8
0
  6
Continuous
 62
     0
370
    18
100
AcDbLine
 10
0.0
 20
-5.0
 30
0.0
 11
0.0
 21
-15.6054249143
 31
0.0
  0
LINE
  5
2D2
330
2C8
100
AcDbEntity
  8
0
  6
Continuous
 62
     0
370
    18
100
AcDbLine
 10
5.0
 20
0.0
 30
0.0
 11
30.7887962225
 21
0.0
 31
0.0
  0
ENDBLK
  5
2CA
330
2C8
100
AcDbEntity
  8
0
100
AcDbBlockEnd
  0
ENDSEC
  0
SECTION
  2
ENTITIES
  0
MTEXT
  5
64
330
1F
100
AcDbEntity
  8
0
  6
Continuous
 62
     7
370
     0
100
AcDbMText
 10
167.0049820104
 20
115.7363938955
 30
0.0
 40
4.2333333333
 41
0.0
 71
     1
 72
     1
  1
エースボールZERO　BL-0600
  7
SLDTEXTSTYLE0
 73
     1
 44
1.0
  0
LINE
  5
65
330
1F
100
AcDbEntity
  8
0
  6
Continuous
 62
     7
370
    25
100
AcDbLine
 10
130.8440624234
 20
73.1299724337
 30
0.0
 11
130.3440624234
 21
72.6299724337
 31
0.0
  0
LINE
  5
66
330
1F
100
AcDbEntity
  8
0
  6
Continuous
 62
     7
370
    25
100
AcDbLine
 10
130.3440624234
 20
46.6299724337
 30
0.0
 11
130.8440624234
 21
46.1299724337
 31
0.0
  0
LINE
  5
67
330
1F
100
AcDbEntity
  8
0
  6
Continuous
 62
     7
370
    25
100
AcDbLine
 10
134.3440624234
 20
73.1299724337
 30
0.0
 11
130.8440624234
 21
73.1299724337
 31
0.0
  0
LINE
  5
68
330
1F
100
AcDbEntity
  8
0
  6
Continuous
 62
     7
370
    25
100
AcDbLine
 10
130.8440624234
 20
46.1299724337
 30
0.0
 11
134.3440624234
 21
46.1299724337
 31
0.0
  0
LINE
  5
69
330
1F
100
AcDbEntity
  8
0
  6
Continuous
 62
     7
370
    25
100
AcDbLine
 10
103.3440624234
 20
36.6299724337
 30
0.0
 11
103.3440624234
 21
37.6299724337
 31
0.0
  0
LINE
  5
6A
330
1F
100
AcDbEntity
  8
0
  6
Continuous
 62
     7
370
    25
100
AcDbLine
 10
87.3440624234
 20
37.6299724337
 30
0.0
 11
87.3440624234
 21
36.6299724337
 31
0.0
  0
ARC
  5
6B
330
1F
100
AcDbEntity
  8
0
  6
Continuous
 62
     7
370
    25
100
AcDbCircle
 10
117.3440624234
 20
37.6299724337
 30
0.0
 40
13.99999999999999
100
AcDbArc
 50
90.0
 51
180.0
  0
ARC
  5
6C
330
1F
100
AcDbEntity
  8
0
  6
Continuous
 62
     7
370
    25
100
AcDbCircle
 10
117.3440624234
 20
37.6299724337
 30
0.0
 40
29.99999999999998
100
AcDbArc
 50
90.0
 51
180.0
  0
LINE
  5
6D
330
1F
100
AcDbEntity
  8
0
  6
Continuous
 62
     7
370
    25
100
AcDbLine
 10
117.3440624234
 20
51.6299724337
 30
0.0
 11
130.3440624234
 21
51.6299724337
 31
0.0
  0
LINE
  5
6E
330
1F
100
AcDbEntity
  8
0
  6
Continuous
 62
     7
370
    25
100
AcDbLine
 10
130.3440624234
 20
67.6299724337
 30
0.0
 11
117.3440624234
 21
67.6299724337
 31
0.0
  0
LINE
  5
6F
330
1F
100
AcDbEntity
  8
0
  6
Continuous
 62
     7
370
    25
100
AcDbLine
 10
160.3440624234
 20
46.2072849337
 30
0.0
 11
173.7388860844
 21
46.6258731731
 31
0.0
  0
LINE
  5
70
330
1F
100
AcDbEntity
  8
0
  6
Continuous
 62
     7
370
    25
100
AcDbLine
 10
173.7388860844
 20
72.6340716943
 30
0.0
 11
160.3440624234
 21
73.0526599337
 31
0.0
  0
LINE
  5
71
330
1F
100
AcDbEntity
  8
0
  6
Continuous
 62
     7
370
    25
100
AcDbLine
 10
173.7388860844
 20
46.6258731731
 30
0.0
 11
176.3440624234
 21
48.1299724337
 31
0.0
  0
LINE
  5
72
330
1F
100
AcDbEntity
  8
0
  6
Continuous
 62
     7
370
    25
100
AcDbLine
 10
176.3440624234
 20
71.1299724337
 30
0.0
 11
173.7388860844
 21
72.6340716943
 31
0.0
  0
ARC
  5
73
330
1F
100
AcDbEntity
  8
0
  6
Continuous
 62
     7
370
    25
100
AcDbCircle
 10
156.0940624234
 20
74.1299724337
 30
0.0
 40
0.5
100
AcDbArc
 50
180.0
 51
270.0
  0
ARC
  5
74
330
1F
100
AcDbEntity
  8
0
  6
Continuous
 62
     7
370
    25
100
AcDbCircle
 10
138.5940624234
 20
74.1299724337
 30
0.0
 40
0.5
100
AcDbArc
 50
270.0
 51
0.0
  0
LINE
  5
75
330
1F
100
AcDbEntity
  8
0
  6
Continuous
 62
     7
370
    25
100
AcDbLine
 10
155.5940624234
 20
74.1299724337
 30
0.0
 11
155.5940624234
 21
79.1299724337
 31
0.0
  0
LINE
  5
76
330
1F
100
AcDbEntity
  8
0
  6
Continuous
 62
     7
370
    25
100
AcDbLine
 10
139.0940624234
 20
79.1299724337
 30
0.0
 11
139.0940624234
 21
74.1299724337
 31
0.0
  0
LINE
  5
77
330
1F
100
AcDbEntity
  8
0
  6
Continuous
 62
     7
370
    25
100
AcDbLine
 10
155.5940624234
 20
79.1299724337
 30
0.0
 11
155.0940624234
 21
79.6299724337
 31
0.0
  0
LINE
  5
78
330
1F
100
AcDbEntity
  8
0
  6
Continuous
 62
     7
370
    25
100
AcDbLine
 10
139.5940624234
 20
79.6299724337
 30
0.0
 11
139.0940624234
 21
79.1299724337
 31
0.0
  0
ARC
  5
79
330
1F
100
AcDbEntity
  8
0
  6
Continuous
 62
     7
370
    25
100
AcDbCircle
 10
147.3440624234
 20
77.1299724337
 30
0.0
 40
20.60000000000001
100
AcDbArc
 50
90.6141712768
 51
93.3558231766
  0
ARC
  5
7A
330
1F
100
AcDbEntity
  8
0
  6
Continuous
 62
     7
370
    25
100
AcDbCircle
 10
147.3440624234
 20
77.1299724337
 30
0.0
 40
20.6
100
AcDbArc
 50
86.6441768145
 51
89.3868196341
  0
ARC
  5
7B
330
1F
100
AcDbEntity
  8
0
  6
Continuous
 62
     7
370
    25
100
AcDbCircle
 10
155.3378327918
 20
89.6175517384
 30
0.0
 40
1.000000000000005
100
AcDbArc
 50
354.2894068625
 51
7.1250163489
  0
LINE
  5
7C
330
1F
100
AcDbEntity
  8
0
  6
Continuous
 62
     7
370
    25
100
AcDbLine
 10
138.9374345668
 20
83.696251
 30
0.0
 11
139.1640624234
 21
81.4299724337
 31
0.0
  0
LINE
  5
7D
330
1F
100
AcDbEntity
  8
0
  6
Continuous
 62
     7
370
    25
100
AcDbLine
 10
155.3890872375
 20
80.0802205742
 30
0.0
 11
156.332869982
 21
89.5180480194
 31
0.0
  0
LINE
  5
7E
330
1F
100
AcDbEntity
  8
0
  6
Continuous
 62
     7
370
    25
100
AcDbLine
 10
156.3301106685
 20
89.741586473
 30
0.0
 11
155.3988102525
 21
97.191989801
 31
0.0
  0
LINE
  5
7F
330
1F
100
AcDbEntity
  8
0
  6
Continuous
 62
     7
370
    25
100
AcDbLine
 10
139.2893145943
 20
97.191989801
 30
0.0
 11
139.0940624234
 21
95.6299724337
 31
0.0
  0
ARC
  5
80
330
1F
100
AcDbEntity
  8
0
  6
Continuous
 62
     7
370
    25
100
AcDbCircle
 10
139.7854535327
 20
97.1299724337
 30
0.0
 40
0.5000000000000017
100
AcDbArc
 50
90.0
 51
172.8749836511
  0
ARC
  5
81
330
1F
100
AcDbEntity
  8
0
  6
Continuous
 62
     7
370
    25
100
AcDbCircle
 10
154.9026713141
 20
97.1299724337
 30
0.0
 40
0.5
100
AcDbArc
 50
7.1250163489
 51
90.0
  0
ARC
  5
82
330
1F
100
AcDbEntity
  8
0
  6
Continuous
 62
     7
370
    25
100
AcDbCircle
 10
154.8915686424
 20
80.1299724337
 30
0.0
 40
0.5
100
AcDbArc
 50
270.0
 51
354.2894068625
  0
LINE
  5
83
330
1F
100
AcDbEntity
  8
0
  6
Continuous
 62
     7
370
    25
100
AcDbLine
 10
130.3440624234
 20
46.6299724337
 30
0.0
 11
130.3440624234
 21
72.6299724337
 31
0.0
  0
LINE
  5
84
330
1F
100
AcDbEntity
  8
0
  6
Continuous
 62
     7
370
    25
100
AcDbLine
 10
130.8440624234
 20
73.1299724337
 30
0.0
 11
130.8440624234
 21
46.1299724337
 31
0.0
  0
LINE
  5
85
330
1F
100
AcDbEntity
  8
0
  6
Continuous
 62
     7
370
    25
100
AcDbLine
 10
103.3440624234
 20
36.6299724337
 30
0.0
 11
87.3440624234
 21
36.6299724337
 31
0.0
  0
SPLINE
  5
86
330
1F
100
AcDbEntity
  8
0
  6
Continuous
 62
     7
370
    25
100
AcDbSpline
210
0.0
220
0.0
230
1.0
 70
     8
 71
     3
 72
    12
 73
     8
 74
     0
 42
0.00000001
 43
0.00000001
 40
0.0
 40
0.0
 40
0.0
 40
0.0
 40
0.25
 40
0.25
 40
0.5
 40
0.5
 40
1.0
 40
1.0
 40
1.0
 40
1.0
 10
158.9006867504364
 20
50.89784783537517
 30
0.0
 10
159.1173417914783
 20
51.60692491283957
 30
0.0
 10
159.3175553153405
 20
52.32437996180854
 30
0.0
 10
159.6725939785573
 20
53.76953897189902
 30
0.0
 10
159.8267775711178
 20
54.4946056762309
 30
0.0
 10
160.2054356298523
 20
56.67874734922143
 30
0.0
 10
160.3440624234104
 20
58.14697224322218
 30
0.0
 10
160.3440624234104
 20
59.62997243366166
 30
0.0
  0
LINE
  5
87
330
1F
100
AcDbEntity
  8
0
  6
Continuous
 62
     7
370
    25
100
AcDbLine
 10
158.9006867504
 20
50.8978478354
 30
0.0
 11
135.7874380964
 21
50.8978478354
 31
0.0
  0
SPLINE
  5
88
330
1F
100
AcDbEntity
  8
0
  6
Continuous
 62
     7
370
    25
100
AcDbSpline
210
0.0
220
0.0
230
1.0
 70
     8
 71
     3
 72
    10
 73
     6
 74
     0
 42
0.00000001
 43
0.00000001
 40
0.0
 40
0.0
 40
0.0
 40
0.0
 40
0.5
 40
0.5
 40
1.0
 40
1.0
 40
1.0
 40
1.0
 10
135.7874380963845
 20
50.89784783537517
 30
0.0
 10
135.3543383706282
 20
52.315313527902
 30
0.0
 10
134.9875380802886
 20
53.76654768242859
 30
0.0
 10
134.4825154525366
 20
56.67992515140682
 30
0.0
 10
134.3440624234104
 20
58.1480237137161
 30
0.0
 10
134.3440624234104
 20
59.62997243366166
 30
0.0
  0
SPLINE
  5
89
330
1F
100
AcDbEntity
  8
0
  6
Continuous
 62
     7
370
    25
100
AcDbSpline
210
0.0
220
0.0
230
1.0
 70
     8
 71
     3
 72
    14
 73
    10
 74
     0
 42
0.00000001
 43
0.00000001
 40
0.0
 40
0.0
 40
0.0
 40
0.0
 40
0.125
 40
0.125
 40
0.2500000000000001
 40
0.2500000000000001
 40
0.5
 40
0.5
 40
1.0
 40
1.0
 40
1.0
 40
1.0
 10
134.3440624234104
 20
59.62997243366166
 30
0.0
 10
134.3440624234104
 20
60.00098451248202
 30
0.0
 10
134.3525907802306
 20
60.37284972602311
 30
0.0
 10
134.3867777136186
 20
61.1182937757349
 30
0.0
 10
134.4125252466596
 20
61.49242623973655
 30
0.0
 10
134.5138371892922
 20
62.60616428146845
 30
0.0
 10
134.6135552233094
 20
63.34058202932221
 30
0.0
 10
134.9943832045425
 20
65.52334041266771
 30
0.0
 10
135.3563999837011
 20
66.95137866718056
 30
0.0
 10
135.7874380963845
 20
68.36209703194815
 30
0.0
  0
LINE
  5
8A
330
1F
100
AcDbEntity
  8
0
  6
Continuous
 62
     7
370
    25
100
AcDbLine
 10
158.9006867504
 20
68.3620970319
 30
0.0
 11
135.7874380964
 21
68.3620970319
 31
0.0
  0
SPLINE
  5
8B
330
1F
100
AcDbEntity
  8
0
  6
Continuous
 62
     7
370
    25
100
AcDbSpline
210
0.0
220
0.0
230
1.0
 70
     8
 71
     3
 72
    12
 73
     8
 74
     0
 42
0.00000001
 43
0.00000001
 40
0.0
 40
0.0
 40
0.0
 40
0.0
 40
0.25
 40
0.25
 40
0.5
 40
0.5
 40
1.0
 40
1.0
 40
1.0
 40
1.0
 10
160.3440624234104
 20
59.62997243366166
 30
0.0
 10
160.3440624234104
 20
60.37262913797775
 30
0.0
 10
160.3092530584459
 20
61.12280994955178
 30
0.0
 10
160.1742128783385
 20
62.60664441110958
 30
0.0
 10
160.0745494097052
 20
63.34067727913868
 30
0.0
 10
159.6938544933533
 20
65.52273480393794
 30
0.0
 10
159.3318702704084
 20
66.95090277252872
 30
0.0
 10
158.9006867504364
 20
68.36209703194817
 30
0.0
  0
LINE
  5
8C
330
1F
100
AcDbEntity
  8
0
  6
Continuous
 62
     7
370
    25
100
AcDbLine
 10
135.7874380964
 20
68.3620970319
 30
0.0
 11
135.7874380964
 21
73.6299724337
 31
0.0
  0
LINE
  5
8D
330
1F
100
AcDbEntity
  8
0
  6
Continuous
 62
     7
370
    25
100
AcDbLine
 10
146.785045429
 20
73.6299724337
 30
0.0
 11
135.7874380964
 21
73.6299724337
 31
0.0
  0
LINE
  5
8E
330
1F
100
AcDbEntity
  8
0
  6
Continuous
 62
     7
370
    25
100
AcDbLine
 10
147.9030794178
 20
73.6299724337
 30
0.0
 11
146.785045429
 21
73.6299724337
 31
0.0
  0
LINE
  5
8F
330
1F
100
AcDbEntity
  8
0
  6
Continuous
 62
     7
370
    25
100
AcDbLine
 10
158.9006867504
 20
73.6299724337
 30
0.0
 11
147.9030794178
 21
73.6299724337
 31
0.0
  0
LINE
  5
90
330
1F
100
AcDbEntity
  8
0
  6
Continuous
 62
     7
370
    25
100
AcDbLine
 10
158.9006867504
 20
73.6299724337
 30
0.0
 11
158.9006867504
 21
68.3620970319
 31
0.0
  0
SPLINE
  5
91
330
1F
100
AcDbEntity
  8
0
  6
Continuous
 62
     7
370
    25
100
AcDbSpline
210
0.0
220
0.0
230
1.0
 70
    24
 71
     3
 72
    12
 73
     8
 74
     0
 42
0.00000001
 43
0.00000001
 40
0.0
 40
0.0
 40
0.0
 40
0.0
 40
0.25
 40
0.25
 40
0.5
 40
0.5
 40
1.0
 40
1.0
 40
1.0
 40
1.0
 10
160.3440624234104
 20
73.62997243366166
 30
0.0
 10
160.3440624234104
 20
73.62997243366166
 30
0.0
 10
160.3092530584501
 20
73.62997243366166
 30
0.0
 10
160.1742128783413
 20
73.62997243366166
 30
0.0
 10
160.0745494097062
 20
73.62997243366166
 30
0.0
 10
159.6938544933496
 20
73.62997243366166
 30
0.0
 10
159.3318702704035
 20
73.62997243366166
 30
0.0
 10
158.9006867504364
 20
73.62997243366166
 30
0.0
  0
LINE
  5
92
330
1F
100
AcDbEntity
  8
0
  6
Continuous
 62
     7
370
    25
100
AcDbLine
 10
160.3440624234
 20
73.6299724337
 30
0.0
 11
160.3440624234
 21
59.6299724337
 31
0.0
  0
LINE
  5
93
330
1F
100
AcDbEntity
  8
0
  6
Continuous
 62
     7
370
    25
100
AcDbLine
 10
134.3440624234
 20
59.6299724337
 30
0.0
 11
134.3440624234
 21
73.6299724337
 31
0.0
  0
SPLINE
  5
94
330
1F
100
AcDbEntity
  8
0
  6
Continuous
 62
     7
370
    25
100
AcDbSpline
210
0.0
220
0.0
230
1.0
 70
    24
 71
     3
 72
    14
 73
    10
 74
     0
 42
0.00000001
 43
0.00000001
 40
0.0
 40
0.0
 40
0.0
 40
0.0
 40
0.125
 40
0.125
 40
0.25
 40
0.25
 40
0.5
 40
0.5
 40
1.0
 40
1.0
 40
1.0
 40
1.0
 10
134.3440624234104
 20
73.62997243366166
 30
0.0
 10
134.3440624234104
 20
73.62997243366166
 30
0.0
 10
134.3525907802306
 20
73.62997243366166
 30
0.0
 10
134.3867777136184
 20
73.62997243366166
 30
0.0
 10
134.4125252466593
 20
73.62997243366166
 30
0.0
 10
134.5138371892919
 20
73.62997243366166
 30
0.0
 10
134.6135552233092
 20
73.62997243366166
 30
0.0
 10
134.9943832045427
 20
73.62997243366166
 30
0.0
 10
135.3563999837014
 20
73.62997243366166
 30
0.0
 10
135.7874380963845
 20
73.62997243366166
 30
0.0
  0
LINE
  5
95
330
1F
100
AcDbEntity
  8
0
  6
Continuous
 62
     7
370
    25
100
AcDbLine
 10
160.3440624234
 20
59.6299724337
 30
0.0
 11
160.3440624234
 21
45.6299724337
 31
0.0
  0
SPLINE
  5
96
330
1F
100
AcDbEntity
  8
0
  6
Continuous
 62
     7
370
    25
100
AcDbSpline
210
0.0
220
0.0
230
1.0
 70
    24
 71
     3
 72
    12
 73
     8
 74
     0
 42
0.00000001
 43
0.00000001
 40
0.0
 40
0.0
 40
0.0
 40
0.0
 40
0.25
 40
0.25
 40
0.5
 40
0.5
 40
1.0
 40
1.0
 40
1.0
 40
1.0
 10
160.3440624234104
 20
45.62997243366166
 30
0.0
 10
160.3440624234104
 20
45.62997243366166
 30
0.0
 10
160.3092530584459
 20
45.62997243366166
 30
0.0
 10
160.1742128783385
 20
45.62997243366166
 30
0.0
 10
160.0745494097052
 20
45.62997243366166
 30
0.0
 10
159.6938544933533
 20
45.62997243366166
 30
0.0
 10
159.3318702704084
 20
45.62997243366166
 30
0.0
 10
158.9006867504364
 20
45.62997243366166
 30
0.0
  0
LINE
  5
97
330
1F
100
AcDbEntity
  8
0
  6
Continuous
 62
     7
370
    25
100
AcDbLine
 10
158.9006867504
 20
50.8978478354
 30
0.0
 11
158.9006867504
 21
45.6299724337
 31
0.0
  0
LINE
  5
98
330
1F
100
AcDbEntity
  8
0
  6
Continuous
 62
     7
370
    25
100
AcDbLine
 10
158.9006867504
 20
45.6299724337
 30
0.0
 11
135.7874380964
 21
45.6299724337
 31
0.0
  0
LINE
  5
99
330
1F
100
AcDbEntity
  8
0
  6
Continuous
 62
     7
370
    25
100
AcDbLine
 10
135.7874380964
 20
45.6299724337
 30
0.0
 11
135.7874380964
 21
50.8978478354
 31
0.0
  0
SPLINE
  5
9A
330
1F
100
AcDbEntity
  8
0
  6
Continuous
 62
     7
370
    25
100
AcDbSpline
210
0.0
220
0.0
230
1.0
 70
    24
 71
     3
 72
    14
 73
    10
 74
     0
 42
0.00000001
 43
0.00000001
 40
0.0
 40
0.0
 40
0.0
 40
0.0
 40
0.125
 40
0.125
 40
0.25
 40
0.25
 40
0.5
 40
0.5
 40
1.0
 40
1.0
 40
1.0
 40
1.0
 10
134.3440624234104
 20
45.62997243366166
 30
0.0
 10
134.3440624234104
 20
45.62997243366166
 30
0.0
 10
134.3525907802306
 20
45.62997243366166
 30
0.0
 10
134.3867777136186
 20
45.62997243366166
 30
0.0
 10
134.4125252466597
 20
45.62997243366166
 30
0.0
 10
134.5138371892922
 20
45.62997243366166
 30
0.0
 10
134.6135552233094
 20
45.62997243366166
 30
0.0
 10
134.9943832045425
 20
45.62997243366166
 30
0.0
 10
135.3563999837011
 20
45.62997243366166
 30
0.0
 10
135.7874380963845
 20
45.62997243366166
 30
0.0
  0
LINE
  5
9B
330
1F
100
AcDbEntity
  8
0
  6
Continuous
 62
     7
370
    25
100
AcDbLine
 10
134.3440624234
 20
45.6299724337
 30
0.0
 11
134.3440624234
 21
59.6299724337
 31
0.0
  0
LINE
  5
9C
330
1F
100
AcDbEntity
  8
0
  6
Continuous
 62
     7
370
    25
100
AcDbLine
 10
173.7388860844
 20
59.6299724337
 30
0.0
 11
173.7388860844
 21
72.6340716943
 31
0.0
  0
LINE
  5
9D
330
1F
100
AcDbEntity
  8
0
  6
Continuous
 62
     7
370
    25
100
AcDbLine
 10
173.7388860844
 20
46.6258731731
 30
0.0
 11
173.7388860844
 21
59.6299724337
 31
0.0
  0
LINE
  5
9E
330
1F
100
AcDbEntity
  8
0
  6
Continuous
 62
     7
370
    25
100
AcDbLine
 10
176.3440624234
 20
71.1299724337
 30
0.0
 11
176.3440624234
 21
48.1299724337
 31
0.0
  0
ARC
  5
9F
330
1F
100
AcDbEntity
  8
0
  6
Continuous
 62
     7
370
    25
100
AcDbCircle
 10
149.851652941
 20
74.0054826377
 30
0.0
 40
1.984426035123564
100
AcDbArc
 50
176.4032790661
 51
190.9077708916
  0
SPLINE
  5
A0
330
1F
100
AcDbEntity
  8
0
  6
Continuous
 62
     7
370
    25
100
AcDbSpline
210
0.0
220
0.0
230
1.0
 70
    24
 71
     3
 72
     8
 73
     4
 74
     0
 42
0.00000001
 43
0.00000001
 40
0.0
 40
0.0
 40
0.0
 40
0.0
 40
1.0
 40
1.0
 40
1.0
 40
1.0
 10
146.8169892572856
 20
74.12997243366166
 30
0.0
 10
147.1683713680355
 20
74.12997243366166
 30
0.0
 10
147.5197534787854
 20
74.12997243366166
 30
0.0
 10
147.8711355895353
 20
74.12997243366166
 30
0.0
  0
ARC
  5
A1
330
1F
100
AcDbEntity
  8
0
  6
Continuous
 62
     7
370
    25
100
AcDbCircle
 10
144.8364719058
 20
74.0054826377
 30
0.0
 40
1.984426035128134
100
AcDbArc
 50
349.0922291084
 51
3.5967209339
  0
LINE
  5
A2
330
1F
100
AcDbEntity
  8
0
  6
Continuous
 62
     7
370
    25
100
AcDbLine
 10
147.3440624234
 20
79.1299724337
 30
0.0
 11
139.0940624234
 21
79.1299724337
 31
0.0
  0
LINE
  5
A3
330
1F
100
AcDbEntity
  8
0
  6
Continuous
 62
     7
370
    25
100
AcDbLine
 10
155.5940624234
 20
79.1299724337
 30
0.0
 11
147.3440624234
 21
79.1299724337
 31
0.0
  0
LINE
  5
A4
330
1F
100
AcDbEntity
  8
0
  6
Continuous
 62
     7
370
    25
100
AcDbLine
 10
147.3440624234
 20
79.6299724337
 30
0.0
 11
155.0940624234
 21
79.6299724337
 31
0.0
  0
LINE
  5
A5
330
1F
100
AcDbEntity
  8
0
  6
Continuous
 62
     7
370
    25
100
AcDbLine
 10
139.5940624234
 20
79.6299724337
 30
0.0
 11
147.3440624234
 21
79.6299724337
 31
0.0
  0
ARC
  5
A6
330
1F
100
AcDbEntity
  8
0
  6
Continuous
 62
     7
370
    25
100
AcDbCircle
 10
146.2771107542
 20
95.3310484845
 30
0.0
 40
2.367678303509134
100
AcDbArc
 50
93.3632881501
 51
99.4868245017
  0
ARC
  5
A7
330
1F
100
AcDbEntity
  8
0
  6
Continuous
 62
     7
370
    25
100
AcDbCircle
 10
148.4110177792
 20
95.3310897352
 30
0.0
 40
2.367636907562393
100
AcDbArc
 50
80.5187694297
 51
86.6367422681
  0
SPLINE
  5
A8
330
1F
100
AcDbEntity
  8
0
  6
Continuous
 62
     7
370
    25
100
AcDbSpline
210
0.0
220
0.0
230
1.0
 70
     8
 71
     3
 72
    15
 73
    11
 74
     0
 42
0.00000001
 43
0.00000001
 40
0.0
 40
0.0
 40
0.0
 40
0.0
 40
0.1233867499278388
 40
0.2487396502211601
 40
0.3739317114754985
 40
0.4999973617625659
 40
0.6259591330513601
 40
0.7512551380600303
 40
0.8765613478174267
 40
1.0
 40
1.0
 40
1.0
 40
1.0
 10
147.2811795586044
 20
97.72986533096615
 30
0.0
 10
147.2840577597962
 20
97.72986599003829
 30
0.0
 10
147.2898600259078
 20
97.72986731868477
 30
0.0
 10
147.3053894306286
 20
97.72987126831194
 30
0.0
 10
147.3237440125021
 20
97.72987305066133
 30
0.0
 10
147.344056828985
 20
97.72987460423927
 30
0.0
 10
147.3643752467001
 20
97.72987305010433
 30
0.0
 10
147.3827281158642
 20
97.72987127322378
 30
0.0
 10
147.3982662202597
 20
97.72986730570562
 30
0.0
 10
147.404066782291
 20
97.72986598590967
 30
0.0
 10
147.4069452882165
 20
97.72986533096616
 30
0.0
  0
ARC
  5
A9
330
1F
100
AcDbEntity
  8
0
  6
Continuous
 62
     7
370
    25
100
AcDbCircle
 10
147.2820739863
 20
95.1855159181
 30
0.0
 40
2.544349570067761
100
AcDbArc
 50
90.0201414662
 51
95.4127462174
  0
SPLINE
  5
AA
330
1F
100
AcDbEntity
  8
0
  6
Continuous
 62
     7
370
    25
100
AcDbSpline
210
0.0
220
0.0
230
1.0
 70
     8
 71
     3
 72
    15
 73
    11
 74
     0
 42
0.00000001
 43
0.00000001
 40
0.0
 40
0.0
 40
0.0
 40
0.0
 40
0.126158522421064
 40
0.2513121451548799
 40
0.3762846848783793
 40
0.499306278334087
 40
0.6261594278645742
 40
0.7521171342021308
 40
0.875819692269278
 40
1.0
 40
1.0
 40
1.0
 40
1.0
 10
147.1049488977327
 20
97.71662219955543
 30
0.0
 10
147.099717801244
 20
97.71657127380496
 30
0.0
 10
147.0892972759013
 20
97.7164698279466
 30
0.0
 10
147.0745107253869
 20
97.71646564630935
 30
0.0
 10
147.0613203727614
 20
97.71656498512995
 30
0.0
 10
147.0504497979202
 20
97.71678552733304
 30
0.0
 10
147.0424422105916
 20
97.71710939473449
 30
0.0
 10
147.0382755835589
 20
97.717529264582
 30
0.0
 10
147.0376545320473
 20
97.71800798164772
 30
0.0
 10
147.0405936444021
 20
97.71834927089327
 30
0.0
 10
147.0420660328848
 20
97.7185202444029
 30
0.0
  0
ARC
  5
AB
330
1F
100
AcDbEntity
  8
0
  6
Continuous
 62
     7
370
    25
100
AcDbCircle
 10
147.3440624234
 20
77.1299724337
 30
0.0
 40
20.58803836847347
100
AcDbArc
 50
89.3345405821
 51
90.66545941
  0
SPLINE
  5
AC
330
1F
100
AcDbEntity
  8
0
  6
Continuous
 62
     7
370
    25
100
AcDbSpline
210
0.0
220
0.0
230
1.0
 70
     8
 71
     3
 72
    15
 73
    11
 74
     0
 42
0.00000001
 43
0.00000001
 40
0.0
 40
0.0
 40
0.0
 40
0.0
 40
0.1241186784437694
 40
0.2478474916628983
 40
0.3736574149478942
 40
0.5005082335853297
 40
0.6234527658309919
 40
0.7484986612277521
 40
0.8736976492452766
 40
1.0
 40
1.0
 40
1.0
 40
1.0
 10
147.646058816662
 20
97.71852024436959
 30
0.0
 10
147.6475298892709
 20
97.7183493640911
 30
0.0
 10
147.6504674137492
 20
97.71800814028073
 30
0.0
 10
147.6498506792491
 20
97.71752960399324
 30
0.0
 10
147.6456887176545
 20
97.71710981412133
 30
0.0
 10
147.6376899698561
 20
97.71678602627493
 30
0.0
 10
147.6268238783193
 20
97.71656532806924
 30
0.0
 10
147.6136361604947
 20
97.71646573615907
 30
0.0
 10
147.5988417139195
 20
97.71646965055767
 30
0.0
 10
147.5884131230121
 20
97.7165712013631
 30
0.0
 10
147.5831759518977
 20
97.71662219952279
 30
0.0
  0
ARC
  5
AD
330
1F
100
AcDbEntity
  8
0
  6
Continuous
 62
     7
370
    25
100
AcDbCircle
 10
147.4060508605
 20
95.1855158659
 30
0.0
 40
2.544349622301906
100
AcDbArc
 50
84.5872538302
 51
89.9798585321
  0
SPLINE
  5
AE
330
1F
100
AcDbEntity
  8
0
  6
Continuous
 62
     7
370
    25
100
AcDbSpline
210
0.0
220
0.0
230
1.0
 70
     8
 71
     3
 72
    12
 73
     8
 74
     0
 42
0.00000001
 43
0.00000001
 40
0.0
 40
0.0
 40
0.0
 40
0.0
 40
0.1374975366677113
 40
0.2750385788614215
 40
0.5575409445665217
 40
0.7769626822980097
 40
1.0
 40
1.0
 40
1.0
 40
1.0
 10
127.8198616560544
 20
88.90634503568792
 30
0.0
 10
128.3051700443114
 20
88.82002688131786
 30
0.0
 10
129.2759403770071
 20
88.64736326069418
 30
0.0
 10
131.1786358326949
 20
88.11470480849773
 30
0.0
 10
133.2618578211001
 20
87.26678554362749
 30
0.0
 10
135.4836343976312
 20
86.00289686788973
 30
0.0
 10
136.7205505706074
 20
85.01555874421763
 30
0.0
 10
137.3440624234104
 20
84.51785563685779
 30
0.0
  0
ELLIPSE
  5
AF
330
1F
100
AcDbEntity
  8
0
  6
Continuous
 62
     7
370
    25
100
AcDbEllipse
 10
249.8579578959
 20
82.251795152
 30
0.0
 11
171.0000000000011
 21
0.0
 31
0.0
210
0.0
220
0.0
230
1.0
 40
0.0555555556
 41
2.292395939553286
 42
2.365524293035123
  0
LINE
  5
B0
330
1F
100
AcDbEntity
  8
0
  6
Continuous
 62
     7
370
    25
100
AcDbLine
 10
136.8976790685
 20
89.3839202243
 30
0.0
 11
137.3440624234
 21
89.3464582584
 31
0.0
  0
LINE
  5
B1
330
1F
100
AcDbEntity
  8
0
  6
Continuous
 62
     7
370
    25
100
AcDbLine
 10
137.3440624234
 20
84.5178556369
 30
0.0
 11
137.3440624234
 21
89.3464582584
 31
0.0
  0
SPLINE
  5
B2
330
1F
100
AcDbEntity
  8
0
  6
Continuous
 62
     7
370
    25
100
AcDbSpline
210
0.0
220
0.0
230
1.0
 70
     8
 71
     3
 72
    11
 73
     7
 74
     0
 42
0.00000001
 43
0.00000001
 40
0.0
 40
0.0
 40
0.0
 40
0.0
 40
0.2795638428677821
 40
0.5590315779132455
 40
0.7794196683689393
 40
1.0
 40
1.0
 40
1.0
 40
1.0
 10
124.9077344693329
 20
89.12997243366166
 30
0.0
 10
124.7841611235568
 20
89.16849128560976
 30
0.0
 10
124.5370569137683
 20
89.24551574758259
 30
0.0
 10
124.2833010058451
 20
89.77831364537228
 30
0.0
 10
124.1666825648646
 20
90.40605021223867
 30
0.0
 10
124.1932019508998
 20
90.8070330284073
 30
0.0
 10
124.2064674245104
 20
91.0076118411719
 30
0.0
  0
SPLINE
  5
B3
330
1F
100
AcDbEntity
  8
0
  6
Continuous
 62
     7
370
    25
100
AcDbSpline
210
0.0
220
0.0
230
1.0
 70
     8
 71
     3
 72
     9
 73
     5
 74
     0
 42
0.00000001
 43
0.00000001
 40
0.0
 40
0.0
 40
0.0
 40
0.0
 40
0.4986740982738611
 40
1.0
 40
1.0
 40
1.0
 40
1.0
 10
125.4980279655793
 20
91.03741286660235
 30
0.0
 10
125.2915543245095
 20
91.038877945859
 30
0.0
 10
124.8775090757499
 20
91.04181589523661
 30
0.0
 10
124.430542973805
 20
91.0190326163049
 30
0.0
 10
124.2064672897065
 20
91.00761076845018
 30
0.0
  0
SPLINE
  5
B4
330
1F
100
AcDbEntity
  8
0
  6
Continuous
 62
     7
370
    25
100
AcDbSpline
210
0.0
220
0.0
230
1.0
 70
     8
 71
     3
 72
    13
 73
     9
 74
     0
 42
0.00000001
 43
0.00000001
 40
0.0
 40
0.0
 40
0.0
 40
0.0
 40
0.3327087167328944
 40
0.5628656559531304
 40
0.6987124125384707
 40
0.8016200683166484
 40
0.9052998751809803
 40
1.0
 40
1.0
 40
1.0
 40
1.0
 10
127.48882870585
 20
88.95451947251254
 30
0.0
 10
127.1264378755228
 20
89.04030504743068
 30
0.0
 10
126.5133569967694
 20
89.18543425946869
 30
0.0
 10
125.8638116721069
 20
89.63580095589599
 30
0.0
 10
125.5211146565089
 20
90.03554210450184
 30
0.0
 10
125.3721910453652
 20
90.39143435091341
 30
0.0
 10
125.3600183259385
 20
90.73886819794762
 30
0.0
 10
125.4534349197586
 20
90.94094706912672
 30
0.0
 10
125.4980289622097
 20
91.03741294731088
 30
0.0
  0
SPLINE
  5
B5
330
1F
100
AcDbEntity
  8
0
  6
Continuous
 62
     7
370
    25
100
AcDbSpline
210
0.0
220
0.0
230
1.0
 70
     8
 71
     3
 72
     9
 73
     5
 74
     0
 42
0.00000001
 43
0.00000001
 40
0.0
 40
0.0
 40
0.0
 40
0.0
 40
0.5551829690770672
 40
1.0
 40
1.0
 40
1.0
 40
1.0
 10
124.9077344693329
 20
89.12997243366166
 30
0.0
 10
125.4377573430541
 20
89.11697341317061
 30
0.0
 10
126.3924387782615
 20
89.09355947359556
 30
0.0
 10
127.151282219419
 20
88.99732583424387
 30
0.0
 10
127.48882870585
 20
88.95451947251254
 30
0.0
  0
LINE
  5
B6
330
1F
100
AcDbEntity
  8
0
  6
Continuous
 62
     7
370
    25
100
AcDbLine
 10
136.8976790685
 20
94.6299724337
 30
0.0
 11
136.8976790685
 21
89.3839202243
 31
0.0
  0
LINE
  5
B7
330
1F
100
AcDbEntity
  8
0
  6
Continuous
 62
     7
370
    25
100
AcDbLine
 10
137.3440624234
 20
94.6299724337
 30
0.0
 11
136.8976790685
 21
94.6299724337
 31
0.0
  0
LINE
  5
B8
330
1F
100
AcDbEntity
  8
0
  6
Continuous
 62
     7
370
    25
100
AcDbLine
 10
137.3440624234
 20
89.3464582584
 30
0.0
 11
137.3440624234
 21
94.6299724337
 31
0.0
  0
ARC
  5
B9
330
1F
100
AcDbEntity
  8
0
  6
Continuous
 62
     7
370
    25
100
AcDbCircle
 10
143.7204914821
 20
95.0038185875
 30
0.0
 40
6.83304691755138
100
AcDbArc
 50
170.513808076
 51
183.1363032674
  0
ARC
  5
BA
330
1F
100
AcDbEntity
  8
0
  6
Continuous
 62
     7
370
    25
100
AcDbCircle
 10
136.9764945571
 20
95.3397224852
 30
0.0
 40
0.7902621394872248
100
AcDbArc
 50
62.2819181136
 51
89.6817467964
  0
LINE
  5
BB
330
1F
100
AcDbEntity
  8
0
  6
Continuous
 62
     7
370
    25
100
AcDbLine
 10
137.3440624234
 20
94.6299724337
 30
0.0
 11
137.3440624234
 21
96.0392995808
 31
0.0
  0
LINE
  5
BC
330
1F
100
AcDbEntity
  8
0
  6
Continuous
 62
     7
370
    25
100
AcDbLine
 10
125.4978548919
 20
91.037513353
 30
0.0
 11
127.5638086268
 21
94.6300834396
 31
0.0
  0
LINE
  5
BD
330
1F
100
AcDbEntity
  8
0
  6
Continuous
 62
     7
370
    25
100
AcDbLine
 10
127.564001057
 20
94.6299724337
 30
0.0
 11
136.8976790685
 21
94.6299724337
 31
0.0
  0
ARC
  5
BE
330
1F
100
AcDbEntity
  8
0
  6
Continuous
 62
     7
370
    25
100
AcDbCircle
 10
124.9077344694
 20
70.0569651864
 30
0.0
 40
19.07300724724771
100
AcDbArc
 50
81.2175477188
 51
82.2224666688
  0
LINE
  5
BF
330
1F
100
AcDbEntity
  8
0
  6
Continuous
 62
     7
370
    25
100
AcDbLine
 10
136.9808840979
 20
96.1299724337
 30
0.0
 11
125.5651548144
 21
96.1299724337
 31
0.0
  0
SPLINE
  5
C0
330
1F
100
AcDbEntity
  8
0
  6
Continuous
 62
     7
370
    25
100
AcDbSpline
210
0.0
220
0.0
230
1.0
 70
     8
 71
     3
 72
    15
 73
    11
 74
     0
 42
0.00000001
 43
0.00000001
 40
0.0
 40
0.0
 40
0.0
 40
0.0
 40
0.2070474010410777
 40
0.4175968630246832
 40
0.5931232720441627
 40
0.6923428991082514
 40
0.7730996831079096
 40
0.8543284120985933
 40
0.926147516637204
 40
1.0
 40
1.0
 40
1.0
 40
1.0
 10
125.562588527725
 20
96.12995770755568
 30
0.0
 10
125.7936777646898
 20
96.12610746871434
 30
0.0
 10
126.2597649502814
 20
96.11834186695384
 30
0.0
 10
126.8843627495885
 20
96.03169190421637
 30
0.0
 10
127.3460419400192
 20
95.86174139467377
 30
0.0
 10
127.607945639003
 20
95.63237653732524
 30
0.0
 10
127.7284122951341
 20
95.39458307204589
 30
0.0
 10
127.7472063333299
 20
95.13267009477266
 30
0.0
 10
127.6861679413298
 20
94.86712769275728
 30
0.0
 10
127.604972847715
 20
94.70983006974353
 30
0.0
 10
127.5638086139292
 20
94.63008342694253
 30
0.0
  0
SPLINE
  5
C1
330
1F
100
AcDbEntity
  8
0
  6
Continuous
 62
     7
370
    25
100
AcDbSpline
210
0.0
220
0.0
230
1.0
 70
     8
 71
     3
 72
    11
 73
     7
 74
     0
 42
0.00000001
 43
0.00000001
 40
0.0
 40
0.0
 40
0.0
 40
0.0
 40
0.2491150002829079
 40
0.4989585322854286
 40
0.7493328274976518
 40
1.0
 40
1.0
 40
1.0
 40
1.0
 10
124.2064674245104
 20
91.0076118411719
 30
0.0
 10
123.780756143197
 20
90.98135873320307
 30
0.0
 10
122.9280885966411
 20
90.92877574058848
 30
0.0
 10
121.5645228353893
 20
90.84445471036199
 30
0.0
 10
120.163850218177
 20
90.75772144155026
 30
0.0
 10
119.2130299826899
 20
90.69874387612268
 30
0.0
 10
118.7373419701293
 20
90.66923785612347
 30
0.0
  0
SPLINE
  5
C2
330
1F
100
AcDbEntity
  8
0
  6
Continuous
 62
     7
370
    25
100
AcDbSpline
210
0.0
220
0.0
230
1.0
 70
     8
 71
     3
 72
     9
 73
     5
 74
     0
 42
0.00000001
 43
0.00000001
 40
0.0
 40
0.0
 40
0.0
 40
0.0
 40
0.5599987526606142
 40
1.0
 40
1.0
 40
1.0
 40
1.0
 10
121.3012433377867
 20
95.6430609078155
 30
0.0
 10
120.8214770798995
 20
94.71521960796616
 30
0.0
 10
119.9647497111192
 20
93.05835645346619
 30
0.0
 10
119.1123839626466
 20
91.39924775355574
 30
0.0
 10
118.7373419701293
 20
90.66923785612349
 30
0.0
  0
SPLINE
  5
C3
330
1F
100
AcDbEntity
  8
0
  6
Continuous
 62
     7
370
    25
100
AcDbSpline
210
0.0
220
0.0
230
1.0
 70
     8
 71
     3
 72
     9
 73
     5
 74
     0
 42
0.00000001
 43
0.00000001
 40
0.0
 40
0.0
 40
0.0
 40
0.0
 40
0.5600000882143262
 40
1.0
 40
1.0
 40
1.0
 40
1.0
 10
121.8057304753388
 20
96.61688395950762
 30
0.0
 10
121.7115180598071
 20
96.43512508867583
 30
0.0
 10
121.5432816300021
 20
96.11055572760417
 30
0.0
 10
121.3751994723335
 20
95.78590652730738
 30
0.0
 10
121.3012433377867
 20
95.6430609078155
 30
0.0
  0
SPLINE
  5
C4
330
1F
100
AcDbEntity
  8
0
  6
Continuous
 62
     7
370
    25
100
AcDbSpline
210
0.0
220
0.0
230
1.0
 70
     8
 71
     3
 72
    10
 73
     6
 74
     0
 42
0.00000001
 43
0.00000001
 40
0.0
 40
0.0
 40
0.0
 40
0.0
 40
0.428349366631063
 40
0.7616603141144168
 40
1.0
 40
1.0
 40
1.0
 40
1.0
 10
121.805730475339
 20
96.61688395950782
 30
0.0
 10
122.252657676622
 20
96.51508769668466
 30
0.0
 10
123.0473517722216
 20
96.33408083743011
 30
0.0
 10
124.0839065732272
 20
96.16041845447704
 30
0.0
 10
124.6697719062276
 20
96.13893117658125
 30
0.0
 10
124.9140381613276
 20
96.12997243366158
 30
0.0
  0
LINE
  5
C5
330
1F
100
AcDbEntity
  8
0
  6
Continuous
 62
     7
370
    25
100
AcDbLine
 10
124.9119380013
 20
96.1299724337
 30
0.0
 11
125.5625914674
 21
96.1299724337
 31
0.0
  0
LINE
  5
C6
330
1F
100
AcDbEntity
  8
0
  6
Continuous
 62
     7
370
    25
100
AcDbLine
 10
137.3440624234
 20
96.1299724337
 30
0.0
 11
136.9808840979
 21
96.1299724337
 31
0.0
  0
LINE
  5
C7
330
1F
100
AcDbEntity
  8
0
  6
Continuous
 62
     7
370
    25
100
AcDbLine
 10
137.3440624234
 20
96.0392995808
 30
0.0
 11
137.3440624234
 21
96.1299724337
 31
0.0
  0
SPLINE
  5
C8
330
1F
100
AcDbEntity
  8
0
  6
Continuous
 62
     7
370
    25
100
AcDbSpline
210
0.0
220
0.0
230
1.0
 70
    24
 71
     3
 72
    11
 73
     7
 74
     0
 42
0.00000001
 43
0.00000001
 40
0.0
 40
0.0
 40
0.0
 40
0.0
 40
0.2799857774483057
 40
0.5599458358671288
 40
0.779998565900937
 40
0.9999999999999999
 40
0.9999999999999999
 40
0.9999999999999999
 40
0.9999999999999999
 10
118.7765939373115
 20
89.12997243366166
 30
0.0
 10
119.3739179243955
 20
89.12997243366168
 30
0.0
 10
120.568511029372
 20
89.12997243366168
 30
0.0
 10
122.1958727848546
 20
89.12997243366166
 30
0.0
 10
123.6516023543527
 20
89.12997243366168
 30
0.0
 10
124.4890563042605
 20
89.12997243366166
 30
0.0
 10
124.9077344693329
 20
89.12997243366166
 30
0.0
  0
SPLINE
  5
C9
330
1F
100
AcDbEntity
  8
0
  6
Continuous
 62
     7
370
    25
100
AcDbSpline
210
0.0
220
0.0
230
1.0
 70
     8
 71
     3
 72
    11
 73
     7
 74
     0
 42
0.00000001
 43
0.00000001
 40
0.0
 40
0.0
 40
0.0
 40
0.0
 40
0.2500000000000001
 40
0.4999999999999997
 40
0.75
 40
1.0
 40
1.0
 40
1.0
 40
1.0
 10
118.7765939373115
 20
89.12997243366166
 30
0.0
 10
118.7713629035514
 20
89.15329396596998
 30
0.0
 10
118.7609008360311
 20
89.19993703058658
 30
0.0
 10
118.7477863481638
 20
89.55791809895328
 30
0.0
 10
118.7387620046699
 20
90.06811103699522
 30
0.0
 10
118.7378153149762
 20
90.4688622497474
 30
0.0
 10
118.7373419701293
 20
90.66923785612349
 30
0.0
  0
SPLINE
  5
CA
330
1F
100
AcDbEntity
  8
0
  6
Continuous
 62
     7
370
    25
100
AcDbSpline
210
0.0
220
0.0
230
1.0
 70
     8
 71
     3
 72
    11
 73
     7
 74
     0
 42
0.00000001
 43
0.00000001
 40
0.0
 40
0.0
 40
0.0
 40
0.0
 40
0.2499999999999989
 40
0.4999999999999996
 40
0.749999999999999
 40
1.0
 40
1.0
 40
1.0
 40
1.0
 10
134.3309918896293
 20
96.12997243366165
 30
0.0
 10
134.3326783601333
 20
96.13723474331378
 30
0.0
 10
134.3360513011411
 20
96.15175936261808
 30
0.0
 10
134.3403311980424
 20
96.26373156621058
 30
0.0
 10
134.3433733188562
 20
96.42424314423555
 30
0.0
 10
134.3438416920788
 20
96.55267035441699
 30
0.0
 10
134.3440758786901
 20
96.6168839595077
 30
0.0
  0
SPLINE
  5
CB
330
1F
100
AcDbEntity
  8
0
  6
Continuous
 62
     7
370
    25
100
AcDbSpline
210
0.0
220
0.0
230
1.0
 70
     8
 71
     3
 72
    13
 73
     9
 74
     0
 42
0.00000001
 43
0.00000001
 40
0.0
 40
0.0
 40
0.0
 40
0.0
 40
0.288694968291485
 40
0.5545536835943152
 40
0.6780091910936104
 40
0.7888922083801199
 40
0.8964194071406489
 40
1.0
 40
1.0
 40
1.0
 40
1.0
 10
134.34407587869
 20
96.6168839595077
 30
0.0
 10
134.6158010692662
 20
96.57825380562973
 30
0.0
 10
135.1377575351207
 20
96.5040492074075
 30
0.0
 10
135.735332943224
 20
96.42098648787885
 30
0.0
 10
136.0991871234035
 20
96.37200555727027
 30
0.0
 10
136.2957346149691
 20
96.34598859749876
 30
0.0
 10
136.4220179040753
 20
96.33062978715454
 30
0.0
 10
136.4368064060464
 20
96.33018880346708
 30
0.0
 10
136.4440624234104
 20
96.32997243366168
 30
0.0
  0
SPLINE
  5
CC
330
1F
100
AcDbEntity
  8
0
  6
Continuous
 62
     7
370
    25
100
AcDbSpline
210
0.0
220
0.0
230
1.0
 70
     8
 71
     3
 72
    11
 73
     7
 74
     0
 42
0.00000001
 43
0.00000001
 40
0.0
 40
0.0
 40
0.0
 40
0.0
 40
0.2500000000000007
 40
0.5000000000000022
 40
0.7500000000000036
 40
1.0
 40
1.0
 40
1.0
 40
1.0
 10
136.4440624234105
 20
96.32997243366168
 30
0.0
 10
136.4693223616146
 20
96.3005947638299
 30
0.0
 10
136.5198422380229
 20
96.24183942416636
 30
0.0
 10
136.6187008472233
 20
96.17924928128737
 30
0.0
 10
136.7280881270467
 20
96.13771647965444
 30
0.0
 10
136.8054043246225
 20
96.13255378232594
 30
0.0
 10
136.8440624234104
 20
96.12997243366166
 30
0.0
  0
LINE
  5
CD
330
1F
100
AcDbEntity
  8
0
  6
Continuous
 62
     7
370
    25
100
AcDbLine
 10
134.3440758787
 20
96.6168839595
 30
0.0
 11
121.8057304753
 21
96.6168839595
 31
0.0
  0
LINE
  5
CE
330
1F
100
AcDbEntity
  8
0
  6
Continuous
 62
     7
370
    25
100
AcDbLine
 10
136.4440624234
 20
96.3299724337
 30
0.0
 11
134.0440624234
 21
99.5299724337
 31
0.0
  0
LINE
  5
CF
330
1F
100
AcDbEntity
  8
0
  6
Continuous
 62
     7
370
    25
100
AcDbLine
 10
132.2205166252
 20
99.4482962975
 30
0.0
 11
134.3440758787
 21
96.6168839595
 31
0.0
  0
ELLIPSE
  5
D0
330
1F
100
AcDbEntity
  8
0
  6
Continuous
 62
     7
370
    25
100
AcDbEllipse
 10
132.2440624234
 20
99.4299724337
 30
0.0
 11
1.560063634884898
 21
0.419871674099312
 31
0.0
210
0.0
220
0.0
230
0.9999999999999999
 40
0.0147408623
 41
0.9331929812043371
 42
1.581922327328491
  0
SPLINE
  5
D1
330
1F
100
AcDbEntity
  8
0
  6
Continuous
 62
     7
370
    25
100
AcDbSpline
210
0.0
220
0.0
230
1.0
 70
     8
 71
     3
 72
    11
 73
     7
 74
     0
 42
0.00000001
 43
0.00000001
 40
0.0
 40
0.0
 40
0.0
 40
0.0
 40
0.2307374805226516
 40
0.4903955403005857
 40
0.7438105520730655
 40
1.0
 40
1.0
 40
1.0
 40
1.0
 10
133.1677504270455
 20
99.69838842881498
 30
0.0
 10
133.259382431805
 20
99.71710427921944
 30
0.0
 10
133.4541315743416
 20
99.75688182013081
 30
0.0
 10
133.7016391415796
 20
99.7395618315722
 30
0.0
 10
133.9114478709737
 20
99.66857693924605
 30
0.0
 10
133.999697420454
 20
99.57634132144233
 30
0.0
 10
134.0440624234104
 20
99.52997243366167
 30
0.0
  0
LINE
  5
D2
330
1F
100
AcDbEntity
  8
0
  6
Continuous
 62
     7
370
    25
100
AcDbLine
 10
118.7373419701
 20
90.6692378561
 30
0.0
 11
97.1097938014
 21
90.6692378561
 31
0.0
  0
LINE
  5
D3
330
1F
100
AcDbEntity
  8
0
  6
Continuous
 62
     7
370
    25
100
AcDbLine
 10
97.1097938014
 20
90.6692378561
 30
0.0
 11
97.3322387126
 21
99.1640662926
 31
0.0
  0
ARC
  5
D4
330
1F
100
AcDbEntity
  8
0
  6
Continuous
 62
     7
370
    25
100
AcDbCircle
 10
97.9437788275
 20
98.6482962975
 30
0.0
 40
0.8000000000000114
100
AcDbArc
 50
90.0
 51
139.8558773282
  0
LINE
  5
D5
330
1F
100
AcDbEntity
  8
0
  6
Continuous
 62
     7
370
    25
100
AcDbLine
 10
97.9437788275
 20
99.4482962975
 30
0.0
 11
132.2205166252
 21
99.4482962975
 31
0.0
  0
SPLINE
  5
D6
330
1F
100
AcDbEntity
  8
0
  6
Continuous
 62
     7
370
    25
100
AcDbSpline
210
0.0
220
0.0
230
1.0
 70
     8
 71
     3
 72
    11
 73
     7
 74
     0
 42
0.00000001
 43
0.00000001
 40
0.0
 40
0.0
 40
0.0
 40
0.0
 40
0.2499999999999985
 40
0.4999999999999984
 40
0.7499999999999983
 40
1.0
 40
1.0
 40
1.0
 40
1.0
 10
97.94377882747528
 20
99.44829629747719
 30
0.0
 10
97.9441066887311
 20
99.5381953446042
 30
0.0
 10
97.94476241124272
 20
99.71799343885822
 30
0.0
 10
97.949021380382
 20
99.94270964809317
 30
0.0
 10
97.95501323604381
 20
100.0994707331227
 30
0.0
 10
97.95973535345482
 20
100.1198052001487
 30
0.0
 10
97.96209641216034
 20
100.1299724336617
 30
0.0
  0
LINE
  5
D7
330
1F
100
AcDbEntity
  8
0
  6
Continuous
 62
     7
370
    25
100
AcDbLine
 10
132.2388342099
 20
100.1299724337
 30
0.0
 11
97.9620964122
 21
100.1299724337
 31
0.0
  0
SPLINE
  5
D8
330
1F
100
AcDbEntity
  8
0
  6
Continuous
 62
     7
370
    25
100
AcDbSpline
210
0.0
220
0.0
230
1.0
 70
     8
 71
     3
 72
    11
 73
     7
 74
     0
 42
0.00000001
 43
0.00000001
 40
0.0
 40
0.0
 40
0.0
 40
0.0
 40
0.2500000000000006
 40
0.4999999999999992
 40
0.7499999999999969
 40
1.0
 40
1.0
 40
1.0
 40
1.0
 10
132.238834209898
 20
100.1299724336617
 30
0.0
 10
132.2364731511925
 20
100.1198052001487
 30
0.0
 10
132.2317510337814
 20
100.0994707331227
 30
0.0
 10
132.2257591781197
 20
99.94270964809319
 30
0.0
 10
132.2215002089804
 20
99.7179934388582
 30
0.0
 10
132.2208444864688
 20
99.5381953446042
 30
0.0
 10
132.220516625213
 20
99.44829629747717
 30
0.0
  0
LINE
  5
D9
330
1F
100
AcDbEntity
  8
0
  6
Continuous
 62
     7
370
    25
100
AcDbLine
 10
132.8440624234
 20
100.1299724337
 30
0.0
 11
132.2388342099
 21
100.1299724337
 31
0.0
  0
SPLINE
  5
DA
330
1F
100
AcDbEntity
  8
0
  6
Continuous
 62
     7
370
    25
100
AcDbSpline
210
0.0
220
0.0
230
1.0
 70
     8
 71
     3
 72
    10
 73
     6
 74
     0
 42
0.00000001
 43
0.00000001
 40
0.0
 40
0.0
 40
0.0
 40
0.0
 40
0.280833517338673
 40
0.5616510917414113
 40
1.0
 40
1.0
 40
1.0
 40
1.0
 10
132.8440624234104
 20
100.1299724336617
 30
0.0
 10
132.8824128723729
 20
100.1223978253938
 30
0.0
 10
132.9591115931404
 20
100.1072490388689
 30
0.0
 10
133.0842659431824
 20
99.97361810580922
 30
0.0
 10
133.1361350095357
 20
99.80261739145098
 30
0.0
 10
133.1677504270455
 20
99.69838842881498
 30
0.0
  0
LINE
  5
DB
330
1F
100
AcDbEntity
  8
0
  6
Continuous
 62
     7
370
    25
100
AcDbLine
 10
97.1097938014
 20
90.6692378561
 30
0.0
 11
97.0668013739
 21
90.6063507713
 31
0.0
  0
ELLIPSE
  5
DC
330
1F
100
AcDbEntity
  8
0
  6
Continuous
 62
     7
370
    25
100
AcDbEllipse
 10
92.8440624234
 20
90.6299724337
 30
0.0
 11
0.5000325503427803
 21
1.499994860148021
 31
0.0
210
0.0
220
0.0
230
1.0
 40
0.0078530307
 41
2.363888000155993
 42
3.144210503883158
  0
SPLINE
  5
DD
330
1F
100
AcDbEntity
  8
0
  6
Continuous
 62
     7
370
    25
100
AcDbSpline
210
0.0
220
0.0
230
1.0
 70
     8
 71
     3
 72
    12
 73
     8
 74
     0
 42
0.00000001
 43
0.00000001
 40
0.0
 40
0.0
 40
0.0
 40
0.0
 40
0.0715202026166142
 40
0.1260836237049476
 40
0.3855387013103047
 40
0.8475626424815554
 40
1.0
 40
1.0
 40
1.0
 40
1.0
 10
92.81863381040986
 20
89.95828038331086
 30
0.0
 10
92.80417967563098
 20
89.95517173544606
 30
0.0
 10
92.77869834834493
 20
89.94969147150272
 30
0.0
 10
92.71222662069876
 20
89.9101029260823
 30
0.0
 10
92.60752223356572
 20
89.80366879310003
 30
0.0
 10
92.52069367471938
 20
89.6731617773918
 30
0.0
 10
92.48769710800953
 20
89.58565206342845
 30
0.0
 10
92.4795112231586
 20
89.56394239744589
 30
0.0
  0
ELLIPSE
  5
DE
330
1F
100
AcDbEntity
  8
0
  6
Continuous
 62
     7
370
    25
100
AcDbEllipse
 10
60.9199255828
 20
90.6299724337
 30
0.0
 11
36.17607470647088
 21
0.04043410480178977
 31
0.0
210
0.0
220
0.0
230
1.0
 40
0.0414488012
 41
5.79192856228035
 42
6.243021298617577
  0
ELLIPSE
  5
DF
330
1F
100
AcDbEntity
  8
0
  6
Continuous
 62
     7
370
    25
100
AcDbEllipse
 10
97.1490457686
 20
90.6299724337
 30
0.0
 11
0.03725061189165047
 21
1.499998630535885
 31
0.0
210
0.0
220
0.0
230
1.0
 40
0.0544129722
 41
1.58535227799106
 42
1.587896030767889
  0
LINE
  5
E0
330
1F
100
AcDbEntity
  8
0
  6
Continuous
 62
     7
370
    25
100
AcDbLine
 10
92.3440624234
 20
89.1299724337
 30
0.0
 11
118.7765939373
 21
89.1299724337
 31
0.0
  0
SPLINE
  5
E1
330
1F
100
AcDbEntity
  8
0
  6
Continuous
 62
     7
370
    25
100
AcDbSpline
210
0.0
220
0.0
230
1.0
 70
     8
 71
     3
 72
    11
 73
     7
 74
     0
 42
0.00000001
 43
0.00000001
 40
0.0
 40
0.0
 40
0.0
 40
0.0
 40
0.2561894651307283
 40
0.5096044939206908
 40
0.7692742066553652
 40
1.0
 40
1.0
 40
1.0
 40
1.0
 10
134.0440624234104
 20
99.52997243366167
 30
0.0
 10
133.9684662911166
 20
99.6179827986501
 30
0.0
 10
133.8180927044419
 20
99.79305040920472
 30
0.0
 10
133.5188799184866
 20
99.98323797890626
 30
0.0
 10
133.1913601835999
 20
100.107236779632
 30
0.0
 10
132.955181802786
 20
100.1226980655111
 30
0.0
 10
132.8440624234105
 20
100.1299724336617
 30
0.0
  0
LINE
  5
E2
330
1F
100
AcDbEntity
  8
0
  6
Continuous
 62
     7
370
    25
100
AcDbLine
 10
97.3169934884
 20
99.1227826683
 30
0.0
 11
97.2901231295
 21
99.1362178477
 31
0.0
  0
LINE
  5
E3
330
1F
100
AcDbEntity
  8
0
  6
Continuous
 62
     7
370
    25
100
AcDbLine
 10
97.3169934884
 20
99.1227826683
 30
0.0
 11
97.0950654822
 21
90.6476940376
 31
0.0
  0
SPLINE
  5
E4
330
1F
100
AcDbEntity
  8
0
  6
Continuous
 62
     7
370
    25
100
AcDbSpline
210
0.0
220
0.0
230
1.0
 70
     8
 71
     3
 72
     9
 73
     5
 74
     0
 42
0.00000001
 43
0.00000001
 40
0.0
 40
0.0
 40
0.0
 40
0.0
 40
0.8673350121727758
 40
1.0
 40
1.0
 40
1.0
 40
1.0
 10
97.06769374708604
 20
90.64198242952423
 30
0.0
 10
97.06745636145617
 20
90.63278400614904
 30
0.0
 10
97.06718266602529
 20
90.62217861924995
 30
0.0
 10
97.06692677951665
 20
90.61157299464857
 30
0.0
 10
97.06689283233611
 20
90.61016599958992
 30
0.0
  0
LINE
  5
E5
330
1F
100
AcDbEntity
  8
0
  6
Continuous
 62
     7
370
    25
100
AcDbLine
 10
97.2901231295
 20
99.1362178477
 30
0.0
 11
97.0676937471
 21
90.6419824295
 31
0.0
  0
ARC
  5
E6
330
1F
100
AcDbEntity
  8
0
  6
Continuous
 62
     7
370
    25
100
AcDbCircle
 10
101.5428006454
 20
90.6349764816
 30
0.0
 40
8.750371682023355
100
AcDbArc
 50
182.878079786
 51
184.4353064954
  0
ELLIPSE
  5
E7
330
1F
100
AcDbEntity
  8
0
  6
Continuous
 62
     7
370
    25
100
AcDbEllipse
 10
60.8930552239
 20
90.6434076131
 30
0.0
 11
36.18915847374971
 21
0.02692057091445577
 31
0.0
210
0.0
220
0.0
230
1.0
 40
0.0276225703
 41
5.791964074121238
 42
6.254836299513471
  0
ARC
  5
E8
330
1F
100
AcDbEntity
  8
0
  6
Continuous
 62
     7
370
    25
100
AcDbCircle
 10
97.9244779097
 20
98.6487816849
 30
0.0
 40
0.7999999999999995
100
AcDbArc
 50
142.4614409777
 51
153.4349488229
  0
LINE
  5
E9
330
1F
100
AcDbEntity
  8
0
  6
Continuous
 62
     7
370
    25
100
AcDbLine
 10
92.8034663327
 20
90.1956129129
 30
0.0
 11
97.2089361569
 21
99.0065525613
 31
0.0
  0
SPLINE
  5
EA
330
1F
100
AcDbEntity
  8
0
  6
Continuous
 62
     7
370
    25
100
AcDbSpline
210
0.0
220
0.0
230
1.0
 70
     8
 71
     3
 72
    12
 73
     8
 74
     0
 42
0.00000001
 43
0.00000001
 40
0.0
 40
0.0
 40
0.0
 40
0.0
 40
0.139683458618249
 40
0.3831896274038307
 40
0.55131692930133
 40
0.8194729461607051
 40
0.9999999999999999
 40
0.9999999999999999
 40
0.9999999999999999
 40
0.9999999999999999
 10
92.04150548250523
 20
90.14289254060114
 30
0.0
 10
92.05174686325151
 20
90.15620491426209
 30
0.0
 10
92.07984174943984
 20
90.19272436727005
 30
0.0
 10
92.18699211079462
 20
90.23039642786144
 30
0.0
 10
92.36732919820761
 20
90.25476374862293
 30
0.0
 10
92.57578534277658
 20
90.25364671385897
 30
0.0
 10
92.73814224348052
 20
90.21226342548138
 30
0.0
 10
92.80346633272892
 20
90.19561291286598
 30
0.0
  0
LWPOLYLINE
  5
EB
330
1F
100
AcDbEntity
  8
0
  6
Continuous
 62
     7
370
    25
100
AcDbPolyline
 90
        9
 70
   128
 43
0.0
 10
92.0415054825
 20
90.1428925406
 10
92.0186549927
 20
90.066562063
 10
92.0215601187
 20
89.9821620637
 10
92.0500616837
 20
89.8943169632
 10
92.1025980382
 20
89.8078399448
 10
92.1762906254
 20
89.7274692325
 10
92.2671017022
 20
89.6576084751
 10
92.3700555745
 20
89.6020854632
 10
92.4795112232
 20
89.5639423974
  0
SPLINE
  5
EC
330
1F
100
AcDbEntity
  8
0
  6
Continuous
 62
     7
370
    25
100
AcDbSpline
210
0.0
220
0.0
230
1.0
 70
    24
 71
     3
 72
    11
 73
     7
 74
     0
 42
0.00000001
 43
0.00000001
 40
0.0
 40
0.0
 40
0.0
 40
0.0
 40
0.2499999999999989
 40
0.4999999999999977
 40
0.7499999999999992
 40
1.0
 40
1.0
 40
1.0
 40
1.0
 10
97.20893615693349
 20
99.0065525612751
 30
0.0
 10
97.13070104860122
 20
99.04567011544123
 30
0.0
 10
96.97423083193671
 20
99.12390522377349
 30
0.0
 10
96.78090468052022
 20
99.22056829948176
 30
0.0
 10
96.64652824824124
 20
99.28775651562121
 30
0.0
 10
96.62914649985404
 20
99.29644738981483
 30
0.0
 10
96.62045562566047
 20
99.30079282691162
 30
0.0
  0
LINE
  5
ED
330
1F
100
AcDbEntity
  8
0
  6
Continuous
 62
     7
370
    25
100
AcDbLine
 10
96.6204556257
 20
99.3007928269
 30
0.0
 11
92.0415054825
 21
90.1428925406
 31
0.0
  0
LINE
  5
EE
330
1F
100
AcDbEntity
  8
0
  6
Continuous
 62
     7
370
    25
100
AcDbLine
 10
97.1976712685
 20
99.2746849276
 30
0.0
 11
96.8154586967
 21
99.5970411745
 31
0.0
  0
SPLINE
  5
EF
330
1F
100
AcDbEntity
  8
0
  6
Continuous
 62
     7
370
    25
100
AcDbSpline
210
0.0
220
0.0
230
1.0
 70
     8
 71
     3
 72
    12
 73
     8
 74
     0
 42
0.00000001
 43
0.00000001
 40
0.0
 40
0.0
 40
0.0
 40
0.0
 40
0.2198609600791264
 40
0.4397396970008128
 40
0.6583291451397731
 40
0.8791239516843589
 40
1.0
 40
1.0
 40
1.0
 40
1.0
 10
97.33223871256942
 20
99.16406629259217
 30
0.0
 10
97.27232364984053
 20
99.21455450872004
 30
0.0
 10
97.15248867995452
 20
99.31553502319701
 30
0.0
 10
96.99575369168001
 20
99.44719801614704
 30
0.0
 10
96.87918536789388
 20
99.5447593389201
 30
0.0
 10
96.82292867609962
 20
99.59141873039682
 30
0.0
 10
96.81741080488332
 20
99.59557187739817
 30
0.0
 10
96.81545869671181
 20
99.59704117450225
 30
0.0
  0
SPLINE
  5
F0
330
1F
100
AcDbEntity
  8
0
  6
Continuous
 62
     7
370
    25
100
AcDbSpline
210
0.0
220
0.0
230
1.0
 70
     8
 71
     3
 72
    12
 73
     8
 74
     0
 42
0.00000001
 43
0.00000001
 40
0.0
 40
0.0
 40
0.0
 40
0.0
 40
0.0006864401057837
 40
0.2840613788817063
 40
0.5703177902163716
 40
0.8469872112136456
 40
1.0
 40
1.0
 40
1.0
 40
1.0
 10
97.2949669478799
 20
99.1933899800898
 30
0.0
 10
97.29492623012281
 20
99.19342427472671
 30
0.0
 10
97.27807648296123
 20
99.20761601813685
 30
0.0
 10
97.24884754684837
 20
99.23214829798675
 30
0.0
 10
97.21560150114956
 20
99.25997788273305
 30
0.0
 10
97.19991927803964
 20
99.27297874570598
 30
0.0
 10
97.19833905023366
 20
99.27417155859203
 30
0.0
 10
97.19777632024856
 20
99.27459632746083
 30
0.0
  0
SPLINE
  5
F1
330
1F
100
AcDbEntity
  8
0
  6
Continuous
 62
     7
370
    25
100
AcDbSpline
210
0.0
220
0.0
230
1.0
 70
     8
 71
     3
 72
    12
 73
     8
 74
     0
 42
0.00000001
 43
0.00000001
 40
0.0
 40
0.0
 40
0.0
 40
0.0
 40
0.2225634137435263
 40
0.4462063173695687
 40
0.6680851268158023
 40
0.8917990985569296
 40
1.0
 40
1.0
 40
1.0
 40
1.0
 10
96.77268119929194
 20
99.54391523898227
 30
0.0
 10
96.77826776539447
 20
99.53848816636857
 30
0.0
 10
96.78946799388402
 20
99.5276076984411
 30
0.0
 10
96.88351877157109
 20
99.45231426742079
 30
0.0
 10
97.02300983496909
 20
99.3428357226675
 30
0.0
 10
97.16823393480547
 20
99.23012108212099
 30
0.0
 10
97.26015710353552
 20
99.15930362467678
 30
0.0
 10
97.29012312953694
 20
99.13621784771279
 30
0.0
  0
LINE
  5
F2
330
1F
100
AcDbEntity
  8
0
  6
Continuous
 62
     7
370
    25
100
AcDbLine
 10
97.1691529369
 20
99.2392676372
 30
0.0
 11
96.7726811993
 21
99.543915239
 31
0.0
  0
ARC
  5
F3
330
1F
100
AcDbEntity
  8
0
  6
Continuous
 62
     7
370
    25
100
AcDbCircle
 10
97.9620964122
 20
98.6299724337
 30
0.0
 40
1.5
100
AcDbArc
 50
90.0
 51
139.8558773282
  0
ARC
  5
F4
330
1F
100
AcDbEntity
  8
0
  6
Continuous
 62
     7
370
    25
100
AcDbCircle
 10
97.9620964122
 20
98.6299724337
 30
0.0
 40
1.500000000000013
100
AcDbArc
 50
142.4614409777
 51
153.4349488229
  0
LINE
  5
F5
330
1F
100
AcDbEntity
  8
0
  6
Continuous
 62
     7
370
    25
100
AcDbLine
 10
91.8968488279
 20
89.8535792314
 30
0.0
 11
92.0415054825
 21
90.1428925406
 31
0.0
  0
ARC
  5
F6
330
1F
100
AcDbEntity
  8
0
  6
Continuous
 62
     7
370
    25
100
AcDbCircle
 10
92.3440624234
 20
89.6299724337
 30
0.0
 40
0.5000000000000088
100
AcDbArc
 50
153.4349488229
 51
270.0
  0
SPLINE
  5
F7
330
1F
100
AcDbEntity
  8
0
  6
Continuous
 62
     7
370
    25
100
AcDbSpline
210
0.0
220
0.0
230
1.0
 70
     8
 71
     3
 72
     9
 73
     5
 74
     0
 42
0.00000001
 43
0.00000001
 40
0.0
 40
0.0
 40
0.0
 40
0.0
 40
0.5600029565045049
 40
1.0
 40
1.0
 40
1.0
 40
1.0
 10
96.81545869671181
 20
99.59704117450225
 30
0.0
 10
96.8073109373587
 20
99.58725471234231
 30
0.0
 10
96.79276144389893
 20
99.56977897931932
 30
0.0
 10
96.7788168009584
 20
99.55181801165352
 30
0.0
 10
96.77268119929194
 20
99.54391523898227
 30
0.0
  0
LINE
  5
F8
330
1F
100
AcDbEntity
  8
0
  6
Continuous
 62
     7
370
    25
100
AcDbLine
 10
138.9380015684
 20
89.5180480194
 30
0.0
 11
138.9401416836
 21
89.741586473
 31
0.0
  0
SPLINE
  5
F9
330
1F
100
AcDbEntity
  8
0
  6
Continuous
 62
     7
370
    25
100
AcDbSpline
210
0.0
220
0.0
230
1.0
 70
     8
 71
     3
 72
    10
 73
     6
 74
     0
 42
0.00000001
 43
0.00000001
 40
0.0
 40
0.0
 40
0.0
 40
0.0
 40
0.3536466237081646
 40
0.7182931081305524
 40
1.0
 40
1.0
 40
1.0
 40
1.0
 10
139.0892895321996
 20
87.57177937294743
 30
0.0
 10
139.0517824978904
 20
87.12824172282888
 30
0.0
 10
138.9756018066448
 20
86.22737058220831
 30
0.0
 10
139.014038209258
 20
84.84936128739704
 30
0.0
 10
139.0770203285909
 20
83.93132725609217
 30
0.0
 10
139.1044704785112
 20
83.53121096819874
 30
0.0
  0
LINE
  5
FA
330
1F
100
AcDbEntity
  8
0
  6
Continuous
 62
     7
370
    25
100
AcDbLine
 10
138.9380015684
 20
89.5180480194
 30
0.0
 11
139.0892895322
 21
87.5717793729
 31
0.0
  0
LINE
  5
FB
330
1F
100
AcDbEntity
  8
0
  6
Continuous
 62
     7
370
    25
100
AcDbLine
 10
139.1640624234
 20
81.4299724337
 30
0.0
 11
139.2254172162
 21
81.4299724337
 31
0.0
  0
LWPOLYLINE
  5
FC
330
1F
100
AcDbEntity
  8
0
  6
Continuous
 62
     7
370
    25
100
AcDbPolyline
 90
        3
 70
   128
 43
0.0
 10
139.3614297588
 20
80.0802205742
 10
139.3201309865
 20
80.4900217187
 10
139.2254172162
 20
81.4299724337
  0
SPLINE
  5
FD
330
1F
100
AcDbEntity
  8
0
  6
Continuous
 62
     7
370
    25
100
AcDbSpline
210
0.0
220
0.0
230
1.0
 70
     8
 71
     3
 72
    11
 73
     7
 74
     0
 42
0.00000001
 43
0.00000001
 40
0.0
 40
0.0
 40
0.0
 40
0.0
 40
0.2920574028183094
 40
0.5665622171831318
 40
0.8065682389915578
 40
1.0
 40
1.0
 40
1.0
 40
1.0
 10
139.227856816357
 20
95.62997243366169
 30
0.0
 10
139.2595173526726
 20
95.613140637613
 30
0.0
 10
139.3209356337332
 20
95.58048863291633
 30
0.0
 10
139.4008479929978
 20
95.32509674587533
 30
0.0
 10
139.4399468067253
 20
94.98937382930067
 30
0.0
 10
139.4245304437956
 20
94.74087213447962
 30
0.0
 10
139.4176505308115
 20
94.62997243364957
 30
0.0
  0
LINE
  5
FE
330
1F
100
AcDbEntity
  8
0
  6
Continuous
 62
     7
370
    25
100
AcDbLine
 10
139.4176505308
 20
94.6299724336
 30
0.0
 11
138.9401416836
 21
89.741586473
 31
0.0
  0
LINE
  5
FF
330
1F
100
AcDbEntity
  8
0
  6
Continuous
 62
     7
370
    25
100
AcDbLine
 10
139.7854535327
 20
97.6299724337
 30
0.0
 11
154.9026713141
 21
97.6299724337
 31
0.0
  0
SPLINE
  5
100
330
1F
100
AcDbEntity
  8
0
  6
Continuous
 62
     7
370
    25
100
AcDbSpline
210
0.0
220
0.0
230
1.0
 70
     8
 71
     3
 72
    12
 73
     8
 74
     0
 42
0.00000001
 43
0.00000001
 40
0.0
 40
0.0
 40
0.0
 40
0.0
 40
0.2316347876629375
 40
0.46330664808196
 40
0.6939442291381526
 40
0.9227406525226395
 40
1.0
 40
1.0
 40
1.0
 40
1.0
 10
139.8630965683221
 20
79.62997243366166
 30
0.0
 10
139.8060432506733
 20
79.63556189869195
 30
0.0
 10
139.6919274840888
 20
79.64674172333692
 30
0.0
 10
139.5400741536107
 20
79.73406478929259
 30
0.0
 10
139.4259067707269
 20
79.86237496307463
 30
0.0
 10
139.3741524383596
 20
79.98705438977244
 30
0.0
 10
139.3639940873725
 20
80.06144239852576
 30
0.0
 10
139.3614297587651
 20
80.08022057415118
 30
0.0
  0
LINE
  5
101
330
1F
100
AcDbEntity
  8
0
  6
Continuous
 62
     7
370
    25
100
AcDbLine
 10
137.3440624234
 20
85.1506812213
 30
0.0
 11
139.1044704785
 21
83.5312109682
 31
0.0
  0
SPLINE
  5
102
330
1F
100
AcDbEntity
  8
0
  6
Continuous
 62
     7
370
    25
100
AcDbSpline
210
0.0
220
0.0
230
1.0
 70
     8
 71
     3
 72
     9
 73
     5
 74
     0
 42
0.00000001
 43
0.00000001
 40
0.0
 40
0.0
 40
0.0
 40
0.0
 40
0.7210175706402088
 40
0.9999999999999999
 40
0.9999999999999999
 40
0.9999999999999999
 40
0.9999999999999999
 10
137.6879908791079
 20
89.32777256989655
 30
0.0
 10
137.6190576601117
 20
89.39102338280586
 30
0.0
 10
137.5234521966622
 20
89.47874775386818
 30
0.0
 10
137.3831924330143
 20
89.52355694021213
 30
0.0
 10
137.3440624234104
 20
89.536057915876
 30
0.0
  0
ARC
  5
103
330
1F
100
AcDbEntity
  8
0
  6
Continuous
 62
     7
370
    25
100
AcDbCircle
 10
130.6218360845
 20
82.251795152
 30
0.0
 40
10.00000000000002
100
AcDbArc
 50
32.1405798582
 51
45.0397956095
  0
LINE
  5
104
330
1F
100
AcDbEntity
  8
0
  6
Continuous
 62
     7
370
    25
100
AcDbLine
 10
137.6879908791
 20
94.6299724337
 30
0.0
 11
137.6879908791
 21
89.3277725699
 31
0.0
  0
LINE
  5
105
330
1F
100
AcDbEntity
  8
0
  6
Continuous
 62
     7
370
    25
100
AcDbLine
 10
139.4176505308
 20
94.6299724336
 30
0.0
 11
137.6879908791
 21
94.6299724337
 31
0.0
  0
LINE
  5
106
330
1F
100
AcDbEntity
  8
0
  6
Continuous
 62
     7
370
    25
100
AcDbLine
 10
137.3440624234
 20
95.6299724337
 30
0.0
 11
139.2278568164
 21
95.6299724337
 31
0.0
  0
ARC
  5
107
330
1F
100
AcDbEntity
  8
0
  6
Continuous
 62
     7
370
    25
100
AcDbCircle
 10
99.7315217489
 20
102.3393176547
 30
0.0
 40
4.021945305448372
100
AcDbArc
 50
230.4243196696
 51
233.1058614851
  0
LINE
  5
108
330
1F
100
AcDbEntity
  8
0
  6
Continuous
 62
     7
370
    25
100
AcDbLine
 10
103.3440624234
 20
37.6299724337
 30
0.0
 11
87.3440624234
 21
37.6299724337
 31
0.0
  0
LINE
  5
109
330
1F
100
AcDbEntity
  8
0
  6
Continuous
 62
     7
370
    25
100
AcDbLine
 10
117.3440624234
 20
51.6299724337
 30
0.0
 11
117.3440624234
 21
67.6299724337
 31
0.0
  0
LINE
  5
10A
330
1F
100
AcDbEntity
  8
0
  6
Continuous
 62
     7
370
    25
100
AcDbLine
 10
147.8711355895
 20
74.1299724337
 30
0.0
 11
155.5940624234
 21
74.1299724337
 31
0.0
  0
LINE
  5
10B
330
1F
100
AcDbEntity
  8
0
  6
Continuous
 62
     7
370
    25
100
AcDbLine
 10
139.0940624234
 20
74.1299724337
 30
0.0
 11
146.8169892573
 21
74.1299724337
 31
0.0
  0
LINE
  5
10C
330
1F
100
AcDbEntity
  8
0
  6
Continuous
 62
     7
370
    25
100
AcDbLine
 10
147.2811795586
 20
97.7179147691
 30
0.0
 11
147.2811795586
 21
97.729865331
 31
0.0
  0
LINE
  5
10D
330
1F
100
AcDbEntity
  8
0
  6
Continuous
 62
     7
370
    25
100
AcDbLine
 10
147.4069452882
 20
97.7179147691
 30
0.0
 11
147.4069452882
 21
97.729865331
 31
0.0
  0
LINE
  5
10E
330
1F
100
AcDbEntity
  8
0
  6
Continuous
 62
     7
370
    25
100
AcDbLine
 10
138.9401416836
 20
89.741586473
 30
0.0
 11
156.3301106685
 21
89.741586473
 31
0.0
  0
LINE
  5
10F
330
1F
100
AcDbEntity
  8
0
  6
Continuous
 62
     7
370
    25
100
AcDbLine
 10
156.332869982
 20
89.5180480194
 30
0.0
 11
138.9380015684
 21
89.5180480194
 31
0.0
  0
LINE
  5
110
330
1F
100
AcDbEntity
  8
0
  6
Continuous
 62
     7
370
    25
100
AcDbLine
 10
139.3614297588
 20
80.0802205742
 30
0.0
 11
155.3890872375
 21
80.0802205742
 31
0.0
  0
LINE
  5
111
330
1F
100
AcDbEntity
  8
0
  6
Continuous
 62
     7
370
    25
100
AcDbLine
 10
155.3988102525
 20
97.191989801
 30
0.0
 11
139.2893145943
 21
97.191989801
 31
0.0
  0
LINE
  5
112
330
1F
100
AcDbEntity
  8
0
  6
Continuous
 62
     7
370
    25
100
AcDbLine
 10
137.3440624234
 20
94.6299724337
 30
0.0
 11
137.6879908791
 21
94.6299724337
 31
0.0
  0
ARC
  5
113
330
1F
100
AcDbEntity
  8
0
  6
Continuous
 62
     7
370
    25
100
AcDbCircle
 10
136.5821171602
 20
94.6846370167
 30
0.0
 40
1.107223960532952
100
AcDbArc
 50
357.1701084939
 51
46.5155082001
  0
LINE
  5
114
330
1F
100
AcDbEntity
  8
0
  6
Continuous
 62
     7
370
    25
100
AcDbLine
 10
97.0950654822
 20
90.6476940376
 30
0.0
 11
97.3169929186
 21
99.1227609092
 31
0.0
  0
LINE
  5
115
330
1F
100
AcDbEntity
  8
0
  6
Continuous
 62
     7
370
    18
100
AcDbLine
 10
160.8440624234
 20
47.0870974337
 30
0.0
 11
175.3213564635
 21
47.5395128724
 31
0.0
  0
LINE
  5
116
330
1F
100
AcDbEntity
  8
0
  6
Continuous
 62
     7
370
    18
100
AcDbLine
 10
175.3213564635
 20
71.7204319949
 30
0.0
 11
160.8440624234
 21
72.1728474337
 31
0.0
  0
LINE
  5
117
330
1F
100
AcDbEntity
  8
0
  6
CENTERX2
 62
     7
370
    18
100
AcDbLine
 10
178.9664832992
 20
59.6299724337
 30
0.0
 11
89.7686453896
 21
59.6299724337
 31
0.0
  0
LINE
  5
118
330
1F
100
AcDbEntity
  8
0
  6
CENTERX2
 62
     7
370
    18
100
AcDbLine
 10
147.3440624234
 20
43.6496203218
 30
0.0
 11
147.3440624234
 21
100.002646889
 31
0.0
  0
LINE
  5
119
330
1F
100
AcDbEntity
  8
0
  6
CENTERX2
 62
     7
370
    18
100
AcDbLine
 10
132.3440624234
 20
59.6299724337
 30
0.0
 11
117.3440624234
 21
59.6299724337
 31
0.0
  0
LINE
  5
11A
330
1F
100
AcDbEntity
  8
0
  6
CENTERX2
 62
     7
370
    18
100
AcDbLine
 10
95.3440624234
 20
37.6299724337
 30
0.0
 11
95.3440624234
 21
34.6299724337
 31
0.0
  0
ARC
  5
11B
330
1F
100
AcDbEntity
  8
0
  6
CENTERX2
 62
     7
370
    18
100
AcDbCircle
 10
117.3440624234
 20
37.6299724337
 30
0.0
 40
22.00000000000001
100
AcDbArc
 50
90.0
 51
180.0
  0
LINE
  5
11C
330
1F
100
AcDbEntity
  8
0
  6
Continuous
 62
     7
370
    25
100
AcDbLine
 10
207.2697425973
 20
59.6299724337
 30
0.0
 11
207.2697425973
 21
37.6299724337
 31
0.0
  0
LINE
  5
11D
330
1F
100
AcDbEntity
  8
0
  6
Continuous
 62
     7
370
    25
100
AcDbLine
 10
223.2697425973
 20
37.6299724337
 30
0.0
 11
223.2697425973
 21
59.6299724337
 31
0.0
  0
LINE
  5
11E
330
1F
100
AcDbEntity
  8
0
  6
Continuous
 62
     7
370
    25
100
AcDbLine
 10
223.2697425973
 20
36.6299724337
 30
0.0
 11
223.2697425973
 21
37.6299724337
 31
0.0
  0
LINE
  5
11F
330
1F
100
AcDbEntity
  8
0
  6
Continuous
 62
     7
370
    25
100
AcDbLine
 10
207.2697425973
 20
37.6299724337
 30
0.0
 11
207.2697425973
 21
36.6299724337
 31
0.0
  0
LINE
  5
120
330
1F
100
AcDbEntity
  8
0
  6
Continuous
 62
     7
370
    25
100
AcDbLine
 10
223.5197425973
 20
74.1299724337
 30
0.0
 11
223.5197425973
 21
79.1299724337
 31
0.0
  0
LINE
  5
121
330
1F
100
AcDbEntity
  8
0
  6
Continuous
 62
     7
370
    25
100
AcDbLine
 10
207.0197425973
 20
79.1299724337
 30
0.0
 11
207.0197425973
 21
74.1299724337
 31
0.0
  0
LINE
  5
122
330
1F
100
AcDbEntity
  8
0
  6
Continuous
 62
     7
370
    25
100
AcDbLine
 10
223.5197425973
 20
79.1299724337
 30
0.0
 11
223.0197425973
 21
79.6299724337
 31
0.0
  0
LINE
  5
123
330
1F
100
AcDbEntity
  8
0
  6
Continuous
 62
     7
370
    25
100
AcDbLine
 10
207.5197425973
 20
79.6299724337
 30
0.0
 11
207.0197425973
 21
79.1299724337
 31
0.0
  0
LINE
  5
124
330
1F
100
AcDbEntity
  8
0
  6
Continuous
 62
     7
370
    25
100
AcDbLine
 10
210.2697425973
 20
81.4299724337
 30
0.0
 11
210.2697425973
 21
79.6299724337
 31
0.0
  0
SPLINE
  5
125
330
1F
100
AcDbEntity
  8
0
  6
Continuous
 62
     7
370
    25
100
AcDbSpline
210
0.0
220
0.0
230
1.0
 70
     8
 71
     3
 72
    14
 73
    10
 74
     0
 42
0.00000001
 43
0.00000001
 40
0.0
 40
0.0
 40
0.0
 40
0.0
 40
0.1940270337484213
 40
0.4246727794584537
 40
0.6090250821510707
 40
0.7642114987632285
 40
0.8944289422552595
 40
0.9993971688772735
 40
1.0
 40
1.0
 40
1.0
 40
1.0
 10
207.0154367006038
 20
74.13287889449933
 30
0.0
 10
207.0121288964524
 20
74.0837835882257
 30
0.0
 10
207.0048890064446
 20
73.97632722108555
 30
0.0
 10
206.9259951583764
 20
73.83898327886563
 30
0.0
 10
206.8223196578261
 20
73.73878288916188
 30
0.0
 10
206.7179187390656
 20
73.68056296263516
 30
0.0
 10
206.6237336935085
 20
73.65333792502804
 30
0.0
 10
206.5641521526664
 20
73.64424094637683
 30
0.0
 10
206.5380856316173
 20
73.64480973768984
 30
0.0
 10
206.5379367867493
 20
73.64481298559807
 30
0.0
  0
SPLINE
  5
126
330
1F
100
AcDbEntity
  8
0
  6
Continuous
 62
     7
370
    25
100
AcDbSpline
210
0.0
220
0.0
230
1.0
 70
     8
 71
     3
 72
    13
 73
     9
 74
     0
 42
0.00000001
 43
0.00000001
 40
0.0
 40
0.0
 40
0.0
 40
0.0
 40
0.1126967514072397
 40
0.2781385802316101
 40
0.5037779284683929
 40
0.7355685140968626
 40
0.976463160527797
 40
0.9999999999999999
 40
0.9999999999999999
 40
0.9999999999999999
 40
0.9999999999999999
 10
224.0034721311915
 20
73.6460954249394
 30
0.0
 10
223.9753201643961
 20
73.64782494746402
 30
0.0
 10
223.9058403614965
 20
73.65209345506045
 30
0.0
 10
223.7853989728376
 20
73.69479472530173
 30
0.0
 10
223.6546901794852
 20
73.78620201894353
 30
0.0
 10
223.5579136566933
 20
73.93265878068668
 30
0.0
 10
223.5133711182039
 20
74.056348892302
 30
0.0
 10
223.5211278159522
 20
74.12215282379448
 30
0.0
 10
223.5218182335441
 20
74.12800998020265
 30
0.0
  0
LINE
  5
127
330
1F
100
AcDbEntity
  8
0
  6
Continuous
 62
     7
370
    25
100
AcDbLine
 10
214.3997135327
 20
99.5786881006
 30
0.0
 11
214.3997135327
 21
99.5439054322
 31
0.0
  0
SPLINE
  5
128
330
1F
100
AcDbEntity
  8
0
  6
Continuous
 62
     7
370
    25
100
AcDbSpline
210
0.0
220
0.0
230
1.0
 70
     8
 71
     3
 72
     9
 73
     5
 74
     0
 42
0.00000001
 43
0.00000001
 40
0.0
 40
0.0
 40
0.0
 40
0.0
 40
0.4993165458323641
 40
1.0
 40
1.0
 40
1.0
 40
1.0
 10
216.2790353922269
 20
100.1175398624134
 30
0.0
 10
216.2559047745796
 20
100.120890898061
 30
0.0
 10
216.2095802178625
 20
100.127602143013
 30
0.0
 10
216.1630208247342
 20
100.1232749737073
 30
0.0
 10
216.1397093069588
 20
100.1211084316325
 30
0.0
  0
SPLINE
  5
129
330
1F
100
AcDbEntity
  8
0
  6
Continuous
 62
     7
370
    25
100
AcDbSpline
210
0.0
220
0.0
230
1.0
 70
     8
 71
     3
 72
     9
 73
     5
 74
     0
 42
0.00000001
 43
0.00000001
 40
0.0
 40
0.0
 40
0.0
 40
0.0
 40
0.5006834545219043
 40
0.9999999999999999
 40
0.9999999999999999
 40
0.9999999999999999
 40
0.9999999999999999
 10
214.3997758350787
 20
100.1211084315601
 30
0.0
 10
214.3764643204277
 20
100.1232749722254
 30
0.0
 10
214.3299049335726
 20
100.127602138713
 30
0.0
 10
214.283580383316
 20
100.1208908923583
 30
0.0
 10
214.2604497689111
 20
100.1175398560127
 30
0.0
  0
LINE
  5
12A
330
1F
100
AcDbEntity
  8
0
  6
Continuous
 62
     7
370
    25
100
AcDbLine
 10
212.793888079
 20
99.4620228232
 30
0.0
 11
212.6631107244
 21
96.608761333
 31
0.0
  0
LINE
  5
12B
330
1F
100
AcDbEntity
  8
0
  6
Continuous
 62
     7
370
    25
100
AcDbLine
 10
217.8763744703
 20
96.608761333
 30
0.0
 11
217.7455971156
 21
99.4620228232
 31
0.0
  0
LINE
  5
12C
330
1F
100
AcDbEntity
  8
0
  6
Continuous
 62
     7
370
    25
100
AcDbLine
 10
213.3167686171
 20
100.1071237142
 30
0.0
 11
213.2683376741
 21
100.0859192001
 31
0.0
  0
SPLINE
  5
12D
330
1F
100
AcDbEntity
  8
0
  6
Continuous
 62
     7
370
    25
100
AcDbSpline
210
0.0
220
0.0
230
1.0
 70
     8
 71
     3
 72
     9
 73
     5
 74
     0
 42
0.00000001
 43
0.00000001
 40
0.0
 40
0.0
 40
0.0
 40
0.0
 40
0.0503631419175621
 40
0.9999999999999999
 40
0.9999999999999999
 40
0.9999999999999999
 40
0.9999999999999999
 10
212.8502504030963
 20
99.70053099160248
 30
0.0
 10
212.8483543225022
 20
99.69736093423845
 30
0.0
 10
212.8107061432599
 20
99.6344169390208
 30
0.0
 10
212.8041657002446
 20
99.5592693403269
 30
0.0
 10
212.7979546544891
 20
99.4879064108108
 30
0.0
  0
SPLINE
  5
12E
330
1F
100
AcDbEntity
  8
0
  6
Continuous
 62
     7
370
    25
100
AcDbSpline
210
0.0
220
0.0
230
1.0
 70
     8
 71
     3
 72
    11
 73
     7
 74
     0
 42
0.00000001
 43
0.00000001
 40
0.0
 40
0.0
 40
0.0
 40
0.0
 40
0.2436788845968619
 40
0.4915884466681963
 40
0.7437897073051941
 40
0.9999999999999999
 40
0.9999999999999999
 40
0.9999999999999999
 40
0.9999999999999999
 10
217.7415305401659
 20
99.48790641081081
 30
0.0
 10
217.7302265833374
 20
99.55702576270764
 30
0.0
 10
217.707422413876
 20
99.69646449532449
 30
0.0
 10
217.5942576149715
 20
99.88111838786443
 30
0.0
 10
217.4319740221612
 20
100.0317468936737
 30
0.0
 10
217.2928347822427
 20
100.0818663698365
 30
0.0
 10
217.2227165775104
 20
100.1071237141538
 30
0.0
  0
SPLINE
  5
12F
330
1F
100
AcDbEntity
  8
0
  6
Continuous
 62
     7
370
    25
100
AcDbSpline
210
0.0
220
0.0
230
1.0
 70
     8
 71
     3
 72
    10
 73
     6
 74
     0
 42
0.00000001
 43
0.00000001
 40
0.0
 40
0.0
 40
0.0
 40
0.0
 40
0.2663464296502981
 40
0.5214744039517447
 40
1.0
 40
1.0
 40
1.0
 40
1.0
 10
218.2245097942424
 20
96.15321821172796
 30
0.0
 10
218.1793283303259
 20
96.17220427746747
 30
0.0
 10
218.090868436208
 20
96.20937671986854
 30
0.0
 10
217.9442840968085
 20
96.33894383798444
 30
0.0
 10
217.8902599800315
 20
96.46942322942732
 30
0.0
 10
217.8550227458293
 20
96.55452842223985
 30
0.0
  0
SPLINE
  5
130
330
1F
100
AcDbEntity
  8
0
  6
Continuous
 62
     7
370
    25
100
AcDbSpline
210
0.0
220
0.0
230
1.0
 70
     8
 71
     3
 72
    10
 73
     6
 74
     0
 42
0.00000001
 43
0.00000001
 40
0.0
 40
0.0
 40
0.0
 40
0.0
 40
0.4785255960482541
 40
0.7336535703497082
 40
1.0
 40
1.0
 40
1.0
 40
1.0
 10
212.6844624488257
 20
96.55452842223984
 30
0.0
 10
212.6492252146235
 20
96.4694232294273
 30
0.0
 10
212.5952010978465
 20
96.33894383798446
 30
0.0
 10
212.448616758447
 20
96.20937671986852
 30
0.0
 10
212.3601568643291
 20
96.17220427746747
 30
0.0
 10
212.3149754004125
 20
96.15321821172796
 30
0.0
  0
ARC
  5
131
330
1F
100
AcDbEntity
  8
0
  6
Continuous
 62
     7
370
    25
100
AcDbCircle
 10
211.5430041731
 20
94.6299724337
 30
0.0
 40
1.5
100
AcDbArc
 50
90.0
 51
180.0
  0
LINE
  5
132
330
1F
100
AcDbEntity
  8
0
  6
Continuous
 62
     7
370
    25
100
AcDbLine
 10
210.0430041731
 20
94.6299724337
 30
0.0
 11
210.0430041731
 21
89.3770178015
 31
0.0
  0
ARC
  5
133
330
1F
100
AcDbEntity
  8
0
  6
Continuous
 62
     7
370
    25
100
AcDbCircle
 10
218.9964810216
 20
94.6299724337
 30
0.0
 40
1.5
100
AcDbArc
 50
0.0
 51
90.0
  0
LINE
  5
134
330
1F
100
AcDbEntity
  8
0
  6
Continuous
 62
     7
370
    25
100
AcDbLine
 10
220.4964810216
 20
89.3770178015
 30
0.0
 11
220.4964810216
 21
94.6299724337
 31
0.0
  0
LINE
  5
135
330
1F
100
AcDbEntity
  8
0
  6
Continuous
 62
     7
370
    25
100
AcDbLine
 10
206.2809350388
 20
89.5180480194
 30
0.0
 11
207.0897425973
 21
81.4299724337
 31
0.0
  0
LINE
  5
136
330
1F
100
AcDbEntity
  8
0
  6
Continuous
 62
     7
370
    25
100
AcDbLine
 10
223.3147674114
 20
80.0802205742
 30
0.0
 11
224.2585501559
 21
89.5180480194
 31
0.0
  0
ARC
  5
137
330
1F
100
AcDbEntity
  8
0
  6
Continuous
 62
     7
370
    25
100
AcDbCircle
 10
223.2635129657
 20
89.6175517384
 30
0.0
 40
1.000000000000005
100
AcDbArc
 50
354.2894068625
 51
7.1250163489
  0
ARC
  5
138
330
1F
100
AcDbEntity
  8
0
  6
Continuous
 62
     7
370
    25
100
AcDbCircle
 10
207.275972229
 20
89.6175517384
 30
0.0
 40
1.000000000000005
100
AcDbArc
 50
172.8749836511
 51
185.7105931375
  0
LINE
  5
139
330
1F
100
AcDbEntity
  8
0
  6
Continuous
 62
     7
370
    25
100
AcDbLine
 10
224.2557908424
 20
89.741586473
 30
0.0
 11
223.3244904264
 21
97.191989801
 31
0.0
  0
LINE
  5
13A
330
1F
100
AcDbEntity
  8
0
  6
Continuous
 62
     7
370
    25
100
AcDbLine
 10
207.2149947682
 20
97.191989801
 30
0.0
 11
206.2836943522
 21
89.741586473
 31
0.0
  0
ARC
  5
13B
330
1F
100
AcDbEntity
  8
0
  6
Continuous
 62
     7
370
    25
100
AcDbCircle
 10
207.7111337066
 20
97.1299724337
 30
0.0
 40
0.5000000000000299
100
AcDbArc
 50
90.0
 51
172.8749836511
  0
ARC
  5
13C
330
1F
100
AcDbEntity
  8
0
  6
Continuous
 62
     7
370
    25
100
AcDbCircle
 10
222.8283514881
 20
97.1299724337
 30
0.0
 40
0.5000000000000299
100
AcDbArc
 50
7.1250163489
 51
90.0
  0
ARC
  5
13D
330
1F
100
AcDbEntity
  8
0
  6
Continuous
 62
     7
370
    25
100
AcDbCircle
 10
222.8172488163
 20
80.1299724337
 30
0.0
 40
0.5
100
AcDbArc
 50
270.0
 51
354.2894068625
  0
LINE
  5
13E
330
1F
100
AcDbEntity
  8
0
  6
Continuous
 62
     7
370
    25
100
AcDbLine
 10
214.2697425973
 20
81.4299724337
 30
0.0
 11
214.2697425973
 21
79.6299724337
 31
0.0
  0
ARC
  5
13F
330
1F
100
AcDbEntity
  8
0
  6
Continuous
 62
     7
370
    25
100
AcDbCircle
 10
215.2697425973
 20
59.6299724337
 30
0.0
 40
8.0
100
AcDbArc
 50
90.0
 51
180.0
  0
ARC
  5
140
330
1F
100
AcDbEntity
  8
0
  6
Continuous
 62
     7
370
    25
100
AcDbCircle
 10
215.2697425973
 20
59.6299724337
 30
0.0
 40
8.0
100
AcDbArc
 50
0.0
 51
90.0
  0
LINE
  5
141
330
1F
100
AcDbEntity
  8
0
  6
Continuous
 62
     7
370
    25
100
AcDbLine
 10
215.2697425973
 20
36.6299724337
 30
0.0
 11
207.2697425973
 21
36.6299724337
 31
0.0
  0
LINE
  5
142
330
1F
100
AcDbEntity
  8
0
  6
Continuous
 62
     7
370
    25
100
AcDbLine
 10
223.2697425973
 20
36.6299724337
 30
0.0
 11
215.2697425973
 21
36.6299724337
 31
0.0
  0
ARC
  5
143
330
1F
100
AcDbEntity
  8
0
  6
Continuous
 62
     7
370
    25
100
AcDbCircle
 10
215.2697425973
 20
59.6299724337
 30
0.0
 40
13.00000000000001
100
AcDbArc
 50
90.0
 51
232.0201275551
  0
ARC
  5
144
330
1F
100
AcDbEntity
  8
0
  6
Continuous
 62
     7
370
    25
100
AcDbCircle
 10
215.2697425973
 20
59.6299724337
 30
0.0
 40
13.00000000000001
100
AcDbArc
 50
307.9798724449
 51
90.0
  0
ARC
  5
145
330
1F
100
AcDbEntity
  8
0
  6
Continuous
 62
     7
370
    25
100
AcDbCircle
 10
215.2697425973
 20
59.6299724337
 30
0.0
 40
13.5
100
AcDbArc
 50
306.3412030938
 51
90.0
  0
ARC
  5
146
330
1F
100
AcDbEntity
  8
0
  6
Continuous
 62
     7
370
    25
100
AcDbCircle
 10
215.2697425973
 20
59.6299724337
 30
0.0
 40
13.5
100
AcDbArc
 50
90.0
 51
233.6587969062
  0
ARC
  5
147
330
1F
100
AcDbEntity
  8
0
  6
Continuous
 62
     7
370
    25
100
AcDbCircle
 10
215.2697425973
 20
59.6299724337
 30
0.0
 40
16.50000000000001
100
AcDbArc
 50
121.9527464003
 51
148.0472535997
  0
SPLINE
  5
148
330
1F
100
AcDbEntity
  8
0
  6
Continuous
 62
     7
370
    25
100
AcDbSpline
210
0.0
220
0.0
230
1.0
 70
    24
 71
     3
 72
    10
 73
     6
 74
     0
 42
0.00000001
 43
0.00000001
 40
0.0
 40
0.0
 40
0.0
 40
0.0
 40
0.5
 40
0.5
 40
1.0
 40
1.0
 40
1.0
 40
1.0
 10
206.537617999041
 20
73.62997243366166
 30
0.0
 10
207.9550836915691
 20
73.62997243366166
 30
0.0
 10
209.4063178460968
 20
73.62997243366166
 30
0.0
 10
212.319695315075
 20
73.62997243366166
 30
0.0
 10
213.7877938773835
 20
73.62997243366166
 30
0.0
 10
215.2697425973275
 20
73.62997243366166
 30
0.0
  0
ARC
  5
149
330
1F
100
AcDbEntity
  8
0
  6
Continuous
 62
     7
370
    25
100
AcDbCircle
 10
215.2697425973
 20
59.6299724337
 30
0.0
 40
14.0
100
AcDbArc
 50
90.0
 51
180.0
  0
SPLINE
  5
14A
330
1F
100
AcDbEntity
  8
0
  6
Continuous
 62
     7
370
    25
100
AcDbSpline
210
0.0
220
0.0
230
1.0
 70
    24
 71
     3
 72
    14
 73
    10
 74
     0
 42
0.00000001
 43
0.00000001
 40
0.0
 40
0.0
 40
0.0
 40
0.0
 40
0.125
 40
0.125
 40
0.25
 40
0.25
 40
0.5
 40
0.5
 40
1.0
 40
1.0
 40
1.0
 40
1.0
 10
201.2697425973275
 20
59.62997243366166
 30
0.0
 10
201.2697425973275
 20
60.00098451248202
 30
0.0
 10
201.2697425973275
 20
60.37284972602311
 30
0.0
 10
201.2697425973275
 20
61.11829377573491
 30
0.0
 10
201.2697425973275
 20
61.49242623973655
 30
0.0
 10
201.2697425973275
 20
62.60616428146845
 30
0.0
 10
201.2697425973275
 20
63.34058202932221
 30
0.0
 10
201.2697425973275
 20
65.52334041266771
 30
0.0
 10
201.2697425973275
 20
66.95137866718058
 30
0.0
 10
201.2697425973275
 20
68.36209703194817
 30
0.0
  0
ARC
  5
14B
330
1F
100
AcDbEntity
  8
0
  6
Continuous
 62
     7
370
    25
100
AcDbCircle
 10
215.2697425973
 20
59.6299724337
 30
0.0
 40
14.0
100
AcDbArc
 50
180.0
 51
235.150095421
  0
ARC
  5
14C
330
1F
100
AcDbEntity
  8
0
  6
Continuous
 62
     7
370
    25
100
AcDbCircle
 10
215.2697425973
 20
59.6299724337
 30
0.0
 40
14.0
100
AcDbArc
 50
0.0
 51
90.0
  0
ARC
  5
14D
330
1F
100
AcDbEntity
  8
0
  6
Continuous
 62
     7
370
    25
100
AcDbCircle
 10
215.2697425973
 20
59.6299724337
 30
0.0
 40
13.99999999999999
100
AcDbArc
 50
304.849904579
 51
0.0
  0
ARC
  5
14E
330
1F
100
AcDbEntity
  8
0
  6
Continuous
 62
     7
370
    25
100
AcDbCircle
 10
215.2697425973
 20
59.6299724337
 30
0.0
 40
16.5
100
AcDbArc
 50
211.9527464003
 51
238.0472535997
  0
LINE
  5
14F
330
1F
100
AcDbEntity
  8
0
  6
Continuous
 62
     7
370
    25
100
AcDbLine
 10
206.537617999
 20
45.6299724337
 30
0.0
 11
207.2697425973
 21
45.6299724337
 31
0.0
  0
SPLINE
  5
150
330
1F
100
AcDbEntity
  8
0
  6
Continuous
 62
     7
370
    25
100
AcDbSpline
210
0.0
220
0.0
230
1.0
 70
    24
 71
     3
 72
    10
 73
     6
 74
     0
 42
0.00000001
 43
0.00000001
 40
0.0
 40
0.0
 40
0.0
 40
0.0
 40
0.5
 40
0.5
 40
1.0
 40
1.0
 40
1.0
 40
1.0
 10
201.2697425973275
 20
50.89784783537517
 30
0.0
 10
201.2697425973275
 20
52.315313527902
 30
0.0
 10
201.2697425973275
 20
53.76654768242859
 30
0.0
 10
201.2697425973275
 20
56.67992515140683
 30
0.0
 10
201.2697425973275
 20
58.14802371371611
 30
0.0
 10
201.2697425973275
 20
59.62997243366166
 30
0.0
  0
ARC
  5
151
330
1F
100
AcDbEntity
  8
0
  6
Continuous
 62
     7
370
    25
100
AcDbCircle
 10
215.2697425973
 20
59.6299724337
 30
0.0
 40
16.5
100
AcDbArc
 50
31.9527464003
 51
58.0472535997
  0
SPLINE
  5
152
330
1F
100
AcDbEntity
  8
0
  6
Continuous
 62
     7
370
    25
100
AcDbSpline
210
0.0
220
0.0
230
1.0
 70
    24
 71
     3
 72
    14
 73
    10
 74
     0
 42
0.00000001
 43
0.00000001
 40
0.0
 40
0.0
 40
0.0
 40
0.0
 40
0.125
 40
0.125
 40
0.2500000000000001
 40
0.2500000000000001
 40
0.5
 40
0.5
 40
1.0
 40
1.0
 40
1.0
 40
1.0
 10
229.2697425973275
 20
59.62997243366166
 30
0.0
 10
229.2697425973275
 20
60.00098451248202
 30
0.0
 10
229.2697425973275
 20
60.37284972602311
 30
0.0
 10
229.2697425973275
 20
61.1182937757349
 30
0.0
 10
229.2697425973275
 20
61.49242623973655
 30
0.0
 10
229.2697425973275
 20
62.60616428146845
 30
0.0
 10
229.2697425973275
 20
63.34058202932221
 30
0.0
 10
229.2697425973275
 20
65.52334041266771
 30
0.0
 10
229.2697425973275
 20
66.95137866718056
 30
0.0
 10
229.2697425973275
 20
68.36209703194815
 30
0.0
  0
SPLINE
  5
153
330
1F
100
AcDbEntity
  8
0
  6
Continuous
 62
     7
370
    25
100
AcDbSpline
210
0.0
220
0.0
230
1.0
 70
    24
 71
     3
 72
    14
 73
    10
 74
     0
 42
0.00000001
 43
0.00000001
 40
0.0
 40
0.0
 40
0.0
 40
0.0
 40
0.125
 40
0.125
 40
0.25
 40
0.25
 40
0.5
 40
0.5
 40
1.0
 40
1.0
 40
1.0
 40
1.0
 10
215.2697425973275
 20
73.62997243366166
 30
0.0
 10
215.6407546761469
 20
73.62997243366166
 30
0.0
 10
216.012619889687
 20
73.62997243366166
 30
0.0
 10
216.7580639393966
 20
73.62997243366166
 30
0.0
 10
217.1321964033984
 20
73.62997243366166
 30
0.0
 10
218.2459344451325
 20
73.62997243366166
 30
0.0
 10
218.9803521929872
 20
73.62997243366166
 30
0.0
 10
221.1631105763346
 20
73.62997243366166
 30
0.0
 10
222.5911488308474
 20
73.62997243366166
 30
0.0
 10
224.001867195614
 20
73.62997243366166
 30
0.0
  0
SPLINE
  5
154
330
1F
100
AcDbEntity
  8
0
  6
Continuous
 62
     7
370
    25
100
AcDbSpline
210
0.0
220
0.0
230
1.0
 70
    24
 71
     3
 72
    10
 73
     6
 74
     0
 42
0.00000001
 43
0.00000001
 40
0.0
 40
0.0
 40
0.0
 40
0.0
 40
0.5
 40
0.5
 40
1.0
 40
1.0
 40
1.0
 40
1.0
 10
229.2697425973275
 20
50.89784783537517
 30
0.0
 10
229.2697425973275
 20
52.315313527902
 30
0.0
 10
229.2697425973275
 20
53.76654768242859
 30
0.0
 10
229.2697425973275
 20
56.67992515140682
 30
0.0
 10
229.2697425973275
 20
58.1480237137161
 30
0.0
 10
229.2697425973275
 20
59.62997243366166
 30
0.0
  0
ARC
  5
155
330
1F
100
AcDbEntity
  8
0
  6
Continuous
 62
     7
370
    25
100
AcDbCircle
 10
215.2697425973
 20
59.6299724337
 30
0.0
 40
16.49999999999999
100
AcDbArc
 50
301.9527464003
 51
328.0472535997
  0
LINE
  5
156
330
1F
100
AcDbEntity
  8
0
  6
Continuous
 62
     7
370
    25
100
AcDbLine
 10
223.2697425973
 20
45.6299724337
 30
0.0
 11
224.0018671956
 21
45.6299724337
 31
0.0
  0
ARC
  5
157
330
1F
100
AcDbEntity
  8
0
  6
Continuous
 62
     7
370
    25
100
AcDbCircle
 10
206.5371067505
 20
74.1294622296
 30
0.0
 40
0.4994900575603813
100
AcDbArc
 50
270.0586445851
 51
0.0585247798
  0
LINE
  5
158
330
1F
100
AcDbEntity
  8
0
  6
Continuous
 62
     7
370
    25
100
AcDbLine
 10
207.0365965475
 20
74.1299724337
 30
0.0
 11
223.5028886471
 21
74.1299724337
 31
0.0
  0
ARC
  5
159
330
1F
100
AcDbEntity
  8
0
  6
Continuous
 62
     7
370
    25
100
AcDbCircle
 10
224.0023784441
 20
74.1294622296
 30
0.0
 40
0.4994900575603529
100
AcDbArc
 50
179.9414752202
 51
269.9413554149
  0
LINE
  5
15A
330
1F
100
AcDbEntity
  8
0
  6
Continuous
 62
     7
370
    25
100
AcDbLine
 10
223.5197425973
 20
79.1299724337
 30
0.0
 11
207.0197425973
 21
79.1299724337
 31
0.0
  0
LINE
  5
15B
330
1F
100
AcDbEntity
  8
0
  6
Continuous
 62
     7
370
    25
100
AcDbLine
 10
207.5197425973
 20
79.6299724337
 30
0.0
 11
223.0197425973
 21
79.6299724337
 31
0.0
  0
ELLIPSE
  5
15C
330
1F
100
AcDbEntity
  8
0
  6
Continuous
 62
     7
370
    25
100
AcDbEllipse
 10
215.0952040422
 20
90.8535792314
 30
0.0
 11
0.7234244958979731
 21
-0.7001325129304662
 31
0.0
210
0.0
220
0.0
230
1.0
 40
0.9869902583
 41
4.707649545362608
 42
5.487972049091441
  0
LINE
  5
15D
330
1F
100
AcDbEntity
  8
0
  6
Continuous
 62
     7
370
    25
100
AcDbLine
 10
215.108297003
 20
89.8535792314
 30
0.0
 11
215.108297003
 21
89.1299724337
 31
0.0
  0
ELLIPSE
  5
15E
330
1F
100
AcDbEntity
  8
0
  6
Continuous
 62
     7
370
    25
100
AcDbEllipse
 10
215.0952040422
 20
90.6299724337
 30
0.0
 11
1.074619436156695
 21
-1.056020081253678
 31
0.0
210
0.0
220
0.0
230
0.9999999999999998
 40
0.9913091236
 41
4.713099434383486
 42
5.493421938112347
  0
LWPOLYLINE
  5
15F
330
1F
100
AcDbEntity
  8
0
  6
Continuous
 62
     7
370
    25
100
AcDbPolyline
 90
        9
 70
   128
 43
0.0
 10
214.4007592228
 20
90.1428925406
 10
214.3150303407
 20
90.066562063
 10
214.2339986909
 20
89.9821620637
 10
214.162104136
 20
89.8943169632
 10
214.1032859018
 20
89.8078399448
 10
214.06076674
 20
89.7274692325
 10
214.0368763483
 20
89.6576084751
 10
214.0329237222
 20
89.6020854632
 10
214.0491254328
 20
89.5639423974
  0
ELLIPSE
  5
160
330
1F
100
AcDbEntity
  8
0
  6
Continuous
 62
     7
370
    25
100
AcDbEllipse
 10
215.4442811524
 20
90.8535792314
 30
0.0
 11
0.7234244958980298
 21
0.7001325129304519
 31
0.0
210
0.0
220
0.0
230
1.0
 40
0.9869902583
 41
3.936805911677987
 42
4.717128415406826
  0
LWPOLYLINE
  5
161
330
1F
100
AcDbEntity
  8
0
  6
Continuous
 62
     7
370
    25
100
AcDbPolyline
 90
        9
 70
   128
 43
0.0
 10
216.1387259718
 20
90.1428925406
 10
216.2244548539
 20
90.066562063
 10
216.3054865038
 20
89.9821620637
 10
216.3773810587
 20
89.8943169632
 10
216.4361992929
 20
89.8078399448
 10
216.4787184546
 20
89.7274692325
 10
216.5026088463
 20
89.6576084751
 10
216.5065614724
 20
89.6020854632
 10
216.4903597619
 20
89.5639423974
  0
ELLIPSE
  5
162
330
1F
100
AcDbEntity
  8
0
  6
Continuous
 62
     7
370
    25
100
AcDbEllipse
 10
215.4442811524
 20
90.6299724337
 30
0.0
 11
1.074619436156723
 21
1.056020081253692
 31
0.0
210
0.0
220
0.0
230
1.0
 40
0.9913091236
 41
3.931356022657064
 42
4.711678526385914
  0
LINE
  5
163
330
1F
100
AcDbEntity
  8
0
  6
Continuous
 62
     7
370
    25
100
AcDbLine
 10
215.4311881917
 20
89.8535792314
 30
0.0
 11
215.4311881917
 21
89.1299724337
 31
0.0
  0
LINE
  5
164
330
1F
100
AcDbEntity
  8
0
  6
Continuous
 62
     7
370
    25
100
AcDbLine
 10
215.108297003
 20
89.8535792314
 30
0.0
 11
215.4311881917
 21
89.8535792314
 31
0.0
  0
LINE
  5
165
330
1F
100
AcDbEntity
  8
0
  6
Continuous
 62
     7
370
    25
100
AcDbLine
 10
215.4311881917
 20
89.1299724337
 30
0.0
 11
215.108297003
 21
89.1299724337
 31
0.0
  0
LINE
  5
166
330
1F
100
AcDbEntity
  8
0
  6
Continuous
 62
     7
370
    25
100
AcDbLine
 10
214.4007592228
 20
90.1428925406
 30
0.0
 11
214.4007592228
 21
99.3007928269
 31
0.0
  0
LINE
  5
167
330
1F
100
AcDbEntity
  8
0
  6
Continuous
 62
     7
370
    25
100
AcDbLine
 10
214.4007592228
 20
99.3007928269
 30
0.0
 11
216.1387259718
 21
99.3007928269
 31
0.0
  0
LINE
  5
168
330
1F
100
AcDbEntity
  8
0
  6
Continuous
 62
     7
370
    25
100
AcDbLine
 10
216.1387259718
 20
99.3007928269
 30
0.0
 11
216.1387259718
 21
90.1428925406
 31
0.0
  0
SPLINE
  5
169
330
1F
100
AcDbEntity
  8
0
  6
Continuous
 62
     7
370
    25
100
AcDbSpline
210
0.0
220
0.0
230
1.0
 70
     8
 71
     3
 72
    12
 73
     8
 74
     0
 42
0.00000001
 43
0.00000001
 40
0.0
 40
0.0
 40
0.0
 40
0.0
 40
0.139683458618249
 40
0.3831896274038307
 40
0.55131692930133
 40
0.8194729461607051
 40
0.9999999999999999
 40
0.9999999999999999
 40
0.9999999999999999
 40
0.9999999999999999
 10
216.1387259718462
 20
90.14289254060114
 30
0.0
 10
216.1884408923247
 20
90.15620491426209
 30
0.0
 10
216.3248224083825
 20
90.19272436727005
 30
0.0
 10
216.5047385175946
 20
90.23039642786144
 30
0.0
 10
216.6830799459795
 20
90.25476374862293
 30
0.0
 10
216.803600170531
 20
90.25364671385897
 30
0.0
 10
216.8277461838379
 20
90.21226342548138
 30
0.0
 10
216.8374613010975
 20
90.19561291286598
 30
0.0
  0
ARC
  5
16A
330
1F
100
AcDbEntity
  8
0
  6
Continuous
 62
     7
370
    25
100
AcDbCircle
 10
216.3392071204
 20
90.1807599272
 30
0.0
 40
0.4984755156839546
100
AcDbArc
 50
333.4921832491
 51
1.7074848132
  0
SPLINE
  5
16B
330
1F
100
AcDbEntity
  8
0
  6
Continuous
 62
     7
370
    25
100
AcDbSpline
210
0.0
220
0.0
230
1.0
 70
     8
 71
     3
 72
    12
 73
     8
 74
     0
 42
0.00000001
 43
0.00000001
 40
0.0
 40
0.0
 40
0.0
 40
0.0
 40
0.0715202026166142
 40
0.1260836237049476
 40
0.3855387013103047
 40
0.8475626424815554
 40
1.0
 40
1.0
 40
1.0
 40
1.0
 10
216.7852796395364
 20
89.95828038331086
 30
0.0
 10
216.7833435938312
 20
89.95517173544606
 30
0.0
 10
216.7799305210317
 20
89.94969147150272
 30
0.0
 10
216.7577480705264
 20
89.9101029260823
 30
0.0
 10
216.6947345957601
 20
89.80366879310003
 30
0.0
 10
216.5976882702881
 20
89.6731617773918
 30
0.0
 10
216.5116935770699
 20
89.58565206342845
 30
0.0
 10
216.4903597618683
 20
89.56394239744589
 30
0.0
  0
SPLINE
  5
16C
330
1F
100
AcDbEntity
  8
0
  6
Continuous
 62
     7
370
    25
100
AcDbSpline
210
0.0
220
0.0
230
1.0
 70
     8
 71
     3
 72
    11
 73
     7
 74
     0
 42
0.00000001
 43
0.00000001
 40
0.0
 40
0.0
 40
0.0
 40
0.0
 40
0.2499999999999989
 40
0.4999999999999977
 40
0.7499999999999992
 40
1.0
 40
1.0
 40
1.0
 40
1.0
 10
216.8374613010975
 20
99.0065525612751
 30
0.0
 10
216.822461995931
 20
99.04567011544123
 30
0.0
 10
216.7924633855978
 20
99.12390522377349
 30
0.0
 10
216.6289436828012
 20
99.22056829948176
 30
0.0
 10
216.4033640687188
 20
99.28775651562121
 30
0.0
 10
216.2269386708037
 20
99.29644738981483
 30
0.0
 10
216.1387259718462
 20
99.30079282691162
 30
0.0
  0
LINE
  5
16D
330
1F
100
AcDbEntity
  8
0
  6
Continuous
 62
     7
370
    25
100
AcDbLine
 10
216.8374613011
 20
90.1956129129
 30
0.0
 11
216.8374613011
 21
99.0065525613
 31
0.0
  0
SPLINE
  5
16E
330
1F
100
AcDbEntity
  8
0
  6
Continuous
 62
     7
370
    25
100
AcDbSpline
210
0.0
220
0.0
230
1.0
 70
     8
 71
     3
 72
    13
 73
     9
 74
     0
 42
0.00000001
 43
0.00000001
 40
0.0
 40
0.0
 40
0.0
 40
0.0
 40
0.1143463544469914
 40
0.2890454840074685
 40
0.5294852105593209
 40
0.7014879056604271
 40
0.9335094878266192
 40
1.0
 40
1.0
 40
1.0
 40
1.0
 10
213.7020238935575
 20
90.19561291286598
 30
0.0
 10
213.7068584850626
 20
90.20699974462397
 30
0.0
 10
213.7190793979927
 20
90.23578345454384
 30
0.0
 10
213.7917274930337
 20
90.25603363199272
 30
0.0
 10
213.9222397594405
 20
90.24817630524709
 30
0.0
 10
214.1091073586101
 20
90.21564888891915
 30
0.0
 10
214.2704807633667
 20
90.17852753396726
 30
0.0
 10
214.3770271142186
 20
90.14938397084829
 30
0.0
 10
214.4007592228088
 20
90.14289254060114
 30
0.0
  0
SPLINE
  5
16F
330
1F
100
AcDbEntity
  8
0
  6
Continuous
 62
     7
370
    25
100
AcDbSpline
210
0.0
220
0.0
230
1.0
 70
     8
 71
     3
 72
    11
 73
     7
 74
     0
 42
0.00000001
 43
0.00000001
 40
0.0
 40
0.0
 40
0.0
 40
0.0
 40
0.3325271082490199
 40
0.7778992719027311
 40
0.9254453528959206
 40
1.0
 40
1.0
 40
1.0
 40
1.0
 10
214.0491254327867
 20
89.56394239744589
 30
0.0
 10
214.0038946096404
 20
89.61187894557406
 30
0.0
 10
213.8980836140248
 20
89.72401959504715
 30
0.0
 10
213.8103236395473
 20
89.85937981306434
 30
0.0
 10
213.7627107476095
 20
89.94438044684281
 30
0.0
 10
213.7563430576812
 20
89.95478708790897
 30
0.0
 10
213.7542055551186
 20
89.95828038331086
 30
0.0
  0
ARC
  5
170
330
1F
100
AcDbEntity
  8
0
  6
Continuous
 62
     7
370
    25
100
AcDbCircle
 10
214.2002780742
 20
90.1807599272
 30
0.0
 40
0.4984755156839037
100
AcDbArc
 50
178.2925151868
 51
206.5078167509
  0
SPLINE
  5
171
330
1F
100
AcDbEntity
  8
0
  6
Continuous
 62
     7
370
    25
100
AcDbSpline
210
0.0
220
0.0
230
1.0
 70
     8
 71
     3
 72
    11
 73
     7
 74
     0
 42
0.00000001
 43
0.00000001
 40
0.0
 40
0.0
 40
0.0
 40
0.0
 40
0.2499999999999988
 40
0.5000000000000019
 40
0.7499999999999991
 40
1.0
 40
1.0
 40
1.0
 40
1.0
 10
213.7020238935575
 20
99.00655256127509
 30
0.0
 10
213.7170231987241
 20
99.04567011544124
 30
0.0
 10
213.7470218090572
 20
99.12390522377349
 30
0.0
 10
213.9105415118539
 20
99.22056829948173
 30
0.0
 10
214.1361211259363
 20
99.28775651562121
 30
0.0
 10
214.3125465238513
 20
99.29644738981482
 30
0.0
 10
214.4007592228088
 20
99.30079282691162
 30
0.0
  0
LINE
  5
172
330
1F
100
AcDbEntity
  8
0
  6
Continuous
 62
     7
370
    25
100
AcDbLine
 10
213.7020238936
 20
99.0065525613
 30
0.0
 11
213.7020238936
 21
90.1956129129
 31
0.0
  0
LINE
  5
173
330
1F
100
AcDbEntity
  8
0
  6
Continuous
 62
     7
370
    25
100
AcDbLine
 10
214.4161368059
 20
89.1299724337
 30
0.0
 11
215.108297003
 21
89.1299724337
 31
0.0
  0
SPLINE
  5
174
330
1F
100
AcDbEntity
  8
0
  6
Continuous
 62
     7
370
    25
100
AcDbSpline
210
0.0
220
0.0
230
1.0
 70
     8
 71
     3
 72
    11
 73
     7
 74
     0
 42
0.00000001
 43
0.00000001
 40
0.0
 40
0.0
 40
0.0
 40
0.0
 40
0.2500000000000002
 40
0.4999999999999996
 40
0.7499999999999999
 40
1.0
 40
1.0
 40
1.0
 40
1.0
 10
212.9171646548304
 20
90.66923785612347
 30
0.0
 10
212.9352409652484
 20
90.4688622497474
 30
0.0
 10
212.9713935860845
 20
90.06811103699523
 30
0.0
 10
213.316019360285
 20
89.55791809895328
 30
0.0
 10
213.8168414464052
 20
89.1999370305866
 30
0.0
 10
214.2163716860659
 20
89.15329396597
 30
0.0
 10
214.4161368058963
 20
89.12997243366166
 30
0.0
  0
LINE
  5
175
330
1F
100
AcDbEntity
  8
0
  6
Continuous
 62
     7
370
    25
100
AcDbLine
 10
213.4835019349
 20
90.6692378561
 30
0.0
 11
212.9171646548
 21
90.6692378561
 31
0.0
  0
SPLINE
  5
176
330
1F
100
AcDbEntity
  8
0
  6
Continuous
 62
     7
370
    25
100
AcDbSpline
210
0.0
220
0.0
230
1.0
 70
     8
 71
     3
 72
     9
 73
     5
 74
     0
 42
0.00000001
 43
0.00000001
 40
0.0
 40
0.0
 40
0.0
 40
0.0
 40
0.5407747560677784
 40
1.0
 40
1.0
 40
1.0
 40
1.0
 10
213.4835019349109
 20
90.66923785612349
 30
0.0
 10
213.483472434498
 20
90.65790390232281
 30
0.0
 10
213.4834178823716
 20
90.63694516918386
 30
0.0
 10
213.4840221275065
 20
90.6159789763159
 30
0.0
 10
213.484299612126
 20
90.6063507712818
 30
0.0
  0
ELLIPSE
  5
177
330
1F
100
AcDbEntity
  8
0
  6
Continuous
 62
     7
370
    25
100
AcDbEllipse
 10
214.982474086
 20
90.6299724337
 30
0.0
 11
-0.3999861399326506
 21
1.445826639360078
 31
0.0
210
0.0
220
0.0
230
1.0
 40
0.9987379186
 41
1.314426961368761
 42
1.316970714136508
  0
ELLIPSE
  5
178
330
1F
100
AcDbEntity
  8
0
  6
Continuous
 62
     7
370
    25
100
AcDbEllipse
 10
215.9311669857
 20
90.6299724337
 30
0.0
 11
2.447559743736974
 21
-0.02501587584978892
 31
0.0
210
0.0
220
0.0
230
1.0
 40
0.6127700831
 41
3.171475350442034
 42
3.622568086779192
  0
LINE
  5
179
330
1F
100
AcDbEntity
  8
0
  6
Continuous
 62
     7
370
    25
100
AcDbLine
 10
217.0559832597
 20
90.6692378561
 30
0.0
 11
217.0551855825
 21
90.6063507713
 31
0.0
  0
LINE
  5
17A
330
1F
100
AcDbEntity
  8
0
  6
Continuous
 62
     7
370
    25
100
AcDbLine
 10
217.6223205398
 20
90.6692378561
 30
0.0
 11
217.0559832597
 21
90.6692378561
 31
0.0
  0
SPLINE
  5
17B
330
1F
100
AcDbEntity
  8
0
  6
Continuous
 62
     7
370
    25
100
AcDbSpline
210
0.0
220
0.0
230
1.0
 70
     8
 71
     3
 72
    11
 73
     7
 74
     0
 42
0.00000001
 43
0.00000001
 40
0.0
 40
0.0
 40
0.0
 40
0.0
 40
0.2500000000000001
 40
0.4999999999999997
 40
0.75
 40
1.0
 40
1.0
 40
1.0
 40
1.0
 10
216.1233483887587
 20
89.12997243366166
 30
0.0
 10
216.3231135085891
 20
89.15329396596998
 30
0.0
 10
216.7226437482499
 20
89.19993703058658
 30
0.0
 10
217.22346583437
 20
89.55791809895328
 30
0.0
 10
217.5680916085705
 20
90.06811103699522
 30
0.0
 10
217.6042442294066
 20
90.4688622497474
 30
0.0
 10
217.6223205398246
 20
90.66923785612349
 30
0.0
  0
LINE
  5
17C
330
1F
100
AcDbEntity
  8
0
  6
Continuous
 62
     7
370
    25
100
AcDbLine
 10
215.4311881917
 20
89.1299724337
 30
0.0
 11
216.1233483888
 21
89.1299724337
 31
0.0
  0
ELLIPSE
  5
17D
330
1F
100
AcDbEntity
  8
0
  6
Continuous
 62
     7
370
    25
100
AcDbEllipse
 10
214.608318209
 20
90.6299724337
 30
0.0
 11
2.447559743736946
 21
0.02501587584980314
 31
0.0
210
0.0
220
0.0
230
1.0
 40
0.6127700831
 41
5.802209873990217
 42
6.253302610327362
  0
ELLIPSE
  5
17E
330
1F
100
AcDbEntity
  8
0
  6
Continuous
 62
     7
370
    25
100
AcDbEllipse
 10
215.5570111087
 20
90.6299724337
 30
0.0
 11
0.399986139932537
 21
1.445826639360107
 31
0.0
210
0.0
220
0.0
230
1.0
 40
0.9987379186
 41
4.966214593033913
 42
4.968758345810742
  0
ELLIPSE
  5
17F
330
1F
100
AcDbEntity
  8
0
  6
Continuous
 62
     7
370
    25
100
AcDbEllipse
 10
213.6538697355
 20
98.6487816849
 30
0.0
 11
0.02159772760040824
 21
0.7999991561933231
 31
0.0
210
0.0
220
0.0
230
1.0
 40
0.0537988877
 41
5.177489007048747
 42
5.369012849440669
  0
ELLIPSE
  5
180
330
1F
100
AcDbEntity
  8
0
  6
Continuous
 62
     7
370
    25
100
AcDbEllipse
 10
215.4320703219
 20
90.6434076131
 30
0.0
 11
1.947791790405574
 21
-0.01776981143129319
 31
0.0
210
0.0
220
0.0
230
1.0
 40
0.513320833
 41
3.160788584408894
 42
3.623660809788542
  0
LINE
  5
181
330
1F
100
AcDbEntity
  8
0
  6
Continuous
 62
     7
370
    25
100
AcDbLine
 10
213.4844622982
 20
90.6419824295
 30
0.0
 11
213.7011434094
 21
99.1362178477
 31
0.0
  0
ELLIPSE
  5
182
330
1F
100
AcDbEntity
  8
0
  6
Continuous
 62
     7
370
    25
100
AcDbEllipse
 10
216.8856154591
 20
98.6487816849
 30
0.0
 11
-0.02159772760040824
 21
0.7999991561933231
 31
0.0
210
0.0
220
0.0
230
1.0
 40
0.0537988877
 41
0.9141724577393362
 42
1.105696300131138
  0
LINE
  5
183
330
1F
100
AcDbEntity
  8
0
  6
Continuous
 62
     7
370
    25
100
AcDbLine
 10
216.8383417852
 20
99.1362178477
 30
0.0
 11
217.0550228965
 21
90.6419824295
 31
0.0
  0
ELLIPSE
  5
184
330
1F
100
AcDbEntity
  8
0
  6
Continuous
 62
     7
370
    25
100
AcDbEllipse
 10
215.1074148727
 20
90.6434076131
 30
0.0
 11
1.947791790405546
 21
0.0177698114313074
 31
0.0
210
0.0
220
0.0
230
1.0
 40
0.513320833
 41
5.80111715098087
 42
6.263989376373016
  0
LINE
  5
185
330
1F
100
AcDbEntity
  8
0
  6
Continuous
 62
     7
370
    25
100
AcDbLine
 10
213.4842419631
 20
90.6101659996
 30
0.0
 11
213.4844622982
 21
90.6419824295
 31
0.0
  0
SPLINE
  5
186
330
1F
100
AcDbEntity
  8
0
  6
Continuous
 62
     7
370
    25
100
AcDbSpline
210
0.0
220
0.0
230
1.0
 70
     8
 71
     3
 72
     9
 73
     5
 74
     0
 42
0.00000001
 43
0.00000001
 40
0.0
 40
0.0
 40
0.0
 40
0.0
 40
0.8673350121727758
 40
1.0
 40
1.0
 40
1.0
 40
1.0
 10
217.0550228964529
 20
90.64198242952423
 30
0.0
 10
217.0551936286402
 20
90.63278400614904
 30
0.0
 10
217.0553904755158
 20
90.62217861924995
 30
0.0
 10
217.0552604777505
 20
90.61157299464857
 30
0.0
 10
217.0552432315986
 20
90.61016599958992
 30
0.0
  0
ELLIPSE
  5
187
330
1F
100
AcDbEntity
  8
0
  6
Continuous
 62
     7
370
    25
100
AcDbEllipse
 10
214.3701942269
 20
98.6299724337
 30
0.0
 11
0.0209600052571659
 21
1.499999971448744
 31
0.0
210
0.0
220
0.0
230
1.0
 40
0.013963099
 41
5.413231207417792
 42
6.283380418265287
  0
LINE
  5
188
330
1F
100
AcDbEntity
  8
0
  6
Continuous
 62
     7
370
    25
100
AcDbLine
 10
216.1483350495
 20
100.1299724337
 30
0.0
 11
214.3911501452
 21
100.1299724337
 31
0.0
  0
ELLIPSE
  5
189
330
1F
100
AcDbEntity
  8
0
  6
Continuous
 62
     7
370
    25
100
AcDbEllipse
 10
216.1692909678
 20
98.6299724337
 30
0.0
 11
-0.0209600052571659
 21
1.499999971448744
 31
0.0
210
0.0
220
0.0
230
1.0
 40
0.013963099
 41
6.282990196094869
 42
7.153139406940247
  0
SPLINE
  5
18A
330
1F
100
AcDbEntity
  8
0
  6
Continuous
 62
     7
370
    25
100
AcDbSpline
210
0.0
220
0.0
230
1.0
 70
     8
 71
     3
 72
     9
 73
     5
 74
     0
 42
0.00000001
 43
0.00000001
 40
0.0
 40
0.0
 40
0.0
 40
0.0
 40
0.5600029565045049
 40
1.0
 40
1.0
 40
1.0
 40
1.0
 10
216.1397666839514
 20
99.59704117450225
 30
0.0
 10
216.1397723220177
 20
99.58725471234231
 30
0.0
 10
216.1397823899399
 20
99.56977897931932
 30
0.0
 10
216.1396602133365
 20
99.55181801165352
 30
0.0
 10
216.1396064559922
 20
99.54391523898227
 30
0.0
  0
ELLIPSE
  5
18B
330
1F
100
AcDbEntity
  8
0
  6
Continuous
 62
     7
370
    25
100
AcDbEllipse
 10
216.1868801299
 20
98.6299724337
 30
0.0
 11
-0.02155295842283067
 21
1.499999872388912
 31
0.0
210
0.0
220
0.0
230
1.0
 40
0.0287076702
 41
0.9152123852426304
 42
1.10673622763484
  0
ELLIPSE
  5
18C
330
1F
100
AcDbEntity
  8
0
  6
Continuous
 62
     7
370
    25
100
AcDbEllipse
 10
214.3526050648
 20
98.6299724337
 30
0.0
 11
0.02155295842283067
 21
1.499999872388912
 31
0.0
210
0.0
220
0.0
230
1.0
 40
0.0287076702
 41
5.176449079544583
 42
5.367972921936402
  0
SPLINE
  5
18D
330
1F
100
AcDbEntity
  8
0
  6
Continuous
 62
     7
370
    25
100
AcDbSpline
210
0.0
220
0.0
230
1.0
 70
     8
 71
     3
 72
     9
 73
     5
 74
     0
 42
0.00000001
 43
0.00000001
 40
0.0
 40
0.0
 40
0.0
 40
0.0
 40
0.5599925069634957
 40
0.9999999999999999
 40
0.9999999999999999
 40
0.9999999999999999
 40
0.9999999999999999
 10
214.3998787386628
 20
99.54391523898225
 30
0.0
 10
214.3998129935114
 20
99.55396283328511
 30
0.0
 10
214.3996955898845
 20
99.57190520604534
 30
0.0
 10
214.3997115070371
 20
99.58936064886663
 30
0.0
 10
214.3997185107036
 20
99.59704117450225
 30
0.0
  0
SPLINE
  5
18E
330
1F
100
AcDbEntity
  8
0
  6
Continuous
 62
     7
370
    25
100
AcDbSpline
210
0.0
220
0.0
230
1.0
 70
     8
 71
     3
 72
    12
 73
     8
 74
     0
 42
0.00000001
 43
0.00000001
 40
0.0
 40
0.0
 40
0.0
 40
0.0
 40
0.2225634137434412
 40
0.446206317369527
 40
0.6680851268156953
 40
0.8917990985568368
 40
1.0
 40
1.0
 40
1.0
 40
1.0
 10
213.7011434094115
 20
99.13621784771279
 30
0.0
 10
213.7134965169783
 20
99.1838037910191
 30
0.0
 10
213.7382626478653
 20
99.27920648171357
 30
0.0
 10
213.8708465758631
 20
99.40342521428653
 30
0.0
 10
214.0572039793577
 20
99.495315015391
 30
0.0
 10
214.245294790711
 20
99.53777059440105
 30
0.0
 10
214.3618748235994
 20
99.54240459991621
 30
0.0
 10
214.3998787386628
 20
99.54391523898227
 30
0.0
  0
SPLINE
  5
18F
330
1F
100
AcDbEntity
  8
0
  6
Continuous
 62
     7
370
    25
100
AcDbSpline
210
0.0
220
0.0
230
1.0
 70
     8
 71
     3
 72
    12
 73
     8
 74
     0
 42
0.00000001
 43
0.00000001
 40
0.0
 40
0.0
 40
0.0
 40
0.0
 40
0.2225634137435263
 40
0.4462063173695687
 40
0.6680851268158023
 40
0.8917990985569296
 40
1.0
 40
1.0
 40
1.0
 40
1.0
 10
216.1396064559922
 20
99.54391523898227
 30
0.0
 10
216.2181101160348
 20
99.53848816636857
 30
0.0
 10
216.3754981990914
 20
99.5276076984411
 30
0.0
 10
216.5848497367188
 20
99.45231426742079
 30
0.0
 10
216.7436090311889
 20
99.3428357226675
 30
0.0
 10
216.8214579015055
 20
99.23012108212099
 30
0.0
 10
216.8341909423389
 20
99.15930362467678
 30
0.0
 10
216.8383417852435
 20
99.13621784771279
 30
0.0
  0
SPLINE
  5
190
330
1F
100
AcDbEntity
  8
0
  6
Continuous
 62
     7
370
    25
100
AcDbSpline
210
0.0
220
0.0
230
1.0
 70
     8
 71
     3
 72
    12
 73
     8
 74
     0
 42
0.00000001
 43
0.00000001
 40
0.0
 40
0.0
 40
0.0
 40
0.0
 40
0.2198609600791264
 40
0.4397396970008128
 40
0.6583291451397731
 40
0.8791239516843589
 40
1.0
 40
1.0
 40
1.0
 40
1.0
 10
216.8392870211156
 20
99.16406629259217
 30
0.0
 10
216.8286150264715
 20
99.21455450872004
 30
0.0
 10
216.8072701742999
 20
99.31553502319701
 30
0.0
 10
216.6791517790329
 20
99.44719801614704
 30
0.0
 10
216.4962138429678
 20
99.5447593389201
 30
0.0
 10
216.3046646710807
 20
99.59141873039682
 30
0.0
 10
216.1828589993956
 20
99.59557187739817
 30
0.0
 10
216.1397666839514
 20
99.59704117450225
 30
0.0
  0
SPLINE
  5
191
330
1F
100
AcDbEntity
  8
0
  6
Continuous
 62
     7
370
    25
100
AcDbSpline
210
0.0
220
0.0
230
1.0
 70
     8
 71
     3
 72
    12
 73
     8
 74
     0
 42
0.00000001
 43
0.00000001
 40
0.0
 40
0.0
 40
0.0
 40
0.0
 40
0.2198610998683205
 40
0.4397399767664977
 40
0.6583294271823363
 40
0.8791242261983233
 40
1.0
 40
1.0
 40
1.0
 40
1.0
 10
214.3997185107036
 20
99.59704117450225
 30
0.0
 10
214.3210276009844
 20
99.59221738115265
 30
0.0
 10
214.1636394189351
 20
99.58256940442206
 30
0.0
 10
213.9543576704502
 20
99.50539526676033
 30
0.0
 10
213.7957083497858
 20
99.39152775754816
 30
0.0
 10
213.7156082870705
 20
99.27004718804454
 30
0.0
 10
213.7042252497688
 20
99.19176194480006
 30
0.0
 10
213.7001981735395
 20
99.16406629259217
 30
0.0
  0
LINE
  5
192
330
1F
100
AcDbEntity
  8
0
  6
Continuous
 62
     7
370
    25
100
AcDbLine
 10
216.275824707
 20
100.1050380554
 30
0.0
 11
216.1483350495
 21
100.1299724337
 31
0.0
  0
ELLIPSE
  5
193
330
1F
100
AcDbEntity
  8
0
  6
Continuous
 62
     7
370
    25
100
AcDbEllipse
 10
216.868811305
 20
98.6482962975
 30
0.0
 11
-0.02097028290364733
 21
0.7999998117963116
 31
0.0
210
0.0
220
0.0
230
0.9999999999999998
 40
0.0261679535
 41
6.282499370390492
 42
7.152648581238241
  0
ELLIPSE
  5
194
330
1F
100
AcDbEntity
  8
0
  6
Continuous
 62
     7
370
    25
100
AcDbEllipse
 10
213.6706738897
 20
98.6482962975
 30
0.0
 11
0.02097028290361891
 21
0.7999998117963115
 31
0.0
210
0.0
220
0.0
230
1.0
 40
0.0261679535
 41
5.413722033121439
 42
6.283871243969171
  0
SPLINE
  5
195
330
1F
100
AcDbEntity
  8
0
  6
Continuous
 62
     7
370
    25
100
AcDbSpline
210
0.0
220
0.0
230
1.0
 70
     8
 71
     3
 72
    11
 73
     7
 74
     0
 42
0.00000001
 43
0.00000001
 40
0.0
 40
0.0
 40
0.0
 40
0.0
 40
0.2500000000000026
 40
0.5000000000000006
 40
0.7499999999999989
 40
1.0
 40
1.0
 40
1.0
 40
1.0
 10
213.691629808014
 20
99.44829629747717
 30
0.0
 10
213.7041503242366
 20
99.5381953446042
 30
0.0
 10
213.7291913566818
 20
99.71799343885823
 30
0.0
 10
213.8918348263043
 20
99.94270964809316
 30
0.0
 10
214.1206545623588
 20
100.0994707331227
 30
0.0
 10
214.300984950905
 20
100.1198052001487
 30
0.0
 10
214.3911501451782
 20
100.1299724336617
 30
0.0
  0
LINE
  5
196
330
1F
100
AcDbEntity
  8
0
  6
Continuous
 62
     7
370
    25
100
AcDbLine
 10
217.054328738
 20
90.6691945161
 30
0.0
 11
217.0559832597
 21
90.6692378561
 31
0.0
  0
LINE
  5
197
330
1F
100
AcDbEntity
  8
0
  6
Continuous
 62
     7
370
    25
100
AcDbLine
 10
213.4851564566
 20
90.6691945161
 30
0.0
 11
213.4835019349
 21
90.6692378561
 31
0.0
  0
SPLINE
  5
198
330
1F
100
AcDbEntity
  8
0
  6
Continuous
 62
     7
370
    25
100
AcDbSpline
210
0.0
220
0.0
230
1.0
 70
     8
 71
     3
 72
     9
 73
     5
 74
     0
 42
0.00000001
 43
0.00000001
 40
0.0
 40
0.0
 40
0.0
 40
0.0
 40
0.5600012771711205
 40
0.9999999999999999
 40
0.9999999999999999
 40
0.9999999999999999
 40
0.9999999999999999
 10
212.9171646548304
 20
90.66923785612347
 30
0.0
 10
212.9289990671754
 20
91.59828749555166
 30
0.0
 10
212.9501318981662
 20
93.25730092516618
 30
0.0
 10
212.9710926275787
 20
94.91408016033279
 30
0.0
 10
212.9803153217497
 20
95.6430609078155
 30
0.0
  0
SPLINE
  5
199
330
1F
100
AcDbEntity
  8
0
  6
Continuous
 62
     7
370
    25
100
AcDbSpline
210
0.0
220
0.0
230
1.0
 70
     8
 71
     3
 72
     9
 73
     5
 74
     0
 42
0.00000001
 43
0.00000001
 40
0.0
 40
0.0
 40
0.0
 40
0.0
 40
0.5599999095970982
 40
1.0
 40
1.0
 40
1.0
 40
1.0
 10
212.9803153217497
 20
95.6430609078155
 30
0.0
 10
212.9826127316469
 20
95.82486262256428
 30
0.0
 10
212.9867152499828
 20
96.14950859416741
 30
0.0
 10
212.9908116431759
 20
96.47407479972189
 30
0.0
 10
212.9926140565511
 20
96.61688395950762
 30
0.0
  0
LINE
  5
19A
330
1F
100
AcDbEntity
  8
0
  6
Continuous
 62
     7
370
    25
100
AcDbLine
 10
212.9926140566
 20
96.6168839595
 30
0.0
 11
212.6642859272
 21
96.6168839595
 31
0.0
  0
LINE
  5
19B
330
1F
100
AcDbEntity
  8
0
  6
Continuous
 62
     7
370
    25
100
AcDbLine
 10
212.6642859272
 20
96.6168839595
 30
0.0
 11
212.7940618404
 21
99.4482962975
 31
0.0
  0
LINE
  5
19C
330
1F
100
AcDbEntity
  8
0
  6
Continuous
 62
     7
370
    25
100
AcDbLine
 10
212.7940618404
 20
99.4482962975
 30
0.0
 11
213.691629808
 21
99.4482962975
 31
0.0
  0
LINE
  5
19D
330
1F
100
AcDbEntity
  8
0
  6
Continuous
 62
     7
370
    25
100
AcDbLine
 10
213.7001981735
 20
99.1640662926
 30
0.0
 11
213.4835019349
 21
90.6692378561
 31
0.0
  0
LINE
  5
19E
330
1F
100
AcDbEntity
  8
0
  6
Continuous
 62
     7
370
    25
100
AcDbLine
 10
217.8751992674
 20
96.6168839595
 30
0.0
 11
217.5468711381
 21
96.6168839595
 31
0.0
  0
SPLINE
  5
19F
330
1F
100
AcDbEntity
  8
0
  6
Continuous
 62
     7
370
    25
100
AcDbSpline
210
0.0
220
0.0
230
1.0
 70
     8
 71
     3
 72
     9
 73
     5
 74
     0
 42
0.00000001
 43
0.00000001
 40
0.0
 40
0.0
 40
0.0
 40
0.0
 40
0.5600000882143262
 40
1.0
 40
1.0
 40
1.0
 40
1.0
 10
217.5468711381039
 20
96.61688395950762
 30
0.0
 10
217.549165254245
 20
96.43512508867583
 30
0.0
 10
217.5532618895658
 20
96.11055572760417
 30
0.0
 10
217.5573646560252
 20
95.78590652730738
 30
0.0
 10
217.5591698729053
 20
95.6430609078155
 30
0.0
  0
SPLINE
  5
1A0
330
1F
100
AcDbEntity
  8
0
  6
Continuous
 62
     7
370
    25
100
AcDbSpline
210
0.0
220
0.0
230
1.0
 70
     8
 71
     3
 72
     9
 73
     5
 74
     0
 42
0.00000001
 43
0.00000001
 40
0.0
 40
0.0
 40
0.0
 40
0.0
 40
0.5599987526606142
 40
1.0
 40
1.0
 40
1.0
 40
1.0
 10
217.5591698729053
 20
95.6430609078155
 30
0.0
 10
217.5709114594277
 20
94.71521960796616
 30
0.0
 10
217.5918786249198
 20
93.05835645346619
 30
0.0
 10
217.6130188252919
 20
91.39924775355574
 30
0.0
 10
217.6223205398246
 20
90.66923785612349
 30
0.0
  0
LINE
  5
1A1
330
1F
100
AcDbEntity
  8
0
  6
Continuous
 62
     7
370
    25
100
AcDbLine
 10
217.0559832597
 20
90.6692378561
 30
0.0
 11
216.8392870211
 21
99.1640662926
 31
0.0
  0
LINE
  5
1A2
330
1F
100
AcDbEntity
  8
0
  6
Continuous
 62
     7
370
    25
100
AcDbLine
 10
216.8478553866
 20
99.4482962975
 30
0.0
 11
217.7454233543
 21
99.4482962975
 31
0.0
  0
LINE
  5
1A3
330
1F
100
AcDbEntity
  8
0
  6
Continuous
 62
     7
370
    25
100
AcDbLine
 10
217.7454233543
 20
99.4482962975
 30
0.0
 11
217.8751992674
 21
96.6168839595
 31
0.0
  0
LINE
  5
1A4
330
1F
100
AcDbEntity
  8
0
  6
Continuous
 62
     7
370
    25
100
AcDbLine
 10
214.3911501452
 20
100.1299724337
 30
0.0
 11
213.4935821776
 21
100.1299724337
 31
0.0
  0
SPLINE
  5
1A5
330
1F
100
AcDbEntity
  8
0
  6
Continuous
 62
     7
370
    25
100
AcDbSpline
210
0.0
220
0.0
230
1.0
 70
     8
 71
     3
 72
    11
 73
     7
 74
     0
 42
0.00000001
 43
0.00000001
 40
0.0
 40
0.0
 40
0.0
 40
0.0
 40
0.2499999999999985
 40
0.4999999999999984
 40
0.7499999999999983
 40
1.0
 40
1.0
 40
1.0
 40
1.0
 10
212.7940618403949
 20
99.44829629747719
 30
0.0
 10
212.8065823566174
 20
99.5381953446042
 30
0.0
 10
212.8316233890626
 20
99.71799343885822
 30
0.0
 10
212.9942668586852
 20
99.94270964809317
 30
0.0
 10
213.2230865947396
 20
100.0994707331227
 30
0.0
 10
213.4034169832859
 20
100.1198052001487
 30
0.0
 10
213.493582177559
 20
100.1299724336617
 30
0.0
  0
LINE
  5
1A6
330
1F
100
AcDbEntity
  8
0
  6
Continuous
 62
     7
370
    25
100
AcDbLine
 10
217.0459030171
 20
100.1299724337
 30
0.0
 11
216.1483350495
 21
100.1299724337
 31
0.0
  0
SPLINE
  5
1A7
330
1F
100
AcDbEntity
  8
0
  6
Continuous
 62
     7
370
    25
100
AcDbSpline
210
0.0
220
0.0
230
1.0
 70
     8
 71
     3
 72
    11
 73
     7
 74
     0
 42
0.00000001
 43
0.00000001
 40
0.0
 40
0.0
 40
0.0
 40
0.0
 40
0.2500000000000006
 40
0.4999999999999992
 40
0.7499999999999969
 40
1.0
 40
1.0
 40
1.0
 40
1.0
 10
217.045903017096
 20
100.1299724336617
 30
0.0
 10
217.1360682113691
 20
100.1198052001487
 30
0.0
 10
217.3163985999154
 20
100.0994707331227
 30
0.0
 10
217.5452183359698
 20
99.94270964809319
 30
0.0
 10
217.7078618055924
 20
99.7179934388582
 30
0.0
 10
217.7329028380376
 20
99.5381953446042
 30
0.0
 10
217.7454233542601
 20
99.44829629747717
 30
0.0
  0
LINE
  5
1A8
330
1F
100
AcDbEntity
  8
0
  6
Continuous
 62
     7
370
    25
100
AcDbLine
 10
212.4047941852
 20
96.1299724337
 30
0.0
 11
212.1706990513
 21
96.1299724337
 31
0.0
  0
SPLINE
  5
1A9
330
1F
100
AcDbEntity
  8
0
  6
Continuous
 62
     7
370
    25
100
AcDbSpline
210
0.0
220
0.0
230
1.0
 70
     8
 71
     3
 72
    10
 73
     6
 74
     0
 42
0.00000001
 43
0.00000001
 40
0.0
 40
0.0
 40
0.0
 40
0.0
 40
0.2383396858856107
 40
0.571650633368965
 40
1.0
 40
1.0
 40
1.0
 40
1.0
 10
212.4112201552728
 20
96.12997243366158
 30
0.0
 10
212.4858183576997
 20
96.13893117658122
 30
0.0
 10
212.6647399229735
 20
96.16041845447695
 30
0.0
 10
212.9010840352285
 20
96.33408083743007
 30
0.0
 10
212.959667411414
 20
96.51508769668463
 30
0.0
 10
212.9926140565511
 20
96.6168839595078
 30
0.0
  0
SPLINE
  5
1AA
330
1F
100
AcDbEntity
  8
0
  6
Continuous
 62
     7
370
    25
100
AcDbSpline
210
0.0
220
0.0
230
1.0
 70
     8
 71
     3
 72
    11
 73
     7
 74
     0
 42
0.00000001
 43
0.00000001
 40
0.0
 40
0.0
 40
0.0
 40
0.0
 40
0.2506671725023492
 40
0.5010414677145718
 40
0.7508849997170933
 40
1.0
 40
1.0
 40
1.0
 40
1.0
 10
212.9171646548304
 20
90.66923785612347
 30
0.0
 10
212.8902900881752
 20
90.69874387612268
 30
0.0
 10
212.836572354869
 20
90.75772144155027
 30
0.0
 10
212.5511068912151
 20
90.84445471036199
 30
0.0
 10
212.1295787445955
 20
90.92877574058848
 30
0.0
 10
211.7132216668985
 20
90.98135873320307
 30
0.0
 10
211.505347090522
 20
91.0076118411719
 30
0.0
  0
SPLINE
  5
1AB
330
1F
100
AcDbEntity
  8
0
  6
Continuous
 62
     7
370
    25
100
AcDbSpline
210
0.0
220
0.0
230
1.0
 70
     8
 71
     3
 72
     9
 73
     5
 74
     0
 42
0.00000001
 43
0.00000001
 40
0.0
 40
0.0
 40
0.0
 40
0.0
 40
0.501325902198991
 40
1.0
 40
1.0
 40
1.0
 40
1.0
 10
211.5053470371578
 20
91.00761160688467
 30
0.0
 10
211.3803043796877
 20
91.01903345399728
 30
0.0
 10
211.1308804881201
 20
91.04181673142722
 30
0.0
 10
210.8291123796989
 20
91.03887877751974
 30
0.0
 10
210.6786284404868
 20
91.03741369600554
 30
0.0
  0
LINE
  5
1AC
330
1F
100
AcDbEntity
  8
0
  6
Continuous
 62
     7
370
    25
100
AcDbLine
 10
210.5638620012
 20
94.6300834396
 30
0.0
 11
210.6786372087
 21
91.037513353
 31
0.0
  0
SPLINE
  5
1AD
330
1F
100
AcDbEntity
  8
0
  6
Continuous
 62
     7
370
    25
100
AcDbSpline
210
0.0
220
0.0
230
1.0
 70
     8
 71
     3
 72
    14
 73
    10
 74
     0
 42
0.00000001
 43
0.00000001
 40
0.0
 40
0.0
 40
0.0
 40
0.0
 40
0.0829413618596697
 40
0.1664594845668882
 40
0.2437726390188662
 40
0.3161479456895724
 40
0.4353725718192331
 40
0.6486290670514194
 40
0.9999999999999999
 40
0.9999999999999999
 40
0.9999999999999999
 40
0.9999999999999999
 10
210.5638620059902
 20
94.63008342692237
 30
0.0
 10
210.5656771955726
 20
94.71994733451224
 30
0.0
 10
210.5693201972728
 20
94.90030004880556
 30
0.0
 10
210.6509813297604
 20
95.18818475959148
 30
0.0
 10
210.7842648100452
 20
95.43971078701821
 30
0.0
 10
210.9725912662828
 20
95.67366011691925
 30
0.0
 10
211.2708583459452
 20
95.9144710874272
 30
0.0
 10
211.7288855047305
 20
96.10641269066662
 30
0.0
 10
212.0012210334083
 20
96.12092599428948
 30
0.0
 10
212.1706970170581
 20
96.12995770755671
 30
0.0
  0
LINE
  5
1AE
330
1F
100
AcDbEntity
  8
0
  6
Continuous
 62
     7
370
    25
100
AcDbLine
 10
219.860847986
 20
91.037513353
 30
0.0
 11
219.9756231935
 21
94.6300834396
 31
0.0
  0
SPLINE
  5
1AF
330
1F
100
AcDbEntity
  8
0
  6
Continuous
 62
     7
370
    25
100
AcDbSpline
210
0.0
220
0.0
230
1.0
 70
     8
 71
     3
 72
     9
 73
     5
 74
     0
 42
0.00000001
 43
0.00000001
 40
0.0
 40
0.0
 40
0.0
 40
0.0
 40
0.4986740982738611
 40
1.0
 40
1.0
 40
1.0
 40
1.0
 10
219.8608569360034
 20
91.03741286660235
 30
0.0
 10
219.7103729997244
 20
91.038877945859
 30
0.0
 10
219.408604897471
 20
91.04181589523661
 30
0.0
 10
219.1591810058488
 20
91.0190326163049
 30
0.0
 10
219.0341383484692
 20
91.00761076845018
 30
0.0
  0
SPLINE
  5
1B0
330
1F
100
AcDbEntity
  8
0
  6
Continuous
 62
     7
370
    25
100
AcDbSpline
210
0.0
220
0.0
230
1.0
 70
     8
 71
     3
 72
    11
 73
     7
 74
     0
 42
0.00000001
 43
0.00000001
 40
0.0
 40
0.0
 40
0.0
 40
0.0
 40
0.2491150002829079
 40
0.4989585322854286
 40
0.7493328274976518
 40
1.0
 40
1.0
 40
1.0
 40
1.0
 10
219.034138104133
 20
91.0076118411719
 30
0.0
 10
218.8262635277565
 20
90.98135873320307
 30
0.0
 10
218.4099064500596
 20
90.92877574058848
 30
0.0
 10
217.9883783034399
 20
90.84445471036199
 30
0.0
 10
217.702912839786
 20
90.75772144155026
 30
0.0
 10
217.6491951064798
 20
90.69874387612268
 30
0.0
 10
217.6223205398246
 20
90.66923785612347
 30
0.0
  0
SPLINE
  5
1B1
330
1F
100
AcDbEntity
  8
0
  6
Continuous
 62
     7
370
    25
100
AcDbSpline
210
0.0
220
0.0
230
1.0
 70
     8
 71
     3
 72
    10
 73
     6
 74
     0
 42
0.00000001
 43
0.00000001
 40
0.0
 40
0.0
 40
0.0
 40
0.0
 40
0.428349366631063
 40
0.7616603141144168
 40
1.0
 40
1.0
 40
1.0
 40
1.0
 10
217.5468711381039
 20
96.61688395950782
 30
0.0
 10
217.579817783241
 20
96.51508769668466
 30
0.0
 10
217.6384011594265
 20
96.33408083743011
 30
0.0
 10
217.8747452716814
 20
96.16041845447704
 30
0.0
 10
218.0536668369552
 20
96.13893117658125
 30
0.0
 10
218.1282650393821
 20
96.12997243366158
 30
0.0
  0
LINE
  5
1B2
330
1F
100
AcDbEntity
  8
0
  6
Continuous
 62
     7
370
    25
100
AcDbLine
 10
218.1346910098
 20
96.1299724337
 30
0.0
 11
218.3687861436
 21
96.1299724337
 31
0.0
  0
SPLINE
  5
1B3
330
1F
100
AcDbEntity
  8
0
  6
Continuous
 62
     7
370
    25
100
AcDbSpline
210
0.0
220
0.0
230
1.0
 70
     8
 71
     3
 72
    15
 73
    11
 74
     0
 42
0.00000001
 43
0.00000001
 40
0.0
 40
0.0
 40
0.0
 40
0.0
 40
0.2091652517822444
 40
0.4176299509274903
 40
0.5931463878153087
 40
0.6923603779431098
 40
0.7731125739307014
 40
0.8543366880968429
 40
0.9261517123972135
 40
0.9999999999999999
 40
0.9999999999999999
 40
0.9999999999999999
 40
0.9999999999999999
 10
218.3687881778283
 20
96.12995770755568
 30
0.0
 10
218.4664858103177
 20
96.12686621705718
 30
0.0
 10
218.661553858737
 20
96.12069359032226
 30
0.0
 10
219.0108337120895
 20
96.03042013051206
 30
0.0
 10
219.343723899033
 20
95.86181367840865
 30
0.0
 10
219.6053419850689
 20
95.63236497035568
 30
0.0
 10
219.7859359979827
 20
95.39458592709934
 30
0.0
 10
219.9080301612931
 20
95.13266943026085
 30
0.0
 10
219.9720801506115
 20
94.86712785552287
 30
0.0
 10
219.9744312366495
 20
94.7098301245013
 30
0.0
 10
219.9756231886629
 20
94.63008342694253
 30
0.0
  0
SPLINE
  5
1B4
330
1F
100
AcDbEntity
  8
0
  6
Continuous
 62
     7
370
    25
100
AcDbSpline
210
0.0
220
0.0
230
1.0
 70
     8
 71
     3
 72
    11
 73
     7
 74
     0
 42
0.00000001
 43
0.00000001
 40
0.0
 40
0.0
 40
0.0
 40
0.0
 40
0.279563842830426
 40
0.5590315778757569
 40
0.7794196683313495
 40
1.0
 40
1.0
 40
1.0
 40
1.0
 10
211.505347090522
 20
91.0076118411719
 30
0.0
 10
211.4815979143951
 20
90.75034623099106
 30
0.0
 10
211.4341077265759
 20
90.23590345278173
 30
0.0
 10
211.769794807994
 20
89.59338925354258
 30
0.0
 10
212.2485096972574
 20
89.20171595234865
 30
0.0
 10
212.6003952679267
 20
89.15389388927068
 30
0.0
 10
212.7764147559294
 20
89.12997243366166
 30
0.0
  0
SPLINE
  5
1B5
330
1F
100
AcDbEntity
  8
0
  6
Continuous
 62
     7
370
    25
100
AcDbSpline
210
0.0
220
0.0
230
1.0
 70
    24
 71
     3
 72
    11
 73
     7
 74
     0
 42
0.00000001
 43
0.00000001
 40
0.0
 40
0.0
 40
0.0
 40
0.0
 40
0.2799317596299056
 40
0.5599103390525024
 40
0.7799480709991913
 40
1.0
 40
1.0
 40
1.0
 40
1.0
 10
212.7764147559294
 20
89.12997243366166
 30
0.0
 10
213.0439827133689
 20
89.12997243366168
 30
0.0
 10
213.5791633801415
 20
89.12997243366166
 30
0.0
 10
214.053030173804
 20
89.12997243366168
 30
0.0
 10
214.3382799313526
 20
89.12997243366166
 30
0.0
 10
214.3901839562499
 20
89.12997243366166
 30
0.0
 10
214.4161368058963
 20
89.12997243366166
 30
0.0
  0
SPLINE
  5
1B6
330
1F
100
AcDbEntity
  8
0
  6
Continuous
 62
     7
370
    25
100
AcDbSpline
210
0.0
220
0.0
230
1.0
 70
     8
 71
     3
 72
    11
 73
     7
 74
     0
 42
0.00000001
 43
0.00000001
 40
0.0
 40
0.0
 40
0.0
 40
0.0
 40
0.2795638428677821
 40
0.5590315779132455
 40
0.7794196683689393
 40
1.0
 40
1.0
 40
1.0
 40
1.0
 10
217.7630704387256
 20
89.12997243366166
 30
0.0
 10
217.9870508542919
 20
89.16849128560976
 30
0.0
 10
218.4349346859464
 20
89.24551574758259
 30
0.0
 10
218.8948749210518
 20
89.77831364537228
 30
0.0
 10
219.1062493619511
 20
90.40605021223867
 30
0.0
 10
219.0581821750718
 20
90.8070330284073
 30
0.0
 10
219.034138104133
 20
91.0076118411719
 30
0.0
  0
SPLINE
  5
1B7
330
1F
100
AcDbEntity
  8
0
  6
Continuous
 62
     7
370
    25
100
AcDbSpline
210
0.0
220
0.0
230
1.0
 70
    24
 71
     3
 72
    11
 73
     7
 74
     0
 42
0.00000001
 43
0.00000001
 40
0.0
 40
0.0
 40
0.0
 40
0.0
 40
0.2799857774483057
 40
0.5599458358671288
 40
0.779998565900937
 40
0.9999999999999999
 40
0.9999999999999999
 40
0.9999999999999999
 40
0.9999999999999999
 10
216.1233483887587
 20
89.12997243366166
 30
0.0
 10
216.1611021083665
 20
89.12997243366168
 30
0.0
 10
216.2366060795882
 20
89.12997243366168
 30
0.0
 10
216.618159229897
 20
89.12997243366166
 30
0.0
 10
217.1215899117101
 20
89.12997243366168
 30
0.0
 10
217.5492602138475
 20
89.12997243366166
 30
0.0
 10
217.7630704387256
 20
89.12997243366166
 30
0.0
  0
SPLINE
  5
1B8
330
1F
100
AcDbEntity
  8
0
  6
Continuous
 62
     7
370
    25
100
AcDbSpline
210
0.0
220
0.0
230
1.0
 70
     8
 71
     3
 72
    11
 73
     7
 74
     0
 42
0.00000001
 43
0.00000001
 40
0.0
 40
0.0
 40
0.0
 40
0.0
 40
0.2499999999999989
 40
0.4999999999999996
 40
0.749999999999999
 40
1.0
 40
1.0
 40
1.0
 40
1.0
 10
218.3748566511321
 20
96.12997243366165
 30
0.0
 10
218.310452940937
 20
96.13723474331378
 30
0.0
 10
218.1816455205468
 20
96.15175936261808
 30
0.0
 10
218.0182028519365
 20
96.26373156621058
 30
0.0
 10
217.9020289450632
 20
96.42424314423555
 30
0.0
 10
217.8841424933167
 20
96.55267035441699
 30
0.0
 10
217.8751992674434
 20
96.6168839595077
 30
0.0
  0
SPLINE
  5
1B9
330
1F
100
AcDbEntity
  8
0
  6
Continuous
 62
     7
370
    25
100
AcDbSpline
210
0.0
220
0.0
230
1.0
 70
     8
 71
     3
 72
    11
 73
     7
 74
     0
 42
0.00000001
 43
0.00000001
 40
0.0
 40
0.0
 40
0.0
 40
0.0
 40
0.2500000000000009
 40
0.5000000000000002
 40
0.7500000000000007
 40
0.9999999999999999
 40
0.9999999999999999
 40
0.9999999999999999
 40
0.9999999999999999
 10
212.6642859272116
 20
96.6168839595077
 30
0.0
 10
212.6553427013383
 20
96.552670354417
 30
0.0
 10
212.6374562495918
 20
96.42424314423555
 30
0.0
 10
212.5212823427185
 20
96.26373156621057
 30
0.0
 10
212.3578396741082
 20
96.15175936261808
 30
0.0
 10
212.229032253718
 20
96.13723474331378
 30
0.0
 10
212.164628543523
 20
96.12997243366165
 30
0.0
  0
SPLINE
  5
1BA
330
1F
100
AcDbEntity
  8
0
  6
Continuous
 62
     7
370
    25
100
AcDbSpline
210
0.0
220
0.0
230
1.0
 70
     8
 71
     3
 72
     9
 73
     5
 74
     0
 42
0.00000001
 43
0.00000001
 40
0.0
 40
0.0
 40
0.0
 40
0.0
 40
0.5642319118445199
 40
1.0
 40
1.0
 40
1.0
 40
1.0
 10
210.5680275523281
 20
88.95451947251254
 30
0.0
 10
211.0434591636016
 20
89.00810144123986
 30
0.0
 10
211.886076536517
 20
89.10306588334691
 30
0.0
 10
212.5061893714221
 20
89.1218060618874
 30
0.0
 10
212.7764147559294
 20
89.12997243366166
 30
0.0
  0
SPLINE
  5
1BB
330
1F
100
AcDbEntity
  8
0
  6
Continuous
 62
     7
370
    25
100
AcDbSpline
210
0.0
220
0.0
230
1.0
 70
     8
 71
     3
 72
    13
 73
     9
 74
     0
 42
0.00000001
 43
0.00000001
 40
0.0
 40
0.0
 40
0.0
 40
0.0
 40
0.0926677825201025
 40
0.1856533156297223
 40
0.2733112842947881
 40
0.4135488925758325
 40
0.6528449691515646
 40
0.9999999999999999
 40
0.9999999999999999
 40
0.9999999999999999
 40
0.9999999999999999
 10
210.6786275380859
 20
91.03741294731088
 30
0.0
 10
210.681062205537
 20
90.9431782301921
 30
0.0
 10
210.6859398887237
 20
90.75438567246862
 30
0.0
 10
210.6858654015777
 20
90.44117526824776
 30
0.0
 10
210.6794783445214
 20
90.09944113345466
 30
0.0
 10
210.6615636984246
 20
89.68258697655129
 30
0.0
 10
210.6245019576581
 20
89.1993583308884
 30
0.0
 10
210.5890271721043
 20
89.04556112053515
 30
0.0
 10
210.5680275523281
 20
88.95451947251254
 30
0.0
  0
SPLINE
  5
1BC
330
1F
100
AcDbEntity
  8
0
  6
Continuous
 62
     7
370
    25
100
AcDbSpline
210
0.0
220
0.0
230
1.0
 70
     8
 71
     3
 72
     9
 73
     5
 74
     0
 42
0.00000001
 43
0.00000001
 40
0.0
 40
0.0
 40
0.0
 40
0.0
 40
0.5551829690770672
 40
1.0
 40
1.0
 40
1.0
 40
1.0
 10
217.7630704387256
 20
89.12997243366166
 30
0.0
 10
218.1133248974737
 20
89.11697341317061
 30
0.0
 10
218.7442060272215
 20
89.09355947359556
 30
0.0
 10
219.5936226584205
 20
88.99732583424387
 30
0.0
 10
219.9714576423269
 20
88.95451947251254
 30
0.0
  0
SPLINE
  5
1BD
330
1F
100
AcDbEntity
  8
0
  6
Continuous
 62
     7
370
    25
100
AcDbSpline
210
0.0
220
0.0
230
1.0
 70
     8
 71
     3
 72
    13
 73
     9
 74
     0
 42
0.00000001
 43
0.00000001
 40
0.0
 40
0.0
 40
0.0
 40
0.0
 40
0.3327087167328944
 40
0.5628656559531304
 40
0.6987124125384707
 40
0.8016200683166484
 40
0.9052998751809803
 40
1.0
 40
1.0
 40
1.0
 40
1.0
 10
219.9714576423269
 20
88.95451947251254
 30
0.0
 10
219.9513248184198
 20
89.04030504743068
 30
0.0
 10
219.9172647696002
 20
89.18543425946869
 30
0.0
 10
219.88117891823
 20
89.63580095589599
 30
0.0
 10
219.8621401951413
 20
90.03554210450184
 30
0.0
 10
219.8538666611888
 20
90.39143435091341
 30
0.0
 10
219.8531903989985
 20
90.73886819794762
 30
0.0
 10
219.8583802097662
 20
90.94094706912672
 30
0.0
 10
219.8608576565691
 20
91.03741294731088
 30
0.0
  0
SPLINE
  5
1BE
330
1F
100
AcDbEntity
  8
0
  6
Continuous
 62
     7
370
    25
100
AcDbSpline
210
0.0
220
0.0
230
1.0
 70
     8
 71
     3
 72
    13
 73
     9
 74
     0
 42
0.00000001
 43
0.00000001
 40
0.0
 40
0.0
 40
0.0
 40
0.0
 40
0.1400312919410834
 40
0.2800978778503041
 40
0.4240602241121907
 40
0.5680316995452359
 40
0.7822812815056388
 40
0.9999999999999999
 40
0.9999999999999999
 40
0.9999999999999999
 40
0.9999999999999999
 10
212.9955200658227
 20
84.51785563259021
 30
0.0
 10
212.9066744455134
 20
84.83598125273085
 30
0.0
 10
212.7289608119393
 20
85.47231267448682
 30
0.0
 10
212.3747447929409
 20
86.30542076591028
 30
0.0
 10
211.9835688671278
 20
87.04771754061315
 30
0.0
 10
211.5087961038602
 20
87.7861759124093
 30
0.0
 10
210.9684459203391
 20
88.46933053709157
 30
0.0
 10
210.6899853009155
 20
88.75989569343116
 30
0.0
 10
210.5496368328723
 20
88.90634503568792
 30
0.0
  0
ELLIPSE
  5
1BF
330
1F
100
AcDbEntity
  8
0
  6
Continuous
 62
     7
370
    25
100
AcDbEllipse
 10
210.7114216766
 20
70.0569651864
 30
0.0
 11
0.0
 21
19.07300724724768
 31
0.0
210
0.0
220
0.0
230
1.0
 40
0.0555555556
 41
0.1357435643135845
 42
0.1532827087060913
  0
ELLIPSE
  5
1C0
330
1F
100
AcDbEntity
  8
0
  6
Continuous
 62
     7
370
    25
100
AcDbEllipse
 10
219.8280635181
 20
70.0569651864
 30
0.0
 11
0.0
 21
19.07300724724768
 31
0.0
210
0.0
220
0.0
230
1.0
 40
0.0555555556
 41
6.12990259847377
 42
6.147441742866246
  0
SPLINE
  5
1C1
330
1F
100
AcDbEntity
  8
0
  6
Continuous
 62
     7
370
    25
100
AcDbSpline
210
0.0
220
0.0
230
1.0
 70
     8
 71
     3
 72
    12
 73
     8
 74
     0
 42
0.00000001
 43
0.00000001
 40
0.0
 40
0.0
 40
0.0
 40
0.0
 40
0.1374975366677113
 40
0.2750385788614215
 40
0.5575409445665217
 40
0.7769626822980097
 40
1.0
 40
1.0
 40
1.0
 40
1.0
 10
219.9898483617827
 20
88.90634503568792
 30
0.0
 10
219.9065724350204
 20
88.82002688131786
 30
0.0
 10
219.739994232202
 20
88.64736326069418
 30
0.0
 10
219.277051664224
 20
88.11470480849773
 30
0.0
 10
218.6670909954873
 20
87.26678554362749
 30
0.0
 10
217.9894524145866
 20
86.00289686788973
 30
0.0
 10
217.6932676551265
 20
85.01555874421763
 30
0.0
 10
217.5439651298805
 20
84.51785563685779
 30
0.0
  0
LINE
  5
1C2
330
1F
100
AcDbEntity
  8
0
  6
Continuous
 62
     7
370
    25
100
AcDbLine
 10
212.9955200658
 20
84.5178556326
 30
0.0
 11
217.5439651299
 21
84.5178556369
 31
0.0
  0
LINE
  5
1C3
330
1F
100
AcDbEntity
  8
0
  6
Continuous
 62
     7
370
    25
100
AcDbLine
 10
210.0453136433
 20
94.6299724337
 30
0.0
 11
210.5638513106
 21
94.6299724337
 31
0.0
  0
ARC
  5
1C4
330
1F
100
AcDbEntity
  8
0
  6
Continuous
 62
     7
370
    25
100
AcDbCircle
 10
203.7697425973
 20
82.251795152
 30
0.0
 40
9.499999999999984
100
AcDbArc
 50
44.4654416734
 51
48.6553876907
  0
LINE
  5
1C5
330
1F
100
AcDbEntity
  8
0
  6
Continuous
 62
     7
370
    25
100
AcDbLine
 10
210.0453136433
 20
89.3839202243
 30
0.0
 11
210.0453136433
 21
94.6299724337
 31
0.0
  0
LINE
  5
1C6
330
1F
100
AcDbEntity
  8
0
  6
Continuous
 62
     7
370
    25
100
AcDbLine
 10
220.4941715514
 20
94.6299724337
 30
0.0
 11
220.4941715514
 21
89.3839202243
 31
0.0
  0
ARC
  5
1C7
330
1F
100
AcDbEntity
  8
0
  6
Continuous
 62
     7
370
    25
100
AcDbCircle
 10
226.7697425973
 20
82.251795152
 30
0.0
 40
9.500000000000023
100
AcDbArc
 50
131.3446123093
 51
135.5345583266
  0
LINE
  5
1C8
330
1F
100
AcDbEntity
  8
0
  6
Continuous
 62
     7
370
    25
100
AcDbLine
 10
219.9756338841
 20
94.6299724337
 30
0.0
 11
220.4941715514
 21
94.6299724337
 31
0.0
  0
ARC
  5
1C9
330
1F
100
AcDbEntity
  8
0
  6
Continuous
 62
     7
370
    25
100
AcDbCircle
 10
218.9953253961
 20
94.6311262798
 30
0.0
 40
1.498846599345494
100
AcDbArc
 50
359.9558924033
 51
89.9558243884
  0
LINE
  5
1CA
330
1F
100
AcDbEntity
  8
0
  6
Continuous
 62
     7
370
    25
100
AcDbLine
 10
218.9964810216
 20
96.1299724337
 30
0.0
 11
218.3622738391
 21
96.1299724337
 31
0.0
  0
ARC
  5
1CB
330
1F
100
AcDbEntity
  8
0
  6
Continuous
 62
     7
370
    25
100
AcDbCircle
 10
211.5441597985
 20
94.6311262798
 30
0.0
 40
1.498846599345407
100
AcDbArc
 50
90.0441756116
 51
180.0441075967
  0
LINE
  5
1CC
330
1F
100
AcDbEntity
  8
0
  6
Continuous
 62
     7
370
    25
100
AcDbLine
 10
212.1772113555
 20
96.1299724337
 30
0.0
 11
211.5430041731
 21
96.1299724337
 31
0.0
  0
LINE
  5
1CD
330
1F
100
AcDbEntity
  8
0
  6
Continuous
 62
     7
370
    25
100
AcDbLine
 10
212.7092565882
 20
96.5603957161
 30
0.0
 11
212.6717567126
 21
96.607499807
 31
0.0
  0
LINE
  5
1CE
330
1F
100
AcDbEntity
  8
0
  6
Continuous
 62
     7
370
    25
100
AcDbLine
 10
217.8677284821
 20
96.607499807
 30
0.0
 11
217.8302286064
 21
96.5603957161
 31
0.0
  0
ELLIPSE
  5
1CF
330
1F
100
AcDbEntity
  8
0
  6
Continuous
 62
     7
370
    25
100
AcDbEllipse
 10
216.2454913607
 20
99.4299724337
 30
0.0
 11
1.500207016110408
 21
0.02894030982646712
 31
0.0
210
0.0
220
0.0
230
1.0
 40
0.2796306798
 41
6.257897524076025
 42
6.352561004482538
  0
LINE
  5
1D0
330
1F
100
AcDbEntity
  8
0
  6
Continuous
 62
     7
370
    25
100
AcDbLine
 10
210.0531112848
 20
89.3770178015
 30
0.0
 11
210.0453136433
 21
89.3839202243
 31
0.0
  0
LINE
  5
1D1
330
1F
100
AcDbEntity
  8
0
  6
Continuous
 62
     7
370
    25
100
AcDbLine
 10
220.4941715514
 20
89.3839202243
 30
0.0
 11
220.4863739099
 21
89.3770178015
 31
0.0
  0
LINE
  5
1D2
330
1F
100
AcDbEntity
  8
0
  6
Continuous
 62
     7
370
    25
100
AcDbLine
 10
217.07297004
 20
84.5178556364
 30
0.0
 11
216.8519255405
 21
83.5312109682
 31
0.0
  0
SPLINE
  5
1D3
330
1F
100
AcDbEntity
  8
0
  6
Continuous
 62
     7
370
    25
100
AcDbSpline
210
0.0
220
0.0
230
1.0
 70
     8
 71
     3
 72
    10
 73
     6
 74
     0
 42
0.00000001
 43
0.00000001
 40
0.0
 40
0.0
 40
0.0
 40
0.0
 40
0.2746918501531821
 40
0.5573359346812419
 40
1.0
 40
1.0
 40
1.0
 40
1.0
 10
216.8519255404875
 20
83.53121096819874
 30
0.0
 10
216.5673047821332
 20
83.58443501136185
 30
0.0
 10
215.9898235925798
 20
83.69242391539117
 30
0.0
 10
214.910805649413
 20
83.73420998862971
 30
0.0
 10
214.1511726049803
 20
83.6081480480992
 30
0.0
 10
213.6875596541675
 20
83.53121096819874
 30
0.0
  0
LINE
  5
1D4
330
1F
100
AcDbEntity
  8
0
  6
Continuous
 62
     7
370
    25
100
AcDbLine
 10
213.6875596542
 20
83.5312109682
 30
0.0
 11
213.4723248684
 21
84.517855633
 31
0.0
  0
LINE
  5
1D5
330
1F
100
AcDbEntity
  8
0
  6
Continuous
 62
     7
370
    25
100
AcDbLine
 10
207.0897425973
 20
81.4299724337
 30
0.0
 11
216.2697425973
 21
81.4299724337
 31
0.0
  0
LWPOLYLINE
  5
1D6
330
1F
100
AcDbEntity
  8
0
  6
Continuous
 62
     7
370
    25
100
AcDbPolyline
 90
        3
 70
   128
 43
0.0
 10
207.1510973902
 20
81.4299724337
 10
207.2445810663
 20
80.5022282443
 10
207.2871099327
 20
80.0802205742
  0
LINE
  5
1D7
330
1F
100
AcDbEntity
  8
0
  6
Continuous
 62
     7
370
    25
100
AcDbLine
 10
216.2697425973
 20
80.0802205742
 30
0.0
 11
216.2697425973
 21
81.4299724337
 31
0.0
  0
LINE
  5
1D8
330
1F
100
AcDbEntity
  8
0
  6
Continuous
 62
     7
370
    25
100
AcDbLine
 10
207.7111337066
 20
97.6299724337
 30
0.0
 11
212.7099172603
 21
97.6299724337
 31
0.0
  0
LINE
  5
1D9
330
1F
100
AcDbEntity
  8
0
  6
Continuous
 62
     7
370
    25
100
AcDbLine
 10
217.8295679344
 20
97.6299724337
 30
0.0
 11
222.828351446
 21
97.6299724337
 31
0.0
  0
SPLINE
  5
1DA
330
1F
100
AcDbEntity
  8
0
  6
Continuous
 62
     7
370
    25
100
AcDbSpline
210
0.0
220
0.0
230
1.0
 70
     8
 71
     3
 72
    12
 73
     8
 74
     0
 42
0.00000001
 43
0.00000001
 40
0.0
 40
0.0
 40
0.0
 40
0.0
 40
0.2271543139929597
 40
0.4542742953683958
 40
0.6823371405829708
 40
0.9121899191033218
 40
1.0
 40
1.0
 40
1.0
 40
1.0
 10
207.2871099326821
 20
80.08022057415118
 30
0.0
 10
207.2982138778805
 20
80.0251007672568
 30
0.0
 10
207.3204200900018
 20
79.91486948440053
 30
0.0
 10
207.4209163015402
 20
79.77501542481212
 30
0.0
 10
207.5583785763707
 20
79.67476703572655
 30
0.0
 10
207.6893521597269
 20
79.63383834515182
 30
0.0
 10
207.7672451435417
 20
79.63080964366249
 30
0.0
 10
207.7887767422392
 20
79.62997243366166
 30
0.0
  0
SPLINE
  5
1DB
330
1F
100
AcDbEntity
  8
0
  6
Continuous
 62
     7
370
    25
100
AcDbSpline
210
0.0
220
0.0
230
1.0
 70
    24
 71
     3
 72
    12
 73
     8
 74
     0
 42
0.00000001
 43
0.00000001
 40
0.0
 40
0.0
 40
0.0
 40
0.0
 40
0.2316347876629375
 40
0.46330664808196
 40
0.6939442291381526
 40
0.9227406525226395
 40
1.0
 40
1.0
 40
1.0
 40
1.0
 10
216.2697425973275
 20
79.62997243366166
 30
0.0
 10
216.2697425973275
 20
79.63556189869195
 30
0.0
 10
216.2697425973275
 20
79.64674172333692
 30
0.0
 10
216.2697425973275
 20
79.73406478929259
 30
0.0
 10
216.2697425973275
 20
79.86237496307463
 30
0.0
 10
216.2697425973275
 20
79.98705438977244
 30
0.0
 10
216.2697425973275
 20
80.06144239852576
 30
0.0
 10
216.2697425973275
 20
80.08022057415118
 30
0.0
  0
SPLINE
  5
1DC
330
1F
100
AcDbEntity
  8
0
  6
Continuous
 62
     7
370
    25
100
AcDbSpline
210
0.0
220
0.0
230
1.0
 70
     8
 71
     3
 72
    11
 73
     7
 74
     0
 42
0.00000001
 43
0.00000001
 40
0.0
 40
0.0
 40
0.0
 40
0.0
 40
0.2981995125517625
 40
0.5964325929955623
 40
0.8933636912282922
 40
1.0
 40
1.0
 40
1.0
 40
1.0
 10
209.3536628142279
 20
79.62997243366166
 30
0.0
 10
209.4696853058363
 20
79.6411691992673
 30
0.0
 10
209.7017433495387
 20
79.66356399088241
 30
0.0
 10
210.003647199707
 20
79.84291291702651
 30
0.0
 10
210.2035943281268
 20
80.04105961059582
 30
0.0
 10
210.2559171251855
 20
80.18867603244732
 30
0.0
 10
210.2697425973275
 20
80.22768133879052
 30
0.0
  0
LINE
  5
1DD
330
1F
100
AcDbEntity
  8
0
  6
Continuous
 62
     7
370
    25
100
AcDbLine
 10
215.2697425973
 20
37.6299724337
 30
0.0
 11
207.2697425973
 21
37.6299724337
 31
0.0
  0
LINE
  5
1DE
330
1F
100
AcDbEntity
  8
0
  6
Continuous
 62
     7
370
    25
100
AcDbLine
 10
223.2697425973
 20
37.6299724337
 30
0.0
 11
215.2697425973
 21
37.6299724337
 31
0.0
  0
SPLINE
  5
1DF
330
1F
100
AcDbEntity
  8
0
  6
Continuous
 62
     7
370
    25
100
AcDbSpline
210
0.0
220
0.0
230
1.0
 70
     8
 71
     3
 72
    11
 73
     7
 74
     0
 42
0.00000001
 43
0.00000001
 40
0.0
 40
0.0
 40
0.0
 40
0.0
 40
0.2843931288920273
 40
0.5687862577840562
 40
0.8531793866760852
 40
1.0
 40
1.0
 40
1.0
 40
1.0
 10
216.847855386641
 20
99.44829629747719
 30
0.0
 10
216.8353888630256
 20
99.53835891832561
 30
0.0
 10
216.8104558157948
 20
99.71848416002248
 30
0.0
 10
216.6470024570646
 20
99.94074676343614
 30
0.0
 10
216.4576605185584
 20
100.0800508965732
 30
0.0
 10
216.3220109675796
 20
100.0986913219127
 30
0.0
 10
216.2758247069806
 20
100.1050380553607
 30
0.0
  0
LINE
  5
1E0
330
1F
100
AcDbEntity
  8
0
  6
Continuous
 62
     7
370
    25
100
AcDbLine
 10
212.6717567126
 20
96.607499807
 30
0.0
 11
212.6642859272
 21
96.6168839595
 31
0.0
  0
ELLIPSE
  5
1E1
330
1F
100
AcDbEntity
  8
0
  6
Continuous
 62
     7
370
    25
100
AcDbEllipse
 10
214.293993834
 20
99.4299724337
 30
0.0
 11
1.500207016110437
 21
-0.02894030982645291
 31
0.0
210
0.0
220
0.0
230
1.0
 40
0.2796306798
 41
3.072248304391367
 42
3.16688043669342
  0
LINE
  5
1E2
330
1F
100
AcDbEntity
  8
0
  6
Continuous
 62
     7
370
    25
100
AcDbLine
 10
210.0453136433
 20
94.6299724337
 30
0.0
 11
210.0430041731
 21
94.6299724337
 31
0.0
  0
LINE
  5
1E3
330
1F
100
AcDbEntity
  8
0
  6
Continuous
 62
     7
370
    25
100
AcDbLine
 10
220.4964810216
 20
94.6299724337
 30
0.0
 11
220.4941715514
 21
94.6299724337
 31
0.0
  0
LINE
  5
1E4
330
1F
100
AcDbEntity
  8
0
  6
Continuous
 62
     7
370
    25
100
AcDbLine
 10
210.0430041731
 20
89.5180480194
 30
0.0
 11
206.2809350388
 21
89.5180480194
 31
0.0
  0
LINE
  5
1E5
330
1F
100
AcDbEntity
  8
0
  6
Continuous
 62
     7
370
    25
100
AcDbLine
 10
224.2585501559
 20
89.5180480194
 30
0.0
 11
220.4964810216
 21
89.5180480194
 31
0.0
  0
LINE
  5
1E6
330
1F
100
AcDbEntity
  8
0
  6
Continuous
 62
     7
370
    25
100
AcDbLine
 10
216.2697425973
 20
80.0802205742
 30
0.0
 11
223.3147674114
 21
80.0802205742
 31
0.0
  0
LINE
  5
1E7
330
1F
100
AcDbEntity
  8
0
  6
Continuous
 62
     7
370
    25
100
AcDbLine
 10
220.4964810216
 20
89.741586473
 30
0.0
 11
224.2557908424
 21
89.741586473
 31
0.0
  0
LINE
  5
1E8
330
1F
100
AcDbEntity
  8
0
  6
Continuous
 62
     7
370
    25
100
AcDbLine
 10
206.2836943522
 20
89.741586473
 30
0.0
 11
210.0430041731
 21
89.741586473
 31
0.0
  0
LINE
  5
1E9
330
1F
100
AcDbEntity
  8
0
  6
Continuous
 62
     7
370
    25
100
AcDbLine
 10
223.3244904264
 20
97.191989801
 30
0.0
 11
217.8496425789
 21
97.191989801
 31
0.0
  0
LINE
  5
1EA
330
1F
100
AcDbEntity
  8
0
  6
Continuous
 62
     7
370
    25
100
AcDbLine
 10
212.6898426158
 20
97.191989801
 30
0.0
 11
207.2149947682
 21
97.191989801
 31
0.0
  0
INSERT
  5
1F6
330
1F
100
AcDbEntity
  8
0
  6
Continuous
 62
     7
370
    18
100
AcDbBlockReference
  2
SW_CENTERMARKSYMBOL_0
 10
215.2697425973
 20
59.6299724337
 30
0.0
  0
LINE
  5
1F7
330
1F
100
AcDbEntity
  8
0
  6
Continuous
 62
     7
370
    25
100
AcDbLine
 10
134.3440624234
 20
150.61558786
 30
0.0
 11
130.8440624234
 21
150.61558786
 31
0.0
  0
LINE
  5
1F8
330
1F
100
AcDbEntity
  8
0
  6
Continuous
 62
     7
370
    25
100
AcDbLine
 10
130.8440624234
 20
123.61558786
 30
0.0
 11
134.3440624234
 21
123.61558786
 31
0.0
  0
LINE
  5
1F9
330
1F
100
AcDbEntity
  8
0
  6
Continuous
 62
     7
370
    25
100
AcDbLine
 10
130.8440624234
 20
150.61558786
 30
0.0
 11
130.3440624234
 21
150.11558786
 31
0.0
  0
LINE
  5
1FA
330
1F
100
AcDbEntity
  8
0
  6
Continuous
 62
     7
370
    25
100
AcDbLine
 10
130.3440624234
 20
124.11558786
 30
0.0
 11
130.8440624234
 21
123.61558786
 31
0.0
  0
LINE
  5
1FB
330
1F
100
AcDbEntity
  8
0
  6
Continuous
 62
     7
370
    25
100
AcDbLine
 10
117.3440624234
 20
129.11558786
 30
0.0
 11
130.3440624234
 21
129.11558786
 31
0.0
  0
LINE
  5
1FC
330
1F
100
AcDbEntity
  8
0
  6
Continuous
 62
     7
370
    25
100
AcDbLine
 10
130.3440624234
 20
145.11558786
 30
0.0
 11
117.3440624234
 21
145.11558786
 31
0.0
  0
LINE
  5
1FD
330
1F
100
AcDbEntity
  8
0
  6
Continuous
 62
     7
370
    25
100
AcDbLine
 10
117.3440624234
 20
145.11558786
 30
0.0
 11
95.3440624234
 21
145.11558786
 31
0.0
  0
LINE
  5
1FE
330
1F
100
AcDbEntity
  8
0
  6
Continuous
 62
     7
370
    25
100
AcDbLine
 10
95.3440624234
 20
129.11558786
 30
0.0
 11
117.3440624234
 21
129.11558786
 31
0.0
  0
LINE
  5
1FF
330
1F
100
AcDbEntity
  8
0
  6
Continuous
 62
     7
370
    25
100
AcDbLine
 10
160.3440624234
 20
123.69290036
 30
0.0
 11
173.7388860844
 21
124.1114885994
 31
0.0
  0
LINE
  5
200
330
1F
100
AcDbEntity
  8
0
  6
Continuous
 62
     7
370
    25
100
AcDbLine
 10
173.7388860844
 20
150.1196871206
 30
0.0
 11
160.3440624234
 21
150.53827536
 31
0.0
  0
LINE
  5
201
330
1F
100
AcDbEntity
  8
0
  6
Continuous
 62
     7
370
    25
100
AcDbLine
 10
173.7388860844
 20
124.1114885994
 30
0.0
 11
176.3440624234
 21
125.61558786
 31
0.0
  0
LINE
  5
202
330
1F
100
AcDbEntity
  8
0
  6
Continuous
 62
     7
370
    25
100
AcDbLine
 10
176.3440624234
 20
148.61558786
 30
0.0
 11
173.7388860844
 21
150.1196871206
 31
0.0
  0
LINE
  5
203
330
1F
100
AcDbEntity
  8
0
  6
Continuous
 62
     7
370
    25
100
AcDbLine
 10
96.8002370313
 20
136.2455587776
 30
0.0
 11
96.8176560217
 21
136.2455587776
 31
0.0
  0
LINE
  5
204
330
1F
100
AcDbEntity
  8
0
  6
Continuous
 62
     7
370
    25
100
AcDbLine
 10
125.3784101008
 20
141.7107462194
 30
0.0
 11
124.186170044
 21
140.9167729811
 31
0.0
  0
LINE
  5
205
330
1F
100
AcDbEntity
  8
0
  6
Continuous
 62
     7
370
    25
100
AcDbLine
 10
124.1861699847
 20
133.3144026314
 30
0.0
 11
125.3827892567
 21
132.5175131089
 31
0.0
  0
SPLINE
  5
206
330
1F
100
AcDbEntity
  8
0
  6
Continuous
 62
     7
370
    25
100
AcDbSpline
210
0.0
220
0.0
230
1.0
 70
     8
 71
     3
 72
    11
 73
     7
 74
     0
 42
0.00000001
 43
0.00000001
 40
0.0
 40
0.0
 40
0.0
 40
0.0
 40
0.2485427336868735
 40
0.4982459407376401
 40
0.7488347621401439
 40
1.0
 40
1.0
 40
1.0
 40
1.0
 10
124.1860902019587
 20
140.9169176971251
 30
0.0
 10
123.7648100589026
 20
140.70315246367
 30
0.0
 10
122.9202827694606
 20
140.2746239033699
 30
0.0
 10
121.5636772022265
 20
139.8359299417565
 30
0.0
 10
120.1655800961001
 20
139.5350009972624
 30
0.0
 10
119.2142241971194
 20
139.4737203131498
 30
0.0
 10
118.737999787479
 20
139.4430447713834
 30
0.0
  0
SPLINE
  5
207
330
1F
100
AcDbEntity
  8
0
  6
Continuous
 62
     7
370
    25
100
AcDbSpline
210
0.0
220
0.0
230
1.0
 70
     8
 71
     3
 72
    10
 73
     6
 74
     0
 42
0.00000001
 43
0.00000001
 40
0.0
 40
0.0
 40
0.0
 40
0.0
 40
0.0711023749285984
 40
0.5366329433438182
 40
0.9999999999999999
 40
0.9999999999999999
 40
0.9999999999999999
 40
0.9999999999999999
 10
121.3465751146154
 20
134.4156819027738
 30
0.0
 10
121.4175495069688
 20
134.4014555491711
 30
0.0
 10
121.9532165238424
 20
134.2940845926524
 30
0.0
 10
122.9184917391263
 20
133.9475948929715
 30
0.0
 10
123.7642139765159
 20
133.525042254613
 30
0.0
 10
124.1860902019587
 20
133.3142580228162
 30
0.0
  0
LINE
  5
208
330
1F
100
AcDbEntity
  8
0
  6
Continuous
 62
     7
370
    25
100
AcDbLine
 10
118.7373285148
 20
139.4686796389
 30
0.0
 11
97.0829374851
 21
138.9016394537
 31
0.0
  0
LINE
  5
209
330
1F
100
AcDbEntity
  8
0
  6
Continuous
 62
     7
370
    25
100
AcDbLine
 10
97.0829410036
 20
135.3295361741
 30
0.0
 11
118.7373285148
 21
134.7624960811
 31
0.0
  0
SPLINE
  5
20A
330
1F
100
AcDbEntity
  8
0
  6
Continuous
 62
     7
370
    25
100
AcDbSpline
210
0.0
220
0.0
230
1.0
 70
     8
 71
     3
 72
    12
 73
     8
 74
     0
 42
0.00000001
 43
0.00000001
 40
0.0
 40
0.0
 40
0.0
 40
0.0
 40
0.1169371273704497
 40
0.337598230715746
 40
0.606969997114791
 40
0.8591515236262768
 40
1.0
 40
1.0
 40
1.0
 40
1.0
 10
92.04446547788504
 20
136.0305852759237
 30
0.0
 10
92.06026050135073
 20
135.9968740022655
 30
0.0
 10
92.10586083458998
 20
135.8995493407305
 30
0.0
 10
92.24105930223641
 20
135.7626330181073
 30
0.0
 10
92.43214237215201
 20
135.6404607461261
 30
0.0
 10
92.62952492775287
 20
135.5636444255562
 30
0.0
 10
92.7585271519755
 20
135.5558371747554
 30
0.0
 10
92.8047571257617
 20
135.5530393237723
 30
0.0
  0
SPLINE
  5
20B
330
1F
100
AcDbEntity
  8
0
  6
Continuous
 62
     7
370
    25
100
AcDbSpline
210
0.0
220
0.0
230
1.0
 70
     8
 71
     3
 72
    12
 73
     8
 74
     0
 42
0.00000001
 43
0.00000001
 40
0.0
 40
0.0
 40
0.0
 40
0.0
 40
0.0692891908759991
 40
0.2376623669409171
 40
0.4634335320924838
 40
0.7690758808398551
 40
1.0
 40
1.0
 40
1.0
 40
1.0
 10
92.80453176738263
 20
138.6791380639619
 30
0.0
 10
92.78184824688923
 20
138.6790420308062
 30
0.0
 10
92.70404362682
 20
138.6787126364695
 30
0.0
 10
92.55814886121067
 20
138.6385843754741
 30
0.0
 10
92.36006425107608
 20
138.5536486206526
 30
0.0
 10
92.16572483918242
 20
138.4130717684614
 30
0.0
 10
92.08003989262437
 20
138.265780596335
 30
0.0
 10
92.04316334145565
 20
138.2023903432766
 30
0.0
  0
SPLINE
  5
20C
330
1F
100
AcDbEntity
  8
0
  6
Continuous
 62
     7
370
    25
100
AcDbSpline
210
0.0
220
0.0
230
1.0
 70
     8
 71
     3
 72
    10
 73
     6
 74
     0
 42
0.00000001
 43
0.00000001
 40
0.0
 40
0.0
 40
0.0
 40
0.0
 40
0.2305804423367639
 40
0.6415283914942137
 40
1.0
 40
1.0
 40
1.0
 40
1.0
 10
92.03944944245762
 20
138.2040177987709
 30
0.0
 10
92.01222087372405
 20
138.1421288136756
 30
0.0
 10
91.93646466593245
 20
137.9699392703776
 30
0.0
 10
91.86061395187703
 20
137.6565394485074
 30
0.0
 10
91.84932290705515
 20
137.397649811857
 30
0.0
 10
91.84406242341045
 20
137.2770334543038
 30
0.0
  0
SPLINE
  5
20D
330
1F
100
AcDbEntity
  8
0
  6
Continuous
 62
     7
370
    25
100
AcDbSpline
210
0.0
220
0.0
230
1.0
 70
     8
 71
     3
 72
    10
 73
     6
 74
     0
 42
0.00000001
 43
0.00000001
 40
0.0
 40
0.0
 40
0.0
 40
0.0
 40
0.2056372342910064
 40
0.5995123916486066
 40
1.0
 40
1.0
 40
1.0
 40
1.0
 10
91.84406242341045
 20
136.9541422656376
 30
0.0
 10
91.84586949297253
 20
136.8850841910375
 30
0.0
 10
91.85113780247289
 20
136.6837530867319
 30
0.0
 10
91.90457499141448
 20
136.3554790487702
 30
0.0
 10
91.99424248809864
 20
136.1372039537267
 30
0.0
 10
92.03944944245762
 20
136.0271579211705
 30
0.0
  0
LINE
  5
20E
330
1F
100
AcDbEntity
  8
0
  6
Continuous
 62
     7
370
    25
100
AcDbLine
 10
91.8440624234
 20
137.2770334543
 30
0.0
 11
91.8440624234
 21
136.9541422656
 31
0.0
  0
ARC
  5
20F
330
1F
100
AcDbEntity
  8
0
  6
Continuous
 62
     7
370
    25
100
AcDbCircle
 10
147.3440624234
 20
137.11558786
 30
0.0
 40
8.993770368365574
100
AcDbArc
 50
200.7392284635
 51
90.0
  0
ARC
  5
210
330
1F
100
AcDbEntity
  8
0
  6
Continuous
 62
     7
370
    25
100
AcDbCircle
 10
147.3440624234
 20
137.11558786
 30
0.0
 40
8.993770368365576
100
AcDbArc
 50
90.0
 51
159.2591126635
  0
LINE
  5
211
330
1F
100
AcDbEntity
  8
0
  6
Continuous
 62
     7
370
    25
100
AcDbLine
 10
130.8440624234
 20
132.2274709418
 30
0.0
 11
130.8440624234
 21
123.61558786
 31
0.0
  0
LINE
  5
212
330
1F
100
AcDbEntity
  8
0
  6
Continuous
 62
     7
370
    25
100
AcDbLine
 10
130.8440624234
 20
150.61558786
 30
0.0
 11
130.8440624234
 21
142.0037047782
 31
0.0
  0
LINE
  5
213
330
1F
100
AcDbEntity
  8
0
  6
Continuous
 62
     7
370
    25
100
AcDbLine
 10
130.3440624234
 20
141.9759270004
 30
0.0
 11
130.3440624234
 21
150.11558786
 31
0.0
  0
LINE
  5
214
330
1F
100
AcDbEntity
  8
0
  6
Continuous
 62
     7
370
    25
100
AcDbLine
 10
130.3440624234
 20
124.11558786
 30
0.0
 11
130.3440624234
 21
132.2552487196
 31
0.0
  0
ARC
  5
215
330
1F
100
AcDbEntity
  8
0
  6
Continuous
 62
     7
370
    25
100
AcDbCircle
 10
95.3440624234
 20
137.11558786
 30
0.0
 40
8.0
100
AcDbArc
 50
90.0
 51
180.0
  0
ARC
  5
216
330
1F
100
AcDbEntity
  8
0
  6
Continuous
 62
     7
370
    25
100
AcDbCircle
 10
95.3440624234
 20
137.11558786
 30
0.0
 40
8.000000000000028
100
AcDbArc
 50
180.0
 51
270.0
  0
LINE
  5
217
330
1F
100
AcDbEntity
  8
0
  6
Continuous
 62
     7
370
    25
100
AcDbLine
 10
158.9006867504
 20
145.8477124583
 30
0.0
 11
149.4976421036
 21
145.8477124583
 31
0.0
  0
LINE
  5
218
330
1F
100
AcDbEntity
  8
0
  6
Continuous
 62
     7
370
    25
100
AcDbLine
 10
145.1904827432
 20
145.8477124583
 30
0.0
 11
135.7874380964
 21
145.8477124583
 31
0.0
  0
LINE
  5
219
330
1F
100
AcDbEntity
  8
0
  6
Continuous
 62
     7
370
    25
100
AcDbLine
 10
135.7874380964
 20
145.8477124583
 30
0.0
 11
135.7874380964
 21
151.11558786
 31
0.0
  0
LINE
  5
21A
330
1F
100
AcDbEntity
  8
0
  6
Continuous
 62
     7
370
    25
100
AcDbLine
 10
158.9006867504
 20
151.11558786
 30
0.0
 11
135.7874380964
 21
151.11558786
 31
0.0
  0
LINE
  5
21B
330
1F
100
AcDbEntity
  8
0
  6
Continuous
 62
     7
370
    25
100
AcDbLine
 10
158.9006867504
 20
151.11558786
 30
0.0
 11
158.9006867504
 21
145.8477124583
 31
0.0
  0
LINE
  5
21C
330
1F
100
AcDbEntity
  8
0
  6
Continuous
 62
     7
370
    25
100
AcDbLine
 10
160.3440624234
 20
151.11558786
 30
0.0
 11
160.3440624234
 21
137.11558786
 31
0.0
  0
SPLINE
  5
21D
330
1F
100
AcDbEntity
  8
0
  6
Continuous
 62
     7
370
    25
100
AcDbSpline
210
0.0
220
0.0
230
1.0
 70
     8
 71
     3
 72
    12
 73
     8
 74
     0
 42
0.00000001
 43
0.00000001
 40
0.0
 40
0.0
 40
0.0
 40
0.0
 40
0.2500000000000001
 40
0.2500000000000001
 40
0.5000000000000001
 40
0.5000000000000001
 40
1.0
 40
1.0
 40
1.0
 40
1.0
 10
158.9006867504364
 20
145.8477124582572
 30
0.0
 10
159.1173417914811
 20
145.1386353807837
 30
0.0
 10
159.3175553153469
 20
144.4211803318003
 30
0.0
 10
159.6725939785644
 20
142.9760213217017
 30
0.0
 10
159.8267775711246
 20
142.2509546173677
 30
0.0
 10
160.2054356298563
 20
140.0668129443779
 30
0.0
 10
160.3440624234104
 20
138.5985880503874
 30
0.0
 10
160.3440624234104
 20
137.1155878599707
 30
0.0
  0
SPLINE
  5
21E
330
1F
100
AcDbEntity
  8
0
  6
Continuous
 62
     7
370
    25
100
AcDbSpline
210
0.0
220
0.0
230
1.0
 70
    24
 71
     3
 72
    12
 73
     8
 74
     0
 42
0.00000001
 43
0.00000001
 40
0.0
 40
0.0
 40
0.0
 40
0.0
 40
0.25
 40
0.25
 40
0.5
 40
0.5
 40
1.0
 40
1.0
 40
1.0
 40
1.0
 10
160.3440624234104
 20
151.1155878599707
 30
0.0
 10
160.3440624234104
 20
151.1155878599707
 30
0.0
 10
160.3092530584459
 20
151.1155878599707
 30
0.0
 10
160.1742128783385
 20
151.1155878599707
 30
0.0
 10
160.0745494097052
 20
151.1155878599707
 30
0.0
 10
159.6938544933533
 20
151.1155878599707
 30
0.0
 10
159.3318702704084
 20
151.1155878599707
 30
0.0
 10
158.9006867504364
 20
151.1155878599707
 30
0.0
  0
SPLINE
  5
21F
330
1F
100
AcDbEntity
  8
0
  6
Continuous
 62
     7
370
    25
100
AcDbSpline
210
0.0
220
0.0
230
1.0
 70
     8
 71
     3
 72
     9
 73
     5
 74
     0
 42
0.00000001
 43
0.00000001
 40
0.0
 40
0.0
 40
0.0
 40
0.0
 40
0.4494293696496634
 40
0.9999999999999999
 40
0.9999999999999999
 40
0.9999999999999999
 40
0.9999999999999999
 10
134.9152683608488
 20
142.2298828858033
 30
0.0
 10
135.0126128814839
 20
142.7797595426649
 30
0.0
 10
135.2292086965527
 20
144.0032591490443
 30
0.0
 10
135.5892241572516
 20
145.1927911014173
 30
0.0
 10
135.7874380963845
 20
145.8477124582572
 30
0.0
  0
LINE
  5
220
330
1F
100
AcDbEntity
  8
0
  6
Continuous
 62
     7
370
    25
100
AcDbLine
 10
134.3440624234
 20
142.1981492226
 30
0.0
 11
134.3440624234
 21
151.11558786
 31
0.0
  0
SPLINE
  5
221
330
1F
100
AcDbEntity
  8
0
  6
Continuous
 62
     7
370
    25
100
AcDbSpline
210
0.0
220
0.0
230
1.0
 70
    24
 71
     3
 72
    14
 73
    10
 74
     0
 42
0.00000001
 43
0.00000001
 40
0.0
 40
0.0
 40
0.0
 40
0.0
 40
0.125
 40
0.125
 40
0.25
 40
0.25
 40
0.5
 40
0.5
 40
1.0
 40
1.0
 40
1.0
 40
1.0
 10
134.3440624234104
 20
151.1155878599707
 30
0.0
 10
134.3440624234104
 20
151.1155878599707
 30
0.0
 10
134.3525907802306
 20
151.1155878599707
 30
0.0
 10
134.3867777136186
 20
151.1155878599707
 30
0.0
 10
134.4125252466597
 20
151.1155878599707
 30
0.0
 10
134.5138371892922
 20
151.1155878599707
 30
0.0
 10
134.6135552233094
 20
151.1155878599707
 30
0.0
 10
134.9943832045425
 20
151.1155878599707
 30
0.0
 10
135.3563999837011
 20
151.1155878599707
 30
0.0
 10
135.7874380963845
 20
151.1155878599707
 30
0.0
  0
SPLINE
  5
222
330
1F
100
AcDbEntity
  8
0
  6
Continuous
 62
     7
370
    25
100
AcDbSpline
210
0.0
220
0.0
230
1.0
 70
     8
 71
     3
 72
    12
 73
     8
 74
     0
 42
0.00000001
 43
0.00000001
 40
0.0
 40
0.0
 40
0.0
 40
0.0
 40
0.25
 40
0.25
 40
0.5
 40
0.5
 40
1.0
 40
1.0
 40
1.0
 40
1.0
 10
160.3440624234104
 20
137.1155878599707
 30
0.0
 10
160.3440624234104
 20
136.3729311556836
 30
0.0
 10
160.3092530584501
 20
135.622750344139
 30
0.0
 10
160.1742128783413
 20
134.138915882541
 30
0.0
 10
160.0745494097062
 20
133.4048830144984
 30
0.0
 10
159.6938544933496
 20
131.2228254896742
 30
0.0
 10
159.3318702704035
 20
129.7946575210875
 30
0.0
 10
158.9006867504364
 20
128.3834632616842
 30
0.0
  0
LINE
  5
223
330
1F
100
AcDbEntity
  8
0
  6
Continuous
 62
     7
370
    25
100
AcDbLine
 10
158.9006867504
 20
128.3834632617
 30
0.0
 11
149.4976421036
 21
128.3834632617
 31
0.0
  0
LINE
  5
224
330
1F
100
AcDbEntity
  8
0
  6
Continuous
 62
     7
370
    25
100
AcDbLine
 10
145.1904827432
 20
128.3834632617
 30
0.0
 11
135.7874380964
 21
128.3834632617
 31
0.0
  0
SPLINE
  5
225
330
1F
100
AcDbEntity
  8
0
  6
Continuous
 62
     7
370
    25
100
AcDbSpline
210
0.0
220
0.0
230
1.0
 70
     8
 71
     3
 72
     9
 73
     5
 74
     0
 42
0.00000001
 43
0.00000001
 40
0.0
 40
0.0
 40
0.0
 40
0.0
 40
0.9656021239381652
 40
1.0
 40
1.0
 40
1.0
 40
1.0
 10
135.7874380963845
 20
128.3834632616842
 30
0.0
 10
135.4420680032146
 20
129.5380830135455
 30
0.0
 10
135.0843947083783
 20
130.7338340617642
 30
0.0
 10
134.8769076934358
 20
131.9615883487852
 30
0.0
 10
134.8697705808113
 20
132.0038204885845
 30
0.0
  0
LINE
  5
226
330
1F
100
AcDbEntity
  8
0
  6
Continuous
 62
     7
370
    25
100
AcDbLine
 10
158.9006867504
 20
128.3834632617
 30
0.0
 11
158.9006867504
 21
123.11558786
 31
0.0
  0
SPLINE
  5
227
330
1F
100
AcDbEntity
  8
0
  6
Continuous
 62
     7
370
    25
100
AcDbSpline
210
0.0
220
0.0
230
1.0
 70
    24
 71
     3
 72
    12
 73
     8
 74
     0
 42
0.00000001
 43
0.00000001
 40
0.0
 40
0.0
 40
0.0
 40
0.0
 40
0.25
 40
0.25
 40
0.5
 40
0.5
 40
1.0
 40
1.0
 40
1.0
 40
1.0
 10
160.3440624234104
 20
123.1155878599707
 30
0.0
 10
160.3440624234104
 20
123.1155878599707
 30
0.0
 10
160.3092530584459
 20
123.1155878599707
 30
0.0
 10
160.1742128783385
 20
123.1155878599707
 30
0.0
 10
160.0745494097052
 20
123.1155878599707
 30
0.0
 10
159.6938544933533
 20
123.1155878599707
 30
0.0
 10
159.3318702704084
 20
123.1155878599707
 30
0.0
 10
158.9006867504364
 20
123.1155878599707
 30
0.0
  0
LINE
  5
228
330
1F
100
AcDbEntity
  8
0
  6
Continuous
 62
     7
370
    25
100
AcDbLine
 10
160.3440624234
 20
137.11558786
 30
0.0
 11
160.3440624234
 21
123.11558786
 31
0.0
  0
LINE
  5
229
330
1F
100
AcDbEntity
  8
0
  6
Continuous
 62
     7
370
    25
100
AcDbLine
 10
135.7874380964
 20
123.11558786
 30
0.0
 11
135.7874380964
 21
128.3834632617
 31
0.0
  0
SPLINE
  5
22A
330
1F
100
AcDbEntity
  8
0
  6
Continuous
 62
     7
370
    25
100
AcDbSpline
210
0.0
220
0.0
230
1.0
 70
    24
 71
     3
 72
    14
 73
    10
 74
     0
 42
0.00000001
 43
0.00000001
 40
0.0
 40
0.0
 40
0.0
 40
0.0
 40
0.125
 40
0.125
 40
0.2500000000000001
 40
0.2500000000000001
 40
0.5
 40
0.5
 40
1.0
 40
1.0
 40
1.0
 40
1.0
 10
134.3440624234104
 20
123.1155878599707
 30
0.0
 10
134.3440624234104
 20
123.1155878599707
 30
0.0
 10
134.3525907802306
 20
123.1155878599707
 30
0.0
 10
134.3867777136186
 20
123.1155878599707
 30
0.0
 10
134.4125252466596
 20
123.1155878599707
 30
0.0
 10
134.5138371892922
 20
123.1155878599707
 30
0.0
 10
134.6135552233094
 20
123.1155878599707
 30
0.0
 10
134.9943832045425
 20
123.1155878599707
 30
0.0
 10
135.3563999837011
 20
123.1155878599707
 30
0.0
 10
135.7874380963845
 20
123.1155878599707
 30
0.0
  0
LINE
  5
22B
330
1F
100
AcDbEntity
  8
0
  6
Continuous
 62
     7
370
    25
100
AcDbLine
 10
134.3440624234
 20
123.11558786
 30
0.0
 11
134.3440624234
 21
132.0330264973
 31
0.0
  0
LINE
  5
22C
330
1F
100
AcDbEntity
  8
0
  6
Continuous
 62
     7
370
    25
100
AcDbLine
 10
158.9006867504
 20
123.11558786
 30
0.0
 11
135.7874380964
 21
123.11558786
 31
0.0
  0
LINE
  5
22D
330
1F
100
AcDbEntity
  8
0
  6
Continuous
 62
     7
370
    25
100
AcDbLine
 10
173.7388860844
 20
124.1114885994
 30
0.0
 11
173.7388860844
 21
150.1196871206
 31
0.0
  0
LINE
  5
22E
330
1F
100
AcDbEntity
  8
0
  6
Continuous
 62
     7
370
    25
100
AcDbLine
 10
176.3440624234
 20
148.61558786
 30
0.0
 11
176.3440624234
 21
125.61558786
 31
0.0
  0
LINE
  5
22F
330
1F
100
AcDbEntity
  8
0
  6
Continuous
 62
     7
370
    25
100
AcDbLine
 10
145.1065784019
 20
136.140315315
 30
0.0
 11
145.0737828749
 21
136.1590593542
 31
0.0
  0
SPLINE
  5
230
330
1F
100
AcDbEntity
  8
0
  6
Continuous
 62
     7
370
    25
100
AcDbSpline
210
0.0
220
0.0
230
1.0
 70
     8
 71
     3
 72
    15
 73
    11
 74
     0
 42
0.00000001
 43
0.00000001
 40
0.0
 40
0.0
 40
0.0
 40
0.0
 40
0.1241930067305288
 40
0.2496556654892302
 40
0.374370385315121
 40
0.4998404796364201
 40
0.6240146704162363
 40
0.7475381382242062
 40
0.8745858500551823
 40
1.0
 40
1.0
 40
1.0
 40
1.0
 10
145.8868681235409
 20
136.4127549655565
 30
0.0
 10
145.8713077284313
 20
136.3769077628126
 30
0.0
 10
145.8400278609197
 20
136.3048468836008
 30
0.0
 10
145.7625915014314
 20
136.2149713702579
 30
0.0
 10
145.6692374976924
 20
136.1426475924635
 30
0.0
 10
145.5620118916715
 20
136.093720173959
 30
0.0
 10
145.4476259809506
 20
136.0673921205042
 30
0.0
 10
145.3299552180652
 20
136.0665330265016
 30
0.0
 10
145.21307149284
 20
136.0879157871312
 30
0.0
 10
145.1419226419453
 20
136.1229243135919
 30
0.0
 10
145.1065784018619
 20
136.1403153149734
 30
0.0
  0
LINE
  5
231
330
1F
100
AcDbEntity
  8
0
  6
Continuous
 62
     7
370
    25
100
AcDbLine
 10
146.8787221682
 20
139.1863341815
 30
0.0
 11
145.8868681235
 21
136.4127549656
 31
0.0
  0
SPLINE
  5
232
330
1F
100
AcDbEntity
  8
0
  6
Continuous
 62
     7
370
    25
100
AcDbSpline
210
0.0
220
0.0
230
1.0
 70
     8
 71
     3
 72
    15
 73
    11
 74
     0
 42
0.00000001
 43
0.00000001
 40
0.0
 40
0.0
 40
0.0
 40
0.0
 40
0.1233025178081761
 40
0.2485158700387114
 40
0.3756924668130948
 40
0.499999088042933
 40
0.6243057092728392
 40
0.751482306047304
 40
0.8766757256079954
 40
1.0
 40
1.0
 40
1.0
 40
1.0
 10
147.8094026817621
 20
139.1863341814698
 30
0.0
 10
147.7852517097998
 20
139.2269793174056
 30
0.0
 10
147.736575495265
 20
139.3088994719935
 30
0.0
 10
147.6212248370599
 20
139.3987184278059
 30
0.0
 10
147.488065214798
 20
139.4562925759671
 30
0.0
 10
147.3440625714292
 20
139.4754512716372
 30
0.0
 10
147.2000590427308
 20
139.4562931687521
 30
0.0
 10
147.0669091697652
 20
139.3987190550135
 30
0.0
 10
146.9515468122308
 20
139.3089134928669
 30
0.0
 10
146.9028750265596
 20
139.2269885613421
 30
0.0
 10
146.8787221682428
 20
139.1863341814699
 30
0.0
  0
LINE
  5
233
330
1F
100
AcDbEntity
  8
0
  6
Continuous
 62
     7
370
    25
100
AcDbLine
 10
148.8010255881
 20
136.4134013111
 30
0.0
 11
147.8094026818
 21
139.1863341815
 31
0.0
  0
SPLINE
  5
234
330
1F
100
AcDbEntity
  8
0
  6
Continuous
 62
     7
370
    25
100
AcDbSpline
210
0.0
220
0.0
230
1.0
 70
     8
 71
     3
 72
    15
 73
    11
 74
     0
 42
0.00000001
 43
0.00000001
 40
0.0
 40
0.0
 40
0.0
 40
0.0
 40
0.1253320172137762
 40
0.2522975129251759
 40
0.3758847553984063
 40
0.5001929511416491
 40
0.6255758307380151
 40
0.7502289462456483
 40
0.8757444935777824
 40
1.0
 40
1.0
 40
1.0
 40
1.0
 10
149.5737273526759
 20
136.1367054605155
 30
0.0
 10
149.5384764360479
 20
136.1200311520327
 30
0.0
 10
149.4675151701935
 20
136.0864652153035
 30
0.0
 10
149.3515282794052
 20
136.0666835990493
 30
0.0
 10
149.2349319131648
 20
136.0687563793959
 30
0.0
 10
149.1218113065833
 20
136.0958344057465
 30
0.0
 10
149.0159355922439
 20
136.1450472214537
 30
0.0
 10
148.9238265076247
 20
136.2171329853276
 30
0.0
 10
148.8473948437563
 20
136.306420506827
 30
0.0
 10
148.816429936257
 20
136.377861177264
 30
0.0
 10
148.8010255881358
 20
136.4134013111221
 30
0.0
  0
LINE
  5
235
330
1F
100
AcDbEntity
  8
0
  6
Continuous
 62
     7
370
    25
100
AcDbLine
 10
149.6143419751
 20
136.1590593542
 30
0.0
 11
149.5737273527
 21
136.1367054605
 31
0.0
  0
LINE
  5
236
330
1F
100
AcDbEntity
  8
0
  6
Continuous
 62
     7
370
    25
100
AcDbLine
 10
148.9873587787
 20
134.9636482507
 30
0.0
 11
149.6143419751
 21
136.1590593542
 31
0.0
  0
SPLINE
  5
237
330
1F
100
AcDbEntity
  8
0
  6
Continuous
 62
     7
370
    25
100
AcDbSpline
210
0.0
220
0.0
230
1.0
 70
     8
 71
     3
 72
    15
 73
    11
 74
     0
 42
0.00000001
 43
0.00000001
 40
0.0
 40
0.0
 40
0.0
 40
0.0
 40
0.124633218643857
 40
0.2519059530189797
 40
0.3765391000744913
 40
0.4994035903146549
 40
0.6264494152300148
 40
0.7526064410610425
 40
0.8746804377363274
 40
1.0
 40
1.0
 40
1.0
 40
1.0
 10
148.8821302898669
 20
134.945531084018
 30
0.0
 10
148.8861447655351
 20
134.9424258491654
 30
0.0
 10
148.8942587365137
 20
134.9361496159636
 30
0.0
 10
148.9086973283503
 20
134.9305366024837
 30
0.0
 10
148.9238307782834
 20
134.9280002498569
 30
0.0
 10
148.9391933205651
 20
134.9288856534248
 30
0.0
 10
148.9541238994018
 20
134.9330167239404
 30
0.0
 10
148.9676257994311
 20
134.9405074238863
 30
0.0
 10
148.9793114543175
 20
134.9506460058006
 30
0.0
 10
148.9846529786583
 20
134.9592764281434
 30
0.0
 10
148.9873587786601
 20
134.9636482507357
 30
0.0
  0
SPLINE
  5
238
330
1F
100
AcDbEntity
  8
0
  6
Continuous
 62
     7
370
    25
100
AcDbSpline
210
0.0
220
0.0
230
1.0
 70
     8
 71
     3
 72
    11
 73
     7
 74
     0
 42
0.00000001
 43
0.00000001
 40
0.0
 40
0.0
 40
0.0
 40
0.0
 40
0.2506252605986012
 40
0.4999999999996215
 40
0.7493747394010043
 40
1.0
 40
1.0
 40
1.0
 40
1.0
 10
145.805994560138
 20
134.945531084018
 30
0.0
 10
146.0357222543113
 20
135.108385375979
 30
0.0
 10
146.4940313920743
 20
135.4332813812178
 30
0.0
 10
147.3440624250104
 20
135.5670133281549
 30
0.0
 10
148.1940934579407
 20
135.4332813812127
 30
0.0
 10
148.6524025956969
 20
135.1083853759773
 30
0.0
 10
148.8821302898669
 20
134.9455310840181
 30
0.0
  0
SPLINE
  5
239
330
1F
100
AcDbEntity
  8
0
  6
Continuous
 62
     7
370
    25
100
AcDbSpline
210
0.0
220
0.0
230
1.0
 70
     8
 71
     3
 72
    15
 73
    11
 74
     0
 42
0.00000001
 43
0.00000001
 40
0.0
 40
0.0
 40
0.0
 40
0.0
 40
0.1253191957979125
 40
0.2473928354984055
 40
0.37344924164897
 40
0.500595004607996
 40
0.6235484391777584
 40
0.7480947836179481
 40
0.8753671458153865
 40
1.0
 40
1.0
 40
1.0
 40
1.0
 10
145.7007660713448
 20
134.9636482507357
 30
0.0
 10
145.7034718676772
 20
134.9592764224517
 30
0.0
 10
145.7088133847744
 20
134.950645988873
 30
0.0
 10
145.7204959573635
 20
134.9405102113732
 30
0.0
 10
145.7339969373508
 20
134.9330180954996
 30
0.0
 10
145.7489309662008
 20
134.9288856502074
 30
0.0
 10
145.7642979773899
 20
134.9279977084338
 30
0.0
 10
145.7794307138281
 20
134.9305386506914
 30
0.0
 10
145.7938661436098
 20
134.9361494289586
 30
0.0
 10
145.801980094439
 20
134.9424257872674
 30
0.0
 10
145.805994560138
 20
134.945531084018
 30
0.0
  0
LINE
  5
23A
330
1F
100
AcDbEntity
  8
0
  6
Continuous
 62
     7
370
    25
100
AcDbLine
 10
145.0737828749
 20
136.1590593542
 30
0.0
 11
145.7007660713
 21
134.9636482507
 31
0.0
  0
SPLINE
  5
23B
330
1F
100
AcDbEntity
  8
0
  6
Continuous
 62
     7
370
    25
100
AcDbSpline
210
0.0
220
0.0
230
1.0
 70
     8
 71
     3
 72
    15
 73
    11
 74
     0
 42
0.00000001
 43
0.00000001
 40
0.0
 40
0.0
 40
0.0
 40
0.0
 40
0.1233867499278388
 40
0.2487396502211601
 40
0.3739317114754985
 40
0.4999973617625659
 40
0.6259591330513601
 40
0.7512551380600303
 40
0.8765613478174267
 40
1.0
 40
1.0
 40
1.0
 40
1.0
 10
147.2811795586044
 20
137.1369973181135
 30
0.0
 10
147.2840577597962
 20
137.1430121141964
 30
0.0
 10
147.2898600259078
 20
137.1551375512852
 30
0.0
 10
147.3053894306286
 20
137.1685288116352
 30
0.0
 10
147.3237440125021
 20
137.1774065232151
 30
0.0
 10
147.344056828985
 20
137.1801631865116
 30
0.0
 10
147.3643752467001
 20
137.177408505311
 30
0.0
 10
147.3827281158642
 20
137.1685328070215
 30
0.0
 10
147.3982662202597
 20
137.1551424397678
 30
0.0
 10
147.404066782291
 20
137.1430153422218
 30
0.0
 10
147.4069452882165
 20
137.1369973181135
 30
0.0
  0
LINE
  5
23C
330
1F
100
AcDbEntity
  8
0
  6
Continuous
 62
     7
370
    25
100
AcDbLine
 10
147.0420660329
 20
136.4987432888
 30
0.0
 11
147.2811795586
 21
137.1369973181
 31
0.0
  0
SPLINE
  5
23D
330
1F
100
AcDbEntity
  8
0
  6
Continuous
 62
     7
370
    25
100
AcDbSpline
210
0.0
220
0.0
230
1.0
 70
     8
 71
     3
 72
    15
 73
    11
 74
     0
 42
0.00000001
 43
0.00000001
 40
0.0
 40
0.0
 40
0.0
 40
0.0
 40
0.126158522421064
 40
0.2513121451548799
 40
0.3762846848783793
 40
0.499306278334087
 40
0.6261594278645742
 40
0.7521171342021308
 40
0.875819692269278
 40
1.0
 40
1.0
 40
1.0
 40
1.0
 10
147.1049488977327
 20
136.4136789354909
 30
0.0
 10
147.099717801244
 20
136.4140012420833
 30
0.0
 10
147.0892972759013
 20
136.4146432879758
 30
0.0
 10
147.0745107253869
 20
136.420091528351
 30
0.0
 10
147.0613203727614
 20
136.4283141309366
 30
0.0
 10
147.0504497979202
 20
136.4395707372492
 30
0.0
 10
147.0424422105916
 20
136.4530914825903
 30
0.0
 10
147.0382755835589
 20
136.4682283701671
 30
0.0
 10
147.0376545320473
 20
136.4839175017382
 30
0.0
 10
147.0405936444021
 20
136.4937950140969
 30
0.0
 10
147.0420660328848
 20
136.4987432888409
 30
0.0
  0
LINE
  5
23E
330
1F
100
AcDbEntity
  8
0
  6
Continuous
 62
     7
370
    25
100
AcDbLine
 10
147.5831759519
 20
136.4136789355
 30
0.0
 11
147.1049488977
 21
136.4136789355
 31
0.0
  0
SPLINE
  5
23F
330
1F
100
AcDbEntity
  8
0
  6
Continuous
 62
     7
370
    25
100
AcDbSpline
210
0.0
220
0.0
230
1.0
 70
     8
 71
     3
 72
    15
 73
    11
 74
     0
 42
0.00000001
 43
0.00000001
 40
0.0
 40
0.0
 40
0.0
 40
0.0
 40
0.1241186784437694
 40
0.2478474916628983
 40
0.3736574149478942
 40
0.5005082335853297
 40
0.6234527658309919
 40
0.7484986612277521
 40
0.8736976492452766
 40
1.0
 40
1.0
 40
1.0
 40
1.0
 10
147.646058816662
 20
136.498743289064
 30
0.0
 10
147.6475298892709
 20
136.4937974434059
 30
0.0
 10
147.6504674137492
 20
136.4839212873277
 30
0.0
 10
147.6498506792491
 20
136.468239891702
 30
0.0
 10
147.6456887176545
 20
136.4531073596217
 30
0.0
 10
147.6376899698561
 20
136.4395924520073
 30
0.0
 10
147.6268238783193
 20
136.4283323908113
 30
0.0
 10
147.6136361604947
 20
136.4201026783778
 30
0.0
 10
147.5988417139195
 20
136.4146431079928
 30
0.0
 10
147.5884131230121
 20
136.4140012649358
 30
0.0
 10
147.5831759518977
 20
136.4136789354909
 30
0.0
  0
LINE
  5
240
330
1F
100
AcDbEntity
  8
0
  6
Continuous
 62
     7
370
    25
100
AcDbLine
 10
147.4069452882
 20
137.1369973181
 30
0.0
 11
147.6460588167
 21
136.4987432891
 31
0.0
  0
CIRCLE
  5
241
330
1F
100
AcDbEntity
  8
0
  6
Continuous
 62
     7
370
    25
100
AcDbCircle
 10
147.3440624234
 20
137.11558786
 30
0.0
 40
4.5
  0
LINE
  5
242
330
1F
100
AcDbEntity
  8
0
  6
Continuous
 62
     7
370
    25
100
AcDbLine
 10
134.0440624234
 20
136.1031716253
 30
0.0
 11
134.0440624234
 21
138.1280040946
 31
0.0
  0
SPLINE
  5
243
330
1F
100
AcDbEntity
  8
0
  6
Continuous
 62
     7
370
    25
100
AcDbSpline
210
0.0
220
0.0
230
1.0
 70
     8
 71
     3
 72
    11
 73
     7
 74
     0
 42
0.00000001
 43
0.00000001
 40
0.0
 40
0.0
 40
0.0
 40
0.0
 40
0.2561894651307283
 40
0.5096044939206908
 40
0.7692742066553652
 40
1.0
 40
1.0
 40
1.0
 40
1.0
 10
134.0440624234104
 20
136.1031716253372
 30
0.0
 10
133.9684662911166
 20
136.0436595846889
 30
0.0
 10
133.8180927044419
 20
135.9252799965925
 30
0.0
 10
133.5188799184866
 20
135.7546424544571
 30
0.0
 10
133.1913601835999
 20
135.6030185435564
 30
0.0
 10
132.955181802786
 20
135.5235825078852
 30
0.0
 10
132.8440624234105
 20
135.4862087103622
 30
0.0
  0
LINE
  5
244
330
1F
100
AcDbEntity
  8
0
  6
Continuous
 62
     7
370
    25
100
AcDbLine
 10
132.8440624234
 20
138.7449670096
 30
0.0
 11
132.8440624234
 21
135.4862087104
 31
0.0
  0
SPLINE
  5
245
330
1F
100
AcDbEntity
  8
0
  6
Continuous
 62
     7
370
    25
100
AcDbSpline
210
0.0
220
0.0
230
1.0
 70
     8
 71
     3
 72
    11
 73
     7
 74
     0
 42
0.00000001
 43
0.00000001
 40
0.0
 40
0.0
 40
0.0
 40
0.0
 40
0.230737480522408
 40
0.4903955403005858
 40
0.7438105520730638
 40
1.0
 40
1.0
 40
1.0
 40
1.0
 10
132.8440624234104
 20
138.7449670095791
 30
0.0
 10
132.9551876571668
 20
138.7075918186661
 30
0.0
 10
133.1913665342423
 20
138.6281568395716
 30
0.0
 10
133.5188841751934
 20
138.4765301598079
 30
0.0
 10
133.8180927718559
 20
138.3058958548595
 30
0.0
 10
133.9684663136693
 20
138.1875161792482
 30
0.0
 10
134.0440624234104
 20
138.1280040946041
 30
0.0
  0
LINE
  5
246
330
1F
100
AcDbEntity
  8
0
  6
Continuous
 62
     7
370
    25
100
AcDbLine
 10
132.2388342099
 20
135.3394274402
 30
0.0
 11
97.9620964122
 21
136.2369954078
 31
0.0
  0
LINE
  5
247
330
1F
100
AcDbEntity
  8
0
  6
Continuous
 62
     7
370
    25
100
AcDbLine
 10
97.9620964122
 20
136.2369954078
 30
0.0
 11
97.9620964122
 21
137.9941803121
 31
0.0
  0
LINE
  5
248
330
1F
100
AcDbEntity
  8
0
  6
Continuous
 62
     7
370
    25
100
AcDbLine
 10
97.9620964122
 20
137.9941803121
 30
0.0
 11
132.2388342099
 21
138.8917482797
 31
0.0
  0
ELLIPSE
  5
249
330
1F
100
AcDbEntity
  8
0
  6
Continuous
 62
     7
370
    25
100
AcDbEllipse
 10
132.2440624234
 20
138.0913366233
 30
0.0
 11
0.9988086229566305
 21
0.06103964413864559
 31
0.0
210
0.0
220
0.0
230
0.9999999999999998
 40
0.7994627403
 41
0.8784769082856376
 42
1.527206254409823
  0
ELLIPSE
  5
24A
330
1F
100
AcDbEntity
  8
0
  6
Continuous
 62
     7
370
    25
100
AcDbEllipse
 10
132.2440624234
 20
136.1398390966
 30
0.0
 11
0.9988086229566305
 21
-0.06103964413864559
 31
0.0
210
0.0
220
0.0
230
0.9999999999999998
 40
0.7994627403
 41
4.755979052769778
 42
5.404708398893998
  0
SPLINE
  5
24B
330
1F
100
AcDbEntity
  8
0
  6
Continuous
 62
     7
370
    25
100
AcDbSpline
210
0.0
220
0.0
230
1.0
 70
    24
 71
     3
 72
    11
 73
     7
 74
     0
 42
0.00000001
 43
0.00000001
 40
0.0
 40
0.0
 40
0.0
 40
0.0
 40
0.2500000000000026
 40
0.5000000000000006
 40
0.7499999999999989
 40
1.0
 40
1.0
 40
1.0
 40
1.0
 10
97.94377882747528
 20
138.6937006492842
 30
0.0
 10
97.9441066887311
 20
138.6811801330616
 30
0.0
 10
97.94476241124272
 20
138.6561391006165
 30
0.0
 10
97.94902138038202
 20
138.4934956309939
 30
0.0
 10
97.9550132360438
 20
138.2646758949394
 30
0.0
 10
97.95973535345482
 20
138.0843455063932
 30
0.0
 10
97.96209641216034
 20
137.9941803121201
 30
0.0
  0
LINE
  5
24C
330
1F
100
AcDbEntity
  8
0
  6
Continuous
 62
     7
370
    25
100
AcDbLine
 10
132.2205166252
 20
139.5912686169
 30
0.0
 11
97.9437788275
 21
138.6937006493
 31
0.0
  0
SPLINE
  5
24D
330
1F
100
AcDbEntity
  8
0
  6
Continuous
 62
     7
370
    25
100
AcDbSpline
210
0.0
220
0.0
230
1.0
 70
    24
 71
     3
 72
    11
 73
     7
 74
     0
 42
0.00000001
 43
0.00000001
 40
0.0
 40
0.0
 40
0.0
 40
0.0
 40
0.2499999999999985
 40
0.4999999999999984
 40
0.7499999999999983
 40
1.0
 40
1.0
 40
1.0
 40
1.0
 10
132.220516625213
 20
139.5912686169033
 30
0.0
 10
132.2208444864688
 20
139.5787481006807
 30
0.0
 10
132.2215002089804
 20
139.5537070682356
 30
0.0
 10
132.2257591781197
 20
139.391063598613
 30
0.0
 10
132.2317510337814
 20
139.1622438625585
 30
0.0
 10
132.2364731511925
 20
138.9819134740123
 30
0.0
 10
132.238834209898
 20
138.8917482797392
 30
0.0
  0
LINE
  5
24E
330
1F
100
AcDbEntity
  8
0
  6
Continuous
 62
     7
370
    25
100
AcDbLine
 10
97.9437788275
 20
135.5374750707
 30
0.0
 11
132.2205166252
 21
134.639907103
 31
0.0
  0
SPLINE
  5
24F
330
1F
100
AcDbEntity
  8
0
  6
Continuous
 62
     7
370
    25
100
AcDbSpline
210
0.0
220
0.0
230
1.0
 70
    24
 71
     3
 72
    11
 73
     7
 74
     0
 42
0.00000001
 43
0.00000001
 40
0.0
 40
0.0
 40
0.0
 40
0.0
 40
0.2499999999999985
 40
0.4999999999999984
 40
0.7499999999999983
 40
1.0
 40
1.0
 40
1.0
 40
1.0
 10
97.94377882747528
 20
135.5374750706572
 30
0.0
 10
97.9441066887311
 20
135.5499955868798
 30
0.0
 10
97.94476241124272
 20
135.5750366193249
 30
0.0
 10
97.949021380382
 20
135.7376800889475
 30
0.0
 10
97.95501323604381
 20
135.966499825002
 30
0.0
 10
97.95973535345482
 20
136.1468302135482
 30
0.0
 10
97.96209641216034
 20
136.2369954078213
 30
0.0
  0
SPLINE
  5
250
330
1F
100
AcDbEntity
  8
0
  6
Continuous
 62
     7
370
    25
100
AcDbSpline
210
0.0
220
0.0
230
1.0
 70
    24
 71
     3
 72
    11
 73
     7
 74
     0
 42
0.00000001
 43
0.00000001
 40
0.0
 40
0.0
 40
0.0
 40
0.0
 40
0.2500000000000006
 40
0.4999999999999992
 40
0.7499999999999969
 40
1.0
 40
1.0
 40
1.0
 40
1.0
 10
132.238834209898
 20
135.3394274402022
 30
0.0
 10
132.2364731511925
 20
135.2492622459291
 30
0.0
 10
132.2317510337814
 20
135.0689318573828
 30
0.0
 10
132.2257591781197
 20
134.8401121213284
 30
0.0
 10
132.2215002089804
 20
134.6774686517058
 30
0.0
 10
132.2208444864688
 20
134.6524276192606
 30
0.0
 10
132.220516625213
 20
134.6399071030381
 30
0.0
  0
ELLIPSE
  5
251
330
1F
100
AcDbEntity
  8
0
  6
Continuous
 62
     7
370
    25
100
AcDbEllipse
 10
97.9620964122
 20
138.0151362304
 30
0.0
 11
1.499999971448745
 21
0.02095282558968847
 31
0.0
210
0.0
220
0.0
230
0.9999999999999998
 40
0.0139678873
 41
3.842044658397672
 42
4.712193869245424
  0
ELLIPSE
  5
252
330
1F
100
AcDbEntity
  8
0
  6
Continuous
 62
     7
370
    25
100
AcDbEllipse
 10
97.9620964122
 20
136.2160394895
 30
0.0
 11
1.49999997144873
 21
-0.02095282558968847
 31
0.0
210
0.0
220
0.0
230
0.9999999999999998
 40
0.0139678873
 41
1.570991437934172
 42
2.4411406487815
  0
SPLINE
  5
253
330
1F
100
AcDbEntity
  8
0
  6
Continuous
 62
     7
370
    25
100
AcDbSpline
210
0.0
220
0.0
230
1.0
 70
     8
 71
     3
 72
     9
 73
     5
 74
     0
 42
0.00000001
 43
0.00000001
 40
0.0
 40
0.0
 40
0.0
 40
0.0
 40
0.5600029565045049
 40
1.0
 40
1.0
 40
1.0
 40
1.0
 10
96.81545869671181
 20
136.2455637733468
 30
0.0
 10
96.8073109373587
 20
136.2455581352805
 30
0.0
 10
96.79276144389893
 20
136.2455480673583
 30
0.0
 10
96.7788168009584
 20
136.2456702439617
 30
0.0
 10
96.77268119929194
 20
136.245724001306
 30
0.0
  0
ELLIPSE
  5
254
330
1F
100
AcDbEntity
  8
0
  6
Continuous
 62
     7
370
    25
100
AcDbEllipse
 10
97.9620964122
 20
136.1984503274
 30
0.0
 11
1.499999872704151
 21
-0.04307925670957503
 31
0.0
210
0.0
220
0.0
230
1.0
 40
0.0143449667
 41
2.486833182542866
 42
2.678357024935514
  0
LINE
  5
255
330
1F
100
AcDbEntity
  8
0
  6
Continuous
 62
     7
370
    25
100
AcDbLine
 10
96.6204556257
 20
137.9845712345
 30
0.0
 11
96.6204556257
 21
136.2466044855
 31
0.0
  0
ELLIPSE
  5
256
330
1F
100
AcDbEntity
  8
0
  6
Continuous
 62
     7
370
    25
100
AcDbEllipse
 10
97.9620964122
 20
138.0327253925
 30
0.0
 11
1.499999872704151
 21
0.04307925670957503
 31
0.0
210
0.0
220
0.0
230
1.0
 40
0.0143449667
 41
3.604828282244324
 42
3.796352124635644
  0
SPLINE
  5
257
330
1F
100
AcDbEntity
  8
0
  6
Continuous
 62
     7
370
    25
100
AcDbSpline
210
0.0
220
0.0
230
1.0
 70
     8
 71
     3
 72
     9
 73
     5
 74
     0
 42
0.00000001
 43
0.00000001
 40
0.0
 40
0.0
 40
0.0
 40
0.0
 40
0.5599925069634957
 40
0.9999999999999999
 40
0.9999999999999999
 40
0.9999999999999999
 40
0.9999999999999999
 10
96.77268119929194
 20
137.9854517186354
 30
0.0
 10
96.78050400914887
 20
137.9855174637867
 30
0.0
 10
96.79447349938248
 20
137.9856348674138
 30
0.0
 10
96.80904647725296
 20
137.9856189502611
 30
0.0
 10
96.81545869671184
 20
137.9856119465946
 30
0.0
  0
ELLIPSE
  5
258
330
1F
100
AcDbEntity
  8
0
  6
Continuous
 62
     7
370
    25
100
AcDbEllipse
 10
97.9437788275
 20
135.5165191523
 30
0.0
 11
0.7999998117959564
 21
-0.02096310677478641
 31
0.0
210
0.0
220
0.0
230
1.0
 40
0.026176936
 41
1.571482264229205
 42
2.441631475076389
  0
SPLINE
  5
259
330
1F
100
AcDbEntity
  8
0
  6
Continuous
 62
     7
370
    25
100
AcDbSpline
210
0.0
220
0.0
230
1.0
 70
     8
 71
     3
 72
    12
 73
     8
 74
     0
 42
0.00000001
 43
0.00000001
 40
0.0
 40
0.0
 40
0.0
 40
0.0
 40
0.2198609600791264
 40
0.4397396970008128
 40
0.6583291451397731
 40
0.8791239516843589
 40
1.0
 40
1.0
 40
1.0
 40
1.0
 10
97.33223871256942
 20
135.5460434361827
 30
0.0
 10
97.27232364984053
 20
135.5567154308268
 30
0.0
 10
97.15248867995452
 20
135.5780602829983
 30
0.0
 10
96.99575369168001
 20
135.7061786782653
 30
0.0
 10
96.87918536789388
 20
135.8891166143304
 30
0.0
 10
96.82292867609962
 20
136.0806657862176
 30
0.0
 10
96.81741080488332
 20
136.2024714579026
 30
0.0
 10
96.81545869671181
 20
136.2455637733468
 30
0.0
  0
ELLIPSE
  5
25A
330
1F
100
AcDbEntity
  8
0
  6
Continuous
 62
     7
370
    25
100
AcDbEllipse
 10
97.9437788275
 20
138.7146565676
 30
0.0
 11
0.7999998117959565
 21
0.02096310677475799
 31
0.0
210
0.0
220
0.0
230
1.0
 40
0.026176936
 41
3.841553832104689
 42
4.711703042950382
  0
SPLINE
  5
25B
330
1F
100
AcDbEntity
  8
0
  6
Continuous
 62
     7
370
    25
100
AcDbSpline
210
0.0
220
0.0
230
1.0
 70
     8
 71
     3
 72
    12
 73
     8
 74
     0
 42
0.00000001
 43
0.00000001
 40
0.0
 40
0.0
 40
0.0
 40
0.0
 40
0.2198610998683205
 40
0.4397399767664977
 40
0.6583294271823363
 40
0.8791242261983233
 40
1.0
 40
1.0
 40
1.0
 40
1.0
 10
96.81545869671184
 20
137.9856119465946
 30
0.0
 10
96.82156164660715
 20
138.0643028563138
 30
0.0
 10
96.8337680398563
 20
138.2216910383631
 30
0.0
 10
96.92629198095464
 20
138.4309727868481
 30
0.0
 10
97.06207592837637
 20
138.5896221075124
 30
0.0
 10
97.20650379173973
 20
138.6697221702277
 30
0.0
 10
97.29938080338852
 20
138.6811052075294
 30
0.0
 10
97.33223871256943
 20
138.6851322837587
 30
0.0
  0
SPLINE
  5
25C
330
1F
100
AcDbEntity
  8
0
  6
Continuous
 62
     7
370
    25
100
AcDbSpline
210
0.0
220
0.0
230
1.0
 70
     8
 71
     3
 72
    11
 73
     7
 74
     0
 42
0.00000001
 43
0.00000001
 40
0.0
 40
0.0
 40
0.0
 40
0.0
 40
0.2561894651307132
 40
0.5096044939206589
 40
0.7692742066444711
 40
1.0
 40
1.0
 40
1.0
 40
1.0
 10
134.0440624234104
 20
138.1280040946041
 30
0.0
 10
133.9996974327937
 20
138.2415116299254
 30
0.0
 10
133.911447907859
 20
138.4672974563022
 30
0.0
 10
133.7016358209345
 20
138.7924997920617
 30
0.0
 10
133.4541279514429
 20
139.0824561499909
 30
0.0
 10
133.2593781207047
 20
139.2335179711693
 30
0.0
 10
133.1677504270455
 20
139.3045909278034
 30
0.0
  0
SPLINE
  5
25D
330
1F
100
AcDbEntity
  8
0
  6
Continuous
 62
     7
370
    25
100
AcDbSpline
210
0.0
220
0.0
230
1.0
 70
    24
 71
     3
 72
    10
 73
     6
 74
     0
 42
0.00000001
 43
0.00000001
 40
0.0
 40
0.0
 40
0.0
 40
0.0
 40
0.2808335173386667
 40
0.5616510917414076
 40
1.0
 40
1.0
 40
1.0
 40
1.0
 10
133.1677504270455
 20
139.3045909278034
 30
0.0
 10
133.1495423074006
 20
139.2731109250084
 30
0.0
 10
133.113127101787
 20
139.21015270654
 30
0.0
 10
133.0033440169866
 20
139.0203488232302
 30
0.0
 10
132.9043820642528
 20
138.8492535860819
 30
0.0
 10
132.8440624234104
 20
138.7449670095791
 30
0.0
  0
ELLIPSE
  5
25E
330
1F
100
AcDbEntity
  8
0
  6
Continuous
 62
     7
370
    25
100
AcDbEllipse
 10
132.2440624234
 20
138.0913366233
 30
0.0
 11
1.557390436637235
 21
0.09517594847736177
 31
0.0
210
0.0
220
0.0
230
1.0
 40
0.9613560848
 41
0.8784769082855954
 42
1.527206254409823
  0
SPLINE
  5
25F
330
1F
100
AcDbEntity
  8
0
  6
Continuous
 62
     7
370
    25
100
AcDbSpline
210
0.0
220
0.0
230
1.0
 70
    24
 71
     3
 72
    10
 73
     6
 74
     0
 42
0.00000001
 43
0.00000001
 40
0.0
 40
0.0
 40
0.0
 40
0.0
 40
0.280833517338673
 40
0.5616510917414113
 40
1.0
 40
1.0
 40
1.0
 40
1.0
 10
132.8440624234104
 20
135.4862087103622
 30
0.0
 10
132.8824128723729
 20
135.4199046512899
 30
0.0
 10
132.9591115931404
 20
135.2873002972308
 30
0.0
 10
133.0842659431824
 20
135.0709210463263
 30
0.0
 10
133.1361350095357
 20
134.981244660976
 30
0.0
 10
133.1677504270455
 20
134.926584792138
 30
0.0
  0
ELLIPSE
  5
260
330
1F
100
AcDbEntity
  8
0
  6
Continuous
 62
     7
370
    25
100
AcDbEllipse
 10
132.2440624234
 20
136.1398390966
 30
0.0
 11
1.557390436637235
 21
-0.09517594847736177
 31
0.0
210
0.0
220
0.0
230
1.0
 40
0.9613560848
 41
4.755979052769777
 42
5.40470839889403
  0
SPLINE
  5
261
330
1F
100
AcDbEntity
  8
0
  6
Continuous
 62
     7
370
    25
100
AcDbSpline
210
0.0
220
0.0
230
1.0
 70
     8
 71
     3
 72
    11
 73
     7
 74
     0
 42
0.00000001
 43
0.00000001
 40
0.0
 40
0.0
 40
0.0
 40
0.0
 40
0.2307374805226516
 40
0.4903955403005857
 40
0.7438105520730655
 40
1.0
 40
1.0
 40
1.0
 40
1.0
 10
133.1677504270455
 20
134.926584792138
 30
0.0
 10
133.259382431805
 20
134.9976618103282
 30
0.0
 10
133.4541315743416
 20
135.1487246227475
 30
0.0
 10
133.7016391415796
 20
135.438680651903
 30
0.0
 10
133.9114478709737
 20
135.7638783124516
 30
0.0
 10
133.999697420454
 20
135.9896641063457
 30
0.0
 10
134.0440624234104
 20
136.1031716253372
 30
0.0
  0
LINE
  5
262
330
1F
100
AcDbEntity
  8
0
  6
Continuous
 62
     7
370
    25
100
AcDbLine
 10
134.3440758787
 20
139.7210445301
 30
0.0
 11
132.2205166252
 21
139.5912686169
 31
0.0
  0
SPLINE
  5
263
330
1F
100
AcDbEntity
  8
0
  6
Continuous
 62
     7
370
    25
100
AcDbSpline
210
0.0
220
0.0
230
1.0
 70
     8
 71
     3
 72
    13
 73
     9
 74
     0
 42
0.00000001
 43
0.00000001
 40
0.0
 40
0.0
 40
0.0
 40
0.0
 40
0.1035746466401555
 40
0.2111076158583393
 40
0.3219769626223817
 40
0.4454462032504118
 40
0.7113049728010379
 40
1.0
 40
1.0
 40
1.0
 40
1.0
 10
136.4440624234104
 20
138.2746739796709
 30
0.0
 10
136.43680625865
 20
138.3730167581197
 30
0.0
 10
136.4220166195584
 20
138.573460690768
 30
0.0
 10
136.2957440099965
 20
138.856402740998
 30
0.0
 10
136.0991966218657
 20
139.114660966017
 30
0.0
 10
135.7353449487785
 20
139.417756315772
 30
0.0
 10
135.1377575620432
 20
139.6832859820555
 30
0.0
 10
134.6158010784834
 20
139.7081174974703
 30
0.0
 10
134.34407587869
 20
139.7210445300866
 30
0.0
  0
LINE
  5
264
330
1F
100
AcDbEntity
  8
0
  6
Continuous
 62
     7
370
    25
100
AcDbLine
 10
134.0440624234
 20
138.1280040946
 30
0.0
 11
136.4440624234
 21
138.2746739797
 31
0.0
  0
LINE
  5
265
330
1F
100
AcDbEntity
  8
0
  6
Continuous
 62
     7
370
    25
100
AcDbLine
 10
136.4440624234
 20
135.9565017403
 30
0.0
 11
134.0440624234
 21
136.1031716253
 31
0.0
  0
SPLINE
  5
266
330
1F
100
AcDbEntity
  8
0
  6
Continuous
 62
     7
370
    25
100
AcDbSpline
210
0.0
220
0.0
230
1.0
 70
     8
 71
     3
 72
    13
 73
     9
 74
     0
 42
0.00000001
 43
0.00000001
 40
0.0
 40
0.0
 40
0.0
 40
0.0
 40
0.288694968291485
 40
0.5545536835943152
 40
0.6780091910936104
 40
0.7888922083801199
 40
0.8964194071406489
 40
1.0
 40
1.0
 40
1.0
 40
1.0
 10
134.34407587869
 20
134.5101311898548
 30
0.0
 10
134.6158010692662
 20
134.5230581953375
 30
0.0
 10
135.1377575351207
 20
134.5478896586316
 30
0.0
 10
135.735332943224
 20
134.8134142600641
 30
0.0
 10
136.0991871234035
 20
135.1165052566683
 30
0.0
 10
136.2957346149691
 20
135.374757010789
 30
0.0
 10
136.4220179040753
 20
135.6577083769572
 30
0.0
 10
136.4368064060464
 20
135.8581530396483
 30
0.0
 10
136.4440624234104
 20
135.9565017402705
 30
0.0
  0
LINE
  5
267
330
1F
100
AcDbEntity
  8
0
  6
Continuous
 62
     7
370
    25
100
AcDbLine
 10
132.2205166252
 20
134.639907103
 30
0.0
 11
134.3440758787
 21
134.5101311899
 31
0.0
  0
SPLINE
  5
268
330
1F
100
AcDbEntity
  8
0
  6
Continuous
 62
     7
370
    25
100
AcDbSpline
210
0.0
220
0.0
230
1.0
 70
     8
 71
     3
 72
    12
 73
     8
 74
     0
 42
0.00000001
 43
0.00000001
 40
0.0
 40
0.0
 40
0.0
 40
0.0
 40
0.2225634137434412
 40
0.446206317369527
 40
0.6680851268156953
 40
0.8917990985568368
 40
1.0
 40
1.0
 40
1.0
 40
1.0
 10
97.29012312953694
 20
138.6841870478867
 30
0.0
 10
97.22842656390206
 20
138.6718339403199
 30
0.0
 10
97.10473418839766
 20
138.6470678094329
 30
0.0
 10
96.94556784660416
 20
138.5144838814351
 30
0.0
 10
96.82948595858723
 20
138.3281264779405
 30
0.0
 10
96.77777090785936
 20
138.1400356665872
 30
0.0
 10
96.77393248608243
 20
138.0234556336988
 30
0.0
 10
96.77268119929194
 20
137.9854517186354
 30
0.0
  0
SPLINE
  5
269
330
1F
100
AcDbEntity
  8
0
  6
Continuous
 62
     7
370
    25
100
AcDbSpline
210
0.0
220
0.0
230
1.0
 70
     8
 71
     3
 72
    12
 73
     8
 74
     0
 42
0.00000001
 43
0.00000001
 40
0.0
 40
0.0
 40
0.0
 40
0.0
 40
0.2225634137435263
 40
0.4462063173695687
 40
0.6680851268158023
 40
0.8917990985569296
 40
1.0
 40
1.0
 40
1.0
 40
1.0
 10
96.77268119929194
 20
136.245724001306
 30
0.0
 10
96.77826776539447
 20
136.1672203412634
 30
0.0
 10
96.78946799388402
 20
136.0098322582068
 30
0.0
 10
96.88351877157109
 20
135.8004807205794
 30
0.0
 10
97.02300983496909
 20
135.6417214261093
 30
0.0
 10
97.16823393480547
 20
135.5638725557927
 30
0.0
 10
97.26015710353552
 20
135.5511395149593
 30
0.0
 10
97.29012312953694
 20
135.5469886720547
 30
0.0
  0
ELLIPSE
  5
26A
330
1F
100
AcDbEntity
  8
0
  6
Continuous
 62
     7
370
    25
100
AcDbEllipse
 10
97.9244779097
 20
135.4997149982
 30
0.0
 11
0.7999991634988818
 21
-0.04310148564320571
 31
0.0
210
0.0
220
0.0
230
0.9999999999999999
 40
0.0268411366
 41
2.487867318780084
 42
2.679391161172288
  0
SPLINE
  5
26B
330
1F
100
AcDbEntity
  8
0
  6
Continuous
 62
     7
370
    25
100
AcDbSpline
210
0.0
220
0.0
230
1.0
 70
     8
 71
     3
 72
    11
 73
     7
 74
     0
 42
0.00000001
 43
0.00000001
 40
0.0
 40
0.0
 40
0.0
 40
0.0
 40
0.2499999999999989
 40
0.4999999999999977
 40
0.7499999999999992
 40
1.0
 40
1.0
 40
1.0
 40
1.0
 10
97.20893615693349
 20
135.5478691562007
 30
0.0
 10
97.13070104860122
 20
135.5628684613673
 30
0.0
 10
96.97423083193671
 20
135.5928670717004
 30
0.0
 10
96.78090468052022
 20
135.7563867744971
 30
0.0
 10
96.64652824824124
 20
135.9819663885794
 30
0.0
 10
96.62914649985404
 20
136.1583917864945
 30
0.0
 10
96.62045562566047
 20
136.246604485452
 30
0.0
  0
SPLINE
  5
26C
330
1F
100
AcDbEntity
  8
0
  6
Continuous
 62
     7
370
    25
100
AcDbSpline
210
0.0
220
0.0
230
1.0
 70
     8
 71
     3
 72
    11
 73
     7
 74
     0
 42
0.00000001
 43
0.00000001
 40
0.0
 40
0.0
 40
0.0
 40
0.0
 40
0.2499999999999988
 40
0.5000000000000019
 40
0.7499999999999991
 40
1.0
 40
1.0
 40
1.0
 40
1.0
 10
97.20893615693352
 20
138.6833065637407
 30
0.0
 10
97.13070104860124
 20
138.6683072585741
 30
0.0
 10
96.97423083193671
 20
138.638308648241
 30
0.0
 10
96.78090468052024
 20
138.4747889454443
 30
0.0
 10
96.64652824824125
 20
138.249209331362
 30
0.0
 10
96.62914649985404
 20
138.0727839334469
 30
0.0
 10
96.62045562566047
 20
137.9845712344894
 30
0.0
  0
ELLIPSE
  5
26D
330
1F
100
AcDbEntity
  8
0
  6
Continuous
 62
     7
370
    25
100
AcDbEllipse
 10
97.9244779097
 20
138.7314607218
 30
0.0
 11
0.7999991634988818
 21
0.04310148564320571
 31
0.0
210
0.0
220
0.0
230
0.9999999999999999
 40
0.0268411366
 41
3.603794146007254
 42
3.795317988398133
  0
LINE
  5
26E
330
1F
100
AcDbEntity
  8
0
  6
Continuous
 62
     7
370
    25
100
AcDbLine
 10
136.4440624234
 20
138.2746739797
 30
0.0
 11
136.4440624234
 21
135.9565017403
 31
0.0
  0
LINE
  5
26F
330
1F
100
AcDbEntity
  8
0
  6
Continuous
 62
     7
370
    25
100
AcDbLine
 10
97.1097938014
 20
138.9018285224
 30
0.0
 11
118.7373419701
 21
139.4681658025
 31
0.0
  0
SPLINE
  5
270
330
1F
100
AcDbEntity
  8
0
  6
Continuous
 62
     7
370
    25
100
AcDbSpline
210
0.0
220
0.0
230
1.0
 70
     8
 71
     3
 72
     9
 73
     5
 74
     0
 42
0.00000001
 43
0.00000001
 40
0.0
 40
0.0
 40
0.0
 40
0.0
 40
0.5600012771711205
 40
0.9999999999999999
 40
0.9999999999999999
 40
0.9999999999999999
 40
0.9999999999999999
 10
118.7373419701293
 20
139.4681658024678
 30
0.0
 10
119.2147721066543
 20
139.4563313901228
 30
0.0
 10
120.0673239774943
 20
139.435198559132
 30
0.0
 10
120.9242131821377
 20
139.4142378297196
 30
0.0
 10
121.3012433377866
 20
139.4050151355485
 30
0.0
  0
SPLINE
  5
271
330
1F
100
AcDbEntity
  8
0
  6
Continuous
 62
     7
370
    25
100
AcDbSpline
210
0.0
220
0.0
230
1.0
 70
     8
 71
     3
 72
     9
 73
     5
 74
     0
 42
0.00000001
 43
0.00000001
 40
0.0
 40
0.0
 40
0.0
 40
0.0
 40
0.5599999095970982
 40
1.0
 40
1.0
 40
1.0
 40
1.0
 10
121.3012433377867
 20
139.4050151355485
 30
0.0
 10
121.3953728284492
 20
139.4027177256513
 30
0.0
 10
121.5634612317673
 20
139.3986152073154
 30
0.0
 10
121.7317037514631
 20
139.3945188141223
 30
0.0
 10
121.8057304753388
 20
139.3927164007471
 30
0.0
  0
LINE
  5
272
330
1F
100
AcDbEntity
  8
0
  6
Continuous
 62
     7
370
    25
100
AcDbLine
 10
121.8057304753
 20
139.3927164007
 30
0.0
 11
134.3440758787
 21
139.7210445301
 31
0.0
  0
LINE
  5
273
330
1F
100
AcDbEntity
  8
0
  6
Continuous
 62
     7
370
    25
100
AcDbLine
 10
97.3322387126
 20
138.6851322838
 30
0.0
 11
97.1097938014
 21
138.9018285224
 31
0.0
  0
LINE
  5
274
330
1F
100
AcDbEntity
  8
0
  6
Continuous
 62
     7
370
    25
100
AcDbLine
 10
134.3440758787
 20
134.5101311899
 30
0.0
 11
121.8057304753
 21
134.8384593192
 31
0.0
  0
SPLINE
  5
275
330
1F
100
AcDbEntity
  8
0
  6
Continuous
 62
     7
370
    25
100
AcDbSpline
210
0.0
220
0.0
230
1.0
 70
     8
 71
     3
 72
     9
 73
     5
 74
     0
 42
0.00000001
 43
0.00000001
 40
0.0
 40
0.0
 40
0.0
 40
0.0
 40
0.5600000882143262
 40
1.0
 40
1.0
 40
1.0
 40
1.0
 10
121.8057304753388
 20
134.8384593191943
 30
0.0
 10
121.7115180598071
 20
134.8361652030532
 30
0.0
 10
121.5432816300021
 20
134.8320685677324
 30
0.0
 10
121.3751994723335
 20
134.8279658012731
 30
0.0
 10
121.3012433377867
 20
134.8261605843929
 30
0.0
  0
SPLINE
  5
276
330
1F
100
AcDbEntity
  8
0
  6
Continuous
 62
     7
370
    25
100
AcDbSpline
210
0.0
220
0.0
230
1.0
 70
     8
 71
     3
 72
     9
 73
     5
 74
     0
 42
0.00000001
 43
0.00000001
 40
0.0
 40
0.0
 40
0.0
 40
0.0
 40
0.5599987526606142
 40
1.0
 40
1.0
 40
1.0
 40
1.0
 10
121.3012433377867
 20
134.8261605843929
 30
0.0
 10
120.8214770798995
 20
134.8144189978705
 30
0.0
 10
119.9647497111192
 20
134.7934518323785
 30
0.0
 10
119.1123839626466
 20
134.7723116320063
 30
0.0
 10
118.7373419701293
 20
134.7630099174736
 30
0.0
  0
LINE
  5
277
330
1F
100
AcDbEntity
  8
0
  6
Continuous
 62
     7
370
    25
100
AcDbLine
 10
118.7373419701
 20
134.7630099175
 30
0.0
 11
97.1097938014
 21
135.3293471976
 31
0.0
  0
LINE
  5
278
330
1F
100
AcDbEntity
  8
0
  6
Continuous
 62
     7
370
    25
100
AcDbLine
 10
97.1097938014
 20
135.3293471976
 30
0.0
 11
97.3322387126
 21
135.5460434362
 31
0.0
  0
LINE
  5
279
330
1F
100
AcDbEntity
  8
0
  6
Continuous
 62
     7
370
    25
100
AcDbLine
 10
92.8034663327
 20
135.5478691562
 30
0.0
 11
97.2089361569
 21
135.5478691562
 31
0.0
  0
SPLINE
  5
27A
330
1F
100
AcDbEntity
  8
0
  6
Continuous
 62
     7
370
    25
100
AcDbSpline
210
0.0
220
0.0
230
1.0
 70
     8
 71
     3
 72
    12
 73
     8
 74
     0
 42
0.00000001
 43
0.00000001
 40
0.0
 40
0.0
 40
0.0
 40
0.0
 40
0.139683458618249
 40
0.3831896274038307
 40
0.55131692930133
 40
0.8194729461607051
 40
0.9999999999999999
 40
0.9999999999999999
 40
0.9999999999999999
 40
0.9999999999999999
 10
92.04150548250523
 20
136.246604485452
 30
0.0
 10
92.05174686325151
 20
136.1968895649735
 30
0.0
 10
92.07984174943984
 20
136.0605080489157
 30
0.0
 10
92.18699211079462
 20
135.8805919397036
 30
0.0
 10
92.36732919820761
 20
135.7022505113187
 30
0.0
 10
92.57578534277658
 20
135.5817302867672
 30
0.0
 10
92.73814224348052
 20
135.5575842734603
 30
0.0
 10
92.80346633272892
 20
135.5478691562007
 30
0.0
  0
LINE
  5
27B
330
1F
100
AcDbEntity
  8
0
  6
Continuous
 62
     7
370
    25
100
AcDbLine
 10
96.6204556257
 20
136.2466044855
 30
0.0
 11
92.0415054825
 21
136.2466044855
 31
0.0
  0
LINE
  5
27C
330
1F
100
AcDbEntity
  8
0
  6
Continuous
 62
     7
370
    25
100
AcDbLine
 10
92.0415054825
 20
137.9845712345
 30
0.0
 11
96.6204556257
 21
137.9845712345
 31
0.0
  0
SPLINE
  5
27D
330
1F
100
AcDbEntity
  8
0
  6
Continuous
 62
     7
370
    25
100
AcDbSpline
210
0.0
220
0.0
230
1.0
 70
     8
 71
     3
 72
    13
 73
     9
 74
     0
 42
0.00000001
 43
0.00000001
 40
0.0
 40
0.0
 40
0.0
 40
0.0
 40
0.1143463544469914
 40
0.2890454840074685
 40
0.5294852105593209
 40
0.7014879056604271
 40
0.9335094878266192
 40
1.0
 40
1.0
 40
1.0
 40
1.0
 10
92.80346633272893
 20
138.6833065637407
 30
0.0
 10
92.76226513201996
 20
138.6784719722356
 30
0.0
 10
92.65811645969713
 20
138.6662510593056
 30
0.0
 10
92.47075696531728
 20
138.5936029642645
 30
0.0
 10
92.2887292353085
 20
138.4630906978577
 30
0.0
 10
92.13644565409412
 20
138.2762230986881
 30
0.0
 10
92.06394237721415
 20
138.1148496939315
 30
0.0
 10
92.04559268789542
 20
138.0083033430796
 30
0.0
 10
92.04150548250523
 20
137.9845712344894
 30
0.0
  0
LINE
  5
27E
330
1F
100
AcDbEntity
  8
0
  6
Continuous
 62
     7
370
    25
100
AcDbLine
 10
97.2089361569
 20
138.6833065637
 30
0.0
 11
92.8034663327
 21
138.6833065637
 31
0.0
  0
ELLIPSE
  5
27F
330
1F
100
AcDbEntity
  8
0
  6
Continuous
 62
     7
370
    25
100
AcDbEllipse
 10
92.3968488279
 20
137.2901264151
 30
0.0
 11
0.008721666502680138
 21
1.000418978703721
 31
0.0
210
0.0
220
0.0
230
1.0
 40
0.499714557
 41
0.8079180407726584
 42
1.588240544501508
  0
ELLIPSE
  5
280
330
1F
100
AcDbEntity
  8
0
  6
Continuous
 62
     7
370
    25
100
AcDbEllipse
 10
92.3968488279
 20
136.9410493049
 30
0.0
 11
-0.008721666502680138
 21
1.000418978703749
 31
0.0
210
0.0
220
0.0
230
1.0
 40
0.499714557
 41
1.553352109088286
 42
2.333674612817121
  0
LINE
  5
281
330
1F
100
AcDbEntity
  8
0
  6
Continuous
 62
     7
370
    25
100
AcDbLine
 10
91.8968488279
 20
137.2770334543
 30
0.0
 11
91.8968488279
 21
136.9541422656
 31
0.0
  0
LINE
  5
282
330
1F
100
AcDbEntity
  8
0
  6
Continuous
 62
     7
370
    25
100
AcDbLine
 10
97.1109216586
 20
138.8587573921
 30
0.0
 11
97.1097938014
 21
138.9018285224
 31
0.0
  0
LINE
  5
283
330
1F
100
AcDbEntity
  8
0
  6
Continuous
 62
     7
370
    25
100
AcDbLine
 10
97.1109216586
 20
135.3724183279
 30
0.0
 11
97.1097938014
 21
135.3293471976
 31
0.0
  0
ELLIPSE
  5
284
330
1F
100
AcDbEntity
  8
0
  6
Continuous
 62
     7
370
    25
100
AcDbEllipse
 10
60.8930552239
 20
136.9532601354
 30
0.0
 11
36.18915845259205
 21
1.947628334984216
 31
0.0
210
0.0
220
0.0
230
1.0
 40
0.0007414247
 41
0.0282885576630122
 42
0.4911607830434036
  0
LINE
  5
285
330
1F
100
AcDbEntity
  8
0
  6
Continuous
 62
     7
370
    25
100
AcDbLine
 10
97.0676937471
 20
138.9008681591
 30
0.0
 11
97.2901231295
 21
138.6841870479
 31
0.0
  0
LINE
  5
286
330
1F
100
AcDbEntity
  8
0
  6
Continuous
 62
     7
370
    25
100
AcDbLine
 10
97.2901231295
 20
135.5469886721
 30
0.0
 11
97.0676937471
 21
135.3303075608
 31
0.0
  0
ELLIPSE
  5
287
330
1F
100
AcDbEntity
  8
0
  6
Continuous
 62
     7
370
    25
100
AcDbEllipse
 10
60.8930552239
 20
137.2779155846
 30
0.0
 11
36.18915845257634
 21
-1.947628334983335
 31
0.0
210
0.0
220
0.0
230
1.0
 40
0.0007414247
 41
5.792024524151637
 42
6.254896749546843
  0
LINE
  5
288
330
1F
100
AcDbEntity
  8
0
  6
Continuous
 62
     7
370
    25
100
AcDbLine
 10
124.9119380014
 20
139.9805362721
 30
0.0
 11
125.5625914674
 21
140.214631406
 31
0.0
  0
SPLINE
  5
289
330
1F
100
AcDbEntity
  8
0
  6
Continuous
 62
     7
370
    25
100
AcDbSpline
210
0.0
220
0.0
230
1.0
 70
     8
 71
     3
 72
    10
 73
     6
 74
     0
 42
0.00000001
 43
0.00000001
 40
0.0
 40
0.0
 40
0.0
 40
0.0
 40
0.2383396858856107
 40
0.571650633368965
 40
1.0
 40
1.0
 40
1.0
 40
1.0
 10
124.9140381613275
 20
139.9741103020255
 30
0.0
 10
124.6697719062275
 20
139.8995120995985
 30
0.0
 10
124.0839065732271
 20
139.7205905343247
 30
0.0
 10
123.0473517722215
 20
139.4842464220697
 30
0.0
 10
122.252657676622
 20
139.4256630458842
 30
0.0
 10
121.805730475339
 20
139.3927164007471
 30
0.0
  0
SPLINE
  5
28A
330
1F
100
AcDbEntity
  8
0
  6
Continuous
 62
     7
370
    25
100
AcDbSpline
210
0.0
220
0.0
230
1.0
 70
     8
 71
     3
 72
    11
 73
     7
 74
     0
 42
0.00000001
 43
0.00000001
 40
0.0
 40
0.0
 40
0.0
 40
0.0
 40
0.2506671725023492
 40
0.5010414677145718
 40
0.7508849997170933
 40
1.0
 40
1.0
 40
1.0
 40
1.0
 10
118.7373419701293
 20
139.4681658024678
 30
0.0
 10
119.2130299826899
 20
139.495040369123
 30
0.0
 10
120.163850218177
 20
139.5487581024292
 30
0.0
 10
121.5645228353893
 20
139.8342235660831
 30
0.0
 10
122.9280885966411
 20
140.2557517127027
 30
0.0
 10
123.780756143197
 20
140.6721087903997
 30
0.0
 10
124.2064674245104
 20
140.8799833667762
 30
0.0
  0
SPLINE
  5
28B
330
1F
100
AcDbEntity
  8
0
  6
Continuous
 62
     7
370
    25
100
AcDbSpline
210
0.0
220
0.0
230
1.0
 70
     8
 71
     3
 72
     9
 73
     5
 74
     0
 42
0.00000001
 43
0.00000001
 40
0.0
 40
0.0
 40
0.0
 40
0.0
 40
0.501325902198991
 40
1.0
 40
1.0
 40
1.0
 40
1.0
 10
124.2064673950686
 20
140.8799834201404
 30
0.0
 10
124.4305430959026
 20
141.0050260776105
 30
0.0
 10
124.8775092308085
 20
141.254449969178
 30
0.0
 10
125.2915545105039
 20
141.5562180775993
 30
0.0
 10
125.4980281668049
 20
141.7067020168113
 30
0.0
  0
LINE
  5
28C
330
1F
100
AcDbEntity
  8
0
  6
Continuous
 62
     7
370
    25
100
AcDbLine
 10
127.5638086268
 20
141.8214684561
 30
0.0
 11
125.4978548919
 21
141.7066932486
 31
0.0
  0
SPLINE
  5
28D
330
1F
100
AcDbEntity
  8
0
  6
Continuous
 62
     7
370
    25
100
AcDbSpline
210
0.0
220
0.0
230
1.0
 70
     8
 71
     3
 72
    14
 73
    10
 74
     0
 42
0.00000001
 43
0.00000001
 40
0.0
 40
0.0
 40
0.0
 40
0.0
 40
0.0829413618596697
 40
0.1664594845668882
 40
0.2437726390188662
 40
0.3161479456895724
 40
0.4353725718192331
 40
0.6486290670514194
 40
0.9999999999999999
 40
0.9999999999999999
 40
0.9999999999999999
 40
0.9999999999999999
 10
127.5638086139642
 20
141.821468451308
 30
0.0
 10
127.6096079152391
 20
141.8196532617256
 30
0.0
 10
127.7015249987402
 20
141.8160102600254
 30
0.0
 10
127.7520700312764
 20
141.7343491275378
 30
0.0
 10
127.7111651348362
 20
141.601065647253
 30
0.0
 10
127.5755640887318
 20
141.4127391910154
 30
0.0
 10
127.2586558179869
 20
141.114472111353
 30
0.0
 10
126.5816672077538
 20
140.6564449525677
 30
0.0
 10
125.9535003915403
 20
140.3841094238898
 30
0.0
 10
125.5625885278155
 20
140.2146334402401
 30
0.0
  0
LINE
  5
28E
330
1F
100
AcDbEntity
  8
0
  6
Continuous
 62
     7
370
    25
100
AcDbLine
 10
125.4978548919
 20
132.5244824713
 30
0.0
 11
127.5638086268
 21
132.4097072638
 31
0.0
  0
SPLINE
  5
28F
330
1F
100
AcDbEntity
  8
0
  6
Continuous
 62
     7
370
    25
100
AcDbSpline
210
0.0
220
0.0
230
1.0
 70
     8
 71
     3
 72
     9
 73
     5
 74
     0
 42
0.00000001
 43
0.00000001
 40
0.0
 40
0.0
 40
0.0
 40
0.0
 40
0.4986740982738611
 40
1.0
 40
1.0
 40
1.0
 40
1.0
 10
125.4980279655793
 20
132.5244735212948
 30
0.0
 10
125.2915543245095
 20
132.6749574575738
 30
0.0
 10
124.8775090757499
 20
132.9767255598272
 30
0.0
 10
124.430542973805
 20
133.2261494514495
 30
0.0
 10
124.2064672897065
 20
133.351192108829
 30
0.0
  0
SPLINE
  5
290
330
1F
100
AcDbEntity
  8
0
  6
Continuous
 62
     7
370
    25
100
AcDbSpline
210
0.0
220
0.0
230
1.0
 70
     8
 71
     3
 72
    11
 73
     7
 74
     0
 42
0.00000001
 43
0.00000001
 40
0.0
 40
0.0
 40
0.0
 40
0.0
 40
0.2491150002829079
 40
0.4989585322854286
 40
0.7493328274976518
 40
1.0
 40
1.0
 40
1.0
 40
1.0
 10
124.2064674245104
 20
133.3511923531652
 30
0.0
 10
123.780756143197
 20
133.5590669295417
 30
0.0
 10
122.9280885966411
 20
133.9754240072387
 30
0.0
 10
121.5645228353893
 20
134.3969521538583
 30
0.0
 10
120.163850218177
 20
134.6824176175122
 30
0.0
 10
119.2130299826899
 20
134.7361353508184
 30
0.0
 10
118.7373419701293
 20
134.7630099174736
 30
0.0
  0
SPLINE
  5
291
330
1F
100
AcDbEntity
  8
0
  6
Continuous
 62
     7
370
    25
100
AcDbSpline
210
0.0
220
0.0
230
1.0
 70
     8
 71
     3
 72
    10
 73
     6
 74
     0
 42
0.00000001
 43
0.00000001
 40
0.0
 40
0.0
 40
0.0
 40
0.0
 40
0.428349366631063
 40
0.7616603141144168
 40
1.0
 40
1.0
 40
1.0
 40
1.0
 10
121.805730475339
 20
134.8384593191943
 30
0.0
 10
122.252657676622
 20
134.8055126740572
 30
0.0
 10
123.0473517722216
 20
134.7469292978717
 30
0.0
 10
124.0839065732272
 20
134.5105851856168
 30
0.0
 10
124.6697719062276
 20
134.331663620343
 30
0.0
 10
124.9140381613276
 20
134.2570654179161
 30
0.0
  0
LINE
  5
292
330
1F
100
AcDbEntity
  8
0
  6
Continuous
 62
     7
370
    25
100
AcDbLine
 10
124.9119380013
 20
134.2506394475
 30
0.0
 11
125.5625914674
 21
134.0165443137
 31
0.0
  0
SPLINE
  5
293
330
1F
100
AcDbEntity
  8
0
  6
Continuous
 62
     7
370
    25
100
AcDbSpline
210
0.0
220
0.0
230
1.0
 70
     8
 71
     3
 72
    15
 73
    11
 74
     0
 42
0.00000001
 43
0.00000001
 40
0.0
 40
0.0
 40
0.0
 40
0.0
 40
0.2091652517822444
 40
0.4176299509274903
 40
0.5931463878153087
 40
0.6923603779431098
 40
0.7731125739307014
 40
0.8543366880968429
 40
0.9261517123972135
 40
0.9999999999999999
 40
0.9999999999999999
 40
0.9999999999999999
 40
0.9999999999999999
 10
125.562588527725
 20
134.0165422794699
 30
0.0
 10
125.7961727398203
 20
133.9188446469805
 30
0.0
 10
126.2625588254805
 20
133.7237765985612
 30
0.0
 10
126.8862089726596
 20
133.3744967452087
 30
0.0
 10
127.3460586019603
 20
133.0416065582652
 30
0.0
 10
127.60794297273
 20
132.7799884722293
 30
0.0
 10
127.7284129532453
 20
132.5993944593154
 30
0.0
 10
127.7472061801549
 20
132.4773002960052
 30
0.0
 10
127.6861679788485
 20
132.4132503066867
 30
0.0
 10
127.6049728603371
 20
132.4108992206488
 30
0.0
 10
127.5638086139292
 20
132.4097072686353
 30
0.0
  0
SPLINE
  5
294
330
1F
100
AcDbEntity
  8
0
  6
Continuous
 62
     7
370
    25
100
AcDbSpline
210
0.0
220
0.0
230
1.0
 70
    24
 71
     3
 72
    11
 73
     7
 74
     0
 42
0.00000001
 43
0.00000001
 40
0.0
 40
0.0
 40
0.0
 40
0.0
 40
0.2499999999999989
 40
0.4999999999999996
 40
0.749999999999999
 40
1.0
 40
1.0
 40
1.0
 40
1.0
 10
134.3309918896293
 20
134.0104738061661
 30
0.0
 10
134.3326783601333
 20
134.0748775163612
 30
0.0
 10
134.3360513011411
 20
134.2036849367514
 30
0.0
 10
134.3403311980424
 20
134.3671276053617
 30
0.0
 10
134.3433733188562
 20
134.483301512235
 30
0.0
 10
134.3438416920788
 20
134.5011879639815
 30
0.0
 10
134.3440758786901
 20
134.5101311898548
 30
0.0
  0
LINE
  5
295
330
1F
100
AcDbEntity
  8
0
  6
Continuous
 62
     7
370
    25
100
AcDbLine
 10
124.9140381613
 20
134.2570654179
 30
0.0
 11
134.3309918896
 21
134.0104738062
 31
0.0
  0
LINE
  5
296
330
1F
100
AcDbEntity
  8
0
  6
Continuous
 62
     7
370
    25
100
AcDbLine
 10
134.3309918896
 20
140.2207019138
 30
0.0
 11
124.9140381613
 21
139.974110302
 31
0.0
  0
SPLINE
  5
297
330
1F
100
AcDbEntity
  8
0
  6
Continuous
 62
     7
370
    25
100
AcDbSpline
210
0.0
220
0.0
230
1.0
 70
    24
 71
     3
 72
    11
 73
     7
 74
     0
 42
0.00000001
 43
0.00000001
 40
0.0
 40
0.0
 40
0.0
 40
0.0
 40
0.2500000000000009
 40
0.5000000000000002
 40
0.7500000000000007
 40
0.9999999999999999
 40
0.9999999999999999
 40
0.9999999999999999
 40
0.9999999999999999
 10
134.34407587869
 20
139.7210445300866
 30
0.0
 10
134.3438416920787
 20
139.7299877559599
 30
0.0
 10
134.3433733188562
 20
139.7478742077064
 30
0.0
 10
134.3403311980424
 20
139.8640481145797
 30
0.0
 10
134.3360513011411
 20
140.02749078319
 30
0.0
 10
134.3326783601332
 20
140.1562982035802
 30
0.0
 10
134.3309918896293
 20
140.2207019137753
 30
0.0
  0
ELLIPSE
  5
298
330
1F
100
AcDbEntity
  8
0
  6
Continuous
 62
     7
370
    25
100
AcDbEllipse
 10
134.3440624234
 20
136.0115029472
 30
0.0
 11
2.497021557391548
 21
-0.152599110346614
 31
2.131628207280301E-14
210
-8.504919643681506E-15
220
5.197564944336037E-16
230
1.0
 40
0.7994627403
 41
4.755979052769778
 42
6.332003616895578
  0
SPLINE
  5
299
330
1F
100
AcDbEntity
  8
0
  6
Continuous
 62
     7
370
    25
100
AcDbSpline
210
0.0
220
0.0
230
1.0
 70
    24
 71
     3
 72
    11
 73
     7
 74
     0
 42
0.00000001
 43
0.00000001
 40
0.0
 40
0.0
 40
0.0
 40
0.0
 40
0.2500000000000007
 40
0.5000000000000022
 40
0.7500000000000036
 40
1.0
 40
1.0
 40
1.0
 40
1.0
 10
136.4440624234105
 20
135.9565017402705
 30
0.0
 10
136.4693223616146
 20
135.9565017402705
 30
0.0
 10
136.5198422380229
 20
135.9565017402705
 30
0.0
 10
136.6187008472233
 20
135.9565017402705
 30
0.0
 10
136.7280881270467
 20
135.9565017402705
 30
0.0
 10
136.8054043246225
 20
135.9565017402705
 30
0.0
 10
136.8440624234104
 20
135.9565017402705
 30
0.0
  0
ELLIPSE
  5
29A
330
1F
100
AcDbEntity
  8
0
  6
Continuous
 62
     7
370
    25
100
AcDbEllipse
 10
134.3440624234
 20
138.2196727728
 30
0.0
 11
2.497021557391548
 21
0.1525991103465856
 31
2.131628207280301E-14
210
-8.504919643681503E-15
220
-5.197564944337172E-16
230
0.9999999999999998
 40
0.7994627403
 41
6.234366997463612
 42
7.810391561589414
  0
SPLINE
  5
29B
330
1F
100
AcDbEntity
  8
0
  6
Continuous
 62
     7
370
    25
100
AcDbSpline
210
0.0
220
0.0
230
1.0
 70
    24
 71
     3
 72
    11
 73
     7
 74
     0
 42
0.00000001
 43
0.00000001
 40
0.0
 40
0.0
 40
0.0
 40
0.0
 40
0.2499999999999994
 40
0.4999999999999963
 40
0.7500000000000001
 40
0.9999999999999999
 40
0.9999999999999999
 40
0.9999999999999999
 40
0.9999999999999999
 10
136.8440624234104
 20
138.2746739796709
 30
0.0
 10
136.8054043246225
 20
138.2746739796709
 30
0.0
 10
136.7280881270467
 20
138.2746739796709
 30
0.0
 10
136.6187008472233
 20
138.2746739796709
 30
0.0
 10
136.5198422380229
 20
138.2746739796709
 30
0.0
 10
136.4693223616146
 20
138.2746739796709
 30
0.0
 10
136.4440624234104
 20
138.2746739796709
 30
0.0
  0
LINE
  5
29C
330
1F
100
AcDbEntity
  8
0
  6
Continuous
 62
     7
370
    25
100
AcDbLine
 10
136.9808840979
 20
133.3888494357
 30
0.0
 11
125.5651548144
 21
134.0230566182
 31
0.0
  0
LINE
  5
29D
330
1F
100
AcDbEntity
  8
0
  6
Continuous
 62
     7
370
    25
100
AcDbLine
 10
136.8976790685
 20
131.8911589059
 30
0.0
 11
136.9808840979
 21
133.3888494357
 31
0.0
  0
LINE
  5
29E
330
1F
100
AcDbEntity
  8
0
  6
Continuous
 62
     7
370
    25
100
AcDbLine
 10
127.564001057
 20
132.4096965732
 30
0.0
 11
136.8976790685
 21
131.8911589059
 31
0.0
  0
LINE
  5
29F
330
1F
100
AcDbEntity
  8
0
  6
Continuous
 62
     7
370
    25
100
AcDbLine
 10
136.8440624234
 20
135.9565017403
 30
0.0
 11
136.8440624234
 21
138.2746739797
 31
0.0
  0
LINE
  5
2A0
330
1F
100
AcDbEntity
  8
0
  6
Continuous
 62
     7
370
    25
100
AcDbLine
 10
136.8976790685
 20
142.340016814
 30
0.0
 11
127.564001057
 21
141.8214791467
 31
0.0
  0
LINE
  5
2A1
330
1F
100
AcDbEntity
  8
0
  6
Continuous
 62
     7
370
    25
100
AcDbLine
 10
136.9808840979
 20
140.8423262842
 30
0.0
 11
136.8976790685
 21
142.340016814
 31
0.0
  0
LINE
  5
2A2
330
1F
100
AcDbEntity
  8
0
  6
Continuous
 62
     7
370
    25
100
AcDbLine
 10
125.5651548144
 20
140.2081191018
 30
0.0
 11
136.9808840979
 21
140.8423262842
 31
0.0
  0
LINE
  5
2A3
330
1F
100
AcDbEntity
  8
0
  6
Continuous
 62
     7
370
    25
100
AcDbLine
 10
137.3440624234
 20
133.7520277612
 30
0.0
 11
136.9808840979
 21
133.3888494357
 31
0.0
  0
LINE
  5
2A4
330
1F
100
AcDbEntity
  8
0
  6
Continuous
 62
     7
370
    25
100
AcDbLine
 10
136.9808840979
 20
140.8423262842
 30
0.0
 11
137.3440624234
 21
140.4791479587
 31
0.0
  0
LINE
  5
2A5
330
1F
100
AcDbEntity
  8
0
  6
Continuous
 62
     7
370
    25
100
AcDbLine
 10
137.3440624234
 20
133.7520277612
 30
0.0
 11
137.3440624234
 21
140.4791479587
 31
0.0
  0
LINE
  5
2A6
330
1F
100
AcDbEntity
  8
0
  6
Continuous
 62
     7
370
    25
100
AcDbLine
 10
137.3440624234
 20
141.2055046097
 30
0.0
 11
136.9808840979
 21
140.8423262842
 31
0.0
  0
LINE
  5
2A7
330
1F
100
AcDbEntity
  8
0
  6
Continuous
 62
     7
370
    25
100
AcDbLine
 10
137.3440624234
 20
140.4791479587
 30
0.0
 11
137.3440624234
 21
141.2055046097
 31
0.0
  0
ARC
  5
2A8
330
1F
100
AcDbEntity
  8
0
  6
Continuous
 62
     7
370
    25
100
AcDbCircle
 10
136.9808840979
 20
140.8423262842
 30
0.0
 40
1.500000000000004
100
AcDbArc
 50
75.9883675978
 51
93.1798301199
  0
LINE
  5
2A9
330
1F
100
AcDbEntity
  8
0
  6
Continuous
 62
     7
370
    25
100
AcDbLine
 10
137.3440624234
 20
141.2055046097
 30
0.0
 11
137.3440624234
 21
142.2976961698
 31
0.0
  0
LINE
  5
2AA
330
1F
100
AcDbEntity
  8
0
  6
Continuous
 62
     7
370
    25
100
AcDbLine
 10
136.9808840979
 20
133.3888494357
 30
0.0
 11
137.3440624234
 21
133.0256711103
 31
0.0
  0
LINE
  5
2AB
330
1F
100
AcDbEntity
  8
0
  6
Continuous
 62
     7
370
    25
100
AcDbLine
 10
137.3440624234
 20
133.0256711103
 30
0.0
 11
137.3440624234
 21
133.7520277612
 31
0.0
  0
ARC
  5
2AC
330
1F
100
AcDbEntity
  8
0
  6
Continuous
 62
     7
370
    25
100
AcDbCircle
 10
136.9808840979
 20
133.3888494357
 30
0.0
 40
1.500000000000032
100
AcDbArc
 50
266.8201698801
 51
284.0116324022
  0
LINE
  5
2AD
330
1F
100
AcDbEntity
  8
0
  6
Continuous
 62
     7
370
    25
100
AcDbLine
 10
137.3440624234
 20
131.9334795501
 30
0.0
 11
137.3440624234
 21
133.0256711103
 31
0.0
  0
SPLINE
  5
2AE
330
1F
100
AcDbEntity
  8
0
  6
Continuous
 62
     7
370
    25
100
AcDbSpline
210
0.0
220
0.0
230
1.0
 70
    24
 71
     3
 72
     9
 73
     5
 74
     0
 42
0.00000001
 43
0.00000001
 40
0.0
 40
0.0
 40
0.0
 40
0.0
 40
0.5389665913333159
 40
1.0
 40
1.0
 40
1.0
 40
1.0
 10
125.4980289622097
 20
141.7067029192123
 30
0.0
 10
125.4521030204322
 20
141.7041514780024
 30
0.0
 10
125.3668919099182
 20
141.6994175274183
 30
0.0
 10
125.3794731020813
 20
141.7001164825385
 30
0.0
 10
125.3852734519893
 20
141.7004387242
 30
0.0
  0
SPLINE
  5
2AF
330
1F
100
AcDbEntity
  8
0
  6
Continuous
 62
     7
370
    25
100
AcDbSpline
210
0.0
220
0.0
230
1.0
 70
    24
 71
     3
 72
     9
 73
     5
 74
     0
 42
0.00000001
 43
0.00000001
 40
0.0
 40
0.0
 40
0.0
 40
0.0
 40
0.4490009010282535
 40
1.0
 40
1.0
 40
1.0
 40
1.0
 10
125.3913715231547
 20
132.5303982140099
 30
0.0
 10
125.382985970563
 20
132.5308640780428
 30
0.0
 10
125.3643099443623
 20
132.531901635054
 30
0.0
 10
125.4505247061479
 20
132.5271119260659
 30
0.0
 10
125.4980289622097
 20
132.5244728007291
 30
0.0
  0
SPLINE
  5
2B0
330
1F
100
AcDbEntity
  8
0
  6
Continuous
 62
     7
370
    25
100
AcDbSpline
210
0.0
220
0.0
230
1.0
 70
     8
 71
     3
 72
     9
 73
     5
 74
     0
 42
0.00000001
 43
0.00000001
 40
0.0
 40
0.0
 40
0.0
 40
0.0
 40
0.5407747560677784
 40
1.0
 40
1.0
 40
1.0
 40
1.0
 10
97.10979380138835
 20
138.9018285223873
 30
0.0
 10
97.1020377593409
 20
138.9018580228002
 30
0.0
 10
97.08769529612415
 20
138.9019125749266
 30
0.0
 10
97.0733767923162
 20
138.9013083297917
 30
0.0
 10
97.06680137391224
 20
138.9010308451722
 30
0.0
  0
LINE
  5
2B1
330
1F
100
AcDbEntity
  8
0
  6
Continuous
 62
     7
370
    25
100
AcDbLine
 10
97.1097938014
 20
135.3293471976
 30
0.0
 11
97.0668013739
 21
135.3301448748
 31
0.0
  0
CIRCLE
  5
2B2
330
1F
100
AcDbEntity
  8
0
  6
Continuous
 62
     7
370
    25
100
AcDbCircle
 10
147.3440624234
 20
137.11558786
 30
0.0
 40
7.558608890731335
  0
CIRCLE
  5
2B3
330
1F
100
AcDbEntity
  8
0
  6
Continuous
 62
     7
370
    25
100
AcDbCircle
 10
147.3440624234
 20
137.11558786
 30
0.0
 40
8.054747829088171
  0
CIRCLE
  5
2B4
330
1F
100
AcDbEntity
  8
0
  6
Continuous
 62
     7
370
    25
100
AcDbCircle
 10
147.3440624234
 20
137.11558786
 30
0.0
 40
5.5
  0
SPLINE
  5
2B5
330
1F
100
AcDbEntity
  8
0
  6
Continuous
 62
     7
370
    25
100
AcDbSpline
210
0.0
220
0.0
230
1.0
 70
     8
 71
     3
 72
    11
 73
     7
 74
     0
 42
0.00000001
 43
0.00000001
 40
0.0
 40
0.0
 40
0.0
 40
0.0
 40
0.2920574028183094
 40
0.5665622171831318
 40
0.8065682389915578
 40
1.0
 40
1.0
 40
1.0
 40
1.0
 10
139.227856816357
 20
135.6358221541797
 30
0.0
 10
139.2595173526726
 20
135.4682216187561
 30
0.0
 10
139.3209356337332
 20
135.1430933048205
 30
0.0
 10
139.4008479929978
 20
134.7424896389543
 30
0.0
 10
139.4399468067253
 20
134.4846494429491
 30
0.0
 10
139.4245304437956
 20
134.4340040146675
 30
0.0
 10
139.4176505308115
 20
134.4114023062611
 30
0.0
  0
ARC
  5
2B6
330
1F
100
AcDbEntity
  8
0
  6
Continuous
 62
     7
370
    25
100
AcDbCircle
 10
147.3440624234
 20
137.11558786
 30
0.0
 40
8.249999999999968
100
AcDbArc
 50
169.6671934996
 51
190.3328065004
  0
SPLINE
  5
2B7
330
1F
100
AcDbEntity
  8
0
  6
Continuous
 62
     7
370
    25
100
AcDbSpline
210
0.0
220
0.0
230
1.0
 70
     8
 71
     3
 72
    12
 73
     8
 74
     0
 42
0.00000001
 43
0.00000001
 40
0.0
 40
0.0
 40
0.0
 40
0.0
 40
0.1882084234719069
 40
0.3759134198095928
 40
0.5768476463044282
 40
0.8018243756979397
 40
1.0
 40
1.0
 40
1.0
 40
1.0
 10
139.4176505308149
 20
139.8197734136769
 30
0.0
 10
139.4245221221844
 20
139.7981702191643
 30
0.0
 10
139.4382469245263
 20
139.7550216151951
 30
0.0
 10
139.4124222245682
 20
139.5614817574125
 30
0.0
 10
139.3613424299266
 20
139.2866526993735
 30
0.0
 10
139.2941024282584
 20
138.9509125620041
 30
0.0
 10
139.2489861811382
 20
138.7087608619914
 30
0.0
 10
139.227856816357
 20
138.5953535657617
 30
0.0
  0
ARC
  5
2B8
330
1F
100
AcDbEntity
  8
0
  6
Continuous
 62
     7
370
    25
100
AcDbCircle
 10
147.3440624234
 20
137.11558786
 30
0.0
 40
8.986048245082024
100
AcDbArc
 50
200.7364869057
 51
159.2635130943
  0
LINE
  5
2B9
330
1F
100
AcDbEntity
  8
0
  6
Continuous
 62
     7
370
    25
100
AcDbLine
 10
139.4176505308
 20
134.4114023063
 30
0.0
 11
137.6879908791
 21
132.6817426546
 31
0.0
  0
LINE
  5
2BA
330
1F
100
AcDbEntity
  8
0
  6
Continuous
 62
     7
370
    25
100
AcDbLine
 10
137.6879908791
 20
141.5494330654
 30
0.0
 11
139.4176505308
 21
139.8197734137
 31
0.0
  0
ARC
  5
2BB
330
1F
100
AcDbEntity
  8
0
  6
Continuous
 62
     7
370
    25
100
AcDbCircle
 10
136.9808840979
 20
140.8423262842
 30
0.0
 40
1.000000000000006
100
AcDbArc
 50
45.0
 51
68.7044833353
  0
ARC
  5
2BC
330
1F
100
AcDbEntity
  8
0
  6
Continuous
 62
     7
370
    25
100
AcDbCircle
 10
136.9808840979
 20
133.3888494357
 30
0.0
 40
0.9999999999999793
100
AcDbArc
 50
291.2955166647
 51
315.0
  0
LINE
  5
2BD
330
1F
100
AcDbEntity
  8
0
  6
Continuous
 62
     7
370
    25
100
AcDbLine
 10
117.3440624234
 20
139.4321956823
 30
0.0
 11
117.3440624234
 21
145.11558786
 31
0.0
  0
LINE
  5
2BE
330
1F
100
AcDbEntity
  8
0
  6
Continuous
 62
     7
370
    25
100
AcDbLine
 10
117.3440624234
 20
129.11558786
 30
0.0
 11
117.3440624234
 21
134.7989800377
 31
0.0
  0
LINE
  5
2BF
330
1F
100
AcDbEntity
  8
0
  6
Continuous
 62
     7
370
    25
100
AcDbLine
 10
124.1933897354
 20
133.3274886473
 30
0.0
 11
124.2064674245
 21
133.3511923532
 31
0.0
  0
ARC
  5
2C0
330
1F
100
AcDbEntity
  8
0
  6
Continuous
 62
     7
370
    25
100
AcDbCircle
 10
92.279934246
 20
136.1345942635
 30
0.0
 40
0.2634284819380941
100
AcDbArc
 50
154.8365729092
 51
203.8398907461
  0
ARC
  5
2C1
330
1F
100
AcDbEntity
  8
0
  6
Continuous
 62
     7
370
    25
100
AcDbCircle
 10
92.2798186852
 20
138.0965580606
 30
0.0
 40
0.2633139415152416
100
AcDbArc
 50
156.0258111457
 51
205.1695112832
  0
LINE
  5
2C2
330
1F
100
AcDbEntity
  8
0
  6
Continuous
 62
     7
370
    25
100
AcDbLine
 10
91.8968488279
 20
137.2770334543
 30
0.0
 11
91.8440625091
 21
137.2770334543
 31
0.0
  0
LINE
  5
2C3
330
1F
100
AcDbEntity
  8
0
  6
Continuous
 62
     7
370
    25
100
AcDbLine
 10
91.8968488279
 20
136.9541422656
 30
0.0
 11
91.8440624912
 21
136.9541422656
 31
0.0
  0
LINE
  5
2C4
330
1F
100
AcDbEntity
  8
0
  6
Continuous
 62
     7
370
    25
100
AcDbLine
 10
137.6879908791
 20
132.6817426546
 30
0.0
 11
137.3440624234
 21
133.0256711103
 31
0.0
  0
LINE
  5
2C5
330
1F
100
AcDbEntity
  8
0
  6
Continuous
 62
     7
370
    25
100
AcDbLine
 10
137.3440624234
 20
133.7520277612
 30
0.0
 11
139.2278568164
 21
135.6358221542
 31
0.0
  0
LINE
  5
2C6
330
1F
100
AcDbEntity
  8
0
  6
Continuous
 62
     7
370
    25
100
AcDbLine
 10
139.2278568164
 20
138.5953535658
 30
0.0
 11
137.3440624234
 21
140.4791479587
 31
0.0
  0
LINE
  5
2C7
330
1F
100
AcDbEntity
  8
0
  6
Continuous
 62
     7
370
    25
100
AcDbLine
 10
137.6879908791
 20
141.5494330654
 30
0.0
 11
137.3440624234
 21
141.2055046097
 31
0.0
  0
INSERT
  5
2D3
330
1F
100
AcDbEntity
  8
0
  6
Continuous
 62
     7
370
    18
100
AcDbBlockReference
  2
SW_CENTERMARKSYMBOL_1
 10
147.3440624234
 20
137.11558786
 30
0.0
  0
LINE
  5
2D4
330
1F
100
AcDbEntity
  8
0
  6
Continuous
 62
     7
370
    18
100
AcDbLine
 10
160.8440624234
 20
124.57271286
 30
0.0
 11
175.3213564635
 21
125.0251282987
 31
0.0
  0
LINE
  5
2D5
330
1F
100
AcDbEntity
  8
0
  6
Continuous
 62
     7
370
    18
100
AcDbLine
 10
175.3213564635
 20
149.2060474212
 30
0.0
 11
160.8440624234
 21
149.65846286
 31
0.0
  0
ENDSEC
  0
SECTION
  2
OBJECTS
  0
DICTIONARY
  5
C
330
0
100
AcDbDictionary
281
     1
  3
ACAD_GROUP
350
D
  3
ACAD_LAYOUT
350
1A
  3
ACAD_MLINESTYLE
350
17
  3
ACAD_PLOTSETTINGS
350
19
  3
ACAD_PLOTSTYLENAME
350
E
  3
ACAD_SCALELIST
350
47
  3
DWGPROPS
350
2D6
  0
DICTIONARY
  5
D
102
{ACAD_REACTORS
330
C
102
}
330
C
100
AcDbDictionary
281
     1
  0
DICTIONARY
  5
1A
102
{ACAD_REACTORS
330
C
102
}
330
C
100
AcDbDictionary
281
     1
  3
Layout1
350
1E
  3
Layout2
350
26
  3
Model
350
22
  0
DICTIONARY
  5
17
102
{ACAD_REACTORS
330
C
102
}
330
C
100
AcDbDictionary
281
     1
  3
Standard
350
18
  0
DICTIONARY
  5
19
102
{ACAD_REACTORS
330
C
102
}
330
C
100
AcDbDictionary
281
     1
  0
ACDBDICTIONARYWDFLT
  5
E
102
{ACAD_REACTORS
330
C
102
}
330
C
100
AcDbDictionary
281
     1
  3
Normal
350
F
100
AcDbDictionaryWithDefault
340
F
  0
DICTIONARY
  5
47
102
{ACAD_REACTORS
330
C
102
}
330
C
100
AcDbDictionary
281
     1
  3
A0
350
48
  3
A1
350
49
  3
A2
350
4A
  3
A3
350
4B
  3
A4
350
4C
  3
A5
350
4D
  3
A6
350
4E
  3
A7
350
4F
  3
A8
350
50
  3
A9
350
51
  3
B0
350
52
  3
B1
350
53
  3
B2
350
54
  3
B3
350
55
  3
B4
350
56
  3
B5
350
57
  3
B6
350
58
  0
XRECORD
  5
2D6
102
{ACAD_REACTORS
330
C
102
}
330
C
100
AcDbXrecord
280
     1
  1
DWGPROPS COOKIE
  2

  3

  4

  6

  7

  8
user28
  9

300
=
301
=
302
=
303
=
304
=
305
=
306
=
307
=
308
=
309
=
 40
0.0
 41
2460297.30193419
 42
2460297.301935081
  1

 90
        0
  0
LAYOUT
  5
1E
102
{ACAD_REACTORS
330
1A
102
}
330
1A
100
AcDbPlotSettings
  1

  2
none_device
  4

  6

 40
0.0
 41
0.0
 42
0.0
 43
0.0
 44
0.0
 45
0.0
 46
0.0
 47
0.0
 48
0.0
 49
0.0
140
0.0
141
0.0
142
1.0
143
1.0
 70
   688
 72
     1
 73
     0
 74
     5
  7

 75
    16
147
1.0
148
0.0
149
0.0
100
AcDbLayout
  1
Layout1
 70
     1
 71
     1
 10
0.0
 20
0.0
 11
420.0
 21
297.0
 12
0.0
 22
0.0
 32
0.0
 14
1.0000000000E+20
 24
1.0000000000E+20
 34
1.0000000000E+20
 15
-1.0000000000E+20
 25
-1.0000000000E+20
 35
-1.0000000000E+20
146
0.0
 13
0.0
 23
0.0
 33
0.0
 16
1.0
 26
0.0
 36
0.0
 17
0.0
 27
1.0
 37
0.0
 76
     0
330
1B
  0
LAYOUT
  5
26
102
{ACAD_REACTORS
330
1A
102
}
330
1A
100
AcDbPlotSettings
  1

  2
none_device
  4

  6

 40
0.0
 41
0.0
 42
0.0
 43
0.0
 44
0.0
 45
0.0
 46
0.0
 47
0.0
 48
0.0
 49
0.0
140
0.0
141
0.0
142
1.0
143
1.0
 70
   688
 72
     1
 73
     0
 74
     5
  7

 75
    16
147
1.0
148
0.0
149
0.0
100
AcDbLayout
  1
Layout2
 70
     1
 71
     2
 10
0.0
 20
0.0
 11
0.0
 21
0.0
 12
0.0
 22
0.0
 32
0.0
 14
0.0
 24
0.0
 34
0.0
 15
0.0
 25
0.0
 35
0.0
146
0.0
 13
0.0
 23
0.0
 33
0.0
 16
1.0
 26
0.0
 36
0.0
 17
0.0
 27
1.0
 37
0.0
 76
     0
330
23
  0
LAYOUT
  5
22
102
{ACAD_REACTORS
330
1A
102
}
330
1A
100
AcDbPlotSettings
  1

  2
none_device
  4
Letter_(8.50_x_11.00_Inches)
  6

 40
6.35
 41
6.35
 42
6.35000508
 43
6.35000508
 44
215.9
 45
279.4
 46
0.0
 47
0.0
 48
0.0
 49
0.0
140
0.0
141
0.0
142
1.0
143
1.0
 70
  1712
 72
     1
 73
     0
 74
     0
  7

 75
     0
147
1.0
148
0.0
149
0.0
100
AcDbLayout
  1
Model
 70
     1
 71
     0
 10
0.0
 20
0.0
 11
431.8
 21
279.4
 12
0.0
 22
0.0
 32
0.0
 14
0.0
 24
0.0
 34
0.0
 15
431.8
 25
279.4
 35
0.0
146
0.0
 13
0.0
 23
0.0
 33
0.0
 16
1.0
 26
0.0
 36
0.0
 17
0.0
 27
1.0
 37
0.0
 76
     0
330
1F
331
29
  0
MLINESTYLE
  5
18
102
{ACAD_REACTORS
330
17
102
}
330
17
100
AcDbMlineStyle
  2
Standard
 70
     0
  3

 62
   256
 51
90.0
 52
90.0
 71
     2
 49
0.5
 62
   256
  6
BYLAYER
 49
-0.5
 62
   256
  6
BYLAYER
  0
ACDBPLACEHOLDER
  5
F
102
{ACAD_REACTORS
330
E
102
}
330
E
  0
SCALE
  5
48
102
{ACAD_REACTORS
330
47
102
}
330
47
100
AcDbScale
 70
     0
300
1:1
140
1.0
141
1.0
290
     1
  0
SCALE
  5
49
102
{ACAD_REACTORS
330
47
102
}
330
47
100
AcDbScale
 70
     0
300
1:2
140
1.0
141
2.0
290
     0
  0
SCALE
  5
4A
102
{ACAD_REACTORS
330
47
102
}
330
47
100
AcDbScale
 70
     0
300
1:4
140
1.0
141
4.0
290
     0
  0
SCALE
  5
4B
102
{ACAD_REACTORS
330
47
102
}
330
47
100
AcDbScale
 70
     0
300
1:5
140
1.0
141
5.0
290
     0
  0
SCALE
  5
4C
102
{ACAD_REACTORS
330
47
102
}
330
47
100
AcDbScale
 70
     0
300
1:8
140
1.0
141
8.0
290
     0
  0
SCALE
  5
4D
102
{ACAD_REACTORS
330
47
102
}
330
47
100
AcDbScale
 70
     0
300
1:10
140
1.0
141
10.0
290
     0
  0
SCALE
  5
4E
102
{ACAD_REACTORS
330
47
102
}
330
47
100
AcDbScale
 70
     0
300
1:16
140
1.0
141
16.0
290
     0
  0
SCALE
  5
4F
102
{ACAD_REACTORS
330
47
102
}
330
47
100
AcDbScale
 70
     0
300
1:20
140
1.0
141
20.0
290
     0
  0
SCALE
  5
50
102
{ACAD_REACTORS
330
47
102
}
330
47
100
AcDbScale
 70
     0
300
1:30
140
1.0
141
30.0
290
     0
  0
SCALE
  5
51
102
{ACAD_REACTORS
330
47
102
}
330
47
100
AcDbScale
 70
     0
300
1:40
140
1.0
141
40.0
290
     0
  0
SCALE
  5
52
102
{ACAD_REACTORS
330
47
102
}
330
47
100
AcDbScale
 70
     0
300
1:50
140
1.0
141
50.0
290
     0
  0
SCALE
  5
53
102
{ACAD_REACTORS
330
47
102
}
330
47
100
AcDbScale
 70
     0
300
1:100
140
1.0
141
100.0
290
     0
  0
SCALE
  5
54
102
{ACAD_REACTORS
330
47
102
}
330
47
100
AcDbScale
 70
     0
300
2:1
140
2.0
141
1.0
290
     0
  0
SCALE
  5
55
102
{ACAD_REACTORS
330
47
102
}
330
47
100
AcDbScale
 70
     0
300
4:1
140
4.0
141
1.0
290
     0
  0
SCALE
  5
56
102
{ACAD_REACTORS
330
47
102
}
330
47
100
AcDbScale
 70
     0
300
8:1
140
8.0
141
1.0
290
     0
  0
SCALE
  5
57
102
{ACAD_REACTORS
330
47
102
}
330
47
100
AcDbScale
 70
     0
300
10:1
140
10.0
141
1.0
290
     0
  0
SCALE
  5
58
102
{ACAD_REACTORS
330
47
102
}
330
47
100
AcDbScale
 70
     0
300
100:1
140
100.0
141
1.0
290
     0
  0
ENDSEC
  0
EOF
