  0
SECTION
  2
HEADER
  9
$ACADVER
  1
AC1015
  9
$ACADMAINTVER
 70
     6
  9
$DWGCODEPAGE
  3
DOS932
  9
$INSBASE
 10
0.0
 20
0.0
 30
0.0
  9
$EXTMIN
 10
0.0
 20
0.0
 30
0.0
  9
$EXTMAX
 10
431.8
 20
279.4
 30
0.0
  9
$LIMMIN
 10
0.0
 20
0.0
  9
$LIMMAX
 10
431.8
 20
279.4
  9
$ORTHOMODE
 70
     0
  9
$REGENMODE
 70
     1
  9
$FILLMODE
 70
     1
  9
$QTEXTMODE
 70
     0
  9
$MIRRTEXT
 70
     1
  9
$LTSCALE
 40
1.0
  9
$ATTMODE
 70
     1
  9
$TEXTSIZE
 40
3.5
  9
$TRACEWID
 40
1.0
  9
$TEXTSTYLE
  7
Standard
  9
$CLAYER
  8
0
  9
$CELTYPE
  6
ByLayer
  9
$CECOLOR
 62
   256
  9
$CELTSCALE
 40
1.0
  9
$DISPSILH
 70
     0
  9
$DIMSCALE
 40
1.0
  9
$DIMASZ
 40
3.556
  9
$DIMEXO
 40
1.0
  9
$DIMDLI
 40
3.75
  9
$DIMRND
 40
0.0
  9
$DIMDLE
 40
0.0
  9
$DIMEXE
 40
1.0
  9
$DIMTP
 40
0.0
  9
$DIMTM
 40
0.0
  9
$DIMTXT
 40
3.5
  9
$DIMCEN
 40
2.5
  9
$DIMTSZ
 40
0.0
  9
$DIMTOL
 70
     0
  9
$DIMLIM
 70
     0
  9
$DIMTIH
 70
     1
  9
$DIMTOH
 70
     1
  9
$DIMSE1
 70
     0
  9
$DIMSE2
 70
     0
  9
$DIMTAD
 70
     1
  9
$DIMZIN
 70
     0
  9
$DIMBLK
  1

  9
$DIMASO
 70
     1
  9
$DIMSHO
 70
     1
  9
$DIMPOST
  1

  9
$DIMAPOST
  1

  9
$DIMALT
 70
     0
  9
$DIMALTD
 70
     3
  9
$DIMALTF
 40
0.0393700787
  9
$DIMLFAC
 40
1.0
  9
$DIMTOFL
 70
     1
  9
$DIMTVP
 40
0.0
  9
$DIMTIX
 70
     0
  9
$DIMSOXD
 70
     0
  9
$DIMSAH
 70
     0
  9
$DIMBLK1
  1

  9
$DIMBLK2
  1

  9
$DIMSTYLE
  2
ISO-25
  9
$DIMCLRD
 70
     0
  9
$DIMCLRE
 70
     0
  9
$DIMCLRT
 70
     0
  9
$DIMTFAC
 40
1.0
  9
$DIMGAP
 40
1.524
  9
$DIMJUST
 70
     0
  9
$DIMSD1
 70
     0
  9
$DIMSD2
 70
     0
  9
$DIMTOLJ
 70
     0
  9
$DIMTZIN
 70
     0
  9
$DIMALTZ
 70
     0
  9
$DIMALTTZ
 70
     0
  9
$DIMUPT
 70
     0
  9
$DIMDEC
 70
     3
  9
$DIMTDEC
 70
     3
  9
$DIMALTU
 70
     2
  9
$DIMALTTD
 70
     3
  9
$DIMTXSTY
  7
Standard
  9
$DIMAUNIT
 70
     0
  9
$DIMADEC
 70
     2
  9
$DIMALTRND
 40
0.0
  9
$DIMAZIN
 70
     0
  9
$DIMDSEP
 70
    44
  9
$DIMATFIT
 70
     3
  9
$DIMFRAC
 70
     0
  9
$DIMLDRBLK
  1

  9
$DIMLUNIT
 70
     2
  9
$DIMLWD
 70
    -2
  9
$DIMLWE
 70
    -2
  9
$DIMTMOVE
 70
     0
  9
$LUNITS
 70
     2
  9
$LUPREC
 70
     3
  9
$SKETCHINC
 40
1.0
  9
$FILLETRAD
 40
0.0
  9
$AUNITS
 70
     0
  9
$AUPREC
 70
     2
  9
$MENU
  1
.
  9
$ELEVATION
 40
0.0
  9
$PELEVATION
 40
0.0
  9
$THICKNESS
 40
0.0
  9
$LIMCHECK
 70
     0
  9
$CHAMFERA
 40
0.0
  9
$CHAMFERB
 40
0.0
  9
$CHAMFERC
 40
0.0
  9
$CHAMFERD
 40
0.0
  9
$SKPOLY
 70
     0
  9
$TDCREATE
 40
2460297.67559581
  9
$TDUCREATE
 40
2460297.30059581
  9
$TDUPDATE
 40
2460297.675596806
  9
$TDUUPDATE
 40
2460297.300596806
  9
$TDINDWG
 40
0.0000000116
  9
$TDUSRTIMER
 40
0.0000000116
  9
$USRTIMER
 70
     1
  9
$ANGBASE
 50
0.0
  9
$ANGDIR
 70
     0
  9
$PDMODE
 70
     0
  9
$PDSIZE
 40
-1.0
  9
$PLINEWID
 40
0.0
  9
$SPLFRAME
 70
     0
  9
$SPLINETYPE
 70
     6
  9
$SPLINESEGS
 70
     8
  9
$HANDSEED
  5
2DD
  9
$SURFTAB1
 70
     6
  9
$SURFTAB2
 70
     6
  9
$SURFTYPE
 70
     6
  9
$SURFU
 70
     6
  9
$SURFV
 70
     6
  9
$UCSBASE
  2

  9
$UCSNAME
  2

  9
$UCSORG
 10
0.0
 20
0.0
 30
0.0
  9
$UCSXDIR
 10
1.0
 20
0.0
 30
0.0
  9
$UCSYDIR
 10
0.0
 20
1.0
 30
0.0
  9
$UCSORTHOREF
  2

  9
$UCSORTHOVIEW
 70
     0
  9
$UCSORGTOP
 10
0.0
 20
0.0
 30
0.0
  9
$UCSORGBOTTOM
 10
0.0
 20
0.0
 30
0.0
  9
$UCSORGLEFT
 10
0.0
 20
0.0
 30
0.0
  9
$UCSORGRIGHT
 10
0.0
 20
0.0
 30
0.0
  9
$UCSORGFRONT
 10
0.0
 20
0.0
 30
0.0
  9
$UCSORGBACK
 10
0.0
 20
0.0
 30
0.0
  9
$PUCSBASE
  2

  9
$PUCSNAME
  2

  9
$PUCSORG
 10
0.0
 20
0.0
 30
0.0
  9
$PUCSXDIR
 10
1.0
 20
0.0
 30
0.0
  9
$PUCSYDIR
 10
0.0
 20
1.0
 30
0.0
  9
$PUCSORTHOREF
  2

  9
$PUCSORTHOVIEW
 70
     0
  9
$PUCSORGTOP
 10
0.0
 20
0.0
 30
0.0
  9
$PUCSORGBOTTOM
 10
0.0
 20
0.0
 30
0.0
  9
$PUCSORGLEFT
 10
0.0
 20
0.0
 30
0.0
  9
$PUCSORGRIGHT
 10
0.0
 20
0.0
 30
0.0
  9
$PUCSORGFRONT
 10
0.0
 20
0.0
 30
0.0
  9
$PUCSORGBACK
 10
0.0
 20
0.0
 30
0.0
  9
$USERI1
 70
     0
  9
$USERI2
 70
     0
  9
$USERI3
 70
     0
  9
$USERI4
 70
     0
  9
$USERI5
 70
     0
  9
$USERR1
 40
0.0
  9
$USERR2
 40
0.0
  9
$USERR3
 40
0.0
  9
$USERR4
 40
0.0
  9
$USERR5
 40
0.0
  9
$WORLDVIEW
 70
     1
  9
$SHADEDGE
 70
     3
  9
$SHADEDIF
 70
    70
  9
$TILEMODE
 70
     1
  9
$MAXACTVP
 70
    64
  9
$PINSBASE
 10
0.0
 20
0.0
 30
0.0
  9
$PLIMCHECK
 70
     0
  9
$PEXTMIN
 10
1.0000000000E+20
 20
1.0000000000E+20
 30
1.0000000000E+20
  9
$PEXTMAX
 10
-1.0000000000E+20
 20
-1.0000000000E+20
 30
-1.0000000000E+20
  9
$PLIMMIN
 10
0.0
 20
0.0
  9
$PLIMMAX
 10
420.0
 20
297.0
  9
$UNITMODE
 70
     0
  9
$VISRETAIN
 70
     1
  9
$PLINEGEN
 70
     0
  9
$PSLTSCALE
 70
     1
  9
$TREEDEPTH
 70
  3020
  9
$CMLSTYLE
  2
Standard
  9
$CMLJUST
 70
     0
  9
$CMLSCALE
 40
20.0
  9
$PROXYGRAPHICS
 70
     1
  9
$MEASUREMENT
 70
     1
  9
$CELWEIGHT
370
    -1
  9
$ENDCAPS
280
     0
  9
$JOINSTYLE
280
     0
  9
$LWDISPLAY
290
     1
  9
$INSUNITS
 70
     4
  9
$HYPERLINKBASE
  1

  9
$STYLESHEET
  1

  9
$XEDIT
290
     1
  9
$CEPSNTYPE
380
     0
  9
$PSTYLEMODE
290
     1
  9
$FINGERPRINTGUID
  2
{220202bb-7a8b-4974-b2a2-5f0ba0715912}
  9
$VERSIONGUID
  2
{FAEB1C32-E019-11D5-929B-00C0DF256EC4}
  9
$EXTNAMES
290
     1
  9
$PSVPSCALE
 40
0.0
  9
$OLESTARTUP
290
     0
  0
ENDSEC
  0
SECTION
  2
CLASSES
  0
CLASS
  1
ACDBDICTIONARYWDFLT
  2
AcDbDictionaryWithDefault
  3
ObjectDBX Classes
 90
        0
280
     0
281
     0
  0
CLASS
  1
VISUALSTYLE
  2
AcDbVisualStyle
  3
ObjectDBX Classes
 90
     4095
280
     0
281
     0
  0
CLASS
  1
MATERIAL
  2
AcDbMaterial
  3
ObjectDBX Classes
 90
     1153
280
     0
281
     0
  0
CLASS
  1
SCALE
  2
AcDbScale
  3
ObjectDBX Classes
 90
     1153
280
     0
281
     0
  0
CLASS
  1
TABLESTYLE
  2
AcDbTableStyle
  3
ObjectDBX Classes
 90
     4095
280
     0
281
     0
  0
CLASS
  1
MLEADERSTYLE
  2
AcDbMLeaderStyle
  3
ACDB_MLEADERSTYLE_CLASS
 90
     4095
280
     0
281
     0
  0
CLASS
  1
SUN
  2
AcDbSun
  3
SCENEOE
 90
     1153
280
     0
281
     0
  0
CLASS
  1
ACDBPLACEHOLDER
  2
AcDbPlaceHolder
  3
ObjectDBX Classes
 90
        0
280
     0
281
     0
  0
CLASS
  1
LAYOUT
  2
AcDbLayout
  3
ObjectDBX Classes
 90
        0
280
     0
281
     0
  0
ENDSEC
  0
SECTION
  2
TABLES
  0
TABLE
  2
VPORT
  5
8
330
0
100
AcDbSymbolTable
 70
     1
  0
VPORT
  5
29
330
8
100
AcDbSymbolTableRecord
100
AcDbViewportTableRecord
  2
*Active
 70
     0
 10
0.0
 20
0.0
 11
1.0
 21
1.0
 12
215.9
 22
139.7
 13
0.0
 23
0.0
 14
10.0
 24
10.0
 15
10.0
 25
10.0
 16
0.0
 26
0.0
 36
1.0
 17
0.0
 27
0.0
 37
0.0
 40
279.4
 41
1.5454545455
 42
50.0
 43
0.0
 44
0.0
 50
0.0
 51
0.0
 71
     0
 72
  2000
 73
     1
 74
     3
 75
     0
 76
     0
 77
     0
 78
     0
281
     0
 65
     1
110
0.0
120
0.0
130
0.0
111
1.0
121
0.0
131
0.0
112
0.0
122
1.0
132
0.0
 79
     0
146
0.0
  0
ENDTAB
  0
TABLE
  2
LTYPE
  5
5
330
0
100
AcDbSymbolTable
 70
     6
  0
LTYPE
  5
14
330
5
100
AcDbSymbolTableRecord
100
AcDbLinetypeTableRecord
  2
ByBlock
 70
     0
  3

 72
    65
 73
     0
 40
0.0
  0
LTYPE
  5
15
330
5
100
AcDbSymbolTableRecord
100
AcDbLinetypeTableRecord
  2
ByLayer
 70
     0
  3

 72
    65
 73
     0
 40
0.0
  0
LTYPE
  5
16
330
5
100
AcDbSymbolTableRecord
100
AcDbLinetypeTableRecord
  2
Continuous
 70
     0
  3
Solid line
 72
    65
 73
     0
 40
0.0
  0
LTYPE
  5
5E
330
5
100
AcDbSymbolTableRecord
100
AcDbLinetypeTableRecord
  2
HIDDEN
 70
     0
  3
Hidden __ __ __ __ __ __ __ __ __ __ __ __ __ __
 72
    65
 73
     2
 40
1.905
 49
1.27
 74
     0
 49
-0.635
 74
     0
  0
LTYPE
  5
5F
330
5
100
AcDbSymbolTableRecord
100
AcDbLinetypeTableRecord
  2
PHANTOM
 70
     0
  3
Phantom ______  __  __  ______  __  __  ______
 72
    65
 73
     6
 40
12.7
 49
6.35
 74
     0
 49
-1.27
 74
     0
 49
1.27
 74
     0
 49
-1.27
 74
     0
 49
1.27
 74
     0
 49
-1.27
 74
     0
  0
LTYPE
  5
60
330
5
100
AcDbSymbolTableRecord
100
AcDbLinetypeTableRecord
  2
CENTER
 70
     0
  3
Center ____ _ ____ _ ____ _ ____ _ ____ _ ____
 72
    65
 73
     4
 40
10.16
 49
6.35
 74
     0
 49
-1.27
 74
     0
 49
1.27
 74
     0
 49
-1.27
 74
     0
  0
LTYPE
  5
61
330
5
100
AcDbSymbolTableRecord
100
AcDbLinetypeTableRecord
  2
CENTERX2
 70
     0
  3
Center (2x) ________  __  ________  __  _____
 72
    65
 73
     4
 40
20.32
 49
12.7
 74
     0
 49
-2.54
 74
     0
 49
2.54
 74
     0
 49
-2.54
 74
     0
  0
LTYPE
  5
62
330
5
100
AcDbSymbolTableRecord
100
AcDbLinetypeTableRecord
  2
DOT2
 70
     0
  3
Dot (.5x) ........................................
 72
    65
 73
     2
 40
0.635
 49
0.0
 74
     0
 49
-0.635
 74
     0
  0
ENDTAB
  0
TABLE
  2
LAYER
  5
2
330
0
100
AcDbSymbolTable
 70
     1
  0
LAYER
  5
10
330
2
100
AcDbSymbolTableRecord
100
AcDbLayerTableRecord
  2
0
 70
     0
 62
     7
  6
Continuous
370
    -3
390
F
  0
ENDTAB
  0
TABLE
  2
STYLE
  5
3
330
0
100
AcDbSymbolTable
 70
     2
  0
STYLE
  5
11
330
3
100
AcDbSymbolTableRecord
100
AcDbTextStyleTableRecord
  2
Standard
 70
     0
 40
0.0
 41
1.0
 50
0.0
 71
     0
 42
3.5
  3
txt
  4
bigfont
  0
STYLE
  5
63
330
3
100
AcDbSymbolTableRecord
100
AcDbTextStyleTableRecord
  2
SLDTEXTSTYLE0
 70
     0
 40
0.0
 41
0.7
 50
0.0
 71
     0
 42
3.5
  3
TXT
  4
bigfont
  0
ENDTAB
  0
TABLE
  2
VIEW
  5
6
330
0
100
AcDbSymbolTable
 70
     0
  0
ENDTAB
  0
TABLE
  2
UCS
  5
7
330
0
100
AcDbSymbolTable
 70
     0
  0
ENDTAB
  0
TABLE
  2
APPID
  5
9
330
0
100
AcDbSymbolTable
 70
     1
  0
APPID
  5
12
330
9
100
AcDbSymbolTableRecord
100
AcDbRegAppTableRecord
  2
ACAD
 70
     0
  0
ENDTAB
  0
TABLE
  2
DIMSTYLE
  5
A
330
0
100
AcDbSymbolTable
 70
     1
100
AcDbDimStyleTable
  0
DIMSTYLE
105
27
330
A
100
AcDbSymbolTableRecord
100
AcDbDimStyleTableRecord
  2
ISO-25
 70
     0
 41
2.5
 42
0.625
 43
3.75
 44
1.25
 73
     0
 74
     0
 77
     1
 78
     8
140
2.5
141
2.5
143
0.0393700787
147
0.625
171
     3
172
     1
178
     0
271
     2
272
     2
274
     3
278
    44
283
     0
284
     8
340
11
  0
ENDTAB
  0
TABLE
  2
BLOCK_RECORD
  5
1
330
0
100
AcDbSymbolTable
 70
     3
  0
BLOCK_RECORD
  5
1F
330
1
100
AcDbSymbolTableRecord
100
AcDbBlockTableRecord
  2
*Model_Space
340
22
  0
BLOCK_RECORD
  5
1B
330
1
100
AcDbSymbolTableRecord
100
AcDbBlockTableRecord
  2
*Paper_Space
340
1E
  0
BLOCK_RECORD
  5
23
330
1
100
AcDbSymbolTableRecord
100
AcDbBlockTableRecord
  2
*Paper_Space0
340
26
  0
BLOCK_RECORD
  5
1F1
330
1
100
AcDbSymbolTableRecord
100
AcDbBlockTableRecord
  2
SW_CENTERMARKSYMBOL_0
340
0
102
{BLKREFS
331
1FC
102
}
  0
BLOCK_RECORD
  5
2CE
330
1
100
AcDbSymbolTableRecord
100
AcDbBlockTableRecord
  2
SW_CENTERMARKSYMBOL_1
340
0
102
{BLKREFS
331
2D9
102
}
  0
ENDTAB
  0
ENDSEC
  0
SECTION
  2
BLOCKS
  0
BLOCK
  5
20
330
1F
100
AcDbEntity
  8
0
100
AcDbBlockBegin
  2
*Model_Space
 70
     0
 10
0.0
 20
0.0
 30
0.0
  3
*Model_Space
  1

  0
ENDBLK
  5
21
330
1F
100
AcDbEntity
  8
0
100
AcDbBlockEnd
  0
BLOCK
  5
1C
330
1B
100
AcDbEntity
 67
     1
  8
0
100
AcDbBlockBegin
  2
*Paper_Space
 70
     0
 10
0.0
 20
0.0
 30
0.0
  3
*Paper_Space
  1

  0
ENDBLK
  5
1D
330
1B
100
AcDbEntity
 67
     1
  8
0
100
AcDbBlockEnd
  0
BLOCK
  5
24
330
23
100
AcDbEntity
  8
0
100
AcDbBlockBegin
  2
*Paper_Space0
 70
     0
 10
0.0
 20
0.0
 30
0.0
  3
*Paper_Space0
  1

  0
ENDBLK
  5
25
330
23
100
AcDbEntity
  8
0
100
AcDbBlockEnd
  0
BLOCK
  5
1F2
330
1F1
100
AcDbEntity
  8
0
100
AcDbBlockBegin
  2
SW_CENTERMARKSYMBOL_0
 70
     0
 10
0.0
 20
0.0
 30
0.0
  3
SW_CENTERMARKSYMBOL_0
  1

  0
LINE
  5
1F4
330
1F1
100
AcDbEntity
  8
0
  6
Continuous
 62
     0
370
    18
100
AcDbLine
 10
0.0
 20
0.0
 30
0.0
 11
0.0
 21
2.5
 31
0.0
  0
LINE
  5
1F5
330
1F1
100
AcDbEntity
  8
0
  6
Continuous
 62
     0
370
    18
100
AcDbLine
 10
0.0
 20
0.0
 30
0.0
 11
-2.5
 21
0.0
 31
0.0
  0
LINE
  5
1F6
330
1F1
100
AcDbEntity
  8
0
  6
Continuous
 62
     0
370
    18
100
AcDbLine
 10
0.0
 20
0.0
 30
0.0
 11
0.0
 21
-2.5
 31
0.0
  0
LINE
  5
1F7
330
1F1
100
AcDbEntity
  8
0
  6
Continuous
 62
     0
370
    18
100
AcDbLine
 10
0.0
 20
0.0
 30
0.0
 11
2.5
 21
0.0
 31
0.0
  0
LINE
  5
1F8
330
1F1
100
AcDbEntity
  8
0
  6
Continuous
 62
     0
370
    18
100
AcDbLine
 10
0.0
 20
5.0
 30
0.0
 11
0.0
 21
41.805940372
 31
0.0
  0
LINE
  5
1F9
330
1F1
100
AcDbEntity
  8
0
  6
Continuous
 62
     0
370
    18
100
AcDbLine
 10
-5.0
 20
0.0
 30
0.0
 11
-15.0
 21
0.0
 31
0.0
  0
LINE
  5
1FA
330
1F1
100
AcDbEntity
  8
0
  6
Continuous
 62
     0
370
    18
100
AcDbLine
 10
0.0
 20
-5.0
 30
0.0
 11
0.0
 21
-19.1337230635
 31
0.0
  0
LINE
  5
1FB
330
1F1
100
AcDbEntity
  8
0
  6
Continuous
 62
     0
370
    18
100
AcDbLine
 10
5.0
 20
0.0
 30
0.0
 11
15.0
 21
0.0
 31
0.0
  0
ENDBLK
  5
1F3
330
1F1
100
AcDbEntity
  8
0
100
AcDbBlockEnd
  0
BLOCK
  5
2CF
330
2CE
100
AcDbEntity
  8
0
100
AcDbBlockBegin
  2
SW_CENTERMARKSYMBOL_1
 70
     0
 10
0.0
 20
0.0
 30
0.0
  3
SW_CENTERMARKSYMBOL_1
  1

  0
LINE
  5
2D1
330
2CE
100
AcDbEntity
  8
0
  6
Continuous
 62
     0
370
    18
100
AcDbLine
 10
0.0
 20
0.0
 30
0.0
 11
0.0
 21
2.5
 31
0.0
  0
LINE
  5
2D2
330
2CE
100
AcDbEntity
  8
0
  6
Continuous
 62
     0
370
    18
100
AcDbLine
 10
0.0
 20
0.0
 30
0.0
 11
-2.5
 21
0.0
 31
0.0
  0
LINE
  5
2D3
330
2CE
100
AcDbEntity
  8
0
  6
Continuous
 62
     0
370
    18
100
AcDbLine
 10
0.0
 20
0.0
 30
0.0
 11
0.0
 21
-2.5
 31
0.0
  0
LINE
  5
2D4
330
2CE
100
AcDbEntity
  8
0
  6
Continuous
 62
     0
370
    18
100
AcDbLine
 10
0.0
 20
0.0
 30
0.0
 11
2.5
 21
0.0
 31
0.0
  0
LINE
  5
2D5
330
2CE
100
AcDbEntity
  8
0
  6
Continuous
 62
     0
370
    18
100
AcDbLine
 10
0.0
 20
5.0
 30
0.0
 11
0.0
 21
15.3400206162
 31
0.0
  0
LINE
  5
2D6
330
2CE
100
AcDbEntity
  8
0
  6
Continuous
 62
     0
370
    18
100
AcDbLine
 10
-5.0
 20
0.0
 30
0.0
 11
-57.2228598433
 21
0.0
 31
0.0
  0
LINE
  5
2D7
330
2CE
100
AcDbEntity
  8
0
  6
Continuous
 62
     0
370
    18
100
AcDbLine
 10
0.0
 20
-5.0
 30
0.0
 11
0.0
 21
-14.772543393
 31
0.0
  0
LINE
  5
2D8
330
2CE
100
AcDbEntity
  8
0
  6
Continuous
 62
     0
370
    18
100
AcDbLine
 10
5.0
 20
0.0
 30
0.0
 11
29.338002122
 21
0.0
 31
0.0
  0
ENDBLK
  5
2D0
330
2CE
100
AcDbEntity
  8
0
100
AcDbBlockEnd
  0
ENDSEC
  0
SECTION
  2
ENTITIES
  0
MTEXT
  5
64
330
1F
100
AcDbEntity
  8
0
  6
Continuous
 62
     7
370
     0
100
AcDbMText
 10
167.0049820104
 20
115.7363938955
 30
0.0
 40
4.2333333333
 41
0.0
 71
     1
 72
     1
  1
エースボールZERO　BL-0400
  7
SLDTEXTSTYLE0
 73
     1
 44
1.0
  0
LINE
  5
65
330
1F
100
AcDbEntity
  8
0
  6
Continuous
 62
     7
370
    25
100
AcDbLine
 10
138.6940453471
 20
70.2641165279
 30
0.0
 11
135.1940453471
 21
70.2641165279
 31
0.0
  0
LINE
  5
66
330
1F
100
AcDbEntity
  8
0
  6
Continuous
 62
     7
370
    25
100
AcDbLine
 10
135.1940453471
 20
46.2641165279
 30
0.0
 11
138.6940453471
 21
46.2641165279
 31
0.0
  0
LINE
  5
67
330
1F
100
AcDbEntity
  8
0
  6
Continuous
 62
     7
370
    25
100
AcDbLine
 10
135.1940453471
 20
70.2641165279
 30
0.0
 11
134.6940453471
 21
69.7641165279
 31
0.0
  0
LINE
  5
68
330
1F
100
AcDbEntity
  8
0
  6
Continuous
 62
     7
370
    25
100
AcDbLine
 10
134.6940453471
 20
46.7641165279
 30
0.0
 11
135.1940453471
 21
46.2641165279
 31
0.0
  0
LINE
  5
69
330
1F
100
AcDbEntity
  8
0
  6
Continuous
 62
     7
370
    25
100
AcDbLine
 10
127.6940453471
 20
51.9141165279
 30
0.0
 11
134.6940453471
 21
51.9141165279
 31
0.0
  0
LINE
  5
6A
330
1F
100
AcDbEntity
  8
0
  6
Continuous
 62
     7
370
    25
100
AcDbLine
 10
134.6940453471
 20
64.6141165279
 30
0.0
 11
127.6940453471
 21
64.6141165279
 31
0.0
  0
ARC
  5
6B
330
1F
100
AcDbEntity
  8
0
  6
Continuous
 62
     7
370
    25
100
AcDbCircle
 10
127.6940453471
 20
43.2641165279
 30
0.0
 40
8.649999999999999
100
AcDbArc
 50
90.0
 51
180.0
  0
ARC
  5
6C
330
1F
100
AcDbEntity
  8
0
  6
Continuous
 62
     7
370
    25
100
AcDbCircle
 10
127.6940453471
 20
43.2641165279
 30
0.0
 40
21.35
100
AcDbArc
 50
90.0
 51
180.0
  0
LINE
  5
6D
330
1F
100
AcDbEntity
  8
0
  6
Continuous
 62
     7
370
    25
100
AcDbLine
 10
119.0440453471
 20
41.2641165279
 30
0.0
 11
119.0440453471
 21
43.2641165279
 31
0.0
  0
LINE
  5
6E
330
1F
100
AcDbEntity
  8
0
  6
Continuous
 62
     7
370
    25
100
AcDbLine
 10
106.3440453471
 20
43.2641165279
 30
0.0
 11
106.3440453471
 21
41.2641165279
 31
0.0
  0
LINE
  5
6F
330
1F
100
AcDbEntity
  8
0
  6
Continuous
 62
     7
370
    25
100
AcDbLine
 10
164.1940453471
 20
47.5728665279
 30
0.0
 11
176.4976540742
 21
47.9573543006
 31
0.0
  0
LINE
  5
70
330
1F
100
AcDbEntity
  8
0
  6
Continuous
 62
     7
370
    25
100
AcDbLine
 10
176.4976540742
 20
68.5708787552
 30
0.0
 11
164.1940453471
 21
68.9553665279
 31
0.0
  0
LINE
  5
71
330
1F
100
AcDbEntity
  8
0
  6
Continuous
 62
     7
370
    25
100
AcDbLine
 10
176.4976540742
 20
47.9573543006
 30
0.0
 11
179.1940453471
 21
49.5141165279
 31
0.0
  0
LINE
  5
72
330
1F
100
AcDbEntity
  8
0
  6
Continuous
 62
     7
370
    25
100
AcDbLine
 10
179.1940453471
 20
67.0141165279
 30
0.0
 11
176.4976540742
 21
68.5708787552
 31
0.0
  0
ARC
  5
73
330
1F
100
AcDbEntity
  8
0
  6
Continuous
 62
     7
370
    25
100
AcDbCircle
 10
160.1940453471
 20
71.0141165279
 30
0.0
 40
0.25
100
AcDbArc
 50
180.0
 51
270.0
  0
ARC
  5
74
330
1F
100
AcDbEntity
  8
0
  6
Continuous
 62
     7
370
    25
100
AcDbCircle
 10
143.1940453471
 20
71.0141165279
 30
0.0
 40
0.25
100
AcDbArc
 50
270.0
 51
0.0
  0
LINE
  5
75
330
1F
100
AcDbEntity
  8
0
  6
Continuous
 62
     7
370
    25
100
AcDbLine
 10
159.9440453471
 20
76.4641165279
 30
0.0
 11
159.4440453471
 21
76.9641165279
 31
0.0
  0
LINE
  5
76
330
1F
100
AcDbEntity
  8
0
  6
Continuous
 62
     7
370
    25
100
AcDbLine
 10
143.9440453471
 20
76.9641165279
 30
0.0
 11
143.4440453471
 21
76.4641165279
 31
0.0
  0
LINE
  5
77
330
1F
100
AcDbEntity
  8
0
  6
Continuous
 62
     7
370
    25
100
AcDbLine
 10
159.9440453471
 20
71.0141165279
 30
0.0
 11
159.9440453471
 21
76.4641165279
 31
0.0
  0
LINE
  5
78
330
1F
100
AcDbEntity
  8
0
  6
Continuous
 62
     7
370
    25
100
AcDbLine
 10
143.4440453471
 20
76.4641165279
 30
0.0
 11
143.4440453471
 21
71.0141165279
 31
0.0
  0
LINE
  5
79
330
1F
100
AcDbEntity
  8
0
  6
Continuous
 62
     7
370
    25
100
AcDbLine
 10
146.6940453471
 20
77.4641165279
 30
0.0
 11
146.6940453471
 21
76.9641165279
 31
0.0
  0
LINE
  5
7A
330
1F
100
AcDbEntity
  8
0
  6
Continuous
 62
     7
370
    25
100
AcDbLine
 10
156.6940453471
 20
76.9641165279
 30
0.0
 11
156.6940453471
 21
77.4641165279
 31
0.0
  0
ARC
  5
7B
330
1F
100
AcDbEntity
  8
0
  6
Continuous
 62
     7
370
    25
100
AcDbCircle
 10
151.6940453471
 20
74.9641165279
 30
0.0
 40
20.60000000000002
100
AcDbArc
 50
90.5317885632
 51
93.3558231766
  0
ARC
  5
7C
330
1F
100
AcDbEntity
  8
0
  6
Continuous
 62
     7
370
    25
100
AcDbCircle
 10
151.6940453471
 20
74.9641165279
 30
0.0
 40
20.60000000000002
100
AcDbArc
 50
86.6441768145
 51
89.4632652059
  0
ARC
  5
7D
330
1F
100
AcDbEntity
  8
0
  6
Continuous
 62
     7
370
    25
100
AcDbCircle
 10
159.6878157155
 20
87.4516958327
 30
0.0
 40
1.000000000000005
100
AcDbArc
 50
354.2894068625
 51
7.1250163489
  0
LINE
  5
7E
330
1F
100
AcDbEntity
  8
0
  6
Continuous
 62
     7
370
    25
100
AcDbLine
 10
143.2874174905
 20
81.5303950942
 30
0.0
 11
143.5140453471
 21
79.2641165279
 31
0.0
  0
LINE
  5
7F
330
1F
100
AcDbEntity
  8
0
  6
Continuous
 62
     7
370
    25
100
AcDbLine
 10
159.7390701612
 20
77.9143646684
 30
0.0
 11
160.6828529057
 21
87.3521921136
 31
0.0
  0
LINE
  5
80
330
1F
100
AcDbEntity
  8
0
  6
Continuous
 62
     7
370
    25
100
AcDbLine
 10
160.6800935922
 20
87.5757305672
 30
0.0
 11
159.7487931762
 21
95.0261338952
 31
0.0
  0
LINE
  5
81
330
1F
100
AcDbEntity
  8
0
  6
Continuous
 62
     7
370
    25
100
AcDbLine
 10
143.639297518
 20
95.0261338952
 30
0.0
 11
143.4440453471
 21
93.4641165279
 31
0.0
  0
ARC
  5
82
330
1F
100
AcDbEntity
  8
0
  6
Continuous
 62
     7
370
    25
100
AcDbCircle
 10
144.1354364564
 20
94.9641165279
 30
0.0
 40
0.5000000000000017
100
AcDbArc
 50
90.0
 51
172.8749836511
  0
ARC
  5
83
330
1F
100
AcDbEntity
  8
0
  6
Continuous
 62
     7
370
    25
100
AcDbCircle
 10
159.2526542378
 20
94.9641165279
 30
0.0
 40
0.5
100
AcDbArc
 50
7.1250163489
 51
90.0
  0
ARC
  5
84
330
1F
100
AcDbEntity
  8
0
  6
Continuous
 62
     7
370
    25
100
AcDbCircle
 10
159.2415515661
 20
77.9641165279
 30
0.0
 40
0.5
100
AcDbArc
 50
270.0
 51
354.2894068625
  0
LINE
  5
85
330
1F
100
AcDbEntity
  8
0
  6
Continuous
 62
     7
370
    25
100
AcDbLine
 10
146.1940453471
 20
76.9641165279
 30
0.0
 11
146.1940453471
 21
77.4641165279
 31
0.0
  0
LINE
  5
86
330
1F
100
AcDbEntity
  8
0
  6
Continuous
 62
     7
370
    25
100
AcDbLine
 10
144.1940453471
 20
77.4673512599
 30
0.0
 11
144.1940453471
 21
76.9641165279
 31
0.0
  0
LINE
  5
87
330
1F
100
AcDbEntity
  8
0
  6
Continuous
 62
     7
370
    25
100
AcDbLine
 10
135.1940453471
 20
70.2641165279
 30
0.0
 11
135.1940453471
 21
46.2641165279
 31
0.0
  0
LINE
  5
88
330
1F
100
AcDbEntity
  8
0
  6
Continuous
 62
     7
370
    25
100
AcDbLine
 10
134.6940453471
 20
46.7641165279
 30
0.0
 11
134.6940453471
 21
69.7641165279
 31
0.0
  0
LINE
  5
89
330
1F
100
AcDbEntity
  8
0
  6
Continuous
 62
     7
370
    25
100
AcDbLine
 10
119.0440453471
 20
41.2641165279
 30
0.0
 11
106.3440453471
 21
41.2641165279
 31
0.0
  0
SPLINE
  5
8A
330
1F
100
AcDbEntity
  8
0
  6
Continuous
 62
     7
370
    25
100
AcDbSpline
210
0.0
220
0.0
230
1.0
 70
    24
 71
     3
 72
    12
 73
     8
 74
     0
 42
0.00000001
 43
0.00000001
 40
0.0
 40
0.0
 40
0.0
 40
0.0
 40
0.2500000000000001
 40
0.2500000000000001
 40
0.5000000000000001
 40
0.5000000000000001
 40
1.0
 40
1.0
 40
1.0
 40
1.0
 10
138.694045347112
 20
45.76411652789657
 30
0.0
 10
138.694045347112
 20
45.76411652789657
 30
0.0
 10
138.7334384324816
 20
45.76411652789657
 30
0.0
 10
138.884069835247
 20
45.76411652789657
 30
0.0
 10
138.9949502644188
 20
45.76411652789657
 30
0.0
 10
139.4161376703831
 20
45.76411652789656
 30
0.0
 10
139.8138254158628
 20
45.76411652789656
 30
0.0
 10
140.2817585873835
 20
45.76411652789657
 30
0.0
  0
LINE
  5
8B
330
1F
100
AcDbEntity
  8
0
  6
Continuous
 62
     7
370
    25
100
AcDbLine
 10
138.6940453471
 20
45.7641165279
 30
0.0
 11
138.6940453471
 21
58.2641165279
 31
0.0
  0
SPLINE
  5
8C
330
1F
100
AcDbEntity
  8
0
  6
Continuous
 62
     7
370
    25
100
AcDbSpline
210
0.0
220
0.0
230
1.0
 70
     8
 71
     3
 72
    10
 73
     6
 74
     0
 42
0.00000001
 43
0.00000001
 40
0.0
 40
0.0
 40
0.0
 40
0.0
 40
0.5
 40
0.5
 40
1.0
 40
1.0
 40
1.0
 40
1.0
 10
140.2817585873835
 20
49.52841392306851
 30
0.0
 10
139.8147556884897
 20
50.94047085398028
 30
0.0
 10
139.4123519413631
 20
52.38725377785814
 30
0.0
 10
138.8515933707713
 20
55.30058342433332
 30
0.0
 10
138.694045347112
 20
56.77254188018931
 30
0.0
 10
138.694045347112
 20
58.26411652789658
 30
0.0
  0
LINE
  5
8D
330
1F
100
AcDbEntity
  8
0
  6
Continuous
 62
     7
370
    25
100
AcDbLine
 10
140.2817585874
 20
45.7641165279
 30
0.0
 11
140.2817585874
 21
49.5284139231
 31
0.0
  0
LINE
  5
8E
330
1F
100
AcDbEntity
  8
0
  6
Continuous
 62
     7
370
    25
100
AcDbLine
 10
164.1940453471
 20
58.2641165279
 30
0.0
 11
164.1940453471
 21
45.7641165279
 31
0.0
  0
SPLINE
  5
8F
330
1F
100
AcDbEntity
  8
0
  6
Continuous
 62
     7
370
    25
100
AcDbSpline
210
0.0
220
0.0
230
1.0
 70
    24
 71
     3
 72
    12
 73
     8
 74
     0
 42
0.00000001
 43
0.00000001
 40
0.0
 40
0.0
 40
0.0
 40
0.0
 40
0.25
 40
0.25
 40
0.5
 40
0.5
 40
1.0
 40
1.0
 40
1.0
 40
1.0
 10
164.194045347112
 20
45.76411652789657
 30
0.0
 10
164.194045347112
 20
45.76411652789657
 30
0.0
 10
164.1546958215612
 20
45.76411652789657
 30
0.0
 10
164.0040363121875
 20
45.76411652789657
 30
0.0
 10
163.8931281294828
 20
45.76411652789657
 30
0.0
 10
163.471879104488
 20
45.76411652789657
 30
0.0
 10
163.0741866158755
 20
45.76411652789657
 30
0.0
 10
162.6063321068405
 20
45.76411652789657
 30
0.0
  0
LINE
  5
90
330
1F
100
AcDbEntity
  8
0
  6
Continuous
 62
     7
370
    25
100
AcDbLine
 10
162.6063321068
 20
49.5284139231
 30
0.0
 11
162.6063321068
 21
45.7641165279
 31
0.0
  0
SPLINE
  5
91
330
1F
100
AcDbEntity
  8
0
  6
Continuous
 62
     7
370
    25
100
AcDbSpline
210
0.0
220
0.0
230
1.0
 70
     8
 71
     3
 72
    12
 73
     8
 74
     0
 42
0.00000001
 43
0.00000001
 40
0.0
 40
0.0
 40
0.0
 40
0.0
 40
0.2499999999999999
 40
0.2499999999999999
 40
0.4999999999999998
 40
0.4999999999999998
 40
1.0
 40
1.0
 40
1.0
 40
1.0
 10
162.6063321068405
 20
49.52841392306851
 30
0.0
 10
162.8397830816919
 20
50.23428977062298
 30
0.0
 10
163.0566299508328
 20
50.94699146518271
 30
0.0
 10
163.4456136020365
 20
52.39077489953342
 30
0.0
 10
163.6159774022049
 20
53.11578247496533
 30
0.0
 10
164.0366292355437
 20
55.30138544151114
 30
0.0
 10
164.194045347112
 20
56.77327101221369
 30
0.0
 10
164.194045347112
 20
58.26411652789658
 30
0.0
  0
LINE
  5
92
330
1F
100
AcDbEntity
  8
0
  6
Continuous
 62
     7
370
    25
100
AcDbLine
 10
162.6063321068
 20
66.9998191327
 30
0.0
 11
140.2817585874
 21
66.9998191327
 31
0.0
  0
LINE
  5
93
330
1F
100
AcDbEntity
  8
0
  6
Continuous
 62
     7
370
    25
100
AcDbLine
 10
140.2817585874
 20
66.9998191327
 30
0.0
 11
140.2817585874
 21
70.7641165279
 31
0.0
  0
LINE
  5
94
330
1F
100
AcDbEntity
  8
0
  6
Continuous
 62
     7
370
    25
100
AcDbLine
 10
162.6063321068
 20
70.7641165279
 30
0.0
 11
140.2817585874
 21
70.7641165279
 31
0.0
  0
LINE
  5
95
330
1F
100
AcDbEntity
  8
0
  6
Continuous
 62
     7
370
    25
100
AcDbLine
 10
162.6063321068
 20
70.7641165279
 30
0.0
 11
162.6063321068
 21
66.9998191327
 31
0.0
  0
LINE
  5
96
330
1F
100
AcDbEntity
  8
0
  6
Continuous
 62
     7
370
    25
100
AcDbLine
 10
138.6940453471
 20
58.2641165279
 30
0.0
 11
138.6940453471
 21
70.7641165279
 31
0.0
  0
SPLINE
  5
97
330
1F
100
AcDbEntity
  8
0
  6
Continuous
 62
     7
370
    25
100
AcDbSpline
210
0.0
220
0.0
230
1.0
 70
    24
 71
     3
 72
    12
 73
     8
 74
     0
 42
0.00000001
 43
0.00000001
 40
0.0
 40
0.0
 40
0.0
 40
0.0
 40
0.2500000000000001
 40
0.2500000000000001
 40
0.5000000000000001
 40
0.5000000000000001
 40
1.0
 40
1.0
 40
1.0
 40
1.0
 10
138.694045347112
 20
70.76411652789658
 30
0.0
 10
138.694045347112
 20
70.76411652789658
 30
0.0
 10
138.7334384324816
 20
70.76411652789658
 30
0.0
 10
138.884069835247
 20
70.76411652789658
 30
0.0
 10
138.9949502644188
 20
70.76411652789658
 30
0.0
 10
139.4161376703832
 20
70.76411652789658
 30
0.0
 10
139.8138254158629
 20
70.76411652789658
 30
0.0
 10
140.2817585873835
 20
70.76411652789658
 30
0.0
  0
SPLINE
  5
98
330
1F
100
AcDbEntity
  8
0
  6
Continuous
 62
     7
370
    25
100
AcDbSpline
210
0.0
220
0.0
230
1.0
 70
     8
 71
     3
 72
    12
 73
     8
 74
     0
 42
0.00000001
 43
0.00000001
 40
0.0
 40
0.0
 40
0.0
 40
0.0
 40
0.2500000000000001
 40
0.2500000000000001
 40
0.5000000000000001
 40
0.5000000000000001
 40
1.0
 40
1.0
 40
1.0
 40
1.0
 10
138.694045347112
 20
58.26411652789657
 30
0.0
 10
138.694045347112
 20
59.00946274017089
 30
0.0
 10
138.7334384324816
 20
59.76128959003992
 30
0.0
 10
138.884069835247
 20
61.24199005121519
 30
0.0
 10
138.9949502644188
 20
61.97496165581722
 30
0.0
 10
139.4161376703832
 20
64.15550577677321
 30
0.0
 10
139.8138254158629
 20
65.58494937578244
 30
0.0
 10
140.2817585873835
 20
66.99981913272464
 30
0.0
  0
LINE
  5
99
330
1F
100
AcDbEntity
  8
0
  6
Continuous
 62
     7
370
    25
100
AcDbLine
 10
162.6063321068
 20
45.7641165279
 30
0.0
 11
140.2817585874
 21
45.7641165279
 31
0.0
  0
LINE
  5
9A
330
1F
100
AcDbEntity
  8
0
  6
Continuous
 62
     7
370
    25
100
AcDbLine
 10
162.6063321068
 20
49.5284139231
 30
0.0
 11
140.2817585874
 21
49.5284139231
 31
0.0
  0
SPLINE
  5
9B
330
1F
100
AcDbEntity
  8
0
  6
Continuous
 62
     7
370
    25
100
AcDbSpline
210
0.0
220
0.0
230
1.0
 70
     8
 71
     3
 72
    12
 73
     8
 74
     0
 42
0.00000001
 43
0.00000001
 40
0.0
 40
0.0
 40
0.0
 40
0.0
 40
0.2500000000000001
 40
0.2500000000000001
 40
0.5
 40
0.5
 40
1.0
 40
1.0
 40
1.0
 40
1.0
 10
164.194045347112
 20
58.26411652789658
 30
0.0
 10
164.194045347112
 20
59.00894387634533
 30
0.0
 10
164.1546958215612
 20
59.76076835392711
 30
0.0
 10
164.0040363121875
 20
61.2419311552534
 30
0.0
 10
163.8931281294828
 20
61.97505006570199
 30
0.0
 10
163.471879104488
 20
64.15583899966958
 30
0.0
 10
163.0741866158755
 20
65.58518722421599
 30
0.0
 10
162.6063321068405
 20
66.99981913272464
 30
0.0
  0
SPLINE
  5
9C
330
1F
100
AcDbEntity
  8
0
  6
Continuous
 62
     7
370
    25
100
AcDbSpline
210
0.0
220
0.0
230
1.0
 70
    24
 71
     3
 72
    12
 73
     8
 74
     0
 42
0.00000001
 43
0.00000001
 40
0.0
 40
0.0
 40
0.0
 40
0.0
 40
0.2500000000000001
 40
0.2500000000000001
 40
0.5000000000000001
 40
0.5000000000000001
 40
1.0
 40
1.0
 40
1.0
 40
1.0
 10
164.194045347112
 20
70.76411652789658
 30
0.0
 10
164.194045347112
 20
70.76411652789658
 30
0.0
 10
164.1546958215612
 20
70.76411652789658
 30
0.0
 10
164.0040363121875
 20
70.76411652789658
 30
0.0
 10
163.8931281294828
 20
70.76411652789658
 30
0.0
 10
163.471879104488
 20
70.76411652789658
 30
0.0
 10
163.0741866158755
 20
70.76411652789658
 30
0.0
 10
162.6063321068405
 20
70.76411652789658
 30
0.0
  0
LINE
  5
9D
330
1F
100
AcDbEntity
  8
0
  6
Continuous
 62
     7
370
    25
100
AcDbLine
 10
164.1940453471
 20
70.7641165279
 30
0.0
 11
164.1940453471
 21
58.2641165279
 31
0.0
  0
LINE
  5
9E
330
1F
100
AcDbEntity
  8
0
  6
Continuous
 62
     7
370
    25
100
AcDbLine
 10
176.4976540742
 20
47.9573543006
 30
0.0
 11
176.4976540742
 21
68.5708787552
 31
0.0
  0
LINE
  5
9F
330
1F
100
AcDbEntity
  8
0
  6
Continuous
 62
     7
370
    25
100
AcDbLine
 10
179.1940453471
 20
67.0141165279
 30
0.0
 11
179.1940453471
 21
49.5141165279
 31
0.0
  0
LINE
  5
A0
330
1F
100
AcDbEntity
  8
0
  6
Continuous
 62
     7
370
    25
100
AcDbLine
 10
151.6940453471
 20
76.9641165279
 30
0.0
 11
159.4440453471
 21
76.9641165279
 31
0.0
  0
LINE
  5
A1
330
1F
100
AcDbEntity
  8
0
  6
Continuous
 62
     7
370
    25
100
AcDbLine
 10
143.9440453471
 20
76.9641165279
 30
0.0
 11
151.6940453471
 21
76.9641165279
 31
0.0
  0
LINE
  5
A2
330
1F
100
AcDbEntity
  8
0
  6
Continuous
 62
     7
370
    25
100
AcDbLine
 10
151.6940453471
 20
76.4641165279
 30
0.0
 11
143.4440453471
 21
76.4641165279
 31
0.0
  0
LINE
  5
A3
330
1F
100
AcDbEntity
  8
0
  6
Continuous
 62
     7
370
    25
100
AcDbLine
 10
159.9440453471
 20
76.4641165279
 30
0.0
 11
151.6940453471
 21
76.4641165279
 31
0.0
  0
ARC
  5
A4
330
1F
100
AcDbEntity
  8
0
  6
Continuous
 62
     7
370
    25
100
AcDbCircle
 10
150.6270936779
 20
93.1651925787
 30
0.0
 40
2.367678303512885
100
AcDbArc
 50
93.3632881501
 51
99.4868245017
  0
ARC
  5
A5
330
1F
100
AcDbEntity
  8
0
  6
Continuous
 62
     7
370
    25
100
AcDbCircle
 10
152.7610007029
 20
93.1652338293
 30
0.0
 40
2.367636907666142
100
AcDbArc
 50
80.5187694298
 51
86.636742268
  0
SPLINE
  5
A6
330
1F
100
AcDbEntity
  8
0
  6
Continuous
 62
     7
370
    25
100
AcDbSpline
210
0.0
220
0.0
230
1.0
 70
     8
 71
     3
 72
    15
 73
    11
 74
     0
 42
0.00000001
 43
0.00000001
 40
0.0
 40
0.0
 40
0.0
 40
0.0
 40
0.1233867499278388
 40
0.2487396502211602
 40
0.3739317114754985
 40
0.4999973617625659
 40
0.6259591330513601
 40
0.7512551380600303
 40
0.8765613478174267
 40
1.0
 40
1.0
 40
1.0
 40
1.0
 10
151.6311624823059
 20
95.56400942520105
 30
0.0
 10
151.6340406834978
 20
95.5640100842732
 30
0.0
 10
151.6398429496094
 20
95.5640114129197
 30
0.0
 10
151.6553723543302
 20
95.56401536254684
 30
0.0
 10
151.6737269362036
 20
95.56401714489624
 30
0.0
 10
151.6940397526865
 20
95.5640186984742
 30
0.0
 10
151.7143581704016
 20
95.56401714433923
 30
0.0
 10
151.7327110395657
 20
95.5640153674587
 30
0.0
 10
151.7482491439612
 20
95.56401139994053
 30
0.0
 10
151.7540497059925
 20
95.56401008014457
 30
0.0
 10
151.7569282119181
 20
95.56400942520106
 30
0.0
  0
ARC
  5
A7
330
1F
100
AcDbEntity
  8
0
  6
Continuous
 62
     7
370
    25
100
AcDbCircle
 10
151.63205691
 20
93.0196600124
 30
0.0
 40
2.544349570057545
100
AcDbArc
 50
90.0201414662
 51
95.4127462174
  0
SPLINE
  5
A8
330
1F
100
AcDbEntity
  8
0
  6
Continuous
 62
     7
370
    25
100
AcDbSpline
210
0.0
220
0.0
230
1.0
 70
     8
 71
     3
 72
    15
 73
    11
 74
     0
 42
0.00000001
 43
0.00000001
 40
0.0
 40
0.0
 40
0.0
 40
0.0
 40
0.1261585224210642
 40
0.25131214515488
 40
0.376284684878379
 40
0.4993062783340883
 40
0.6261594278645745
 40
0.752117134202131
 40
0.87581969226928
 40
1.0
 40
1.0
 40
1.0
 40
1.0
 10
151.4549318214342
 20
95.55076629379033
 30
0.0
 10
151.4497007249455
 20
95.55071536803986
 30
0.0
 10
151.4392801996029
 20
95.5506139221815
 30
0.0
 10
151.4244936490885
 20
95.55060974054422
 30
0.0
 10
151.411303296463
 20
95.55070907936486
 30
0.0
 10
151.4004327216217
 20
95.55092962156795
 30
0.0
 10
151.3924251342932
 20
95.5512534889694
 30
0.0
 10
151.3882585072605
 20
95.55167335881688
 30
0.0
 10
151.3876374557489
 20
95.55215207588262
 30
0.0
 10
151.3905765681037
 20
95.55249336512817
 30
0.0
 10
151.3920489565864
 20
95.5526643386378
 30
0.0
  0
ARC
  5
A9
330
1F
100
AcDbEntity
  8
0
  6
Continuous
 62
     7
370
    25
100
AcDbCircle
 10
151.6940453471
 20
74.9641165279
 30
0.0
 40
20.58803836847347
100
AcDbArc
 50
89.3345405821
 51
90.66545941
  0
SPLINE
  5
AA
330
1F
100
AcDbEntity
  8
0
  6
Continuous
 62
     7
370
    25
100
AcDbSpline
210
0.0
220
0.0
230
1.0
 70
     8
 71
     3
 72
    15
 73
    11
 74
     0
 42
0.00000001
 43
0.00000001
 40
0.0
 40
0.0
 40
0.0
 40
0.0
 40
0.1241186784437693
 40
0.247847491662898
 40
0.3736574149478939
 40
0.5005082335853293
 40
0.6234527658309921
 40
0.7484986612277522
 40
0.8736976492452766
 40
1.0
 40
1.0
 40
1.0
 40
1.0
 10
151.9960417403636
 20
95.55266433860449
 30
0.0
 10
151.9975128129724
 20
95.552493458326
 30
0.0
 10
152.0004503374508
 20
95.55215223451563
 30
0.0
 10
151.9998336029507
 20
95.55167369822811
 30
0.0
 10
151.9956716413561
 20
95.55125390835626
 30
0.0
 10
151.9876728935577
 20
95.55093012050983
 30
0.0
 10
151.9768068020209
 20
95.55070942230415
 30
0.0
 10
151.9636190841962
 20
95.55060983039395
 30
0.0
 10
151.948824637621
 20
95.55061374479257
 30
0.0
 10
151.9383960467137
 20
95.55071529559798
 30
0.0
 10
151.9331588755993
 20
95.55076629375769
 30
0.0
  0
ARC
  5
AB
330
1F
100
AcDbEntity
  8
0
  6
Continuous
 62
     7
370
    25
100
AcDbCircle
 10
151.7560337842
 20
93.0196599601
 30
0.0
 40
2.544349622297628
100
AcDbArc
 50
84.5872538302
 51
89.9798585321
  0
ELLIPSE
  5
AC
330
1F
100
AcDbEntity
  8
0
  6
Continuous
 62
     7
370
    25
100
AcDbEllipse
 10
254.2079408196
 20
80.0859392462
 30
0.0
 11
171.0000000000011
 21
0.0
 31
0.0
210
0.0
220
0.0
230
1.0
 40
0.0555555556
 41
2.292395939553285
 42
2.365524293035123
  0
LINE
  5
AD
330
1F
100
AcDbEntity
  8
0
  6
Continuous
 62
     7
370
    25
100
AcDbLine
 10
141.2476619922
 20
87.2180643185
 30
0.0
 11
141.6940453471
 21
87.1806023527
 31
0.0
  0
LINE
  5
AE
330
1F
100
AcDbEntity
  8
0
  6
Continuous
 62
     7
370
    25
100
AcDbLine
 10
141.6940453471
 20
82.3519997311
 30
0.0
 11
141.6940453471
 21
87.1806023527
 31
0.0
  0
SPLINE
  5
AF
330
1F
100
AcDbEntity
  8
0
  6
Continuous
 62
     7
370
    25
100
AcDbSpline
210
0.0
220
0.0
230
1.0
 70
     8
 71
     3
 72
    13
 73
     9
 74
     0
 42
0.00000001
 43
0.00000001
 40
0.0
 40
0.0
 40
0.0
 40
0.0
 40
0.1374692963454099
 40
0.2749820892813127
 40
0.4163021045260215
 40
0.5576318202769774
 40
0.7770084914513208
 40
1.0
 40
1.0
 40
1.0
 40
1.0
 10
132.1698445797559
 20
86.74048912992282
 30
0.0
 10
132.6551724711196
 20
86.65424872049391
 30
0.0
 10
133.6259818161996
 20
86.48174061435179
 30
0.0
 10
135.0466741840093
 20
86.08275854102881
 30
0.0
 10
136.4387705090255
 20
85.58244912955654
 30
0.0
 10
138.0431296932671
 20
84.85362865795382
 30
0.0
 10
139.8339975688995
 20
83.83740970775216
 30
0.0
 10
141.0706609321144
 20
82.84982642144861
 30
0.0
 10
141.694045347112
 20
82.35199973109269
 30
0.0
  0
SPLINE
  5
B0
330
1F
100
AcDbEntity
  8
0
  6
Continuous
 62
     7
370
    25
100
AcDbSpline
210
0.0
220
0.0
230
1.0
 70
     8
 71
     3
 72
    11
 73
     7
 74
     0
 42
0.00000001
 43
0.00000001
 40
0.0
 40
0.0
 40
0.0
 40
0.0
 40
0.2795638428677817
 40
0.5590315779132448
 40
0.7794196683689383
 40
0.9999999999999999
 40
0.9999999999999999
 40
0.9999999999999999
 40
0.9999999999999999
 10
129.2577173930345
 20
86.96411652789656
 30
0.0
 10
129.1341440472583
 20
87.00263537984466
 30
0.0
 10
128.8870398374699
 20
87.07965984181749
 30
0.0
 10
128.6332839295466
 20
87.61245773960718
 30
0.0
 10
128.5166654885662
 20
88.24019430647357
 30
0.0
 10
128.5431848746014
 20
88.64117712264222
 30
0.0
 10
128.5564503482119
 20
88.84175593540681
 30
0.0
  0
SPLINE
  5
B1
330
1F
100
AcDbEntity
  8
0
  6
Continuous
 62
     7
370
    25
100
AcDbSpline
210
0.0
220
0.0
230
1.0
 70
     8
 71
     3
 72
     9
 73
     5
 74
     0
 42
0.00000001
 43
0.00000001
 40
0.0
 40
0.0
 40
0.0
 40
0.0
 40
0.4986740982738613
 40
1.0
 40
1.0
 40
1.0
 40
1.0
 10
129.8480108892808
 20
88.87155696083727
 30
0.0
 10
129.6415372482111
 20
88.87302204009391
 30
0.0
 10
129.2274919994515
 20
88.87595998947151
 30
0.0
 10
128.7805258975066
 20
88.8531767105398
 30
0.0
 10
128.556450213408
 20
88.84175486268508
 30
0.0
  0
SPLINE
  5
B2
330
1F
100
AcDbEntity
  8
0
  6
Continuous
 62
     7
370
    25
100
AcDbSpline
210
0.0
220
0.0
230
1.0
 70
     8
 71
     3
 72
    13
 73
     9
 74
     0
 42
0.00000001
 43
0.00000001
 40
0.0
 40
0.0
 40
0.0
 40
0.0
 40
0.3327087167328941
 40
0.5628656559531299
 40
0.69871241253847
 40
0.8016200683166478
 40
0.9052998751809794
 40
1.0
 40
1.0
 40
1.0
 40
1.0
 10
131.8388116295515
 20
86.78866356674745
 30
0.0
 10
131.4764207992243
 20
86.8744491416656
 30
0.0
 10
130.8633399204709
 20
87.0195783537036
 30
0.0
 10
130.2137945958085
 20
87.46994505013089
 30
0.0
 10
129.8710975802105
 20
87.86968619873677
 30
0.0
 10
129.7221739690667
 20
88.22557844514832
 30
0.0
 10
129.71000124964
 20
88.57301229218254
 30
0.0
 10
129.8034178434602
 20
88.77509116336162
 30
0.0
 10
129.8480118859113
 20
88.87155704154578
 30
0.0
  0
SPLINE
  5
B3
330
1F
100
AcDbEntity
  8
0
  6
Continuous
 62
     7
370
    25
100
AcDbSpline
210
0.0
220
0.0
230
1.0
 70
     8
 71
     3
 72
     9
 73
     5
 74
     0
 42
0.00000001
 43
0.00000001
 40
0.0
 40
0.0
 40
0.0
 40
0.0
 40
0.5551829690770672
 40
1.0
 40
1.0
 40
1.0
 40
1.0
 10
129.2577173930345
 20
86.96411652789656
 30
0.0
 10
129.7877402667557
 20
86.95111750740551
 30
0.0
 10
130.7424217019631
 20
86.92770356783048
 30
0.0
 10
131.5012651431205
 20
86.83146992847877
 30
0.0
 10
131.8388116295515
 20
86.78866356674745
 30
0.0
  0
LINE
  5
B4
330
1F
100
AcDbEntity
  8
0
  6
Continuous
 62
     7
370
    25
100
AcDbLine
 10
141.6940453471
 20
92.4641165279
 30
0.0
 11
141.2476619922
 21
92.4641165279
 31
0.0
  0
ARC
  5
B5
330
1F
100
AcDbEntity
  8
0
  6
Continuous
 62
     7
370
    25
100
AcDbCircle
 10
148.0704744058
 20
92.8379626817
 30
0.0
 40
6.833046917554625
100
AcDbArc
 50
170.513808076
 51
183.1363032674
  0
ARC
  5
B6
330
1F
100
AcDbEntity
  8
0
  6
Continuous
 62
     7
370
    25
100
AcDbCircle
 10
141.3264774808
 20
93.1738665794
 30
0.0
 40
0.7902621394875662
100
AcDbArc
 50
62.2819181136
 51
89.6817467964
  0
LINE
  5
B7
330
1F
100
AcDbEntity
  8
0
  6
Continuous
 62
     7
370
    25
100
AcDbLine
 10
141.6940453471
 20
92.4641165279
 30
0.0
 11
141.6940453471
 21
93.8734436751
 31
0.0
  0
LINE
  5
B8
330
1F
100
AcDbEntity
  8
0
  6
Continuous
 62
     7
370
    25
100
AcDbLine
 10
141.2476619922
 20
92.4641165279
 30
0.0
 11
141.2476619922
 21
87.2180643185
 31
0.0
  0
LINE
  5
B9
330
1F
100
AcDbEntity
  8
0
  6
Continuous
 62
     7
370
    25
100
AcDbLine
 10
141.6940453471
 20
87.1806023527
 30
0.0
 11
141.6940453471
 21
92.4641165279
 31
0.0
  0
LINE
  5
BA
330
1F
100
AcDbEntity
  8
0
  6
Continuous
 62
     7
370
    25
100
AcDbLine
 10
141.3308670216
 20
93.9641165279
 30
0.0
 11
129.9151377381
 21
93.9641165279
 31
0.0
  0
LINE
  5
BB
330
1F
100
AcDbEntity
  8
0
  6
Continuous
 62
     7
370
    25
100
AcDbLine
 10
131.9139839807
 20
92.4641165279
 30
0.0
 11
141.2476619922
 21
92.4641165279
 31
0.0
  0
SPLINE
  5
BC
330
1F
100
AcDbEntity
  8
0
  6
Continuous
 62
     7
370
    25
100
AcDbSpline
210
0.0
220
0.0
230
1.0
 70
     8
 71
     3
 72
    15
 73
    11
 74
     0
 42
0.00000001
 43
0.00000001
 40
0.0
 40
0.0
 40
0.0
 40
0.0
 40
0.2070474010410777
 40
0.4175968630246832
 40
0.5931232720441627
 40
0.6923428991082514
 40
0.7730996831079096
 40
0.8543284120985951
 40
0.926147516637204
 40
1.0
 40
1.0
 40
1.0
 40
1.0
 10
129.9125714514265
 20
93.96410180179058
 30
0.0
 10
130.1436606883914
 20
93.96025156294924
 30
0.0
 10
130.609747873983
 20
93.95248596118874
 30
0.0
 10
131.2343456732901
 20
93.86583599845127
 30
0.0
 10
131.6960248637207
 20
93.69588548890867
 30
0.0
 10
131.9579285627045
 20
93.46652063156013
 30
0.0
 10
132.0783952188357
 20
93.2287271662808
 30
0.0
 10
132.0971892570314
 20
92.96681418900756
 30
0.0
 10
132.0361508650313
 20
92.70127178699218
 30
0.0
 10
131.9549557714166
 20
92.54397416397845
 30
0.0
 10
131.9137915376307
 20
92.46422752117743
 30
0.0
  0
LINE
  5
BD
330
1F
100
AcDbEntity
  8
0
  6
Continuous
 62
     7
370
    25
100
AcDbLine
 10
129.8478378156
 20
88.8716574472
 30
0.0
 11
131.9137915505
 21
92.4642275338
 31
0.0
  0
ARC
  5
BE
330
1F
100
AcDbEntity
  8
0
  6
Continuous
 62
     7
370
    25
100
AcDbCircle
 10
129.2577173931
 20
67.8911092806
 30
0.0
 40
19.0730072472477
100
AcDbArc
 50
81.2175477188
 51
82.2224666688
  0
SPLINE
  5
BF
330
1F
100
AcDbEntity
  8
0
  6
Continuous
 62
     7
370
    25
100
AcDbSpline
210
0.0
220
0.0
230
1.0
 70
     8
 71
     3
 72
    11
 73
     7
 74
     0
 42
0.00000001
 43
0.00000001
 40
0.0
 40
0.0
 40
0.0
 40
0.0
 40
0.249115000282908
 40
0.4989585322854288
 40
0.749332827497652
 40
1.0
 40
1.0
 40
1.0
 40
1.0
 10
128.5564503482119
 20
88.84175593540681
 30
0.0
 10
128.1307390668985
 20
88.81550282743797
 30
0.0
 10
127.2780715203426
 20
88.76291983482339
 30
0.0
 10
125.9145057590909
 20
88.67859880459689
 30
0.0
 10
124.5138331418786
 20
88.59186553578515
 30
0.0
 10
123.5630129063914
 20
88.53288797035756
 30
0.0
 10
123.0873248938308
 20
88.50338195035837
 30
0.0
  0
SPLINE
  5
C0
330
1F
100
AcDbEntity
  8
0
  6
Continuous
 62
     7
370
    25
100
AcDbSpline
210
0.0
220
0.0
230
1.0
 70
     8
 71
     3
 72
     9
 73
     5
 74
     0
 42
0.00000001
 43
0.00000001
 40
0.0
 40
0.0
 40
0.0
 40
0.0
 40
0.5599987526606145
 40
1.0
 40
1.0
 40
1.0
 40
1.0
 10
125.6512262614882
 20
93.47720500205038
 30
0.0
 10
125.1714600036011
 20
92.54936370220108
 30
0.0
 10
124.3147326348208
 20
90.89250054770109
 30
0.0
 10
123.4623668863482
 20
89.23339184779061
 30
0.0
 10
123.0873248938308
 20
88.50338195035837
 30
0.0
  0
SPLINE
  5
C1
330
1F
100
AcDbEntity
  8
0
  6
Continuous
 62
     7
370
    25
100
AcDbSpline
210
0.0
220
0.0
230
1.0
 70
     8
 71
     3
 72
     9
 73
     5
 74
     0
 42
0.00000001
 43
0.00000001
 40
0.0
 40
0.0
 40
0.0
 40
0.0
 40
0.5600000882143287
 40
1.0
 40
1.0
 40
1.0
 40
1.0
 10
126.1557133990404
 20
94.45102805374252
 30
0.0
 10
126.0615009835087
 20
94.26926918291073
 30
0.0
 10
125.8932645537036
 20
93.9446998218391
 30
0.0
 10
125.7251823960351
 20
93.62005062154228
 30
0.0
 10
125.6512262614882
 20
93.47720500205038
 30
0.0
  0
SPLINE
  5
C2
330
1F
100
AcDbEntity
  8
0
  6
Continuous
 62
     7
370
    25
100
AcDbSpline
210
0.0
220
0.0
230
1.0
 70
     8
 71
     3
 72
    10
 73
     6
 74
     0
 42
0.00000001
 43
0.00000001
 40
0.0
 40
0.0
 40
0.0
 40
0.0
 40
0.4283493666310629
 40
0.7616603141144171
 40
1.0
 40
1.0
 40
1.0
 40
1.0
 10
126.1557133990406
 20
94.45102805374273
 30
0.0
 10
126.6026406003236
 20
94.34923179091956
 30
0.0
 10
127.3973346959232
 20
94.16822493166505
 30
0.0
 10
128.4338894969287
 20
93.9945625487119
 30
0.0
 10
129.0197548299291
 20
93.97307527081614
 30
0.0
 10
129.2640210850291
 20
93.96411652789648
 30
0.0
  0
LINE
  5
C3
330
1F
100
AcDbEntity
  8
0
  6
Continuous
 62
     7
370
    25
100
AcDbLine
 10
129.261920925
 20
93.9641165279
 30
0.0
 11
129.9125743911
 21
93.9641165279
 31
0.0
  0
LINE
  5
C4
330
1F
100
AcDbEntity
  8
0
  6
Continuous
 62
     7
370
    25
100
AcDbLine
 10
141.6940453471
 20
93.9641165279
 30
0.0
 11
141.3308670216
 21
93.9641165279
 31
0.0
  0
LINE
  5
C5
330
1F
100
AcDbEntity
  8
0
  6
Continuous
 62
     7
370
    25
100
AcDbLine
 10
141.6940453471
 20
93.8734436751
 30
0.0
 11
141.6940453471
 21
93.9641165279
 31
0.0
  0
SPLINE
  5
C6
330
1F
100
AcDbEntity
  8
0
  6
Continuous
 62
     7
370
    25
100
AcDbSpline
210
0.0
220
0.0
230
1.0
 70
    24
 71
     3
 72
    11
 73
     7
 74
     0
 42
0.00000001
 43
0.00000001
 40
0.0
 40
0.0
 40
0.0
 40
0.0
 40
0.2799857774483057
 40
0.5599458358671288
 40
0.779998565900937
 40
0.9999999999999999
 40
0.9999999999999999
 40
0.9999999999999999
 40
0.9999999999999999
 10
123.126576861013
 20
86.96411652789656
 30
0.0
 10
123.723900848097
 20
86.96411652789656
 30
0.0
 10
124.9184939530735
 20
86.96411652789658
 30
0.0
 10
126.5458557085561
 20
86.96411652789656
 30
0.0
 10
128.0015852780543
 20
86.96411652789656
 30
0.0
 10
128.839039227962
 20
86.96411652789656
 30
0.0
 10
129.2577173930345
 20
86.96411652789656
 30
0.0
  0
SPLINE
  5
C7
330
1F
100
AcDbEntity
  8
0
  6
Continuous
 62
     7
370
    25
100
AcDbSpline
210
0.0
220
0.0
230
1.0
 70
     8
 71
     3
 72
    11
 73
     7
 74
     0
 42
0.00000001
 43
0.00000001
 40
0.0
 40
0.0
 40
0.0
 40
0.0
 40
0.2500000000000004
 40
0.5000000000000003
 40
0.7499999999999998
 40
1.0
 40
1.0
 40
1.0
 40
1.0
 10
123.1265768610131
 20
86.96411652789656
 30
0.0
 10
123.1213458272529
 20
86.98743806020487
 30
0.0
 10
123.1108837597327
 20
87.03408112482148
 30
0.0
 10
123.0977692718654
 20
87.39206219318818
 30
0.0
 10
123.0887449283715
 20
87.90225513123013
 30
0.0
 10
123.0877982386777
 20
88.3030063439823
 30
0.0
 10
123.0873248938309
 20
88.50338195035837
 30
0.0
  0
SPLINE
  5
C8
330
1F
100
AcDbEntity
  8
0
  6
Continuous
 62
     7
370
    25
100
AcDbSpline
210
0.0
220
0.0
230
1.0
 70
     8
 71
     3
 72
    11
 73
     7
 74
     0
 42
0.00000001
 43
0.00000001
 40
0.0
 40
0.0
 40
0.0
 40
0.0
 40
0.2500000000000002
 40
0.5000000000000003
 40
0.7499999999999994
 40
1.0
 40
1.0
 40
1.0
 40
1.0
 10
138.6809748133309
 20
93.96411652789655
 30
0.0
 10
138.6826612838348
 20
93.9713788375487
 30
0.0
 10
138.6860342248427
 20
93.98590345685298
 30
0.0
 10
138.690314121744
 20
94.09787566044547
 30
0.0
 10
138.6933562425577
 20
94.25838723847045
 30
0.0
 10
138.6938246157803
 20
94.3868144486519
 30
0.0
 10
138.6940588023916
 20
94.45102805374262
 30
0.0
  0
SPLINE
  5
C9
330
1F
100
AcDbEntity
  8
0
  6
Continuous
 62
     7
370
    25
100
AcDbSpline
210
0.0
220
0.0
230
1.0
 70
     8
 71
     3
 72
    13
 73
     9
 74
     0
 42
0.00000001
 43
0.00000001
 40
0.0
 40
0.0
 40
0.0
 40
0.0
 40
0.2886949682914854
 40
0.5545536835943152
 40
0.6780091910936104
 40
0.7888922083801199
 40
0.8964194071406489
 40
1.0
 40
1.0
 40
1.0
 40
1.0
 10
138.6940588023916
 20
94.45102805374262
 30
0.0
 10
138.9657839929678
 20
94.41239789986463
 30
0.0
 10
139.4877404588223
 20
94.33819330164236
 30
0.0
 10
140.0853158669255
 20
94.25513058211378
 30
0.0
 10
140.449170047105
 20
94.20614965150517
 30
0.0
 10
140.6457175386707
 20
94.18013269173368
 30
0.0
 10
140.7720008277769
 20
94.16477388138944
 30
0.0
 10
140.786789329748
 20
94.16433289770197
 30
0.0
 10
140.794045347112
 20
94.16411652789658
 30
0.0
  0
SPLINE
  5
CA
330
1F
100
AcDbEntity
  8
0
  6
Continuous
 62
     7
370
    25
100
AcDbSpline
210
0.0
220
0.0
230
1.0
 70
     8
 71
     3
 72
    11
 73
     7
 74
     0
 42
0.00000001
 43
0.00000001
 40
0.0
 40
0.0
 40
0.0
 40
0.0
 40
0.2500000000000022
 40
0.4999999999999972
 40
0.75
 40
1.0
 40
1.0
 40
1.0
 40
1.0
 10
140.794045347112
 20
94.16411652789658
 30
0.0
 10
140.8193052853161
 20
94.1347388580648
 30
0.0
 10
140.8698251617244
 20
94.07598351840126
 30
0.0
 10
140.9686837709248
 20
94.01339337552228
 30
0.0
 10
141.0780710507483
 20
93.97186057388937
 30
0.0
 10
141.1553872483241
 20
93.96669787656084
 30
0.0
 10
141.194045347112
 20
93.96411652789658
 30
0.0
  0
LINE
  5
CB
330
1F
100
AcDbEntity
  8
0
  6
Continuous
 62
     7
370
    25
100
AcDbLine
 10
138.6940588024
 20
94.4510280537
 30
0.0
 11
126.155713399
 21
94.4510280537
 31
0.0
  0
LINE
  5
CC
330
1F
100
AcDbEntity
  8
0
  6
Continuous
 62
     7
370
    25
100
AcDbLine
 10
140.7940453471
 20
94.1641165279
 30
0.0
 11
138.3940453471
 21
97.3641165279
 31
0.0
  0
LINE
  5
CD
330
1F
100
AcDbEntity
  8
0
  6
Continuous
 62
     7
370
    25
100
AcDbLine
 10
136.5704995489
 20
97.2824403917
 30
0.0
 11
138.6940588024
 21
94.4510280537
 31
0.0
  0
ELLIPSE
  5
CE
330
1F
100
AcDbEntity
  8
0
  6
Continuous
 62
     7
370
    25
100
AcDbEllipse
 10
136.5940453471
 20
97.2641165279
 30
0.0
 11
1.56006363488487
 21
0.4198716740992979
 31
0.0
210
0.0
220
0.0
230
1.0
 40
0.0147408623
 41
0.9331929812040033
 42
1.581922327328506
  0
SPLINE
  5
CF
330
1F
100
AcDbEntity
  8
0
  6
Continuous
 62
     7
370
    25
100
AcDbSpline
210
0.0
220
0.0
230
1.0
 70
     8
 71
     3
 72
    11
 73
     7
 74
     0
 42
0.00000001
 43
0.00000001
 40
0.0
 40
0.0
 40
0.0
 40
0.0
 40
0.2307374805226514
 40
0.4903955403005859
 40
0.743810552073065
 40
1.0
 40
1.0
 40
1.0
 40
1.0
 10
137.517733350747
 20
97.53253252304988
 30
0.0
 10
137.6093653555065
 20
97.55124837345434
 30
0.0
 10
137.8041144980432
 20
97.59102591436572
 30
0.0
 10
138.0516220652811
 20
97.57370592580709
 30
0.0
 10
138.2614307946752
 20
97.50272103348095
 30
0.0
 10
138.3496803441556
 20
97.41048541567723
 30
0.0
 10
138.394045347112
 20
97.36411652789657
 30
0.0
  0
LINE
  5
D0
330
1F
100
AcDbEntity
  8
0
  6
Continuous
 62
     7
370
    25
100
AcDbLine
 10
123.0873248938
 20
88.5033819504
 30
0.0
 11
101.4597767251
 21
88.5033819504
 31
0.0
  0
LINE
  5
D1
330
1F
100
AcDbEntity
  8
0
  6
Continuous
 62
     7
370
    25
100
AcDbLine
 10
101.4597767251
 20
88.5033819504
 30
0.0
 11
101.6822216363
 21
96.9982103868
 31
0.0
  0
ARC
  5
D2
330
1F
100
AcDbEntity
  8
0
  6
Continuous
 62
     7
370
    25
100
AcDbCircle
 10
102.2937617512
 20
96.4824403917
 30
0.0
 40
0.8000000000000114
100
AcDbArc
 50
90.0
 51
139.8558773282
  0
LINE
  5
D3
330
1F
100
AcDbEntity
  8
0
  6
Continuous
 62
     7
370
    25
100
AcDbLine
 10
102.2937617512
 20
97.2824403917
 30
0.0
 11
136.5704995489
 21
97.2824403917
 31
0.0
  0
SPLINE
  5
D4
330
1F
100
AcDbEntity
  8
0
  6
Continuous
 62
     7
370
    25
100
AcDbSpline
210
0.0
220
0.0
230
1.0
 70
     8
 71
     3
 72
    11
 73
     7
 74
     0
 42
0.00000001
 43
0.00000001
 40
0.0
 40
0.0
 40
0.0
 40
0.0
 40
0.2499999999999975
 40
0.5000000000000017
 40
0.7500000000000006
 40
1.0
 40
1.0
 40
1.0
 40
1.0
 10
102.2937617511769
 20
97.28244039171207
 30
0.0
 10
102.2940896124327
 20
97.37233943883909
 30
0.0
 10
102.2947453349443
 20
97.55213753309312
 30
0.0
 10
102.2990043040835
 20
97.77685374232807
 30
0.0
 10
102.3049961597454
 20
97.93361482735757
 30
0.0
 10
102.3097182771564
 20
97.95394929438359
 30
0.0
 10
102.3120793358619
 20
97.96411652789658
 30
0.0
  0
LINE
  5
D5
330
1F
100
AcDbEntity
  8
0
  6
Continuous
 62
     7
370
    25
100
AcDbLine
 10
136.5888171336
 20
97.9641165279
 30
0.0
 11
102.3120793359
 21
97.9641165279
 31
0.0
  0
SPLINE
  5
D6
330
1F
100
AcDbEntity
  8
0
  6
Continuous
 62
     7
370
    25
100
AcDbSpline
210
0.0
220
0.0
230
1.0
 70
     8
 71
     3
 72
    11
 73
     7
 74
     0
 42
0.00000001
 43
0.00000001
 40
0.0
 40
0.0
 40
0.0
 40
0.0
 40
0.2500000000000002
 40
0.5000000000000036
 40
0.7500000000000022
 40
1.0
 40
1.0
 40
1.0
 40
1.0
 10
136.5888171335995
 20
97.96411652789658
 30
0.0
 10
136.586456074894
 20
97.95394929438359
 30
0.0
 10
136.581733957483
 20
97.93361482735757
 30
0.0
 10
136.5757421018212
 20
97.77685374232806
 30
0.0
 10
136.5714831326819
 20
97.55213753309312
 30
0.0
 10
136.5708274101703
 20
97.37233943883909
 30
0.0
 10
136.5704995489145
 20
97.28244039171207
 30
0.0
  0
LINE
  5
D7
330
1F
100
AcDbEntity
  8
0
  6
Continuous
 62
     7
370
    25
100
AcDbLine
 10
137.1940453471
 20
97.9641165279
 30
0.0
 11
136.5888171336
 21
97.9641165279
 31
0.0
  0
SPLINE
  5
D8
330
1F
100
AcDbEntity
  8
0
  6
Continuous
 62
     7
370
    25
100
AcDbSpline
210
0.0
220
0.0
230
1.0
 70
     8
 71
     3
 72
    10
 73
     6
 74
     0
 42
0.00000001
 43
0.00000001
 40
0.0
 40
0.0
 40
0.0
 40
0.0
 40
0.280833517338672
 40
0.5616510917414106
 40
1.0
 40
1.0
 40
1.0
 40
1.0
 10
137.194045347112
 20
97.96411652789658
 30
0.0
 10
137.2323957960744
 20
97.95654191962866
 30
0.0
 10
137.309094516842
 20
97.94139313310379
 30
0.0
 10
137.434248866884
 20
97.8077622000441
 30
0.0
 10
137.4861179332373
 20
97.63676148568587
 30
0.0
 10
137.517733350747
 20
97.53253252304988
 30
0.0
  0
LINE
  5
D9
330
1F
100
AcDbEntity
  8
0
  6
Continuous
 62
     7
370
    25
100
AcDbLine
 10
101.4597767251
 20
88.5033819504
 30
0.0
 11
101.4167842976
 21
88.4404948655
 31
0.0
  0
ELLIPSE
  5
DA
330
1F
100
AcDbEntity
  8
0
  6
Continuous
 62
     7
370
    25
100
AcDbEllipse
 10
97.1940453471
 20
88.4641165279
 30
0.0
 11
0.5000325503425529
 21
1.499994860147297
 31
0.0
210
0.0
220
0.0
230
0.9999999999999998
 40
0.0078530307
 41
2.363888000156724
 42
3.144210503885309
  0
SPLINE
  5
DB
330
1F
100
AcDbEntity
  8
0
  6
Continuous
 62
     7
370
    25
100
AcDbSpline
210
0.0
220
0.0
230
1.0
 70
     8
 71
     3
 72
    12
 73
     8
 74
     0
 42
0.00000001
 43
0.00000001
 40
0.0
 40
0.0
 40
0.0
 40
0.0
 40
0.0715202026166141
 40
0.1260836237049449
 40
0.3855387013103052
 40
0.8475626424815554
 40
1.0
 40
1.0
 40
1.0
 40
1.0
 10
97.16861673411141
 20
87.79242447754577
 30
0.0
 10
97.15416259933255
 20
87.78931582968094
 30
0.0
 10
97.12868127204649
 20
87.7838355657376
 30
0.0
 10
97.06220954440026
 20
87.74424702031725
 30
0.0
 10
96.95750515726732
 20
87.63781288733489
 30
0.0
 10
96.87067659842091
 20
87.50730587162671
 30
0.0
 10
96.83768003171109
 20
87.41979615766334
 30
0.0
 10
96.82949414686016
 20
87.3980864916808
 30
0.0
  0
ELLIPSE
  5
DC
330
1F
100
AcDbEntity
  8
0
  6
Continuous
 62
     7
370
    25
100
AcDbEllipse
 10
65.2699085065
 20
88.4641165279
 30
0.0
 11
36.17607470647087
 21
0.04043410480178978
 31
0.0
210
0.0
220
0.0
230
1.0
 40
0.0414488012
 41
5.791928562280354
 42
6.243021298617577
  0
ELLIPSE
  5
DD
330
1F
100
AcDbEntity
  8
0
  6
Continuous
 62
     7
370
    25
100
AcDbEllipse
 10
101.4990286923
 20
88.4641165279
 30
0.0
 11
0.03725061189165047
 21
1.499998630535885
 31
0.0
210
0.0
220
0.0
230
1.0
 40
0.0544129722
 41
1.585352277991062
 42
1.587896030767889
  0
LINE
  5
DE
330
1F
100
AcDbEntity
  8
0
  6
Continuous
 62
     7
370
    25
100
AcDbLine
 10
96.6940453471
 20
86.9641165279
 30
0.0
 11
123.126576861
 21
86.9641165279
 31
0.0
  0
SPLINE
  5
DF
330
1F
100
AcDbEntity
  8
0
  6
Continuous
 62
     7
370
    25
100
AcDbSpline
210
0.0
220
0.0
230
1.0
 70
     8
 71
     3
 72
    11
 73
     7
 74
     0
 42
0.00000001
 43
0.00000001
 40
0.0
 40
0.0
 40
0.0
 40
0.0
 40
0.2561894651307311
 40
0.5096044939206912
 40
0.7692742066553653
 40
1.0
 40
1.0
 40
1.0
 40
1.0
 10
138.394045347112
 20
97.36411652789656
 30
0.0
 10
138.3184492148181
 20
97.45212689288499
 30
0.0
 10
138.1680756281434
 20
97.62719450343961
 30
0.0
 10
137.8688628421882
 20
97.81738207314118
 30
0.0
 10
137.5413431073014
 20
97.94138087386686
 30
0.0
 10
137.3051647264876
 20
97.95684215974602
 30
0.0
 10
137.194045347112
 20
97.96411652789658
 30
0.0
  0
ARC
  5
E0
330
1F
100
AcDbEntity
  8
0
  6
Continuous
 62
     7
370
    25
100
AcDbCircle
 10
105.8927835692
 20
88.4691205758
 30
0.0
 40
8.750371682159633
100
AcDbArc
 50
182.878079786
 51
184.4353064954
  0
ELLIPSE
  5
E1
330
1F
100
AcDbEntity
  8
0
  6
Continuous
 62
     7
370
    25
100
AcDbEllipse
 10
65.2430381476
 20
88.4775517073
 30
0.0
 11
36.18915847374971
 21
0.02692057091442735
 31
0.0
210
0.0
220
0.0
230
1.0
 40
0.0276225703
 41
5.791964074121232
 42
6.254836299513502
  0
SPLINE
  5
E2
330
1F
100
AcDbEntity
  8
0
  6
Continuous
 62
     7
370
    25
100
AcDbSpline
210
0.0
220
0.0
230
1.0
 70
     8
 71
     3
 72
     9
 73
     5
 74
     0
 42
0.00000001
 43
0.00000001
 40
0.0
 40
0.0
 40
0.0
 40
0.0
 40
0.8673350121727758
 40
1.0
 40
1.0
 40
1.0
 40
1.0
 10
101.4176766707876
 20
88.47612652375913
 30
0.0
 10
101.4174392851577
 20
88.46692810038394
 30
0.0
 10
101.4171655897268
 20
88.45632271348485
 30
0.0
 10
101.4169097032182
 20
88.44571708888348
 30
0.0
 10
101.4168757560377
 20
88.44431009382483
 30
0.0
  0
LINE
  5
E3
330
1F
100
AcDbEntity
  8
0
  6
Continuous
 62
     7
370
    25
100
AcDbLine
 10
101.6669764121
 20
96.9569267625
 30
0.0
 11
101.6401060532
 21
96.9703619419
 31
0.0
  0
LINE
  5
E4
330
1F
100
AcDbEntity
  8
0
  6
Continuous
 62
     7
370
    25
100
AcDbLine
 10
101.6669764121
 20
96.9569267625
 30
0.0
 11
101.4450484059
 21
88.4818381318
 31
0.0
  0
LINE
  5
E5
330
1F
100
AcDbEntity
  8
0
  6
Continuous
 62
     7
370
    25
100
AcDbLine
 10
101.6401060532
 20
96.9703619419
 30
0.0
 11
101.4176766708
 21
88.4761265238
 31
0.0
  0
ARC
  5
E6
330
1F
100
AcDbEntity
  8
0
  6
Continuous
 62
     7
370
    25
100
AcDbCircle
 10
102.2744608334
 20
96.4829257791
 30
0.0
 40
0.8000000000000103
100
AcDbArc
 50
142.4614409777
 51
153.4349488229
  0
LINE
  5
E7
330
1F
100
AcDbEntity
  8
0
  6
Continuous
 62
     7
370
    25
100
AcDbLine
 10
97.1534492564
 20
88.0297570071
 30
0.0
 11
101.5589190806
 21
96.8406966555
 31
0.0
  0
SPLINE
  5
E8
330
1F
100
AcDbEntity
  8
0
  6
Continuous
 62
     7
370
    25
100
AcDbSpline
210
0.0
220
0.0
230
1.0
 70
    24
 71
     3
 72
    11
 73
     7
 74
     0
 42
0.00000001
 43
0.00000001
 40
0.0
 40
0.0
 40
0.0
 40
0.0
 40
0.2500000000000014
 40
0.4999999999999973
 40
0.7500000000000001
 40
1.0
 40
1.0
 40
1.0
 40
1.0
 10
101.558919080635
 20
96.84069665551002
 30
0.0
 10
101.4806839723028
 20
96.87981420967614
 30
0.0
 10
101.3242137556382
 20
96.9580493180084
 30
0.0
 10
101.1308876042218
 20
97.05471239371663
 30
0.0
 10
100.9965111719428
 20
97.12190060985614
 30
0.0
 10
100.9791294235556
 20
97.13059148404972
 30
0.0
 10
100.970438549362
 20
97.13493692114652
 30
0.0
  0
SPLINE
  5
E9
330
1F
100
AcDbEntity
  8
0
  6
Continuous
 62
     7
370
    25
100
AcDbSpline
210
0.0
220
0.0
230
1.0
 70
     8
 71
     3
 72
    12
 73
     8
 74
     0
 42
0.00000001
 43
0.00000001
 40
0.0
 40
0.0
 40
0.0
 40
0.0
 40
0.1396834586182492
 40
0.383189627403831
 40
0.5513169293013304
 40
0.8194729461607057
 40
1.0
 40
1.0
 40
1.0
 40
1.0
 10
96.39148840620679
 20
87.97703663483604
 30
0.0
 10
96.40172978695307
 20
87.99034900849698
 30
0.0
 10
96.42982467314138
 20
88.02686846150495
 30
0.0
 10
96.53697503449617
 20
88.06454052209632
 30
0.0
 10
96.71731212190915
 20
88.08890784285784
 30
0.0
 10
96.92576826647814
 20
88.08779080809387
 30
0.0
 10
97.08812516718207
 20
88.0464075197163
 30
0.0
 10
97.15344925643046
 20
88.02975700710088
 30
0.0
  0
LINE
  5
EA
330
1F
100
AcDbEntity
  8
0
  6
Continuous
 62
     7
370
    25
100
AcDbLine
 10
100.9704385494
 20
97.1349369211
 30
0.0
 11
96.3914884062
 21
87.9770366348
 31
0.0
  0
LWPOLYLINE
  5
EB
330
1F
100
AcDbEntity
  8
0
  6
Continuous
 62
     7
370
    25
100
AcDbPolyline
 90
        9
 70
   128
 43
0.0
 10
96.3914884062
 20
87.9770366348
 10
96.3686379164
 20
87.9007061572
 10
96.3715430424
 20
87.8163061579
 10
96.4000446074
 20
87.7284610574
 10
96.4525809619
 20
87.6419840391
 10
96.5262735491
 20
87.5616133268
 10
96.6170846259
 20
87.4917525694
 10
96.7200384982
 20
87.4362295574
 10
96.8294941469
 20
87.3980864917
  0
LINE
  5
EC
330
1F
100
AcDbEntity
  8
0
  6
Continuous
 62
     7
370
    25
100
AcDbLine
 10
101.5476541922
 20
97.1088290218
 30
0.0
 11
101.1654416204
 21
97.4311852687
 31
0.0
  0
SPLINE
  5
ED
330
1F
100
AcDbEntity
  8
0
  6
Continuous
 62
     7
370
    25
100
AcDbSpline
210
0.0
220
0.0
230
1.0
 70
     8
 71
     3
 72
    12
 73
     8
 74
     0
 42
0.00000001
 43
0.00000001
 40
0.0
 40
0.0
 40
0.0
 40
0.0
 40
0.219860960079126
 40
0.4397396970008154
 40
0.6583291451397754
 40
0.8791239516843591
 40
1.0
 40
1.0
 40
1.0
 40
1.0
 10
101.682221636271
 20
96.99821038682707
 30
0.0
 10
101.6223065735421
 20
97.04869860295496
 30
0.0
 10
101.5024716036561
 20
97.1496791174319
 30
0.0
 10
101.3457366153816
 20
97.28134211038197
 30
0.0
 10
101.2291682915955
 20
97.37890343315499
 30
0.0
 10
101.1729115998012
 20
97.42556282463171
 30
0.0
 10
101.1673937285849
 20
97.42971597163307
 30
0.0
 10
101.1654416204134
 20
97.43118526873715
 30
0.0
  0
SPLINE
  5
EE
330
1F
100
AcDbEntity
  8
0
  6
Continuous
 62
     7
370
    25
100
AcDbSpline
210
0.0
220
0.0
230
1.0
 70
     8
 71
     3
 72
    12
 73
     8
 74
     0
 42
0.00000001
 43
0.00000001
 40
0.0
 40
0.0
 40
0.0
 40
0.0
 40
0.0006864401227885
 40
0.2840613788938759
 40
0.5703177902236727
 40
0.8469872112162479
 40
1.0
 40
1.0
 40
1.0
 40
1.0
 10
101.6449498715845
 20
97.02753407432216
 30
0.0
 10
101.6449091538264
 20
97.02756836895993
 30
0.0
 10
101.6280594066642
 20
97.04176011237134
 30
0.0
 10
101.5988304705497
 20
97.06629239222147
 30
0.0
 10
101.5655844248511
 20
97.09412197696801
 30
0.0
 10
101.5499022017412
 20
97.10712283994086
 30
0.0
 10
101.5483219739352
 20
97.10831565282693
 30
0.0
 10
101.5477592439501
 20
97.10874042169574
 30
0.0
  0
SPLINE
  5
EF
330
1F
100
AcDbEntity
  8
0
  6
Continuous
 62
     7
370
    25
100
AcDbSpline
210
0.0
220
0.0
230
1.0
 70
     8
 71
     3
 72
    12
 73
     8
 74
     0
 42
0.00000001
 43
0.00000001
 40
0.0
 40
0.0
 40
0.0
 40
0.0
 40
0.222563413743527
 40
0.4462063173695677
 40
0.6680851268158018
 40
0.8917990985569334
 40
1.0
 40
1.0
 40
1.0
 40
1.0
 10
101.1226641229935
 20
97.37805933321717
 30
0.0
 10
101.128250689096
 20
97.37263226060345
 30
0.0
 10
101.1394509175856
 20
97.361751792676
 30
0.0
 10
101.2335016952726
 20
97.2864583616557
 30
0.0
 10
101.3729927586707
 20
97.1769798169024
 30
0.0
 10
101.518216858507
 20
97.06426517635589
 30
0.0
 10
101.6101400272371
 20
96.9934477189117
 30
0.0
 10
101.6401060532385
 20
96.97036194194767
 30
0.0
  0
LINE
  5
F0
330
1F
100
AcDbEntity
  8
0
  6
Continuous
 62
     7
370
    25
100
AcDbLine
 10
101.5191358606
 20
97.0734117314
 30
0.0
 11
101.122664123
 21
97.3780593332
 31
0.0
  0
ARC
  5
F1
330
1F
100
AcDbEntity
  8
0
  6
Continuous
 62
     7
370
    25
100
AcDbCircle
 10
102.3120793359
 20
96.4641165279
 30
0.0
 40
1.5
100
AcDbArc
 50
90.0
 51
139.8558773282
  0
ARC
  5
F2
330
1F
100
AcDbEntity
  8
0
  6
Continuous
 62
     7
370
    25
100
AcDbCircle
 10
102.3120793359
 20
96.4641165279
 30
0.0
 40
1.500000000000013
100
AcDbArc
 50
142.4614409777
 51
153.4349488229
  0
LINE
  5
F3
330
1F
100
AcDbEntity
  8
0
  6
Continuous
 62
     7
370
    25
100
AcDbLine
 10
96.2468317516
 20
87.6877233256
 30
0.0
 11
96.3914884062
 21
87.9770366348
 31
0.0
  0
ARC
  5
F4
330
1F
100
AcDbEntity
  8
0
  6
Continuous
 62
     7
370
    25
100
AcDbCircle
 10
96.6940453471
 20
87.4641165279
 30
0.0
 40
0.5000000000000023
100
AcDbArc
 50
153.4349488229
 51
270.0
  0
SPLINE
  5
F5
330
1F
100
AcDbEntity
  8
0
  6
Continuous
 62
     7
370
    25
100
AcDbSpline
210
0.0
220
0.0
230
1.0
 70
     8
 71
     3
 72
     9
 73
     5
 74
     0
 42
0.00000001
 43
0.00000001
 40
0.0
 40
0.0
 40
0.0
 40
0.0
 40
0.5600029565045049
 40
1.0
 40
1.0
 40
1.0
 40
1.0
 10
101.1654416204134
 20
97.43118526873715
 30
0.0
 10
101.1572938610602
 20
97.42139880657722
 30
0.0
 10
101.1427443676005
 20
97.40392307355422
 30
0.0
 10
101.1287997246599
 20
97.38596210588842
 30
0.0
 10
101.1226641229935
 20
97.37805933321717
 30
0.0
  0
LINE
  5
F6
330
1F
100
AcDbEntity
  8
0
  6
Continuous
 62
     7
370
    25
100
AcDbLine
 10
143.2879844921
 20
87.3521921137
 30
0.0
 11
143.2901246073
 21
87.5757305672
 31
0.0
  0
SPLINE
  5
F7
330
1F
100
AcDbEntity
  8
0
  6
Continuous
 62
     7
370
    25
100
AcDbSpline
210
0.0
220
0.0
230
1.0
 70
     8
 71
     3
 72
    10
 73
     6
 74
     0
 42
0.00000001
 43
0.00000001
 40
0.0
 40
0.0
 40
0.0
 40
0.0
 40
0.3536466237081644
 40
0.7182931081305525
 40
1.0
 40
1.0
 40
1.0
 40
1.0
 10
143.4392724559012
 20
85.40592346718233
 30
0.0
 10
143.4017654215919
 20
84.96238581706376
 30
0.0
 10
143.3255847303464
 20
84.06151467644321
 30
0.0
 10
143.3640211329596
 20
82.68350538163193
 30
0.0
 10
143.4270032522925
 20
81.76547135032708
 30
0.0
 10
143.4544534022127
 20
81.36535506243364
 30
0.0
  0
LINE
  5
F8
330
1F
100
AcDbEntity
  8
0
  6
Continuous
 62
     7
370
    25
100
AcDbLine
 10
143.2879844921
 20
87.3521921137
 30
0.0
 11
143.4392724559
 21
85.4059234672
 31
0.0
  0
LINE
  5
F9
330
1F
100
AcDbEntity
  8
0
  6
Continuous
 62
     7
370
    25
100
AcDbLine
 10
143.5140453471
 20
79.2641165279
 30
0.0
 11
143.5754001399
 21
79.2641165279
 31
0.0
  0
LWPOLYLINE
  5
FA
330
1F
100
AcDbEntity
  8
0
  6
Continuous
 62
     7
370
    25
100
AcDbPolyline
 90
        3
 70
   128
 43
0.0
 10
143.7114126825
 20
77.9143646684
 10
143.6701139102
 20
78.324165813
 10
143.5754001399
 20
79.2641165279
  0
SPLINE
  5
FB
330
1F
100
AcDbEntity
  8
0
  6
Continuous
 62
     7
370
    25
100
AcDbSpline
210
0.0
220
0.0
230
1.0
 70
     8
 71
     3
 72
    11
 73
     7
 74
     0
 42
0.00000001
 43
0.00000001
 40
0.0
 40
0.0
 40
0.0
 40
0.0
 40
0.2920574028183088
 40
0.5665622171831315
 40
0.8065682389915577
 40
1.0
 40
1.0
 40
1.0
 40
1.0
 10
143.5778397400586
 20
93.4641165278966
 30
0.0
 10
143.6095002763741
 20
93.4472847318479
 30
0.0
 10
143.6709185574347
 20
93.41463272715123
 30
0.0
 10
143.7508309166993
 20
93.15924084011023
 30
0.0
 10
143.7899297304268
 20
92.82351792353559
 30
0.0
 10
143.7745133674972
 20
92.5750162287145
 30
0.0
 10
143.7676334545131
 20
92.46411652788447
 30
0.0
  0
LINE
  5
FC
330
1F
100
AcDbEntity
  8
0
  6
Continuous
 62
     7
370
    25
100
AcDbLine
 10
143.7676334545
 20
92.4641165279
 30
0.0
 11
143.2901246073
 21
87.5757305672
 31
0.0
  0
LINE
  5
FD
330
1F
100
AcDbEntity
  8
0
  6
Continuous
 62
     7
370
    25
100
AcDbLine
 10
144.1354364564
 20
95.4641165279
 30
0.0
 11
159.2526542378
 21
95.4641165279
 31
0.0
  0
LINE
  5
FE
330
1F
100
AcDbEntity
  8
0
  6
Continuous
 62
     7
370
    25
100
AcDbLine
 10
159.2415515661
 20
77.4641165279
 30
0.0
 11
144.213079492
 21
77.4641165279
 31
0.0
  0
SPLINE
  5
FF
330
1F
100
AcDbEntity
  8
0
  6
Continuous
 62
     7
370
    25
100
AcDbSpline
210
0.0
220
0.0
230
1.0
 70
     8
 71
     3
 72
    12
 73
     8
 74
     0
 42
0.00000001
 43
0.00000001
 40
0.0
 40
0.0
 40
0.0
 40
0.0
 40
0.2316347876629354
 40
0.4633066480819575
 40
0.6939442291381532
 40
0.9227406525226397
 40
1.0
 40
1.0
 40
1.0
 40
1.0
 10
144.2130794920236
 20
77.46411652789658
 30
0.0
 10
144.1560261743749
 20
77.46970599292685
 30
0.0
 10
144.0419104077904
 20
77.4808858175718
 30
0.0
 10
143.8900570773123
 20
77.56820888352749
 30
0.0
 10
143.7758896944284
 20
77.69651905730953
 30
0.0
 10
143.7241353620611
 20
77.82119848400735
 30
0.0
 10
143.7139770110741
 20
77.89558649276064
 30
0.0
 10
143.7114126824666
 20
77.91436466838607
 30
0.0
  0
SPLINE
  5
100
330
1F
100
AcDbEntity
  8
0
  6
Continuous
 62
     7
370
    25
100
AcDbSpline
210
0.0
220
0.0
230
1.0
 70
     8
 71
     3
 72
     9
 73
     5
 74
     0
 42
0.00000001
 43
0.00000001
 40
0.0
 40
0.0
 40
0.0
 40
0.0
 40
0.4474581094010266
 40
0.9999999999999999
 40
0.9999999999999999
 40
0.9999999999999999
 40
0.9999999999999999
 10
141.694045347112
 20
82.99642834707366
 30
0.0
 10
141.9676959487903
 20
82.76849540370677
 30
0.0
 10
142.579262922165
 20
82.25910035961645
 30
0.0
 10
143.142977489448
 20
81.68343454177626
 30
0.0
 10
143.4544534022127
 20
81.36535506243364
 30
0.0
  0
SPLINE
  5
101
330
1F
100
AcDbEntity
  8
0
  6
Continuous
 62
     7
370
    25
100
AcDbSpline
210
0.0
220
0.0
230
1.0
 70
     8
 71
     3
 72
     9
 73
     5
 74
     0
 42
0.00000001
 43
0.00000001
 40
0.0
 40
0.0
 40
0.0
 40
0.0
 40
0.7210175706402078
 40
0.9999999999999999
 40
0.9999999999999999
 40
0.9999999999999999
 40
0.9999999999999999
 10
142.0379738028094
 20
87.16191666413147
 30
0.0
 10
141.9690405838132
 20
87.22516747704076
 30
0.0
 10
141.8734351203638
 20
87.31289184810309
 30
0.0
 10
141.7331753567159
 20
87.35770103444703
 30
0.0
 10
141.694045347112
 20
87.3702020101109
 30
0.0
  0
ARC
  5
102
330
1F
100
AcDbEntity
  8
0
  6
Continuous
 62
     7
370
    25
100
AcDbCircle
 10
134.9718190082
 20
80.0859392462
 30
0.0
 40
10.00000000000001
100
AcDbArc
 50
32.1405798582
 51
45.0397956095
  0
LINE
  5
103
330
1F
100
AcDbEntity
  8
0
  6
Continuous
 62
     7
370
    25
100
AcDbLine
 10
142.0379738028
 20
92.4641165279
 30
0.0
 11
142.0379738028
 21
87.1619166641
 31
0.0
  0
LINE
  5
104
330
1F
100
AcDbEntity
  8
0
  6
Continuous
 62
     7
370
    25
100
AcDbLine
 10
143.7676334545
 20
92.4641165279
 30
0.0
 11
142.0379738028
 21
92.4641165279
 31
0.0
  0
LINE
  5
105
330
1F
100
AcDbEntity
  8
0
  6
Continuous
 62
     7
370
    25
100
AcDbLine
 10
141.6940453471
 20
93.4641165279
 30
0.0
 11
143.5778397401
 21
93.4641165279
 31
0.0
  0
ARC
  5
106
330
1F
100
AcDbEntity
  8
0
  6
Continuous
 62
     7
370
    25
100
AcDbCircle
 10
104.0815046727
 20
100.173461749
 30
0.0
 40
4.021945305504366
100
AcDbArc
 50
230.4243196696
 51
233.1058614851
  0
LINE
  5
107
330
1F
100
AcDbEntity
  8
0
  6
Continuous
 62
     7
370
    25
100
AcDbLine
 10
127.6940453471
 20
51.9141165279
 30
0.0
 11
127.6940453471
 21
64.6141165279
 31
0.0
  0
LINE
  5
108
330
1F
100
AcDbEntity
  8
0
  6
Continuous
 62
     7
370
    25
100
AcDbLine
 10
119.0440453471
 20
43.2641165279
 30
0.0
 11
106.3440453471
 21
43.2641165279
 31
0.0
  0
LINE
  5
109
330
1F
100
AcDbEntity
  8
0
  6
Continuous
 62
     7
370
    25
100
AcDbLine
 10
143.4440453471
 20
71.0141165279
 30
0.0
 11
159.9440453471
 21
71.0141165279
 31
0.0
  0
LINE
  5
10A
330
1F
100
AcDbEntity
  8
0
  6
Continuous
 62
     7
370
    25
100
AcDbLine
 10
151.6311624823
 20
95.5520588633
 30
0.0
 11
151.6311624823
 21
95.5640094252
 31
0.0
  0
LINE
  5
10B
330
1F
100
AcDbEntity
  8
0
  6
Continuous
 62
     7
370
    25
100
AcDbLine
 10
151.7569282119
 20
95.5520588633
 30
0.0
 11
151.7569282119
 21
95.5640094252
 31
0.0
  0
LINE
  5
10C
330
1F
100
AcDbEntity
  8
0
  6
Continuous
 62
     7
370
    25
100
AcDbLine
 10
143.2901246073
 20
87.5757305672
 30
0.0
 11
160.6800935922
 21
87.5757305673
 31
0.0
  0
LINE
  5
10D
330
1F
100
AcDbEntity
  8
0
  6
Continuous
 62
     7
370
    25
100
AcDbLine
 10
160.6828529057
 20
87.3521921137
 30
0.0
 11
143.2879844921
 21
87.3521921137
 31
0.0
  0
LINE
  5
10E
330
1F
100
AcDbEntity
  8
0
  6
Continuous
 62
     7
370
    25
100
AcDbLine
 10
143.7114126825
 20
77.9143646684
 30
0.0
 11
159.7390701612
 21
77.9143646684
 31
0.0
  0
LINE
  5
10F
330
1F
100
AcDbEntity
  8
0
  6
Continuous
 62
     7
370
    25
100
AcDbLine
 10
159.7487931762
 20
95.0261338952
 30
0.0
 11
143.639297518
 21
95.0261338952
 31
0.0
  0
LINE
  5
110
330
1F
100
AcDbEntity
  8
0
  6
Continuous
 62
     7
370
    25
100
AcDbLine
 10
141.6940453471
 20
92.4641165279
 30
0.0
 11
142.0379738028
 21
92.4641165279
 31
0.0
  0
ARC
  5
111
330
1F
100
AcDbEntity
  8
0
  6
Continuous
 62
     7
370
    25
100
AcDbCircle
 10
140.9321000839
 20
92.518781111
 30
0.0
 40
1.107223960533115
100
AcDbArc
 50
357.1701084939
 51
46.5155082001
  0
LINE
  5
112
330
1F
100
AcDbEntity
  8
0
  6
Continuous
 62
     7
370
    25
100
AcDbLine
 10
101.4450484059
 20
88.4818381318
 30
0.0
 11
101.6669758423
 21
96.9569050031
 31
0.0
  0
LINE
  5
113
330
1F
100
AcDbEntity
  8
0
  6
Continuous
 62
     7
370
    18
100
AcDbLine
 10
164.6940453471
 20
48.4954915279
 30
0.0
 11
178.1585212284
 21
48.9162563992
 31
0.0
  0
LINE
  5
114
330
1F
100
AcDbEntity
  8
0
  6
Continuous
 62
     7
370
    18
100
AcDbLine
 10
178.1585212284
 20
67.6119766566
 30
0.0
 11
164.6940453471
 21
68.0327415279
 31
0.0
  0
LINE
  5
115
330
1F
100
AcDbEntity
  8
0
  6
CENTERX2
 62
     7
370
    18
100
AcDbLine
 10
181.1341239573
 20
58.2641165279
 30
0.0
 11
109.9868117051
 21
58.2641165279
 31
0.0
  0
LINE
  5
116
330
1F
100
AcDbEntity
  8
0
  6
CENTERX2
 62
     7
370
    18
100
AcDbLine
 10
151.6940453471
 20
44.6425238254
 30
0.0
 11
151.6940453471
 21
97.0077622549
 31
0.0
  0
LINE
  5
117
330
1F
100
AcDbEntity
  8
0
  6
CENTERX2
 62
     7
370
    18
100
AcDbLine
 10
136.6940453471
 20
58.2641165279
 30
0.0
 11
127.6940453471
 21
58.2641165279
 31
0.0
  0
LINE
  5
118
330
1F
100
AcDbEntity
  8
0
  6
CENTERX2
 62
     7
370
    18
100
AcDbLine
 10
112.6940453471
 20
43.2641165279
 30
0.0
 11
112.6940453471
 21
39.2641165279
 31
0.0
  0
ARC
  5
119
330
1F
100
AcDbEntity
  8
0
  6
CENTERX2
 62
     7
370
    18
100
AcDbCircle
 10
127.6940453471
 20
43.2641165279
 30
0.0
 40
15.00000000000001
100
AcDbArc
 50
90.0
 51
180.0
  0
LINE
  5
11A
330
1F
100
AcDbEntity
  8
0
  6
CENTERX2
 62
     7
370
    18
100
AcDbLine
 10
112.6940453471
 20
39.2641165279
 30
0.0
 11
112.6940453471
 21
43.2641165279
 31
0.0
  0
LINE
  5
11B
330
1F
100
AcDbEntity
  8
0
  6
Continuous
 62
     7
370
    25
100
AcDbLine
 10
221.7245250459
 20
41.2641165279
 30
0.0
 11
221.7245250459
 21
43.2641165279
 31
0.0
  0
LINE
  5
11C
330
1F
100
AcDbEntity
  8
0
  6
Continuous
 62
     7
370
    25
100
AcDbLine
 10
209.0245250459
 20
43.2641165279
 30
0.0
 11
209.0245250459
 21
41.2641165279
 31
0.0
  0
LINE
  5
11D
330
1F
100
AcDbEntity
  8
0
  6
Continuous
 62
     7
370
    25
100
AcDbLine
 10
209.0245250459
 20
58.2641165279
 30
0.0
 11
209.0245250459
 21
43.2641165279
 31
0.0
  0
LINE
  5
11E
330
1F
100
AcDbEntity
  8
0
  6
Continuous
 62
     7
370
    25
100
AcDbLine
 10
221.7245250459
 20
43.2641165279
 30
0.0
 11
221.7245250459
 21
58.2641165279
 31
0.0
  0
ARC
  5
11F
330
1F
100
AcDbEntity
  8
0
  6
Continuous
 62
     7
370
    25
100
AcDbCircle
 10
223.8745250459
 20
71.0141165279
 30
0.0
 40
0.25
100
AcDbArc
 50
180.0
 51
270.0
  0
ARC
  5
120
330
1F
100
AcDbEntity
  8
0
  6
Continuous
 62
     7
370
    25
100
AcDbCircle
 10
206.8745250459
 20
71.0141165279
 30
0.0
 40
0.25
100
AcDbArc
 50
270.0
 51
0.0
  0
LINE
  5
121
330
1F
100
AcDbEntity
  8
0
  6
Continuous
 62
     7
370
    25
100
AcDbLine
 10
223.6245250459
 20
76.4641165279
 30
0.0
 11
223.1245250459
 21
76.9641165279
 31
0.0
  0
LINE
  5
122
330
1F
100
AcDbEntity
  8
0
  6
Continuous
 62
     7
370
    25
100
AcDbLine
 10
207.6245250459
 20
76.9641165279
 30
0.0
 11
207.1245250459
 21
76.4641165279
 31
0.0
  0
LINE
  5
123
330
1F
100
AcDbEntity
  8
0
  6
Continuous
 62
     7
370
    25
100
AcDbLine
 10
223.6245250459
 20
71.0141165279
 30
0.0
 11
223.6245250459
 21
76.4641165279
 31
0.0
  0
LINE
  5
124
330
1F
100
AcDbEntity
  8
0
  6
Continuous
 62
     7
370
    25
100
AcDbLine
 10
207.1245250459
 20
76.4641165279
 30
0.0
 11
207.1245250459
 21
71.0141165279
 31
0.0
  0
LINE
  5
125
330
1F
100
AcDbEntity
  8
0
  6
Continuous
 62
     7
370
    25
100
AcDbLine
 10
210.3745250459
 20
79.2641165279
 30
0.0
 11
210.3745250459
 21
76.9641165279
 31
0.0
  0
LINE
  5
126
330
1F
100
AcDbEntity
  8
0
  6
Continuous
 62
     7
370
    25
100
AcDbLine
 10
220.3745250459
 20
76.9641165279
 30
0.0
 11
220.3745250459
 21
77.4641165279
 31
0.0
  0
LINE
  5
127
330
1F
100
AcDbEntity
  8
0
  6
Continuous
 62
     7
370
    25
100
AcDbLine
 10
214.5044959812
 20
97.4128321948
 30
0.0
 11
214.5044959812
 21
97.3780495264
 31
0.0
  0
SPLINE
  5
128
330
1F
100
AcDbEntity
  8
0
  6
Continuous
 62
     7
370
    25
100
AcDbSpline
210
0.0
220
0.0
230
1.0
 70
     8
 71
     3
 72
     9
 73
     5
 74
     0
 42
0.00000001
 43
0.00000001
 40
0.0
 40
0.0
 40
0.0
 40
0.0
 40
0.4993165458323635
 40
1.0
 40
1.0
 40
1.0
 40
1.0
 10
216.3838178407796
 20
97.95168395664828
 30
0.0
 10
216.3606872231324
 20
97.95503499229592
 30
0.0
 10
216.3143626664152
 20
97.96174623724785
 30
0.0
 10
216.2678032732869
 20
97.95741906794217
 30
0.0
 10
216.2444917555115
 20
97.95525252586745
 30
0.0
  0
SPLINE
  5
129
330
1F
100
AcDbEntity
  8
0
  6
Continuous
 62
     7
370
    25
100
AcDbSpline
210
0.0
220
0.0
230
1.0
 70
     8
 71
     3
 72
     9
 73
     5
 74
     0
 42
0.00000001
 43
0.00000001
 40
0.0
 40
0.0
 40
0.0
 40
0.0
 40
0.5006834545219032
 40
0.9999999999999999
 40
0.9999999999999999
 40
0.9999999999999999
 40
0.9999999999999999
 10
214.5045582836314
 20
97.95525252579503
 30
0.0
 10
214.4812467689804
 20
97.95741906646033
 30
0.0
 10
214.4346873821254
 20
97.96174623294789
 30
0.0
 10
214.3883628318688
 20
97.95503498659322
 30
0.0
 10
214.3652322174639
 20
97.95168395024757
 30
0.0
  0
LINE
  5
12A
330
1F
100
AcDbEntity
  8
0
  6
Continuous
 62
     7
370
    25
100
AcDbLine
 10
212.8986705276
 20
97.2961669174
 30
0.0
 11
212.7678931729
 21
94.4429054273
 31
0.0
  0
LINE
  5
12B
330
1F
100
AcDbEntity
  8
0
  6
Continuous
 62
     7
370
    25
100
AcDbLine
 10
217.9811569188
 20
94.4429054273
 30
0.0
 11
217.8503795642
 21
97.2961669174
 31
0.0
  0
LINE
  5
12C
330
1F
100
AcDbEntity
  8
0
  6
Continuous
 62
     7
370
    25
100
AcDbLine
 10
213.4215510657
 20
97.9412678084
 30
0.0
 11
213.3731201227
 21
97.9200632943
 31
0.0
  0
SPLINE
  5
12D
330
1F
100
AcDbEntity
  8
0
  6
Continuous
 62
     7
370
    25
100
AcDbSpline
210
0.0
220
0.0
230
1.0
 70
     8
 71
     3
 72
     9
 73
     5
 74
     0
 42
0.00000001
 43
0.00000001
 40
0.0
 40
0.0
 40
0.0
 40
0.0
 40
0.0503631419175737
 40
1.0
 40
1.0
 40
1.0
 40
1.0
 10
212.9550328516491
 20
97.53467508583738
 30
0.0
 10
212.953136771055
 20
97.53150502847336
 30
0.0
 10
212.9154885918126
 20
97.4685610332558
 30
0.0
 10
212.9089481487974
 20
97.39341343456184
 30
0.0
 10
212.9027371030419
 20
97.3220505050457
 30
0.0
  0
SPLINE
  5
12E
330
1F
100
AcDbEntity
  8
0
  6
Continuous
 62
     7
370
    25
100
AcDbSpline
210
0.0
220
0.0
230
1.0
 70
     8
 71
     3
 72
    11
 73
     7
 74
     0
 42
0.00000001
 43
0.00000001
 40
0.0
 40
0.0
 40
0.0
 40
0.0
 40
0.2436788845968557
 40
0.4915884466681916
 40
0.7437897073051962
 40
0.9999999999999999
 40
0.9999999999999999
 40
0.9999999999999999
 40
0.9999999999999999
 10
217.8463129887187
 20
97.32205050504571
 30
0.0
 10
217.8350090318902
 20
97.39116985694254
 30
0.0
 10
217.8122048624288
 20
97.53060858955939
 30
0.0
 10
217.6990400635243
 20
97.71526248209935
 30
0.0
 10
217.536756470714
 20
97.86589098790853
 30
0.0
 10
217.3976172307955
 20
97.91601046407136
 30
0.0
 10
217.3274990260631
 20
97.94126780838866
 30
0.0
  0
SPLINE
  5
12F
330
1F
100
AcDbEntity
  8
0
  6
Continuous
 62
     7
370
    25
100
AcDbSpline
210
0.0
220
0.0
230
1.0
 70
     8
 71
     3
 72
    10
 73
     6
 74
     0
 42
0.00000001
 43
0.00000001
 40
0.0
 40
0.0
 40
0.0
 40
0.0
 40
0.2663464296503018
 40
0.5214744039517479
 40
0.9999999999999999
 40
0.9999999999999999
 40
0.9999999999999999
 40
0.9999999999999999
 10
218.3292922427952
 20
93.98736230596286
 30
0.0
 10
218.2841107788787
 20
94.00634837170239
 30
0.0
 10
218.1956508847608
 20
94.04352081410343
 30
0.0
 10
218.0490665453613
 20
94.17308793221935
 30
0.0
 10
217.9950424285842
 20
94.30356732366224
 30
0.0
 10
217.9598051943821
 20
94.38867251647476
 30
0.0
  0
SPLINE
  5
130
330
1F
100
AcDbEntity
  8
0
  6
Continuous
 62
     7
370
    25
100
AcDbSpline
210
0.0
220
0.0
230
1.0
 70
     8
 71
     3
 72
    10
 73
     6
 74
     0
 42
0.00000001
 43
0.00000001
 40
0.0
 40
0.0
 40
0.0
 40
0.0
 40
0.4785255960482556
 40
0.7336535703497025
 40
1.0
 40
1.0
 40
1.0
 40
1.0
 10
212.7892448973785
 20
94.38867251647473
 30
0.0
 10
212.7540076631763
 20
94.30356732366221
 30
0.0
 10
212.6999835463992
 20
94.17308793221935
 30
0.0
 10
212.5533992069997
 20
94.04352081410345
 30
0.0
 10
212.4649393128819
 20
94.00634837170239
 30
0.0
 10
212.4197578489653
 20
93.98736230596286
 30
0.0
  0
ARC
  5
131
330
1F
100
AcDbEntity
  8
0
  6
Continuous
 62
     7
370
    25
100
AcDbCircle
 10
211.6477866217
 20
92.4641165279
 30
0.0
 40
1.5
100
AcDbArc
 50
90.0
 51
180.0
  0
LINE
  5
132
330
1F
100
AcDbEntity
  8
0
  6
Continuous
 62
     7
370
    25
100
AcDbLine
 10
210.1477866217
 20
92.4641165279
 30
0.0
 11
210.1477866217
 21
87.2111618957
 31
0.0
  0
ARC
  5
133
330
1F
100
AcDbEntity
  8
0
  6
Continuous
 62
     7
370
    25
100
AcDbCircle
 10
219.1012634701
 20
92.4641165279
 30
0.0
 40
1.5
100
AcDbArc
 50
0.0
 51
90.0
  0
LINE
  5
134
330
1F
100
AcDbEntity
  8
0
  6
Continuous
 62
     7
370
    25
100
AcDbLine
 10
220.6012634701
 20
87.2111618957
 30
0.0
 11
220.6012634701
 21
92.4641165279
 31
0.0
  0
LINE
  5
135
330
1F
100
AcDbEntity
  8
0
  6
Continuous
 62
     7
370
    25
100
AcDbLine
 10
206.3857174873
 20
87.3521921136
 30
0.0
 11
207.1945250459
 21
79.2641165279
 31
0.0
  0
LINE
  5
136
330
1F
100
AcDbEntity
  8
0
  6
Continuous
 62
     7
370
    25
100
AcDbLine
 10
223.4195498599
 20
77.9143646684
 30
0.0
 11
224.3633326045
 21
87.3521921136
 31
0.0
  0
ARC
  5
137
330
1F
100
AcDbEntity
  8
0
  6
Continuous
 62
     7
370
    25
100
AcDbCircle
 10
223.3682954142
 20
87.4516958327
 30
0.0
 40
0.9999999999999957
100
AcDbArc
 50
354.2894068625
 51
7.1250163489
  0
ARC
  5
138
330
1F
100
AcDbEntity
  8
0
  6
Continuous
 62
     7
370
    25
100
AcDbCircle
 10
207.3807546775
 20
87.4516958327
 30
0.0
 40
1.000000000000005
100
AcDbArc
 50
172.8749836511
 51
185.7105931375
  0
LINE
  5
139
330
1F
100
AcDbEntity
  8
0
  6
Continuous
 62
     7
370
    25
100
AcDbLine
 10
224.360573291
 20
87.5757305672
 30
0.0
 11
223.429272875
 21
95.0261338952
 31
0.0
  0
LINE
  5
13A
330
1F
100
AcDbEntity
  8
0
  6
Continuous
 62
     7
370
    25
100
AcDbLine
 10
207.3197772168
 20
95.0261338952
 30
0.0
 11
206.3884768008
 21
87.5757305672
 31
0.0
  0
ARC
  5
13B
330
1F
100
AcDbEntity
  8
0
  6
Continuous
 62
     7
370
    25
100
AcDbCircle
 10
207.8159161551
 20
94.9641165279
 30
0.0
 40
0.5
100
AcDbArc
 50
90.0
 51
172.8749836511
  0
ARC
  5
13C
330
1F
100
AcDbEntity
  8
0
  6
Continuous
 62
     7
370
    25
100
AcDbCircle
 10
222.9331339366
 20
94.9641165279
 30
0.0
 40
0.5000000000000017
100
AcDbArc
 50
7.1250163489
 51
90.0
  0
ARC
  5
13D
330
1F
100
AcDbEntity
  8
0
  6
Continuous
 62
     7
370
    25
100
AcDbCircle
 10
222.9220312648
 20
77.9641165279
 30
0.0
 40
0.5000000000000269
100
AcDbArc
 50
270.0
 51
354.2894068625
  0
ARC
  5
13E
330
1F
100
AcDbEntity
  8
0
  6
Continuous
 62
     7
370
    25
100
AcDbCircle
 10
214.5745250459
 20
78.7641165279
 30
0.0
 40
0.2000000000000028
100
AcDbArc
 50
90.0
 51
180.0
  0
ARC
  5
13F
330
1F
100
AcDbEntity
  8
0
  6
Continuous
 62
     7
370
    25
100
AcDbCircle
 10
216.1745250459
 20
78.7641165279
 30
0.0
 40
0.2000000000000171
100
AcDbArc
 50
0.0
 51
90.0
  0
LINE
  5
140
330
1F
100
AcDbEntity
  8
0
  6
Continuous
 62
     7
370
    25
100
AcDbLine
 10
216.3745250459
 20
76.9641165279
 30
0.0
 11
216.3745250459
 21
77.4353253743
 31
0.0
  0
LINE
  5
141
330
1F
100
AcDbEntity
  8
0
  6
Continuous
 62
     7
370
    25
100
AcDbLine
 10
214.3745250459
 20
78.7641165279
 30
0.0
 11
214.3745250459
 21
76.9641165279
 31
0.0
  0
LINE
  5
142
330
1F
100
AcDbEntity
  8
0
  6
Continuous
 62
     7
370
    25
100
AcDbLine
 10
215.3745250459
 20
41.2641165279
 30
0.0
 11
209.0245250459
 21
41.2641165279
 31
0.0
  0
LINE
  5
143
330
1F
100
AcDbEntity
  8
0
  6
Continuous
 62
     7
370
    25
100
AcDbLine
 10
221.7245250459
 20
41.2641165279
 30
0.0
 11
215.3745250459
 21
41.2641165279
 31
0.0
  0
ARC
  5
144
330
1F
100
AcDbEntity
  8
0
  6
Continuous
 62
     7
370
    25
100
AcDbCircle
 10
215.3745250459
 20
58.2641165279
 30
0.0
 40
6.350000000000001
100
AcDbArc
 50
90.0
 51
180.0
  0
ARC
  5
145
330
1F
100
AcDbEntity
  8
0
  6
Continuous
 62
     7
370
    25
100
AcDbCircle
 10
215.3745250459
 20
58.2641165279
 30
0.0
 40
6.350000000000001
100
AcDbArc
 50
0.0
 51
90.0
  0
ARC
  5
146
330
1F
100
AcDbEntity
  8
0
  6
Continuous
 62
     7
370
    25
100
AcDbCircle
 10
215.3745250459
 20
58.2641165279
 30
0.0
 40
11.50000000000002
100
AcDbArc
 50
90.0
 51
236.4837193108
  0
ARC
  5
147
330
1F
100
AcDbEntity
  8
0
  6
Continuous
 62
     7
370
    25
100
AcDbCircle
 10
215.3745250459
 20
58.2641165279
 30
0.0
 40
11.50000000000002
100
AcDbArc
 50
303.5162806892
 51
90.0
  0
ARC
  5
148
330
1F
100
AcDbEntity
  8
0
  6
Continuous
 62
     7
370
    25
100
AcDbCircle
 10
215.3745250459
 20
58.2641165279
 30
0.0
 40
12.00000000000001
100
AcDbArc
 50
301.9491671278
 51
90.0
  0
ARC
  5
149
330
1F
100
AcDbEntity
  8
0
  6
Continuous
 62
     7
370
    25
100
AcDbCircle
 10
215.3745250459
 20
58.2641165279
 30
0.0
 40
12.00000000000001
100
AcDbArc
 50
90.0
 51
238.0508328722
  0
ARC
  5
14A
330
1F
100
AcDbEntity
  8
0
  6
Continuous
 62
     7
370
    25
100
AcDbCircle
 10
215.3745250459
 20
58.2641165279
 30
0.0
 40
15.25000000000001
100
AcDbArc
 50
124.9480137199
 51
145.0519862801
  0
SPLINE
  5
14B
330
1F
100
AcDbEntity
  8
0
  6
Continuous
 62
     7
370
    25
100
AcDbSpline
210
0.0
220
0.0
230
1.0
 70
    24
 71
     3
 72
    10
 73
     6
 74
     0
 42
0.00000001
 43
0.00000001
 40
0.0
 40
0.0
 40
0.0
 40
0.0
 40
0.5
 40
0.5
 40
1.0
 40
1.0
 40
1.0
 40
1.0
 10
206.6388224410522
 20
70.76411652789658
 30
0.0
 10
208.050879371964
 20
70.76411652789658
 30
0.0
 10
209.4976622958418
 20
70.76411652789658
 30
0.0
 10
212.410991942317
 20
70.76411652789658
 30
0.0
 10
213.882950398173
 20
70.76411652789658
 30
0.0
 10
215.3745250458803
 20
70.76411652789658
 30
0.0
  0
ARC
  5
14C
330
1F
100
AcDbEntity
  8
0
  6
Continuous
 62
     7
370
    25
100
AcDbCircle
 10
215.3745250459
 20
58.2641165279
 30
0.0
 40
12.50000000000003
100
AcDbArc
 50
90.0
 51
180.0
  0
SPLINE
  5
14D
330
1F
100
AcDbEntity
  8
0
  6
Continuous
 62
     7
370
    25
100
AcDbSpline
210
0.0
220
0.0
230
1.0
 70
    24
 71
     3
 72
    12
 73
     8
 74
     0
 42
0.00000001
 43
0.00000001
 40
0.0
 40
0.0
 40
0.0
 40
0.0
 40
0.25
 40
0.25
 40
0.5
 40
0.5
 40
1.0
 40
1.0
 40
1.0
 40
1.0
 10
202.8745250458803
 20
58.26411652789657
 30
0.0
 10
202.8745250458803
 20
59.00946274017089
 30
0.0
 10
202.8745250458803
 20
59.76128959003992
 30
0.0
 10
202.8745250458803
 20
61.24199005121519
 30
0.0
 10
202.8745250458803
 20
61.97496165581722
 30
0.0
 10
202.8745250458803
 20
64.15550577677321
 30
0.0
 10
202.8745250458803
 20
65.58494937578244
 30
0.0
 10
202.8745250458803
 20
66.99981913272465
 30
0.0
  0
ARC
  5
14E
330
1F
100
AcDbEntity
  8
0
  6
Continuous
 62
     7
370
    25
100
AcDbCircle
 10
215.3745250459
 20
58.2641165279
 30
0.0
 40
15.25
100
AcDbArc
 50
214.9480137199
 51
235.0519862801
  0
ARC
  5
14F
330
1F
100
AcDbEntity
  8
0
  6
Continuous
 62
     7
370
    25
100
AcDbCircle
 10
215.3745250459
 20
58.2641165279
 30
0.0
 40
12.50000000000003
100
AcDbArc
 50
180.0
 51
239.4692976613
  0
SPLINE
  5
150
330
1F
100
AcDbEntity
  8
0
  6
Continuous
 62
     7
370
    25
100
AcDbSpline
210
0.0
220
0.0
230
1.0
 70
    24
 71
     3
 72
     9
 73
     5
 74
     0
 42
0.00000001
 43
0.00000001
 40
0.0
 40
0.0
 40
0.0
 40
0.0
 40
0.8608399747911561
 40
0.9999999999999999
 40
0.9999999999999999
 40
0.9999999999999999
 40
0.9999999999999999
 10
206.6388224410522
 20
45.76411652789658
 30
0.0
 10
207.3150360330495
 20
45.76411652789657
 30
0.0
 10
208.1005636709374
 20
45.76411652789657
 30
0.0
 10
208.9116537324707
 20
45.76411652789657
 30
0.0
 10
209.0245250458804
 20
45.76411652789657
 30
0.0
  0
SPLINE
  5
151
330
1F
100
AcDbEntity
  8
0
  6
Continuous
 62
     7
370
    25
100
AcDbSpline
210
0.0
220
0.0
230
1.0
 70
    24
 71
     3
 72
    10
 73
     6
 74
     0
 42
0.00000001
 43
0.00000001
 40
0.0
 40
0.0
 40
0.0
 40
0.0
 40
0.4999999999999999
 40
0.4999999999999999
 40
1.0
 40
1.0
 40
1.0
 40
1.0
 10
202.8745250458803
 20
49.52841392306852
 30
0.0
 10
202.8745250458802
 20
50.94047085398029
 30
0.0
 10
202.8745250458802
 20
52.38725377785814
 30
0.0
 10
202.8745250458803
 20
55.30058342433332
 30
0.0
 10
202.8745250458803
 20
56.77254188018931
 30
0.0
 10
202.8745250458803
 20
58.26411652789657
 30
0.0
  0
ARC
  5
152
330
1F
100
AcDbEntity
  8
0
  6
Continuous
 62
     7
370
    25
100
AcDbCircle
 10
215.3745250459
 20
58.2641165279
 30
0.0
 40
12.50000000000001
100
AcDbArc
 50
0.0
 51
90.0
  0
ARC
  5
153
330
1F
100
AcDbEntity
  8
0
  6
Continuous
 62
     7
370
    25
100
AcDbCircle
 10
215.3745250459
 20
58.2641165279
 30
0.0
 40
12.50000000000001
100
AcDbArc
 50
300.5307023387
 51
0.0
  0
ARC
  5
154
330
1F
100
AcDbEntity
  8
0
  6
Continuous
 62
     7
370
    25
100
AcDbCircle
 10
215.3745250459
 20
58.2641165279
 30
0.0
 40
15.25000000000001
100
AcDbArc
 50
34.9480137199
 51
55.0519862801
  0
SPLINE
  5
155
330
1F
100
AcDbEntity
  8
0
  6
Continuous
 62
     7
370
    25
100
AcDbSpline
210
0.0
220
0.0
230
1.0
 70
    24
 71
     3
 72
    12
 73
     8
 74
     0
 42
0.00000001
 43
0.00000001
 40
0.0
 40
0.0
 40
0.0
 40
0.0
 40
0.2500000000000001
 40
0.2500000000000001
 40
0.5000000000000001
 40
0.5000000000000001
 40
1.0
 40
1.0
 40
1.0
 40
1.0
 10
227.8745250458803
 20
58.26411652789657
 30
0.0
 10
227.8745250458803
 20
59.00946274017089
 30
0.0
 10
227.8745250458803
 20
59.76128959003992
 30
0.0
 10
227.8745250458803
 20
61.24199005121519
 30
0.0
 10
227.8745250458803
 20
61.97496165581722
 30
0.0
 10
227.8745250458803
 20
64.15550577677321
 30
0.0
 10
227.8745250458803
 20
65.58494937578244
 30
0.0
 10
227.8745250458803
 20
66.99981913272464
 30
0.0
  0
SPLINE
  5
156
330
1F
100
AcDbEntity
  8
0
  6
Continuous
 62
     7
370
    25
100
AcDbSpline
210
0.0
220
0.0
230
1.0
 70
    24
 71
     3
 72
    12
 73
     8
 74
     0
 42
0.00000001
 43
0.00000001
 40
0.0
 40
0.0
 40
0.0
 40
0.0
 40
0.2500000000000001
 40
0.2500000000000001
 40
0.5000000000000001
 40
0.5000000000000001
 40
1.0
 40
1.0
 40
1.0
 40
1.0
 10
215.3745250458803
 20
70.76411652789658
 30
0.0
 10
216.1198712581546
 20
70.76411652789658
 30
0.0
 10
216.8716981080236
 20
70.76411652789658
 30
0.0
 10
218.3523985691989
 20
70.76411652789658
 30
0.0
 10
219.0853701738009
 20
70.76411652789658
 30
0.0
 10
221.2659142947569
 20
70.76411652789658
 30
0.0
 10
222.6953578937661
 20
70.76411652789658
 30
0.0
 10
224.1102276507083
 20
70.76411652789658
 30
0.0
  0
SPLINE
  5
157
330
1F
100
AcDbEntity
  8
0
  6
Continuous
 62
     7
370
    25
100
AcDbSpline
210
0.0
220
0.0
230
1.0
 70
    24
 71
     3
 72
    10
 73
     6
 74
     0
 42
0.00000001
 43
0.00000001
 40
0.0
 40
0.0
 40
0.0
 40
0.0
 40
0.5
 40
0.5
 40
1.0
 40
1.0
 40
1.0
 40
1.0
 10
227.8745250458803
 20
49.52841392306851
 30
0.0
 10
227.8745250458803
 20
50.94047085398028
 30
0.0
 10
227.8745250458803
 20
52.38725377785814
 30
0.0
 10
227.8745250458803
 20
55.30058342433332
 30
0.0
 10
227.8745250458803
 20
56.77254188018931
 30
0.0
 10
227.8745250458803
 20
58.26411652789658
 30
0.0
  0
ARC
  5
158
330
1F
100
AcDbEntity
  8
0
  6
Continuous
 62
     7
370
    25
100
AcDbCircle
 10
215.3745250459
 20
58.2641165279
 30
0.0
 40
15.24999999999999
100
AcDbArc
 50
304.9480137199
 51
325.0519862801
  0
SPLINE
  5
159
330
1F
100
AcDbEntity
  8
0
  6
Continuous
 62
     7
370
    25
100
AcDbSpline
210
0.0
220
0.0
230
1.0
 70
    24
 71
     3
 72
     9
 73
     5
 74
     0
 42
0.00000001
 43
0.00000001
 40
0.0
 40
0.0
 40
0.0
 40
0.0
 40
0.188156980473088
 40
1.0
 40
1.0
 40
1.0
 40
1.0
 10
221.7245250458804
 20
45.76411652789657
 30
0.0
 10
221.8762721769195
 20
45.76411652789657
 30
0.0
 10
222.6827643445638
 20
45.76411652789657
 30
0.0
 10
223.4706158806849
 20
45.76411652789657
 30
0.0
 10
224.1102276507083
 20
45.76411652789656
 30
0.0
  0
LINE
  5
15A
330
1F
100
AcDbEntity
  8
0
  6
Continuous
 62
     7
370
    25
100
AcDbLine
 10
207.6245250459
 20
76.9641165279
 30
0.0
 11
223.1245250459
 21
76.9641165279
 31
0.0
  0
LINE
  5
15B
330
1F
100
AcDbEntity
  8
0
  6
Continuous
 62
     7
370
    25
100
AcDbLine
 10
223.6245250459
 20
76.4641165279
 30
0.0
 11
207.1245250459
 21
76.4641165279
 31
0.0
  0
ELLIPSE
  5
15C
330
1F
100
AcDbEntity
  8
0
  6
Continuous
 62
     7
370
    25
100
AcDbEllipse
 10
215.1999864908
 20
88.6877233256
 30
0.0
 11
0.7234244958980298
 21
-0.7001325129304662
 31
0.0
210
0.0
220
0.0
230
1.0
 40
0.9869902583
 41
4.707649545362581
 42
5.487972049091435
  0
LINE
  5
15D
330
1F
100
AcDbEntity
  8
0
  6
Continuous
 62
     7
370
    25
100
AcDbLine
 10
215.2130794515
 20
87.6877233256
 30
0.0
 11
215.2130794515
 21
86.9641165279
 31
0.0
  0
ELLIPSE
  5
15E
330
1F
100
AcDbEntity
  8
0
  6
Continuous
 62
     7
370
    25
100
AcDbEllipse
 10
215.1999864908
 20
88.4641165279
 30
0.0
 11
1.074619436156752
 21
-1.056020081253664
 31
0.0
210
0.0
220
0.0
230
1.0
 40
0.9913091236
 41
4.71309943438346
 42
5.493421938112309
  0
LWPOLYLINE
  5
15F
330
1F
100
AcDbEntity
  8
0
  6
Continuous
 62
     7
370
    25
100
AcDbPolyline
 90
        9
 70
   128
 43
0.0
 10
214.5055416714
 20
87.9770366348
 10
214.4198127893
 20
87.9007061572
 10
214.3387811394
 20
87.8163061579
 10
214.2668865845
 20
87.7284610574
 10
214.2080683503
 20
87.6419840391
 10
214.1655491886
 20
87.5616133268
 10
214.1416587969
 20
87.4917525694
 10
214.1377061708
 20
87.4362295574
 10
214.1539078813
 20
87.3980864917
  0
ELLIPSE
  5
160
330
1F
100
AcDbEntity
  8
0
  6
Continuous
 62
     7
370
    25
100
AcDbEllipse
 10
215.549063601
 20
88.6877233256
 30
0.0
 11
0.7234244958980298
 21
0.7001325129304519
 31
0.0
210
0.0
220
0.0
230
1.0
 40
0.9869902583
 41
3.936805911678011
 42
4.717128415406856
  0
LWPOLYLINE
  5
161
330
1F
100
AcDbEntity
  8
0
  6
Continuous
 62
     7
370
    25
100
AcDbPolyline
 90
        9
 70
   128
 43
0.0
 10
216.2435084204
 20
87.9770366348
 10
216.3292373025
 20
87.9007061572
 10
216.4102689524
 20
87.8163061579
 10
216.4821635073
 20
87.7284610574
 10
216.5409817414
 20
87.6419840391
 10
216.5835009032
 20
87.5616133268
 10
216.6073912949
 20
87.4917525694
 10
216.611343921
 20
87.4362295574
 10
216.5951422104
 20
87.3980864917
  0
ELLIPSE
  5
162
330
1F
100
AcDbEntity
  8
0
  6
Continuous
 62
     7
370
    25
100
AcDbEllipse
 10
215.549063601
 20
88.4641165279
 30
0.0
 11
1.074619436156752
 21
1.056020081253692
 31
0.0
210
0.0
220
0.0
230
1.0
 40
0.9913091236
 41
3.931356022657103
 42
4.711678526385946
  0
LINE
  5
163
330
1F
100
AcDbEntity
  8
0
  6
Continuous
 62
     7
370
    25
100
AcDbLine
 10
215.5359706402
 20
87.6877233256
 30
0.0
 11
215.5359706402
 21
86.9641165279
 31
0.0
  0
LINE
  5
164
330
1F
100
AcDbEntity
  8
0
  6
Continuous
 62
     7
370
    25
100
AcDbLine
 10
215.2130794515
 20
87.6877233256
 30
0.0
 11
215.5359706402
 21
87.6877233256
 31
0.0
  0
LINE
  5
165
330
1F
100
AcDbEntity
  8
0
  6
Continuous
 62
     7
370
    25
100
AcDbLine
 10
215.5359706402
 20
86.9641165279
 30
0.0
 11
215.2130794515
 21
86.9641165279
 31
0.0
  0
LINE
  5
166
330
1F
100
AcDbEntity
  8
0
  6
Continuous
 62
     7
370
    25
100
AcDbLine
 10
214.5055416714
 20
87.9770366348
 30
0.0
 11
214.5055416714
 21
97.1349369211
 31
0.0
  0
LINE
  5
167
330
1F
100
AcDbEntity
  8
0
  6
Continuous
 62
     7
370
    25
100
AcDbLine
 10
214.5055416714
 20
97.1349369211
 30
0.0
 11
216.2435084204
 21
97.1349369211
 31
0.0
  0
LINE
  5
168
330
1F
100
AcDbEntity
  8
0
  6
Continuous
 62
     7
370
    25
100
AcDbLine
 10
216.2435084204
 20
97.1349369211
 30
0.0
 11
216.2435084204
 21
87.9770366348
 31
0.0
  0
SPLINE
  5
169
330
1F
100
AcDbEntity
  8
0
  6
Continuous
 62
     7
370
    25
100
AcDbSpline
210
0.0
220
0.0
230
1.0
 70
     8
 71
     3
 72
    12
 73
     8
 74
     0
 42
0.00000001
 43
0.00000001
 40
0.0
 40
0.0
 40
0.0
 40
0.0
 40
0.1396834586182492
 40
0.383189627403831
 40
0.5513169293013304
 40
0.8194729461607057
 40
1.0
 40
1.0
 40
1.0
 40
1.0
 10
216.243508420399
 20
87.97703663483604
 30
0.0
 10
216.2932233408774
 20
87.99034900849698
 30
0.0
 10
216.4296048569352
 20
88.02686846150495
 30
0.0
 10
216.6095209661474
 20
88.06454052209632
 30
0.0
 10
216.7878623945323
 20
88.08890784285784
 30
0.0
 10
216.9083826190837
 20
88.08779080809387
 30
0.0
 10
216.9325286323906
 20
88.0464075197163
 30
0.0
 10
216.9422437496503
 20
88.02975700710088
 30
0.0
  0
ARC
  5
16A
330
1F
100
AcDbEntity
  8
0
  6
Continuous
 62
     7
370
    25
100
AcDbCircle
 10
216.443989569
 20
88.0149040214
 30
0.0
 40
0.4984755156842327
100
AcDbArc
 50
333.4921832491
 51
1.7074848132
  0
SPLINE
  5
16B
330
1F
100
AcDbEntity
  8
0
  6
Continuous
 62
     7
370
    25
100
AcDbSpline
210
0.0
220
0.0
230
1.0
 70
     8
 71
     3
 72
    12
 73
     8
 74
     0
 42
0.00000001
 43
0.00000001
 40
0.0
 40
0.0
 40
0.0
 40
0.0
 40
0.0715202026166141
 40
0.1260836237049449
 40
0.3855387013103052
 40
0.8475626424815554
 40
1.0
 40
1.0
 40
1.0
 40
1.0
 10
216.8900620880892
 20
87.79242447754577
 30
0.0
 10
216.888126042384
 20
87.78931582968094
 30
0.0
 10
216.8847129695845
 20
87.7838355657376
 30
0.0
 10
216.8625305190792
 20
87.74424702031725
 30
0.0
 10
216.7995170443128
 20
87.63781288733489
 30
0.0
 10
216.7024707188409
 20
87.50730587162671
 30
0.0
 10
216.6164760256227
 20
87.41979615766334
 30
0.0
 10
216.5951422104211
 20
87.3980864916808
 30
0.0
  0
SPLINE
  5
16C
330
1F
100
AcDbEntity
  8
0
  6
Continuous
 62
     7
370
    25
100
AcDbSpline
210
0.0
220
0.0
230
1.0
 70
     8
 71
     3
 72
    11
 73
     7
 74
     0
 42
0.00000001
 43
0.00000001
 40
0.0
 40
0.0
 40
0.0
 40
0.0
 40
0.2500000000000014
 40
0.4999999999999973
 40
0.7500000000000001
 40
1.0
 40
1.0
 40
1.0
 40
1.0
 10
216.9422437496503
 20
96.84069665551002
 30
0.0
 10
216.9272444444837
 20
96.87981420967614
 30
0.0
 10
216.8972458341506
 20
96.9580493180084
 30
0.0
 10
216.7337261313539
 20
97.05471239371663
 30
0.0
 10
216.5081465172715
 20
97.12190060985614
 30
0.0
 10
216.3317211193565
 20
97.13059148404972
 30
0.0
 10
216.243508420399
 20
97.13493692114652
 30
0.0
  0
LINE
  5
16D
330
1F
100
AcDbEntity
  8
0
  6
Continuous
 62
     7
370
    25
100
AcDbLine
 10
216.9422437497
 20
88.0297570071
 30
0.0
 11
216.9422437497
 21
96.8406966555
 31
0.0
  0
SPLINE
  5
16E
330
1F
100
AcDbEntity
  8
0
  6
Continuous
 62
     7
370
    25
100
AcDbSpline
210
0.0
220
0.0
230
1.0
 70
     8
 71
     3
 72
    13
 73
     9
 74
     0
 42
0.00000001
 43
0.00000001
 40
0.0
 40
0.0
 40
0.0
 40
0.0
 40
0.1143463544469914
 40
0.2890454840074685
 40
0.5294852105593209
 40
0.7014879056604271
 40
0.9335094878266192
 40
1.0
 40
1.0
 40
1.0
 40
1.0
 10
213.8068063421103
 20
88.02975700710088
 30
0.0
 10
213.8116409336153
 20
88.04114383885887
 30
0.0
 10
213.8238618465454
 20
88.06992754877874
 30
0.0
 10
213.8965099415864
 20
88.09017772622761
 30
0.0
 10
214.0270222079932
 20
88.082320399482
 30
0.0
 10
214.2138898071628
 20
88.04979298315403
 30
0.0
 10
214.3752632119195
 20
88.01267162820214
 30
0.0
 10
214.4818095627714
 20
87.98352806508319
 30
0.0
 10
214.5055416713616
 20
87.97703663483604
 30
0.0
  0
SPLINE
  5
16F
330
1F
100
AcDbEntity
  8
0
  6
Continuous
 62
     7
370
    25
100
AcDbSpline
210
0.0
220
0.0
230
1.0
 70
     8
 71
     3
 72
    11
 73
     7
 74
     0
 42
0.00000001
 43
0.00000001
 40
0.0
 40
0.0
 40
0.0
 40
0.0
 40
0.3325271082490199
 40
0.7778992719027311
 40
0.9254453528959206
 40
1.0
 40
1.0
 40
1.0
 40
1.0
 10
214.1539078813394
 20
87.3980864916808
 30
0.0
 10
214.1086770581932
 20
87.44602303980898
 30
0.0
 10
214.0028660625776
 20
87.55816368928204
 30
0.0
 10
213.9151060881
 20
87.69352390729925
 30
0.0
 10
213.8674931961623
 20
87.77852454107772
 30
0.0
 10
213.861125506234
 20
87.78893118214386
 30
0.0
 10
213.8589880036714
 20
87.79242447754578
 30
0.0
  0
ARC
  5
170
330
1F
100
AcDbEntity
  8
0
  6
Continuous
 62
     7
370
    25
100
AcDbCircle
 10
214.3050605228
 20
88.0149040214
 30
0.0
 40
0.4984755156842055
100
AcDbArc
 50
178.2925151868
 51
206.5078167509
  0
SPLINE
  5
171
330
1F
100
AcDbEntity
  8
0
  6
Continuous
 62
     7
370
    25
100
AcDbSpline
210
0.0
220
0.0
230
1.0
 70
     8
 71
     3
 72
    11
 73
     7
 74
     0
 42
0.00000001
 43
0.00000001
 40
0.0
 40
0.0
 40
0.0
 40
0.0
 40
0.2499999999999991
 40
0.5000000000000002
 40
0.7499999999999993
 40
1.0
 40
1.0
 40
1.0
 40
1.0
 10
213.8068063421103
 20
96.84069665550999
 30
0.0
 10
213.8218056472768
 20
96.87981420967611
 30
0.0
 10
213.85180425761
 20
96.95804931800839
 30
0.0
 10
214.0153239604066
 20
97.05471239371663
 30
0.0
 10
214.240903574489
 20
97.12190060985613
 30
0.0
 10
214.4173289724041
 20
97.1305914840497
 30
0.0
 10
214.5055416713616
 20
97.1349369211465
 30
0.0
  0
LINE
  5
172
330
1F
100
AcDbEntity
  8
0
  6
Continuous
 62
     7
370
    25
100
AcDbLine
 10
213.8068063421
 20
96.8406966555
 30
0.0
 11
213.8068063421
 21
88.0297570071
 31
0.0
  0
LINE
  5
173
330
1F
100
AcDbEntity
  8
0
  6
Continuous
 62
     7
370
    25
100
AcDbLine
 10
214.5209192544
 20
86.9641165279
 30
0.0
 11
215.2130794515
 21
86.9641165279
 31
0.0
  0
SPLINE
  5
174
330
1F
100
AcDbEntity
  8
0
  6
Continuous
 62
     7
370
    25
100
AcDbSpline
210
0.0
220
0.0
230
1.0
 70
     8
 71
     3
 72
    11
 73
     7
 74
     0
 42
0.00000001
 43
0.00000001
 40
0.0
 40
0.0
 40
0.0
 40
0.0
 40
0.2500000000000002
 40
0.4999999999999996
 40
0.7499999999999999
 40
1.0
 40
1.0
 40
1.0
 40
1.0
 10
213.0219471033832
 20
88.50338195035837
 30
0.0
 10
213.0400234138012
 20
88.30300634398229
 30
0.0
 10
213.0761760346373
 20
87.90225513123012
 30
0.0
 10
213.4208018088378
 20
87.39206219318818
 30
0.0
 10
213.9216238949579
 20
87.0340811248215
 30
0.0
 10
214.3211541346187
 20
86.98743806020488
 30
0.0
 10
214.5209192544491
 20
86.96411652789656
 30
0.0
  0
LINE
  5
175
330
1F
100
AcDbEntity
  8
0
  6
Continuous
 62
     7
370
    25
100
AcDbLine
 10
213.5882843835
 20
88.5033819504
 30
0.0
 11
213.0219471034
 21
88.5033819504
 31
0.0
  0
SPLINE
  5
176
330
1F
100
AcDbEntity
  8
0
  6
Continuous
 62
     7
370
    25
100
AcDbSpline
210
0.0
220
0.0
230
1.0
 70
     8
 71
     3
 72
     9
 73
     5
 74
     0
 42
0.00000001
 43
0.00000001
 40
0.0
 40
0.0
 40
0.0
 40
0.0
 40
0.5407747560677784
 40
1.0
 40
1.0
 40
1.0
 40
1.0
 10
213.5882843834636
 20
88.50338195035839
 30
0.0
 10
213.5882548830508
 20
88.4920479965577
 30
0.0
 10
213.5882003309244
 20
88.47108926341876
 30
0.0
 10
213.5888045760593
 20
88.4501230705508
 30
0.0
 10
213.5890820606787
 20
88.4404948655167
 30
0.0
  0
ELLIPSE
  5
177
330
1F
100
AcDbEntity
  8
0
  6
Continuous
 62
     7
370
    25
100
AcDbEllipse
 10
215.0872565345
 20
88.4641165279
 30
0.0
 11
-0.3999861399325653
 21
1.445826639360092
 31
0.0
210
0.0
220
0.0
230
1.0
 40
0.9987379186
 41
1.314426961368815
 42
1.316970714136562
  0
ELLIPSE
  5
178
330
1F
100
AcDbEntity
  8
0
  6
Continuous
 62
     7
370
    25
100
AcDbEllipse
 10
216.0359494342
 20
88.4641165279
 30
0.0
 11
2.447559743736946
 21
-0.02501587584977472
 31
0.0
210
0.0
220
0.0
230
1.0
 40
0.6127700831
 41
3.171475350442024
 42
3.622568086779165
  0
LINE
  5
179
330
1F
100
AcDbEntity
  8
0
  6
Continuous
 62
     7
370
    25
100
AcDbLine
 10
217.1607657083
 20
88.5033819504
 30
0.0
 11
217.1599680311
 21
88.4404948655
 31
0.0
  0
LINE
  5
17A
330
1F
100
AcDbEntity
  8
0
  6
Continuous
 62
     7
370
    25
100
AcDbLine
 10
217.7271029884
 20
88.5033819504
 30
0.0
 11
217.1607657083
 21
88.5033819504
 31
0.0
  0
SPLINE
  5
17B
330
1F
100
AcDbEntity
  8
0
  6
Continuous
 62
     7
370
    25
100
AcDbSpline
210
0.0
220
0.0
230
1.0
 70
     8
 71
     3
 72
    11
 73
     7
 74
     0
 42
0.00000001
 43
0.00000001
 40
0.0
 40
0.0
 40
0.0
 40
0.0
 40
0.2500000000000004
 40
0.5000000000000003
 40
0.7499999999999998
 40
1.0
 40
1.0
 40
1.0
 40
1.0
 10
216.2281308373115
 20
86.96411652789656
 30
0.0
 10
216.4278959571419
 20
86.98743806020487
 30
0.0
 10
216.8274261968026
 20
87.03408112482148
 30
0.0
 10
217.3282482829227
 20
87.39206219318818
 30
0.0
 10
217.6728740571233
 20
87.90225513123013
 30
0.0
 10
217.7090266779593
 20
88.3030063439823
 30
0.0
 10
217.7271029883774
 20
88.50338195035837
 30
0.0
  0
LINE
  5
17C
330
1F
100
AcDbEntity
  8
0
  6
Continuous
 62
     7
370
    25
100
AcDbLine
 10
215.5359706402
 20
86.9641165279
 30
0.0
 11
216.2281308373
 21
86.9641165279
 31
0.0
  0
ELLIPSE
  5
17D
330
1F
100
AcDbEntity
  8
0
  6
Continuous
 62
     7
370
    25
100
AcDbEllipse
 10
214.7131006575
 20
88.4641165279
 30
0.0
 11
2.447559743736946
 21
0.02501587584980314
 31
0.0
210
0.0
220
0.0
230
1.0
 40
0.6127700831
 41
5.802209873990213
 42
6.253302610327362
  0
ELLIPSE
  5
17E
330
1F
100
AcDbEntity
  8
0
  6
Continuous
 62
     7
370
    25
100
AcDbEllipse
 10
215.6617935572
 20
88.4641165279
 30
0.0
 11
0.399986139932679
 21
1.445826639360078
 31
0.0
210
0.0
220
0.0
230
1.0
 40
0.9987379186
 41
4.966214593034014
 42
4.968758345810842
  0
ELLIPSE
  5
17F
330
1F
100
AcDbEntity
  8
0
  6
Continuous
 62
     7
370
    25
100
AcDbEllipse
 10
213.7586521841
 20
96.4829257791
 30
0.0
 11
0.02159772760037981
 21
0.7999991561933228
 31
0.0
210
0.0
220
0.0
230
1.0
 40
0.0537988877
 41
5.177489007048641
 42
5.369012849440103
  0
ELLIPSE
  5
180
330
1F
100
AcDbEntity
  8
0
  6
Continuous
 62
     7
370
    25
100
AcDbEllipse
 10
215.5368527705
 20
88.4775517073
 30
0.0
 11
1.947791790405546
 21
-0.0177698114313074
 31
0.0
210
0.0
220
0.0
230
1.0
 40
0.513320833
 41
3.160788584408923
 42
3.623660809788566
  0
LINE
  5
181
330
1F
100
AcDbEntity
  8
0
  6
Continuous
 62
     7
370
    25
100
AcDbLine
 10
213.5892447468
 20
88.4761265237
 30
0.0
 11
213.805925858
 21
96.9703619419
 31
0.0
  0
ELLIPSE
  5
182
330
1F
100
AcDbEntity
  8
0
  6
Continuous
 62
     7
370
    25
100
AcDbEllipse
 10
216.9903979077
 20
96.4829257791
 30
0.0
 11
-0.02159772760037981
 21
0.7999991561933228
 31
0.0
210
0.0
220
0.0
230
1.0
 40
0.0537988877
 41
0.9141724577391807
 42
1.105696300130957
  0
LINE
  5
183
330
1F
100
AcDbEntity
  8
0
  6
Continuous
 62
     7
370
    25
100
AcDbLine
 10
216.9431242338
 20
96.9703619419
 30
0.0
 11
217.159805345
 21
88.4761265238
 31
0.0
  0
ELLIPSE
  5
184
330
1F
100
AcDbEntity
  8
0
  6
Continuous
 62
     7
370
    25
100
AcDbEllipse
 10
215.2121973213
 20
88.4775517073
 30
0.0
 11
1.947791790405546
 21
0.01776981143129319
 31
0.0
210
0.0
220
0.0
230
1.0
 40
0.513320833
 41
5.801117150980865
 42
6.263989376373015
  0
LINE
  5
185
330
1F
100
AcDbEntity
  8
0
  6
Continuous
 62
     7
370
    25
100
AcDbLine
 10
213.5890244116
 20
88.4443100938
 30
0.0
 11
213.5892447468
 21
88.4761265237
 31
0.0
  0
SPLINE
  5
186
330
1F
100
AcDbEntity
  8
0
  6
Continuous
 62
     7
370
    25
100
AcDbSpline
210
0.0
220
0.0
230
1.0
 70
     8
 71
     3
 72
     9
 73
     5
 74
     0
 42
0.00000001
 43
0.00000001
 40
0.0
 40
0.0
 40
0.0
 40
0.0
 40
0.8673350121727758
 40
1.0
 40
1.0
 40
1.0
 40
1.0
 10
217.1598053450057
 20
88.47612652375913
 30
0.0
 10
217.1599760771929
 20
88.46692810038394
 30
0.0
 10
217.1601729240685
 20
88.45632271348485
 30
0.0
 10
217.1600429263032
 20
88.44571708888348
 30
0.0
 10
217.1600256801513
 20
88.44431009382483
 30
0.0
  0
ELLIPSE
  5
187
330
1F
100
AcDbEntity
  8
0
  6
Continuous
 62
     7
370
    25
100
AcDbEllipse
 10
214.4749766754
 20
96.4641165279
 30
0.0
 11
0.0209600052571659
 21
1.499999971448744
 31
0.0
210
0.0
220
0.0
230
1.0
 40
0.013963099
 41
5.413231207420207
 42
6.283380418268021
  0
LINE
  5
188
330
1F
100
AcDbEntity
  8
0
  6
Continuous
 62
     7
370
    25
100
AcDbLine
 10
216.253117498
 20
97.9641165279
 30
0.0
 11
214.4959325937
 21
97.9641165279
 31
0.0
  0
ELLIPSE
  5
189
330
1F
100
AcDbEntity
  8
0
  6
Continuous
 62
     7
370
    25
100
AcDbEllipse
 10
216.2740734164
 20
96.4641165279
 30
0.0
 11
-0.02096000525713749
 21
1.499999971448745
 31
0.0
210
0.0
220
0.0
230
1.0
 40
0.013963099
 41
6.282990196093469
 42
7.153139406941289
  0
SPLINE
  5
18A
330
1F
100
AcDbEntity
  8
0
  6
Continuous
 62
     7
370
    25
100
AcDbSpline
210
0.0
220
0.0
230
1.0
 70
     8
 71
     3
 72
     9
 73
     5
 74
     0
 42
0.00000001
 43
0.00000001
 40
0.0
 40
0.0
 40
0.0
 40
0.0
 40
0.5600029565045049
 40
1.0
 40
1.0
 40
1.0
 40
1.0
 10
216.2445491325042
 20
97.43118526873715
 30
0.0
 10
216.2445547705705
 20
97.42139880657722
 30
0.0
 10
216.2445648384927
 20
97.40392307355422
 30
0.0
 10
216.2444426618893
 20
97.38596210588842
 30
0.0
 10
216.244388904545
 20
97.37805933321717
 30
0.0
  0
ELLIPSE
  5
18B
330
1F
100
AcDbEntity
  8
0
  6
Continuous
 62
     7
370
    25
100
AcDbEllipse
 10
216.2916625784
 20
96.4641165279
 30
0.0
 11
-0.02155295842285909
 21
1.499999872388898
 31
0.0
210
0.0
220
0.0
230
0.9999999999999998
 40
0.0287076702
 41
0.9152123852427785
 42
1.106736227634711
  0
ELLIPSE
  5
18C
330
1F
100
AcDbEntity
  8
0
  6
Continuous
 62
     7
370
    25
100
AcDbEllipse
 10
214.4573875133
 20
96.4641165279
 30
0.0
 11
0.02155295842280225
 21
1.499999872388898
 31
0.0
210
0.0
220
0.0
230
1.0
 40
0.0287076702
 41
5.176449079545
 42
5.367972921936886
  0
SPLINE
  5
18D
330
1F
100
AcDbEntity
  8
0
  6
Continuous
 62
     7
370
    25
100
AcDbSpline
210
0.0
220
0.0
230
1.0
 70
     8
 71
     3
 72
     9
 73
     5
 74
     0
 42
0.00000001
 43
0.00000001
 40
0.0
 40
0.0
 40
0.0
 40
0.0
 40
0.5599925069634167
 40
1.0
 40
1.0
 40
1.0
 40
1.0
 10
214.5046611872156
 20
97.37805933321715
 30
0.0
 10
214.5045954420642
 20
97.38810692752004
 30
0.0
 10
214.5044780384372
 20
97.40604930028026
 30
0.0
 10
214.5044939555899
 20
97.42350474310152
 30
0.0
 10
214.5045009592563
 20
97.43118526873717
 30
0.0
  0
SPLINE
  5
18E
330
1F
100
AcDbEntity
  8
0
  6
Continuous
 62
     7
370
    25
100
AcDbSpline
210
0.0
220
0.0
230
1.0
 70
     8
 71
     3
 72
    12
 73
     8
 74
     0
 42
0.00000001
 43
0.00000001
 40
0.0
 40
0.0
 40
0.0
 40
0.0
 40
0.2225634137434412
 40
0.446206317369527
 40
0.6680851268156954
 40
0.8917990985568369
 40
1.0
 40
1.0
 40
1.0
 40
1.0
 10
213.8059258579643
 20
96.97036194194769
 30
0.0
 10
213.818278965531
 20
97.017947885254
 30
0.0
 10
213.8430450964181
 20
97.11335057594847
 30
0.0
 10
213.9756290244159
 20
97.23756930852143
 30
0.0
 10
214.1619864279105
 20
97.32945910962589
 30
0.0
 10
214.3500772392638
 20
97.37191468863595
 30
0.0
 10
214.4666572721521
 20
97.37654869415111
 30
0.0
 10
214.5046611872156
 20
97.37805933321715
 30
0.0
  0
SPLINE
  5
18F
330
1F
100
AcDbEntity
  8
0
  6
Continuous
 62
     7
370
    25
100
AcDbSpline
210
0.0
220
0.0
230
1.0
 70
     8
 71
     3
 72
    12
 73
     8
 74
     0
 42
0.00000001
 43
0.00000001
 40
0.0
 40
0.0
 40
0.0
 40
0.0
 40
0.222563413743527
 40
0.4462063173695677
 40
0.6680851268158018
 40
0.8917990985569334
 40
1.0
 40
1.0
 40
1.0
 40
1.0
 10
216.244388904545
 20
97.37805933321717
 30
0.0
 10
216.3228925645875
 20
97.37263226060345
 30
0.0
 10
216.4802806476442
 20
97.361751792676
 30
0.0
 10
216.6896321852716
 20
97.2864583616557
 30
0.0
 10
216.8483914797417
 20
97.1769798169024
 30
0.0
 10
216.9262403500583
 20
97.06426517635589
 30
0.0
 10
216.9389733908917
 20
96.9934477189117
 30
0.0
 10
216.9431242337963
 20
96.97036194194767
 30
0.0
  0
SPLINE
  5
190
330
1F
100
AcDbEntity
  8
0
  6
Continuous
 62
     7
370
    25
100
AcDbSpline
210
0.0
220
0.0
230
1.0
 70
     8
 71
     3
 72
    12
 73
     8
 74
     0
 42
0.00000001
 43
0.00000001
 40
0.0
 40
0.0
 40
0.0
 40
0.0
 40
0.219860960079126
 40
0.4397396970008154
 40
0.6583291451397754
 40
0.8791239516843591
 40
1.0
 40
1.0
 40
1.0
 40
1.0
 10
216.9440694696683
 20
96.99821038682707
 30
0.0
 10
216.9333974750242
 20
97.04869860295496
 30
0.0
 10
216.9120526228526
 20
97.1496791174319
 30
0.0
 10
216.7839342275856
 20
97.28134211038197
 30
0.0
 10
216.6009962915205
 20
97.37890343315499
 30
0.0
 10
216.4094471196334
 20
97.42556282463171
 30
0.0
 10
216.2876414479484
 20
97.42971597163307
 30
0.0
 10
216.2445491325042
 20
97.43118526873715
 30
0.0
  0
SPLINE
  5
191
330
1F
100
AcDbEntity
  8
0
  6
Continuous
 62
     7
370
    25
100
AcDbSpline
210
0.0
220
0.0
230
1.0
 70
     8
 71
     3
 72
    12
 73
     8
 74
     0
 42
0.00000001
 43
0.00000001
 40
0.0
 40
0.0
 40
0.0
 40
0.0
 40
0.2198610998683207
 40
0.4397399767664978
 40
0.6583294271823329
 40
0.8791242261983195
 40
1.0
 40
1.0
 40
1.0
 40
1.0
 10
214.5045009592563
 20
97.43118526873717
 30
0.0
 10
214.4258100495372
 20
97.42636147538755
 30
0.0
 10
214.2684218674879
 20
97.41671349865697
 30
0.0
 10
214.0591401190029
 20
97.33953936099522
 30
0.0
 10
213.9004907983385
 20
97.22567185178308
 30
0.0
 10
213.8203907356232
 20
97.10419128227943
 30
0.0
 10
213.8090076983216
 20
97.02590603903496
 30
0.0
 10
213.8049806220922
 20
96.99821038682707
 30
0.0
  0
LINE
  5
192
330
1F
100
AcDbEntity
  8
0
  6
Continuous
 62
     7
370
    25
100
AcDbLine
 10
216.3806071555
 20
97.9391821496
 30
0.0
 11
216.253117498
 21
97.9641165279
 31
0.0
  0
ELLIPSE
  5
193
330
1F
100
AcDbEntity
  8
0
  6
Continuous
 62
     7
370
    25
100
AcDbEllipse
 10
216.9735937535
 20
96.4824403917
 30
0.0
 11
-0.02097028290361891
 21
0.7999998117962831
 31
0.0
210
0.0
220
0.0
230
1.0
 40
0.0261679535
 41
6.282499370393208
 42
7.152648581237925
  0
ELLIPSE
  5
194
330
1F
100
AcDbEntity
  8
0
  6
Continuous
 62
     7
370
    25
100
AcDbEllipse
 10
213.7754563382
 20
96.4824403917
 30
0.0
 11
0.02097028290364733
 21
0.7999998117962832
 31
0.0
210
0.0
220
0.0
230
0.9999999999999999
 40
0.0261679535
 41
5.413722033122039
 42
6.283871243969204
  0
SPLINE
  5
195
330
1F
100
AcDbEntity
  8
0
  6
Continuous
 62
     7
370
    25
100
AcDbSpline
210
0.0
220
0.0
230
1.0
 70
     8
 71
     3
 72
    11
 73
     7
 74
     0
 42
0.00000001
 43
0.00000001
 40
0.0
 40
0.0
 40
0.0
 40
0.0
 40
0.2499999999999973
 40
0.4999999999999962
 40
0.7499999999999991
 40
1.0
 40
1.0
 40
1.0
 40
1.0
 10
213.7964122565668
 20
97.28244039171207
 30
0.0
 10
213.8089327727894
 20
97.37233943883908
 30
0.0
 10
213.8339738052345
 20
97.5521375330931
 30
0.0
 10
213.9966172748571
 20
97.77685374232807
 30
0.0
 10
214.2254370109116
 20
97.93361482735756
 30
0.0
 10
214.4057673994578
 20
97.95394929438359
 30
0.0
 10
214.4959325937309
 20
97.96411652789658
 30
0.0
  0
LINE
  5
196
330
1F
100
AcDbEntity
  8
0
  6
Continuous
 62
     7
370
    25
100
AcDbLine
 10
217.1591111866
 20
88.5033386103
 30
0.0
 11
217.1607657083
 21
88.5033819504
 31
0.0
  0
LINE
  5
197
330
1F
100
AcDbEntity
  8
0
  6
Continuous
 62
     7
370
    25
100
AcDbLine
 10
213.5899389052
 20
88.5033386103
 30
0.0
 11
213.5882843835
 21
88.5033819504
 31
0.0
  0
SPLINE
  5
198
330
1F
100
AcDbEntity
  8
0
  6
Continuous
 62
     7
370
    25
100
AcDbSpline
210
0.0
220
0.0
230
1.0
 70
     8
 71
     3
 72
     9
 73
     5
 74
     0
 42
0.00000001
 43
0.00000001
 40
0.0
 40
0.0
 40
0.0
 40
0.0
 40
0.5600012771711204
 40
1.0
 40
1.0
 40
1.0
 40
1.0
 10
213.0219471033832
 20
88.50338195035837
 30
0.0
 10
213.0337815157282
 20
89.43243158978656
 30
0.0
 10
213.0549143467189
 20
91.09144501940108
 30
0.0
 10
213.0758750761314
 20
92.74822425456766
 30
0.0
 10
213.0850977703025
 20
93.47720500205038
 30
0.0
  0
SPLINE
  5
199
330
1F
100
AcDbEntity
  8
0
  6
Continuous
 62
     7
370
    25
100
AcDbSpline
210
0.0
220
0.0
230
1.0
 70
     8
 71
     3
 72
     9
 73
     5
 74
     0
 42
0.00000001
 43
0.00000001
 40
0.0
 40
0.0
 40
0.0
 40
0.0
 40
0.5599999095971039
 40
1.0
 40
1.0
 40
1.0
 40
1.0
 10
213.0850977703025
 20
93.47720500205038
 30
0.0
 10
213.0873951801997
 20
93.6590067167992
 30
0.0
 10
213.0914976985356
 20
93.9836526884023
 30
0.0
 10
213.0955940917286
 20
94.30821889395679
 30
0.0
 10
213.0973965051039
 20
94.4510280537425
 30
0.0
  0
LINE
  5
19A
330
1F
100
AcDbEntity
  8
0
  6
Continuous
 62
     7
370
    25
100
AcDbLine
 10
213.0973965051
 20
94.4510280537
 30
0.0
 11
212.7690683758
 21
94.4510280537
 31
0.0
  0
LINE
  5
19B
330
1F
100
AcDbEntity
  8
0
  6
Continuous
 62
     7
370
    25
100
AcDbLine
 10
212.7690683758
 20
94.4510280537
 30
0.0
 11
212.8988442889
 21
97.2824403917
 31
0.0
  0
LINE
  5
19C
330
1F
100
AcDbEntity
  8
0
  6
Continuous
 62
     7
370
    25
100
AcDbLine
 10
212.8988442889
 20
97.2824403917
 30
0.0
 11
213.7964122566
 21
97.2824403917
 31
0.0
  0
LINE
  5
19D
330
1F
100
AcDbEntity
  8
0
  6
Continuous
 62
     7
370
    25
100
AcDbLine
 10
213.8049806221
 20
96.9982103868
 30
0.0
 11
213.5882843835
 21
88.5033819504
 31
0.0
  0
LINE
  5
19E
330
1F
100
AcDbEntity
  8
0
  6
Continuous
 62
     7
370
    25
100
AcDbLine
 10
217.979981716
 20
94.4510280537
 30
0.0
 11
217.6516535867
 21
94.4510280537
 31
0.0
  0
SPLINE
  5
19F
330
1F
100
AcDbEntity
  8
0
  6
Continuous
 62
     7
370
    25
100
AcDbSpline
210
0.0
220
0.0
230
1.0
 70
     8
 71
     3
 72
     9
 73
     5
 74
     0
 42
0.00000001
 43
0.00000001
 40
0.0
 40
0.0
 40
0.0
 40
0.0
 40
0.5600000882143287
 40
1.0
 40
1.0
 40
1.0
 40
1.0
 10
217.6516535866566
 20
94.45102805374252
 30
0.0
 10
217.6539477027977
 20
94.26926918291073
 30
0.0
 10
217.6580443381186
 20
93.9446998218391
 30
0.0
 10
217.6621471045779
 20
93.62005062154228
 30
0.0
 10
217.6639523214581
 20
93.47720500205038
 30
0.0
  0
SPLINE
  5
1A0
330
1F
100
AcDbEntity
  8
0
  6
Continuous
 62
     7
370
    25
100
AcDbSpline
210
0.0
220
0.0
230
1.0
 70
     8
 71
     3
 72
     9
 73
     5
 74
     0
 42
0.00000001
 43
0.00000001
 40
0.0
 40
0.0
 40
0.0
 40
0.0
 40
0.5599987526606145
 40
1.0
 40
1.0
 40
1.0
 40
1.0
 10
217.6639523214581
 20
93.47720500205038
 30
0.0
 10
217.6756939079805
 20
92.54936370220108
 30
0.0
 10
217.6966610734725
 20
90.89250054770109
 30
0.0
 10
217.7178012738446
 20
89.23339184779061
 30
0.0
 10
217.7271029883774
 20
88.50338195035837
 30
0.0
  0
LINE
  5
1A1
330
1F
100
AcDbEntity
  8
0
  6
Continuous
 62
     7
370
    25
100
AcDbLine
 10
217.1607657083
 20
88.5033819504
 30
0.0
 11
216.9440694697
 21
96.9982103868
 31
0.0
  0
LINE
  5
1A2
330
1F
100
AcDbEntity
  8
0
  6
Continuous
 62
     7
370
    25
100
AcDbLine
 10
216.9526378352
 20
97.2824403917
 30
0.0
 11
217.8502058028
 21
97.2824403917
 31
0.0
  0
LINE
  5
1A3
330
1F
100
AcDbEntity
  8
0
  6
Continuous
 62
     7
370
    25
100
AcDbLine
 10
217.8502058028
 20
97.2824403917
 30
0.0
 11
217.979981716
 21
94.4510280537
 31
0.0
  0
LINE
  5
1A4
330
1F
100
AcDbEntity
  8
0
  6
Continuous
 62
     7
370
    25
100
AcDbLine
 10
214.4959325937
 20
97.9641165279
 30
0.0
 11
213.5983646261
 21
97.9641165279
 31
0.0
  0
SPLINE
  5
1A5
330
1F
100
AcDbEntity
  8
0
  6
Continuous
 62
     7
370
    25
100
AcDbSpline
210
0.0
220
0.0
230
1.0
 70
     8
 71
     3
 72
    11
 73
     7
 74
     0
 42
0.00000001
 43
0.00000001
 40
0.0
 40
0.0
 40
0.0
 40
0.0
 40
0.2499999999999975
 40
0.5000000000000014
 40
0.7500000000000004
 40
1.0
 40
1.0
 40
1.0
 40
1.0
 10
212.8988442889477
 20
97.28244039171207
 30
0.0
 10
212.9113648051702
 20
97.37233943883909
 30
0.0
 10
212.9364058376154
 20
97.5521375330931
 30
0.0
 10
213.0990493072379
 20
97.77685374232807
 30
0.0
 10
213.3278690432924
 20
97.93361482735757
 30
0.0
 10
213.5081994318386
 20
97.95394929438358
 30
0.0
 10
213.5983646261118
 20
97.96411652789658
 30
0.0
  0
LINE
  5
1A6
330
1F
100
AcDbEntity
  8
0
  6
Continuous
 62
     7
370
    25
100
AcDbLine
 10
217.1506854656
 20
97.9641165279
 30
0.0
 11
216.253117498
 21
97.9641165279
 31
0.0
  0
SPLINE
  5
1A7
330
1F
100
AcDbEntity
  8
0
  6
Continuous
 62
     7
370
    25
100
AcDbSpline
210
0.0
220
0.0
230
1.0
 70
     8
 71
     3
 72
    11
 73
     7
 74
     0
 42
0.00000001
 43
0.00000001
 40
0.0
 40
0.0
 40
0.0
 40
0.0
 40
0.2500000000000002
 40
0.5000000000000036
 40
0.7500000000000022
 40
1.0
 40
1.0
 40
1.0
 40
1.0
 10
217.1506854656488
 20
97.96411652789658
 30
0.0
 10
217.2408506599219
 20
97.95394929438359
 30
0.0
 10
217.4211810484681
 20
97.93361482735757
 30
0.0
 10
217.6500007845226
 20
97.77685374232806
 30
0.0
 10
217.8126442541452
 20
97.55213753309312
 30
0.0
 10
217.8376852865903
 20
97.37233943883909
 30
0.0
 10
217.8502058028129
 20
97.28244039171207
 30
0.0
  0
LINE
  5
1A8
330
1F
100
AcDbEntity
  8
0
  6
Continuous
 62
     7
370
    25
100
AcDbLine
 10
212.5095766337
 20
93.9641165279
 30
0.0
 11
212.2754814999
 21
93.9641165279
 31
0.0
  0
SPLINE
  5
1A9
330
1F
100
AcDbEntity
  8
0
  6
Continuous
 62
     7
370
    25
100
AcDbSpline
210
0.0
220
0.0
230
1.0
 70
     8
 71
     3
 72
    10
 73
     6
 74
     0
 42
0.00000001
 43
0.00000001
 40
0.0
 40
0.0
 40
0.0
 40
0.0
 40
0.2383396858856106
 40
0.5716506333689647
 40
0.9999999999999999
 40
0.9999999999999999
 40
0.9999999999999999
 40
0.9999999999999999
 10
212.5160026038255
 20
93.96411652789648
 30
0.0
 10
212.5906008062524
 20
93.97307527081612
 30
0.0
 10
212.7695223715263
 20
93.99456254871185
 30
0.0
 10
213.0058664837813
 20
94.16822493166495
 30
0.0
 10
213.0644498599667
 20
94.34923179091953
 30
0.0
 10
213.0973965051039
 20
94.4510280537427
 30
0.0
  0
SPLINE
  5
1AA
330
1F
100
AcDbEntity
  8
0
  6
Continuous
 62
     7
370
    25
100
AcDbSpline
210
0.0
220
0.0
230
1.0
 70
     8
 71
     3
 72
    11
 73
     7
 74
     0
 42
0.00000001
 43
0.00000001
 40
0.0
 40
0.0
 40
0.0
 40
0.0
 40
0.2506671725023492
 40
0.5010414677145718
 40
0.7508849997170933
 40
1.0
 40
1.0
 40
1.0
 40
1.0
 10
213.0219471033832
 20
88.50338195035837
 30
0.0
 10
212.995072536728
 20
88.53288797035758
 30
0.0
 10
212.9413548034218
 20
88.59186553578517
 30
0.0
 10
212.6558893397679
 20
88.67859880459689
 30
0.0
 10
212.2343611931482
 20
88.76291983482339
 30
0.0
 10
211.8180041154513
 20
88.81550282743797
 30
0.0
 10
211.6101295390748
 20
88.8417559354068
 30
0.0
  0
SPLINE
  5
1AB
330
1F
100
AcDbEntity
  8
0
  6
Continuous
 62
     7
370
    25
100
AcDbSpline
210
0.0
220
0.0
230
1.0
 70
     8
 71
     3
 72
     9
 73
     5
 74
     0
 42
0.00000001
 43
0.00000001
 40
0.0
 40
0.0
 40
0.0
 40
0.0
 40
0.501325902198991
 40
1.0
 40
1.0
 40
1.0
 40
1.0
 10
211.6101294857106
 20
88.84175570111955
 30
0.0
 10
211.4850868282405
 20
88.85317754823218
 30
0.0
 10
211.2356629366729
 20
88.87596082566212
 30
0.0
 10
210.9338948282517
 20
88.87302287175464
 30
0.0
 10
210.7834108890396
 20
88.87155779024044
 30
0.0
  0
LINE
  5
1AC
330
1F
100
AcDbEntity
  8
0
  6
Continuous
 62
     7
370
    25
100
AcDbLine
 10
210.6686444497
 20
92.4642275338
 30
0.0
 11
210.7834196572
 21
88.8716574472
 31
0.0
  0
SPLINE
  5
1AD
330
1F
100
AcDbEntity
  8
0
  6
Continuous
 62
     7
370
    25
100
AcDbSpline
210
0.0
220
0.0
230
1.0
 70
     8
 71
     3
 72
    14
 73
    10
 74
     0
 42
0.00000001
 43
0.00000001
 40
0.0
 40
0.0
 40
0.0
 40
0.0
 40
0.0829413618596713
 40
0.1664594845668898
 40
0.2437726390188678
 40
0.3161479456895739
 40
0.4353725718192335
 40
0.6486290670514198
 40
1.0
 40
1.0
 40
1.0
 40
1.0
 10
210.6686444545429
 20
92.46422752115727
 30
0.0
 10
210.6704596441253
 20
92.55409142874716
 30
0.0
 10
210.6741026458256
 20
92.73444414304046
 30
0.0
 10
210.7557637783131
 20
93.02232885382638
 30
0.0
 10
210.889047258598
 20
93.27385488125311
 30
0.0
 10
211.0773737148356
 20
93.50780421115415
 30
0.0
 10
211.3756407944979
 20
93.74861518166212
 30
0.0
 10
211.8336679532832
 20
93.94055678490149
 30
0.0
 10
212.1060034819611
 20
93.95507008852438
 30
0.0
 10
212.2754794656109
 20
93.9641018017916
 30
0.0
  0
LINE
  5
1AE
330
1F
100
AcDbEntity
  8
0
  6
Continuous
 62
     7
370
    25
100
AcDbLine
 10
219.9656304345
 20
88.8716574472
 30
0.0
 11
220.080405642
 21
92.4642275338
 31
0.0
  0
SPLINE
  5
1AF
330
1F
100
AcDbEntity
  8
0
  6
Continuous
 62
     7
370
    25
100
AcDbSpline
210
0.0
220
0.0
230
1.0
 70
     8
 71
     3
 72
     9
 73
     5
 74
     0
 42
0.00000001
 43
0.00000001
 40
0.0
 40
0.0
 40
0.0
 40
0.0
 40
0.4986740982738613
 40
1.0
 40
1.0
 40
1.0
 40
1.0
 10
219.9656393845562
 20
88.87155696083727
 30
0.0
 10
219.8151554482772
 20
88.87302204009391
 30
0.0
 10
219.5133873460238
 20
88.87595998947151
 30
0.0
 10
219.2639634544015
 20
88.8531767105398
 30
0.0
 10
219.138920797022
 20
88.84175486268508
 30
0.0
  0
SPLINE
  5
1B0
330
1F
100
AcDbEntity
  8
0
  6
Continuous
 62
     7
370
    25
100
AcDbSpline
210
0.0
220
0.0
230
1.0
 70
     8
 71
     3
 72
    11
 73
     7
 74
     0
 42
0.00000001
 43
0.00000001
 40
0.0
 40
0.0
 40
0.0
 40
0.0
 40
0.249115000282908
 40
0.4989585322854288
 40
0.749332827497652
 40
1.0
 40
1.0
 40
1.0
 40
1.0
 10
219.1389205526858
 20
88.84175593540681
 30
0.0
 10
218.9310459763093
 20
88.81550282743797
 30
0.0
 10
218.5146888986123
 20
88.76291983482339
 30
0.0
 10
218.0931607519927
 20
88.67859880459689
 30
0.0
 10
217.8076952883387
 20
88.59186553578515
 30
0.0
 10
217.7539775550325
 20
88.53288797035756
 30
0.0
 10
217.7271029883774
 20
88.50338195035837
 30
0.0
  0
SPLINE
  5
1B1
330
1F
100
AcDbEntity
  8
0
  6
Continuous
 62
     7
370
    25
100
AcDbSpline
210
0.0
220
0.0
230
1.0
 70
     8
 71
     3
 72
    10
 73
     6
 74
     0
 42
0.00000001
 43
0.00000001
 40
0.0
 40
0.0
 40
0.0
 40
0.0
 40
0.4283493666310629
 40
0.7616603141144171
 40
1.0
 40
1.0
 40
1.0
 40
1.0
 10
217.6516535866566
 20
94.45102805374273
 30
0.0
 10
217.6846002317938
 20
94.34923179091956
 30
0.0
 10
217.7431836079792
 20
94.16822493166505
 30
0.0
 10
217.9795277202342
 20
93.9945625487119
 30
0.0
 10
218.1584492855079
 20
93.97307527081614
 30
0.0
 10
218.2330474879348
 20
93.96411652789648
 30
0.0
  0
LINE
  5
1B2
330
1F
100
AcDbEntity
  8
0
  6
Continuous
 62
     7
370
    25
100
AcDbLine
 10
218.2394734583
 20
93.9641165279
 30
0.0
 11
218.4735685921
 21
93.9641165279
 31
0.0
  0
SPLINE
  5
1B3
330
1F
100
AcDbEntity
  8
0
  6
Continuous
 62
     7
370
    25
100
AcDbSpline
210
0.0
220
0.0
230
1.0
 70
     8
 71
     3
 72
    15
 73
    11
 74
     0
 42
0.00000001
 43
0.00000001
 40
0.0
 40
0.0
 40
0.0
 40
0.0
 40
0.2091652517822445
 40
0.4176299509274902
 40
0.5931463878153087
 40
0.6923603779431098
 40
0.7731125739307014
 40
0.8543366880968448
 40
0.9261517123972136
 40
1.0
 40
1.0
 40
1.0
 40
1.0
 10
218.4735706263811
 20
93.96410180179058
 30
0.0
 10
218.5712682588705
 20
93.96101031129209
 30
0.0
 10
218.7663363072898
 20
93.95483768455715
 30
0.0
 10
219.1156161606423
 20
93.86456422474696
 30
0.0
 10
219.4485063475857
 20
93.69595777264355
 30
0.0
 10
219.7101244336217
 20
93.46650906459058
 30
0.0
 10
219.8907184465355
 20
93.22873002133424
 30
0.0
 10
220.0128126098458
 20
92.96681352449573
 30
0.0
 10
220.0768625991643
 20
92.70127194975777
 30
0.0
 10
220.0792136852022
 20
92.5439742187362
 30
0.0
 10
220.0804056372156
 20
92.46422752117743
 30
0.0
  0
SPLINE
  5
1B4
330
1F
100
AcDbEntity
  8
0
  6
Continuous
 62
     7
370
    25
100
AcDbSpline
210
0.0
220
0.0
230
1.0
 70
     8
 71
     3
 72
    11
 73
     7
 74
     0
 42
0.00000001
 43
0.00000001
 40
0.0
 40
0.0
 40
0.0
 40
0.0
 40
0.279563842830426
 40
0.5590315778757567
 40
0.7794196683313495
 40
1.0
 40
1.0
 40
1.0
 40
1.0
 10
211.6101295390748
 20
88.8417559354068
 30
0.0
 10
211.5863803629478
 20
88.58449032522596
 30
0.0
 10
211.5388901751286
 20
88.07004754701664
 30
0.0
 10
211.8745772565468
 20
87.42753334777747
 30
0.0
 10
212.3532921458102
 20
87.03586004658355
 30
0.0
 10
212.7051777164795
 20
86.98803798350558
 30
0.0
 10
212.8811972044821
 20
86.96411652789656
 30
0.0
  0
SPLINE
  5
1B5
330
1F
100
AcDbEntity
  8
0
  6
Continuous
 62
     7
370
    25
100
AcDbSpline
210
0.0
220
0.0
230
1.0
 70
    24
 71
     3
 72
    11
 73
     7
 74
     0
 42
0.00000001
 43
0.00000001
 40
0.0
 40
0.0
 40
0.0
 40
0.0
 40
0.2799317596299056
 40
0.5599103390525025
 40
0.7799480709991914
 40
1.0
 40
1.0
 40
1.0
 40
1.0
 10
212.8811972044821
 20
86.96411652789656
 30
0.0
 10
213.1487651619217
 20
86.96411652789656
 30
0.0
 10
213.6839458286942
 20
86.96411652789656
 30
0.0
 10
214.1578126223567
 20
86.96411652789656
 30
0.0
 10
214.4430623799054
 20
86.96411652789658
 30
0.0
 10
214.4949664048026
 20
86.96411652789656
 30
0.0
 10
214.5209192544491
 20
86.96411652789656
 30
0.0
  0
SPLINE
  5
1B6
330
1F
100
AcDbEntity
  8
0
  6
Continuous
 62
     7
370
    25
100
AcDbSpline
210
0.0
220
0.0
230
1.0
 70
     8
 71
     3
 72
    11
 73
     7
 74
     0
 42
0.00000001
 43
0.00000001
 40
0.0
 40
0.0
 40
0.0
 40
0.0
 40
0.2795638428677817
 40
0.5590315779132448
 40
0.7794196683689383
 40
0.9999999999999999
 40
0.9999999999999999
 40
0.9999999999999999
 40
0.9999999999999999
 10
217.8678528872784
 20
86.96411652789656
 30
0.0
 10
218.0918333028446
 20
87.00263537984466
 30
0.0
 10
218.5397171344991
 20
87.07965984181749
 30
0.0
 10
218.9996573696046
 20
87.61245773960718
 30
0.0
 10
219.2110318105039
 20
88.24019430647357
 30
0.0
 10
219.1629646236246
 20
88.64117712264222
 30
0.0
 10
219.1389205526858
 20
88.84175593540681
 30
0.0
  0
SPLINE
  5
1B7
330
1F
100
AcDbEntity
  8
0
  6
Continuous
 62
     7
370
    25
100
AcDbSpline
210
0.0
220
0.0
230
1.0
 70
    24
 71
     3
 72
    11
 73
     7
 74
     0
 42
0.00000001
 43
0.00000001
 40
0.0
 40
0.0
 40
0.0
 40
0.0
 40
0.2799857774483057
 40
0.5599458358671288
 40
0.779998565900937
 40
0.9999999999999999
 40
0.9999999999999999
 40
0.9999999999999999
 40
0.9999999999999999
 10
216.2281308373115
 20
86.96411652789656
 30
0.0
 10
216.2658845569193
 20
86.96411652789656
 30
0.0
 10
216.341388528141
 20
86.96411652789658
 30
0.0
 10
216.7229416784498
 20
86.96411652789656
 30
0.0
 10
217.2263723602628
 20
86.96411652789656
 30
0.0
 10
217.6540426624002
 20
86.96411652789656
 30
0.0
 10
217.8678528872784
 20
86.96411652789656
 30
0.0
  0
SPLINE
  5
1B8
330
1F
100
AcDbEntity
  8
0
  6
Continuous
 62
     7
370
    25
100
AcDbSpline
210
0.0
220
0.0
230
1.0
 70
     8
 71
     3
 72
    11
 73
     7
 74
     0
 42
0.00000001
 43
0.00000001
 40
0.0
 40
0.0
 40
0.0
 40
0.0
 40
0.2500000000000002
 40
0.5000000000000003
 40
0.7499999999999994
 40
1.0
 40
1.0
 40
1.0
 40
1.0
 10
218.4796390996848
 20
93.96411652789655
 30
0.0
 10
218.4152353894897
 20
93.9713788375487
 30
0.0
 10
218.2864279690996
 20
93.98590345685298
 30
0.0
 10
218.1229853004892
 20
94.09787566044547
 30
0.0
 10
218.006811393616
 20
94.25838723847045
 30
0.0
 10
217.9889249418694
 20
94.3868144486519
 30
0.0
 10
217.9799817159962
 20
94.45102805374262
 30
0.0
  0
SPLINE
  5
1B9
330
1F
100
AcDbEntity
  8
0
  6
Continuous
 62
     7
370
    25
100
AcDbSpline
210
0.0
220
0.0
230
1.0
 70
     8
 71
     3
 72
    11
 73
     7
 74
     0
 42
0.00000001
 43
0.00000001
 40
0.0
 40
0.0
 40
0.0
 40
0.0
 40
0.2500000000000023
 40
0.4999999999999957
 40
0.7499999999999976
 40
1.0
 40
1.0
 40
1.0
 40
1.0
 10
212.7690683757643
 20
94.45102805374262
 30
0.0
 10
212.7601251498911
 20
94.38681444865188
 30
0.0
 10
212.7422386981445
 20
94.25838723847043
 30
0.0
 10
212.6260647912713
 20
94.0978756604455
 30
0.0
 10
212.4626221226609
 20
93.98590345685297
 30
0.0
 10
212.3338147022708
 20
93.97137883754868
 30
0.0
 10
212.2694109920757
 20
93.96411652789655
 30
0.0
  0
SPLINE
  5
1BA
330
1F
100
AcDbEntity
  8
0
  6
Continuous
 62
     7
370
    25
100
AcDbSpline
210
0.0
220
0.0
230
1.0
 70
     8
 71
     3
 72
     9
 73
     5
 74
     0
 42
0.00000001
 43
0.00000001
 40
0.0
 40
0.0
 40
0.0
 40
0.0
 40
0.5642319118445199
 40
1.0
 40
1.0
 40
1.0
 40
1.0
 10
210.6728100008809
 20
86.78866356674745
 30
0.0
 10
211.1482416121544
 20
86.84224553547476
 30
0.0
 10
211.9908589850697
 20
86.93720997758182
 30
0.0
 10
212.6109718199748
 20
86.9559501561223
 30
0.0
 10
212.8811972044821
 20
86.96411652789656
 30
0.0
  0
SPLINE
  5
1BB
330
1F
100
AcDbEntity
  8
0
  6
Continuous
 62
     7
370
    25
100
AcDbSpline
210
0.0
220
0.0
230
1.0
 70
     8
 71
     3
 72
    13
 73
     9
 74
     0
 42
0.00000001
 43
0.00000001
 40
0.0
 40
0.0
 40
0.0
 40
0.0
 40
0.0926677825201017
 40
0.1856533156297215
 40
0.2733112842947874
 40
0.413548892575832
 40
0.6528449691515644
 40
1.0
 40
1.0
 40
1.0
 40
1.0
 10
210.7834099866387
 20
88.87155704154578
 30
0.0
 10
210.7858446540897
 20
88.77732232442698
 30
0.0
 10
210.7907223372765
 20
88.5885297667035
 30
0.0
 10
210.7906478501304
 20
88.27531936248265
 30
0.0
 10
210.7842607930741
 20
87.93358522768958
 30
0.0
 10
210.7663461469773
 20
87.5167310707862
 30
0.0
 10
210.7292844062108
 20
87.03350242512332
 30
0.0
 10
210.6938096206571
 20
86.87970521477007
 30
0.0
 10
210.6728100008809
 20
86.78866356674745
 30
0.0
  0
SPLINE
  5
1BC
330
1F
100
AcDbEntity
  8
0
  6
Continuous
 62
     7
370
    25
100
AcDbSpline
210
0.0
220
0.0
230
1.0
 70
     8
 71
     3
 72
     9
 73
     5
 74
     0
 42
0.00000001
 43
0.00000001
 40
0.0
 40
0.0
 40
0.0
 40
0.0
 40
0.5551829690770672
 40
1.0
 40
1.0
 40
1.0
 40
1.0
 10
217.8678528872784
 20
86.96411652789656
 30
0.0
 10
218.2181073460264
 20
86.95111750740551
 30
0.0
 10
218.8489884757743
 20
86.92770356783048
 30
0.0
 10
219.6984051069732
 20
86.83146992847877
 30
0.0
 10
220.0762400908797
 20
86.78866356674745
 30
0.0
  0
SPLINE
  5
1BD
330
1F
100
AcDbEntity
  8
0
  6
Continuous
 62
     7
370
    25
100
AcDbSpline
210
0.0
220
0.0
230
1.0
 70
     8
 71
     3
 72
    13
 73
     9
 74
     0
 42
0.00000001
 43
0.00000001
 40
0.0
 40
0.0
 40
0.0
 40
0.0
 40
0.3327087167328941
 40
0.5628656559531299
 40
0.69871241253847
 40
0.8016200683166478
 40
0.9052998751809794
 40
1.0
 40
1.0
 40
1.0
 40
1.0
 10
220.0762400908797
 20
86.78866356674745
 30
0.0
 10
220.0561072669726
 20
86.8744491416656
 30
0.0
 10
220.022047218153
 20
87.0195783537036
 30
0.0
 10
219.9859613667828
 20
87.46994505013089
 30
0.0
 10
219.9669226436941
 20
87.86968619873677
 30
0.0
 10
219.9586491097416
 20
88.22557844514832
 30
0.0
 10
219.9579728475512
 20
88.57301229218254
 30
0.0
 10
219.963162658319
 20
88.77509116336162
 30
0.0
 10
219.9656401051219
 20
88.87155704154578
 30
0.0
  0
SPLINE
  5
1BE
330
1F
100
AcDbEntity
  8
0
  6
Continuous
 62
     7
370
    25
100
AcDbSpline
210
0.0
220
0.0
230
1.0
 70
     8
 71
     3
 72
    13
 73
     9
 74
     0
 42
0.00000001
 43
0.00000001
 40
0.0
 40
0.0
 40
0.0
 40
0.0
 40
0.1400312919410834
 40
0.280097877850304
 40
0.4240602241121906
 40
0.5680316995452359
 40
0.7822812815056387
 40
0.9999999999999999
 40
0.9999999999999999
 40
0.9999999999999999
 40
0.9999999999999999
 10
213.1003025143754
 20
82.35199972682513
 30
0.0
 10
213.0114568940661
 20
82.67012534696575
 30
0.0
 10
212.833743260492
 20
83.30645676872174
 30
0.0
 10
212.4795272414937
 20
84.13956486014516
 30
0.0
 10
212.0883513156806
 20
84.88186163484805
 30
0.0
 10
211.6135785524129
 20
85.62032000664419
 30
0.0
 10
211.0732283688919
 20
86.30347463132647
 30
0.0
 10
210.7947677494683
 20
86.59403978766606
 30
0.0
 10
210.6544192814251
 20
86.74048912992282
 30
0.0
  0
ELLIPSE
  5
1BF
330
1F
100
AcDbEntity
  8
0
  6
Continuous
 62
     7
370
    25
100
AcDbEllipse
 10
210.8162041251
 20
67.8911092806
 30
0.0
 11
0.0
 21
19.07300724724768
 31
0.0
210
0.0
220
0.0
230
1.0
 40
0.0555555556
 41
0.1357435643135809
 42
0.1532827087060873
  0
ELLIPSE
  5
1C0
330
1F
100
AcDbEntity
  8
0
  6
Continuous
 62
     7
370
    25
100
AcDbEllipse
 10
219.9328459666
 20
67.8911092806
 30
0.0
 11
0.0
 21
19.07300724724768
 31
0.0
210
0.0
220
0.0
230
1.0
 40
0.0555555556
 41
6.129902598473738
 42
6.147441742866246
  0
SPLINE
  5
1C1
330
1F
100
AcDbEntity
  8
0
  6
Continuous
 62
     7
370
    25
100
AcDbSpline
210
0.0
220
0.0
230
1.0
 70
     8
 71
     3
 72
    13
 73
     9
 74
     0
 42
0.00000001
 43
0.00000001
 40
0.0
 40
0.0
 40
0.0
 40
0.0
 40
0.1374692963454099
 40
0.2749820892813127
 40
0.4163021045260215
 40
0.5576318202769774
 40
0.7770084914513208
 40
1.0
 40
1.0
 40
1.0
 40
1.0
 10
220.0946308103354
 20
86.74048912992282
 30
0.0
 10
220.0113523307195
 20
86.65424872049391
 30
0.0
 10
219.8447690213862
 20
86.48174061435179
 30
0.0
 10
219.4990688481574
 20
86.08275854102881
 30
0.0
 10
219.115504533466
 20
85.58244912955654
 30
0.0
 10
218.6402468178675
 20
84.85362865795382
 30
0.0
 10
218.0941440499488
 20
83.83740970775216
 30
0.0
 10
217.7980196681559
 20
82.84982642144861
 30
0.0
 10
217.6487475784333
 20
82.35199973109269
 30
0.0
  0
LINE
  5
1C2
330
1F
100
AcDbEntity
  8
0
  6
Continuous
 62
     7
370
    25
100
AcDbLine
 10
213.1003025144
 20
82.3519997268
 30
0.0
 11
217.6487475784
 21
82.3519997311
 31
0.0
  0
LINE
  5
1C3
330
1F
100
AcDbEntity
  8
0
  6
Continuous
 62
     7
370
    25
100
AcDbLine
 10
210.1500960918
 20
92.4641165279
 30
0.0
 11
210.6686337592
 21
92.4641165279
 31
0.0
  0
ARC
  5
1C4
330
1F
100
AcDbEntity
  8
0
  6
Continuous
 62
     7
370
    25
100
AcDbCircle
 10
203.8745250459
 20
80.0859392462
 30
0.0
 40
9.499999999999995
100
AcDbArc
 50
44.4654416734
 51
48.6553876907
  0
LINE
  5
1C5
330
1F
100
AcDbEntity
  8
0
  6
Continuous
 62
     7
370
    25
100
AcDbLine
 10
210.1500960918
 20
87.2180643185
 30
0.0
 11
210.1500960918
 21
92.4641165279
 31
0.0
  0
LINE
  5
1C6
330
1F
100
AcDbEntity
  8
0
  6
Continuous
 62
     7
370
    25
100
AcDbLine
 10
220.5989539999
 20
92.4641165279
 30
0.0
 11
220.5989539999
 21
87.2180643185
 31
0.0
  0
ARC
  5
1C7
330
1F
100
AcDbEntity
  8
0
  6
Continuous
 62
     7
370
    25
100
AcDbCircle
 10
226.8745250459
 20
80.0859392462
 30
0.0
 40
9.499999999999973
100
AcDbArc
 50
131.3446123093
 51
135.5345583266
  0
LINE
  5
1C8
330
1F
100
AcDbEntity
  8
0
  6
Continuous
 62
     7
370
    25
100
AcDbLine
 10
220.0804163326
 20
92.4641165279
 30
0.0
 11
220.5989539999
 21
92.4641165279
 31
0.0
  0
ARC
  5
1C9
330
1F
100
AcDbEntity
  8
0
  6
Continuous
 62
     7
370
    25
100
AcDbCircle
 10
219.1001078447
 20
92.4652703741
 30
0.0
 40
1.49884659934548
100
AcDbArc
 50
359.9558924033
 51
89.9558243884
  0
LINE
  5
1CA
330
1F
100
AcDbEntity
  8
0
  6
Continuous
 62
     7
370
    25
100
AcDbLine
 10
219.1012634701
 20
93.9641165279
 30
0.0
 11
218.4670562877
 21
93.9641165279
 31
0.0
  0
ARC
  5
1CB
330
1F
100
AcDbEntity
  8
0
  6
Continuous
 62
     7
370
    25
100
AcDbCircle
 10
211.6489422471
 20
92.4652703741
 30
0.0
 40
1.498846599345466
100
AcDbArc
 50
90.0441756116
 51
180.0441075967
  0
LINE
  5
1CC
330
1F
100
AcDbEntity
  8
0
  6
Continuous
 62
     7
370
    25
100
AcDbLine
 10
212.2819938041
 20
93.9641165279
 30
0.0
 11
211.6477866217
 21
93.9641165279
 31
0.0
  0
LINE
  5
1CD
330
1F
100
AcDbEntity
  8
0
  6
Continuous
 62
     7
370
    25
100
AcDbLine
 10
212.8144285042
 20
94.3940505951
 30
0.0
 11
212.7765391611
 21
94.4416439012
 31
0.0
  0
LINE
  5
1CE
330
1F
100
AcDbEntity
  8
0
  6
Continuous
 62
     7
370
    25
100
AcDbLine
 10
217.9725109306
 20
94.4416439012
 30
0.0
 11
217.9346215875
 21
94.3940505951
 31
0.0
  0
ELLIPSE
  5
1CF
330
1F
100
AcDbEntity
  8
0
  6
Continuous
 62
     7
370
    25
100
AcDbEllipse
 10
216.3502738092
 20
97.2641165279
 30
0.0
 11
1.500207016110437
 21
0.02894030982645291
 31
0.0
210
0.0
220
0.0
230
1.0
 40
0.2796306798
 41
6.257897524076023
 42
6.352592373975048
  0
LINE
  5
1D0
330
1F
100
AcDbEntity
  8
0
  6
Continuous
 62
     7
370
    25
100
AcDbLine
 10
210.1578937333
 20
87.2111618957
 30
0.0
 11
210.1500960918
 21
87.2180643185
 31
0.0
  0
LINE
  5
1D1
330
1F
100
AcDbEntity
  8
0
  6
Continuous
 62
     7
370
    25
100
AcDbLine
 10
220.5989539999
 20
87.2180643185
 30
0.0
 11
220.5911563584
 21
87.2111618957
 31
0.0
  0
SPLINE
  5
1D2
330
1F
100
AcDbEntity
  8
0
  6
Continuous
 62
     7
370
    25
100
AcDbSpline
210
0.0
220
0.0
230
1.0
 70
     8
 71
     3
 72
     9
 73
     5
 74
     0
 42
0.00000001
 43
0.00000001
 40
0.0
 40
0.0
 40
0.0
 40
0.0
 40
0.0576289627817998
 40
0.9999999999999999
 40
0.9999999999999999
 40
0.9999999999999999
 40
0.9999999999999999
 10
217.1370385964081
 20
82.35199973061258
 30
0.0
 10
217.1321825243124
 20
82.33449645759421
 30
0.0
 10
217.0479180874502
 20
82.0307729100329
 30
0.0
 10
217.000959964279
 20
81.68819271559578
 30
0.0
 10
216.9567079890403
 20
81.36535506243364
 30
0.0
  0
SPLINE
  5
1D3
330
1F
100
AcDbEntity
  8
0
  6
Continuous
 62
     7
370
    25
100
AcDbSpline
210
0.0
220
0.0
230
1.0
 70
     8
 71
     3
 72
    10
 73
     6
 74
     0
 42
0.00000001
 43
0.00000001
 40
0.0
 40
0.0
 40
0.0
 40
0.0
 40
0.2746918501531821
 40
0.5573359346812419
 40
0.9999999999999999
 40
0.9999999999999999
 40
0.9999999999999999
 40
0.9999999999999999
 10
216.9567079890403
 20
81.36535506243364
 30
0.0
 10
216.6720872306859
 20
81.41857910559675
 30
0.0
 10
216.0946060411325
 20
81.52656800962608
 30
0.0
 10
215.0155880979657
 20
81.56835408286462
 30
0.0
 10
214.255955053533
 20
81.44229214233408
 30
0.0
 10
213.7923421027203
 20
81.36535506243364
 30
0.0
  0
LINE
  5
1D4
330
1F
100
AcDbEntity
  8
0
  6
Continuous
 62
     7
370
    25
100
AcDbLine
 10
213.7923421027
 20
81.3653550624
 30
0.0
 11
213.5771073169
 21
82.3519997273
 31
0.0
  0
LINE
  5
1D5
330
1F
100
AcDbEntity
  8
0
  6
Continuous
 62
     7
370
    25
100
AcDbLine
 10
207.1945250459
 20
79.2641165279
 30
0.0
 11
216.3745250459
 21
79.2641165279
 31
0.0
  0
LWPOLYLINE
  5
1D6
330
1F
100
AcDbEntity
  8
0
  6
Continuous
 62
     7
370
    25
100
AcDbPolyline
 90
        3
 70
   128
 43
0.0
 10
207.2558798387
 20
79.2641165279
 10
207.3493635149
 20
78.3363723385
 10
207.3918923812
 20
77.9143646684
  0
LINE
  5
1D7
330
1F
100
AcDbEntity
  8
0
  6
Continuous
 62
     7
370
    25
100
AcDbLine
 10
216.3745250459
 20
77.9143646684
 30
0.0
 11
216.3745250459
 21
79.2641165279
 31
0.0
  0
LINE
  5
1D8
330
1F
100
AcDbEntity
  8
0
  6
Continuous
 62
     7
370
    25
100
AcDbLine
 10
207.8159161551
 20
95.4641165279
 30
0.0
 11
212.8146997088
 21
95.4641165279
 31
0.0
  0
LINE
  5
1D9
330
1F
100
AcDbEntity
  8
0
  6
Continuous
 62
     7
370
    25
100
AcDbLine
 10
217.9343503829
 20
95.4641165279
 30
0.0
 11
222.9331339366
 21
95.4641165279
 31
0.0
  0
SPLINE
  5
1DA
330
1F
100
AcDbEntity
  8
0
  6
Continuous
 62
     7
370
    25
100
AcDbSpline
210
0.0
220
0.0
230
1.0
 70
     8
 71
     3
 72
    12
 73
     8
 74
     0
 42
0.00000001
 43
0.00000001
 40
0.0
 40
0.0
 40
0.0
 40
0.0
 40
0.2271543139929676
 40
0.4542742953683988
 40
0.6823371405829727
 40
0.9121899191033226
 40
1.0
 40
1.0
 40
1.0
 40
1.0
 10
207.3918923812349
 20
77.91436466838609
 30
0.0
 10
207.4029963264332
 20
77.8592448614917
 30
0.0
 10
207.4252025385545
 20
77.74901357863543
 30
0.0
 10
207.525698750093
 20
77.60915951904701
 30
0.0
 10
207.6631610249235
 20
77.50891112996145
 30
0.0
 10
207.7941346082796
 20
77.46798243938672
 30
0.0
 10
207.8720275920944
 20
77.46495373789739
 30
0.0
 10
207.8935591907919
 20
77.46411652789658
 30
0.0
  0
LINE
  5
1DB
330
1F
100
AcDbEntity
  8
0
  6
Continuous
 62
     7
370
    25
100
AcDbLine
 10
222.9220312648
 20
77.4641165279
 30
0.0
 11
216.3745250459
 21
77.4641165279
 31
0.0
  0
SPLINE
  5
1DC
330
1F
100
AcDbEntity
  8
0
  6
Continuous
 62
     7
370
    25
100
AcDbSpline
210
0.0
220
0.0
230
1.0
 70
    24
 71
     3
 72
    12
 73
     8
 74
     0
 42
0.00000001
 43
0.00000001
 40
0.0
 40
0.0
 40
0.0
 40
0.0
 40
0.2316347876629354
 40
0.4633066480819575
 40
0.6939442291381532
 40
0.9227406525226397
 40
1.0
 40
1.0
 40
1.0
 40
1.0
 10
216.3745250458803
 20
77.46411652789658
 30
0.0
 10
216.3745250458803
 20
77.46970599292685
 30
0.0
 10
216.3745250458803
 20
77.4808858175718
 30
0.0
 10
216.3745250458803
 20
77.56820888352749
 30
0.0
 10
216.3745250458803
 20
77.69651905730953
 30
0.0
 10
216.3745250458803
 20
77.82119848400735
 30
0.0
 10
216.3745250458803
 20
77.89558649276064
 30
0.0
 10
216.3745250458803
 20
77.91436466838607
 30
0.0
  0
SPLINE
  5
1DD
330
1F
100
AcDbEntity
  8
0
  6
Continuous
 62
     7
370
    25
100
AcDbSpline
210
0.0
220
0.0
230
1.0
 70
     8
 71
     3
 72
    11
 73
     7
 74
     0
 42
0.00000001
 43
0.00000001
 40
0.0
 40
0.0
 40
0.0
 40
0.0
 40
0.298199512551763
 40
0.5964325929955637
 40
0.8933636912282945
 40
1.0
 40
1.0
 40
1.0
 40
1.0
 10
209.4584452627807
 20
77.46411652789658
 30
0.0
 10
209.574467754389
 20
77.4753132935022
 30
0.0
 10
209.8065257980915
 20
77.4977080851173
 30
0.0
 10
210.1084296482597
 20
77.67705701126141
 30
0.0
 10
210.3083767766796
 20
77.8752037048307
 30
0.0
 10
210.3606995737383
 20
78.02282012668223
 30
0.0
 10
210.3745250458803
 20
78.0618254330254
 30
0.0
  0
LINE
  5
1DE
330
1F
100
AcDbEntity
  8
0
  6
Continuous
 62
     7
370
    25
100
AcDbLine
 10
210.3745250459
 20
77.4641165279
 30
0.0
 11
209.4584452628
 21
77.4641165279
 31
0.0
  0
LINE
  5
1DF
330
1F
100
AcDbEntity
  8
0
  6
Continuous
 62
     7
370
    25
100
AcDbLine
 10
207.8935591908
 20
77.4641165279
 30
0.0
 11
209.4584452628
 21
77.4641165279
 31
0.0
  0
LINE
  5
1E0
330
1F
100
AcDbEntity
  8
0
  6
Continuous
 62
     7
370
    25
100
AcDbLine
 10
214.5745250459
 20
78.9641165279
 30
0.0
 11
216.1745250459
 21
78.9641165279
 31
0.0
  0
LINE
  5
1E1
330
1F
100
AcDbEntity
  8
0
  6
Continuous
 62
     7
370
    25
100
AcDbLine
 10
215.3745250459
 20
43.2641165279
 30
0.0
 11
209.0245250459
 21
43.2641165279
 31
0.0
  0
LINE
  5
1E2
330
1F
100
AcDbEntity
  8
0
  6
Continuous
 62
     7
370
    25
100
AcDbLine
 10
221.7245250459
 20
43.2641165279
 30
0.0
 11
215.3745250459
 21
43.2641165279
 31
0.0
  0
LINE
  5
1E3
330
1F
100
AcDbEntity
  8
0
  6
Continuous
 62
     7
370
    25
100
AcDbLine
 10
207.1245250459
 20
71.0141165279
 30
0.0
 11
223.6245250459
 21
71.0141165279
 31
0.0
  0
SPLINE
  5
1E4
330
1F
100
AcDbEntity
  8
0
  6
Continuous
 62
     7
370
    25
100
AcDbSpline
210
0.0
220
0.0
230
1.0
 70
     8
 71
     3
 72
    11
 73
     7
 74
     0
 42
0.00000001
 43
0.00000001
 40
0.0
 40
0.0
 40
0.0
 40
0.0
 40
0.2843931288920258
 40
0.568786257784059
 40
0.8531793866760864
 40
1.0
 40
1.0
 40
1.0
 40
1.0
 10
216.9526378351937
 20
97.28244039171207
 30
0.0
 10
216.9401713115783
 20
97.37250301256051
 30
0.0
 10
216.9152382643475
 20
97.5526282542574
 30
0.0
 10
216.7517849056174
 20
97.774890857671
 30
0.0
 10
216.5624429671111
 20
97.91419499080814
 30
0.0
 10
216.4267934161323
 20
97.9328354161476
 30
0.0
 10
216.3806071555334
 20
97.93918214959558
 30
0.0
  0
LINE
  5
1E5
330
1F
100
AcDbEntity
  8
0
  6
Continuous
 62
     7
370
    25
100
AcDbLine
 10
212.7765391611
 20
94.4416439012
 30
0.0
 11
212.7690683758
 21
94.4510280537
 31
0.0
  0
ELLIPSE
  5
1E6
330
1F
100
AcDbEntity
  8
0
  6
Continuous
 62
     7
370
    25
100
AcDbEllipse
 10
214.3987762825
 20
97.2641165279
 30
0.0
 11
1.500207016110437
 21
-0.02894030982646712
 31
0.0
210
0.0
220
0.0
230
1.0
 40
0.2796306798
 41
3.072227290001921
 42
3.16688043669349
  0
LINE
  5
1E7
330
1F
100
AcDbEntity
  8
0
  6
Continuous
 62
     7
370
    25
100
AcDbLine
 10
210.1500960918
 20
92.4641165279
 30
0.0
 11
210.1477866217
 21
92.4641165279
 31
0.0
  0
LINE
  5
1E8
330
1F
100
AcDbEntity
  8
0
  6
Continuous
 62
     7
370
    25
100
AcDbLine
 10
220.6012634701
 20
92.4641165279
 30
0.0
 11
220.5989539999
 21
92.4641165279
 31
0.0
  0
LINE
  5
1E9
330
1F
100
AcDbEntity
  8
0
  6
Continuous
 62
     7
370
    25
100
AcDbLine
 10
210.1477866217
 20
87.3521921137
 30
0.0
 11
206.3857174873
 21
87.3521921137
 31
0.0
  0
LINE
  5
1EA
330
1F
100
AcDbEntity
  8
0
  6
Continuous
 62
     7
370
    25
100
AcDbLine
 10
224.3633326045
 20
87.3521921137
 30
0.0
 11
220.6012634701
 21
87.3521921137
 31
0.0
  0
LINE
  5
1EB
330
1F
100
AcDbEntity
  8
0
  6
Continuous
 62
     7
370
    25
100
AcDbLine
 10
216.3745250459
 20
77.9143646684
 30
0.0
 11
223.4195498599
 21
77.9143646684
 31
0.0
  0
LINE
  5
1EC
330
1F
100
AcDbEntity
  8
0
  6
Continuous
 62
     7
370
    25
100
AcDbLine
 10
220.6012634701
 20
87.5757305673
 30
0.0
 11
224.360573291
 21
87.5757305673
 31
0.0
  0
LINE
  5
1ED
330
1F
100
AcDbEntity
  8
0
  6
Continuous
 62
     7
370
    25
100
AcDbLine
 10
206.3884768008
 20
87.5757305673
 30
0.0
 11
210.1477866217
 21
87.5757305673
 31
0.0
  0
LINE
  5
1EE
330
1F
100
AcDbEntity
  8
0
  6
Continuous
 62
     7
370
    25
100
AcDbLine
 10
223.429272875
 20
95.0261338952
 30
0.0
 11
217.9544250274
 21
95.0261338952
 31
0.0
  0
LINE
  5
1EF
330
1F
100
AcDbEntity
  8
0
  6
Continuous
 62
     7
370
    25
100
AcDbLine
 10
212.7946250643
 20
95.0261338952
 30
0.0
 11
207.3197772168
 21
95.0261338952
 31
0.0
  0
LINE
  5
1F0
330
1F
100
AcDbEntity
  8
0
  6
Continuous
 62
     7
370
    25
100
AcDbLine
 10
216.3745250459
 20
78.7641165279
 30
0.0
 11
214.3745250459
 21
78.7641165279
 31
0.0
  0
INSERT
  5
1FC
330
1F
100
AcDbEntity
  8
0
  6
Continuous
 62
     7
370
    18
100
AcDbBlockReference
  2
SW_CENTERMARKSYMBOL_0
 10
215.3745250459
 20
58.2641165279
 30
0.0
  0
LINE
  5
1FD
330
1F
100
AcDbEntity
  8
0
  6
Continuous
 62
     7
370
    25
100
AcDbLine
 10
138.6940453471
 20
148.2786628078
 30
0.0
 11
135.1940453471
 21
148.2786628078
 31
0.0
  0
LINE
  5
1FE
330
1F
100
AcDbEntity
  8
0
  6
Continuous
 62
     7
370
    25
100
AcDbLine
 10
135.1940453471
 20
124.2786628078
 30
0.0
 11
138.6940453471
 21
124.2786628078
 31
0.0
  0
LINE
  5
1FF
330
1F
100
AcDbEntity
  8
0
  6
Continuous
 62
     7
370
    25
100
AcDbLine
 10
135.1940453471
 20
148.2786628078
 30
0.0
 11
134.6940453471
 21
147.7786628078
 31
0.0
  0
LINE
  5
200
330
1F
100
AcDbEntity
  8
0
  6
Continuous
 62
     7
370
    25
100
AcDbLine
 10
134.6940453471
 20
124.7786628078
 30
0.0
 11
135.1940453471
 21
124.2786628078
 31
0.0
  0
LINE
  5
201
330
1F
100
AcDbEntity
  8
0
  6
Continuous
 62
     7
370
    25
100
AcDbLine
 10
127.6940453471
 20
129.9286628078
 30
0.0
 11
134.6940453471
 21
129.9286628078
 31
0.0
  0
LINE
  5
202
330
1F
100
AcDbEntity
  8
0
  6
Continuous
 62
     7
370
    25
100
AcDbLine
 10
134.6940453471
 20
142.6286628078
 30
0.0
 11
127.6940453471
 21
142.6286628078
 31
0.0
  0
LINE
  5
203
330
1F
100
AcDbEntity
  8
0
  6
Continuous
 62
     7
370
    25
100
AcDbLine
 10
127.6940453471
 20
142.6286628078
 30
0.0
 11
112.6940453471
 21
142.6286628078
 31
0.0
  0
LINE
  5
204
330
1F
100
AcDbEntity
  8
0
  6
Continuous
 62
     7
370
    25
100
AcDbLine
 10
112.6940453471
 20
129.9286628078
 30
0.0
 11
127.6940453471
 21
129.9286628078
 31
0.0
  0
LINE
  5
205
330
1F
100
AcDbEntity
  8
0
  6
Continuous
 62
     7
370
    25
100
AcDbLine
 10
164.1940453471
 20
125.5874128078
 30
0.0
 11
176.4976540742
 21
125.9719005806
 31
0.0
  0
LINE
  5
206
330
1F
100
AcDbEntity
  8
0
  6
Continuous
 62
     7
370
    25
100
AcDbLine
 10
176.4976540742
 20
146.5854250351
 30
0.0
 11
164.1940453471
 21
146.9699128078
 31
0.0
  0
LINE
  5
207
330
1F
100
AcDbEntity
  8
0
  6
Continuous
 62
     7
370
    25
100
AcDbLine
 10
176.4976540742
 20
125.9719005806
 30
0.0
 11
179.1940453471
 21
127.5286628078
 31
0.0
  0
LINE
  5
208
330
1F
100
AcDbEntity
  8
0
  6
Continuous
 62
     7
370
    25
100
AcDbLine
 10
179.1940453471
 20
145.0286628078
 30
0.0
 11
176.4976540742
 21
146.5854250351
 31
0.0
  0
LINE
  5
209
330
1F
100
AcDbEntity
  8
0
  6
Continuous
 62
     7
370
    25
100
AcDbLine
 10
101.150219955
 20
135.4086337254
 30
0.0
 11
101.1676389454
 21
135.4086337254
 31
0.0
  0
LINE
  5
20A
330
1F
100
AcDbEntity
  8
0
  6
Continuous
 62
     7
370
    25
100
AcDbLine
 10
129.7283930245
 20
140.8738211673
 30
0.0
 11
128.5361529677
 21
140.0798479289
 31
0.0
  0
LINE
  5
20B
330
1F
100
AcDbEntity
  8
0
  6
Continuous
 62
     7
370
    25
100
AcDbLine
 10
128.5361529084
 20
132.4774775793
 30
0.0
 11
129.7327721804
 21
131.6805880567
 31
0.0
  0
SPLINE
  5
20C
330
1F
100
AcDbEntity
  8
0
  6
Continuous
 62
     7
370
    25
100
AcDbSpline
210
0.0
220
0.0
230
1.0
 70
     8
 71
     3
 72
    11
 73
     7
 74
     0
 42
0.00000001
 43
0.00000001
 40
0.0
 40
0.0
 40
0.0
 40
0.0
 40
0.2485427336868735
 40
0.4982459407376401
 40
0.7488347621401439
 40
1.0
 40
1.0
 40
1.0
 40
1.0
 10
128.5360731256602
 20
140.0799926450036
 30
0.0
 10
128.1147929826041
 20
139.8662274115485
 30
0.0
 10
127.2702656931622
 20
139.4376988512484
 30
0.0
 10
125.9136601259281
 20
138.9990048896351
 30
0.0
 10
124.5155630198017
 20
138.6980759451409
 30
0.0
 10
123.5642071208209
 20
138.6367952610283
 30
0.0
 10
123.0879827111805
 20
138.6061197192619
 30
0.0
  0
SPLINE
  5
20D
330
1F
100
AcDbEntity
  8
0
  6
Continuous
 62
     7
370
    25
100
AcDbSpline
210
0.0
220
0.0
230
1.0
 70
     8
 71
     3
 72
    10
 73
     6
 74
     0
 42
0.00000001
 43
0.00000001
 40
0.0
 40
0.0
 40
0.0
 40
0.0
 40
0.0711023749285983
 40
0.5366329433438182
 40
0.9999999999999999
 40
0.9999999999999999
 40
0.9999999999999999
 40
0.9999999999999999
 10
125.696558038317
 20
133.5787568506523
 30
0.0
 10
125.7675324306703
 20
133.5645304970497
 30
0.0
 10
126.303199447544
 20
133.4571595405309
 30
0.0
 10
127.2684746628279
 20
133.1106698408501
 30
0.0
 10
128.1141969002175
 20
132.6881172024915
 30
0.0
 10
128.5360731256602
 20
132.4773329706948
 30
0.0
  0
LINE
  5
20E
330
1F
100
AcDbEntity
  8
0
  6
Continuous
 62
     7
370
    25
100
AcDbLine
 10
123.0873114386
 20
138.6317545867
 30
0.0
 11
101.4329204088
 21
138.0647144016
 31
0.0
  0
LINE
  5
20F
330
1F
100
AcDbEntity
  8
0
  6
Continuous
 62
     7
370
    25
100
AcDbLine
 10
101.4329239273
 20
134.492611122
 30
0.0
 11
123.0873114386
 21
133.925571029
 31
0.0
  0
SPLINE
  5
210
330
1F
100
AcDbEntity
  8
0
  6
Continuous
 62
     7
370
    25
100
AcDbSpline
210
0.0
220
0.0
230
1.0
 70
     8
 71
     3
 72
    12
 73
     8
 74
     0
 42
0.00000001
 43
0.00000001
 40
0.0
 40
0.0
 40
0.0
 40
0.0
 40
0.1094560532076418
 40
0.328801906659838
 40
0.5859535946889363
 40
0.8426599111012716
 40
1.0
 40
1.0
 40
1.0
 40
1.0
 10
96.39458382443885
 20
135.1938020936189
 30
0.0
 10
96.40908593752206
 20
135.1620996764463
 30
0.0
 10
96.45264974502854
 20
135.0668667961568
 30
0.0
 10
96.58237310762588
 20
134.9336807927072
 30
0.0
 10
96.76941026829601
 20
134.8097693014859
 30
0.0
 10
96.96740165903292
 20
134.730018637758
 30
0.0
 10
97.10305429015834
 20
134.7190480599215
 30
0.0
 10
97.15460309427024
 20
134.7148791752991
 30
0.0
  0
SPLINE
  5
211
330
1F
100
AcDbEntity
  8
0
  6
Continuous
 62
     7
370
    25
100
AcDbSpline
210
0.0
220
0.0
230
1.0
 70
     8
 71
     3
 72
    12
 73
     8
 74
     0
 42
0.00000001
 43
0.00000001
 40
0.0
 40
0.0
 40
0.0
 40
0.0
 40
0.0693394989207537
 40
0.2378349238555149
 40
0.463770012206893
 40
0.7597352359510735
 40
1.0
 40
1.0
 40
1.0
 40
1.0
 10
97.15451469108417
 20
137.8422130118404
 30
0.0
 10
97.1318305033179
 20
137.8421173498642
 30
0.0
 10
97.05402359449842
 20
137.8417892286755
 30
0.0
 10
96.90817029010626
 20
137.801637904323
 30
0.0
 10
96.71262735971247
 20
137.7180464731698
 30
0.0
 10
96.51929769797296
 20
137.5778162511009
 30
0.0
 10
96.43066922154323
 20
137.4329327541967
 30
0.0
 10
96.39095808926389
 20
137.3680158342356
 30
0.0
  0
SPLINE
  5
212
330
1F
100
AcDbEntity
  8
0
  6
Continuous
 62
     7
370
    25
100
AcDbSpline
210
0.0
220
0.0
230
1.0
 70
     8
 71
     3
 72
    10
 73
     6
 74
     0
 42
0.00000001
 43
0.00000001
 40
0.0
 40
0.0
 40
0.0
 40
0.0
 40
0.2213642164100681
 40
0.6160518573010522
 40
1.0
 40
1.0
 40
1.0
 40
1.0
 10
96.38943236615917
 20
137.3670927466494
 30
0.0
 10
96.36322254345767
 20
137.3077510392534
 30
0.0
 10
96.29028117011084
 20
137.1426043427835
 30
0.0
 10
96.21220099322892
 20
136.8314465211662
 30
0.0
 10
96.20004132421822
 20
136.5693494320586
 30
0.0
 10
96.194045347112
 20
136.4401084021823
 30
0.0
  0
SPLINE
  5
213
330
1F
100
AcDbEntity
  8
0
  6
Continuous
 62
     7
370
    25
100
AcDbSpline
210
0.0
220
0.0
230
1.0
 70
     8
 71
     3
 72
    11
 73
     7
 74
     0
 42
0.00000001
 43
0.00000001
 40
0.0
 40
0.0
 40
0.0
 40
0.0
 40
0.1972293123991073
 40
0.5739467320720877
 40
0.9545420366997606
 40
1.0
 40
1.0
 40
1.0
 40
1.0
 10
96.194045347112
 20
136.1172172135161
 30
0.0
 10
96.19563221665939
 20
136.0508848074943
 30
0.0
 10
96.20025008293831
 20
135.8578543334557
 30
0.0
 10
96.25199719214339
 20
135.5466373539911
 30
0.0
 10
96.3304033551412
 20
135.3136543299224
 30
0.0
 10
96.38374143360276
 20
135.2021318183577
 30
0.0
 10
96.38943236615916
 20
135.190232869049
 30
0.0
  0
LINE
  5
214
330
1F
100
AcDbEntity
  8
0
  6
Continuous
 62
     7
370
    25
100
AcDbLine
 10
96.1940453471
 20
136.4401084022
 30
0.0
 11
96.1940453471
 21
136.1172172135
 31
0.0
  0
ARC
  5
215
330
1F
100
AcDbEntity
  8
0
  6
Continuous
 62
     7
370
    25
100
AcDbCircle
 10
151.6940453471
 20
136.2786628078
 30
0.0
 40
8.993770368365603
100
AcDbArc
 50
200.7404376969
 51
90.0
  0
ARC
  5
216
330
1F
100
AcDbEntity
  8
0
  6
Continuous
 62
     7
370
    25
100
AcDbCircle
 10
151.6940453471
 20
136.2786628078
 30
0.0
 40
8.993770368365603
100
AcDbArc
 50
90.0
 51
159.2561894206
  0
LINE
  5
217
330
1F
100
AcDbEntity
  8
0
  6
Continuous
 62
     7
370
    25
100
AcDbLine
 10
135.1940453471
 20
131.3905458897
 30
0.0
 11
135.1940453471
 21
124.2786628078
 31
0.0
  0
LINE
  5
218
330
1F
100
AcDbEntity
  8
0
  6
Continuous
 62
     7
370
    25
100
AcDbLine
 10
135.1940453471
 20
148.2786628078
 30
0.0
 11
135.1940453471
 21
141.166779726
 31
0.0
  0
LINE
  5
219
330
1F
100
AcDbEntity
  8
0
  6
Continuous
 62
     7
370
    25
100
AcDbLine
 10
134.6940453471
 20
141.1390019483
 30
0.0
 11
134.6940453471
 21
147.7786628078
 31
0.0
  0
LINE
  5
21A
330
1F
100
AcDbEntity
  8
0
  6
Continuous
 62
     7
370
    25
100
AcDbLine
 10
134.6940453471
 20
124.7786628078
 30
0.0
 11
134.6940453471
 21
131.4183236674
 31
0.0
  0
ARC
  5
21B
330
1F
100
AcDbEntity
  8
0
  6
Continuous
 62
     7
370
    25
100
AcDbCircle
 10
112.6940453471
 20
136.2786628078
 30
0.0
 40
6.350000000000006
100
AcDbArc
 50
90.0
 51
162.3771983749
  0
ARC
  5
21C
330
1F
100
AcDbEntity
  8
0
  6
Continuous
 62
     7
370
    25
100
AcDbCircle
 10
112.6940453471
 20
136.2786628078
 30
0.0
 40
6.35000000000001
100
AcDbArc
 50
197.6228016251
 51
270.0
  0
SPLINE
  5
21D
330
1F
100
AcDbEntity
  8
0
  6
Continuous
 62
     7
370
    25
100
AcDbSpline
210
0.0
220
0.0
230
1.0
 70
     8
 71
     3
 72
    12
 73
     8
 74
     0
 42
0.00000001
 43
0.00000001
 40
0.0
 40
0.0
 40
0.0
 40
0.0
 40
0.2500000000000001
 40
0.2500000000000001
 40
0.5000000000000001
 40
0.5000000000000001
 40
1.0
 40
1.0
 40
1.0
 40
1.0
 10
162.6063321068405
 20
145.0143654126773
 30
0.0
 10
162.8397830816919
 20
144.3084895651228
 30
0.0
 10
163.0566299508328
 20
143.5957878705631
 30
0.0
 10
163.4456136020365
 20
142.1520044362124
 30
0.0
 10
163.6159774022049
 20
141.4269968607805
 30
0.0
 10
164.0366292355437
 20
139.2413938942346
 30
0.0
 10
164.194045347112
 20
137.7695083235321
 30
0.0
 10
164.194045347112
 20
136.2786628078492
 30
0.0
  0
LINE
  5
21E
330
1F
100
AcDbEntity
  8
0
  6
Continuous
 62
     7
370
    25
100
AcDbLine
 10
162.6063321068
 20
148.7786628078
 30
0.0
 11
162.6063321068
 21
145.0143654127
 31
0.0
  0
SPLINE
  5
21F
330
1F
100
AcDbEntity
  8
0
  6
Continuous
 62
     7
370
    25
100
AcDbSpline
210
0.0
220
0.0
230
1.0
 70
    24
 71
     3
 72
    12
 73
     8
 74
     0
 42
0.00000001
 43
0.00000001
 40
0.0
 40
0.0
 40
0.0
 40
0.0
 40
0.25
 40
0.25
 40
0.5
 40
0.5
 40
1.0
 40
1.0
 40
1.0
 40
1.0
 10
164.194045347112
 20
148.7786628078492
 30
0.0
 10
164.194045347112
 20
148.7786628078492
 30
0.0
 10
164.1546958215612
 20
148.7786628078492
 30
0.0
 10
164.0040363121875
 20
148.7786628078492
 30
0.0
 10
163.8931281294828
 20
148.7786628078492
 30
0.0
 10
163.471879104488
 20
148.7786628078492
 30
0.0
 10
163.0741866158755
 20
148.7786628078492
 30
0.0
 10
162.6063321068405
 20
148.7786628078492
 30
0.0
  0
LINE
  5
220
330
1F
100
AcDbEntity
  8
0
  6
Continuous
 62
     7
370
    25
100
AcDbLine
 10
164.1940453471
 20
148.7786628078
 30
0.0
 11
164.1940453471
 21
136.2786628078
 31
0.0
  0
LINE
  5
221
330
1F
100
AcDbEntity
  8
0
  6
Continuous
 62
     7
370
    25
100
AcDbLine
 10
140.2817585874
 20
145.0143654127
 30
0.0
 11
140.2817585874
 21
148.7786628078
 31
0.0
  0
SPLINE
  5
222
330
1F
100
AcDbEntity
  8
0
  6
Continuous
 62
     7
370
    25
100
AcDbSpline
210
0.0
220
0.0
230
1.0
 70
     8
 71
     3
 72
     9
 73
     5
 74
     0
 42
0.00000001
 43
0.00000001
 40
0.0
 40
0.0
 40
0.0
 40
0.0
 40
0.4308597066807026
 40
1.0
 40
1.0
 40
1.0
 40
1.0
 10
139.2773858174641
 20
141.3936319743992
 30
0.0
 10
139.3995783526301
 20
141.9196708094406
 30
0.0
 10
139.683180029165
 20
143.1405759599686
 30
0.0
 10
140.0646491436648
 20
144.3347263241434
 30
0.0
 10
140.2817585873835
 20
145.0143654126773
 30
0.0
  0
LINE
  5
223
330
1F
100
AcDbEntity
  8
0
  6
Continuous
 62
     7
370
    25
100
AcDbLine
 10
138.6940453471
 20
141.3612241705
 30
0.0
 11
138.6940453471
 21
148.7786628078
 31
0.0
  0
SPLINE
  5
224
330
1F
100
AcDbEntity
  8
0
  6
Continuous
 62
     7
370
    25
100
AcDbSpline
210
0.0
220
0.0
230
1.0
 70
    24
 71
     3
 72
    12
 73
     8
 74
     0
 42
0.00000001
 43
0.00000001
 40
0.0
 40
0.0
 40
0.0
 40
0.0
 40
0.25
 40
0.25
 40
0.5
 40
0.5
 40
1.0
 40
1.0
 40
1.0
 40
1.0
 10
138.694045347112
 20
148.7786628078492
 30
0.0
 10
138.694045347112
 20
148.7786628078492
 30
0.0
 10
138.7334384324816
 20
148.7786628078492
 30
0.0
 10
138.884069835247
 20
148.7786628078492
 30
0.0
 10
138.9949502644188
 20
148.7786628078492
 30
0.0
 10
139.4161376703832
 20
148.7786628078492
 30
0.0
 10
139.8138254158629
 20
148.7786628078492
 30
0.0
 10
140.2817585873835
 20
148.7786628078492
 30
0.0
  0
LINE
  5
225
330
1F
100
AcDbEntity
  8
0
  6
Continuous
 62
     7
370
    25
100
AcDbLine
 10
162.6063321068
 20
145.0143654127
 30
0.0
 11
153.833065085
 21
145.0143654127
 31
0.0
  0
LINE
  5
226
330
1F
100
AcDbEntity
  8
0
  6
Continuous
 62
     7
370
    25
100
AcDbLine
 10
149.5550256093
 20
145.0143654127
 30
0.0
 11
140.2817585874
 21
145.0143654127
 31
0.0
  0
LINE
  5
227
330
1F
100
AcDbEntity
  8
0
  6
Continuous
 62
     7
370
    25
100
AcDbLine
 10
162.6063321068
 20
148.7786628078
 30
0.0
 11
140.2817585874
 21
148.7786628078
 31
0.0
  0
SPLINE
  5
228
330
1F
100
AcDbEntity
  8
0
  6
Continuous
 62
     7
370
    25
100
AcDbSpline
210
0.0
220
0.0
230
1.0
 70
     8
 71
     3
 72
    12
 73
     8
 74
     0
 42
0.00000001
 43
0.00000001
 40
0.0
 40
0.0
 40
0.0
 40
0.0
 40
0.2500000000000001
 40
0.2500000000000001
 40
0.5000000000000001
 40
0.5000000000000001
 40
1.0
 40
1.0
 40
1.0
 40
1.0
 10
164.194045347112
 20
136.2786628078492
 30
0.0
 10
164.194045347112
 20
135.5338354594004
 30
0.0
 10
164.1546958215612
 20
134.7820109818187
 30
0.0
 10
164.0040363121875
 20
133.3008481804924
 30
0.0
 10
163.8931281294828
 20
132.5677292700438
 30
0.0
 10
163.471879104488
 20
130.3869403360762
 30
0.0
 10
163.0741866158755
 20
128.9575921115298
 30
0.0
 10
162.6063321068405
 20
127.5429602030211
 30
0.0
  0
LINE
  5
229
330
1F
100
AcDbEntity
  8
0
  6
Continuous
 62
     7
370
    25
100
AcDbLine
 10
162.6063321068
 20
127.542960203
 30
0.0
 11
153.833065085
 21
127.542960203
 31
0.0
  0
LINE
  5
22A
330
1F
100
AcDbEntity
  8
0
  6
Continuous
 62
     7
370
    25
100
AcDbLine
 10
149.5550256093
 20
127.542960203
 30
0.0
 11
140.2817585874
 21
127.542960203
 31
0.0
  0
SPLINE
  5
22B
330
1F
100
AcDbEntity
  8
0
  6
Continuous
 62
     7
370
    25
100
AcDbSpline
210
0.0
220
0.0
230
1.0
 70
     8
 71
     3
 72
     9
 73
     5
 74
     0
 42
0.00000001
 43
0.00000001
 40
0.0
 40
0.0
 40
0.0
 40
0.0
 40
0.5268904349897648
 40
1.0
 40
1.0
 40
1.0
 40
1.0
 10
140.2817585873835
 20
127.5429602030211
 30
0.0
 10
140.0799652965225
 20
128.171690329527
 30
0.0
 10
139.6969762015223
 20
129.3649747104022
 30
0.0
 10
139.4144814096707
 20
130.5858802063142
 30
0.0
 10
139.2808304215801
 20
131.1635022744037
 30
0.0
  0
SPLINE
  5
22C
330
1F
100
AcDbEntity
  8
0
  6
Continuous
 62
     7
370
    25
100
AcDbSpline
210
0.0
220
0.0
230
1.0
 70
    24
 71
     3
 72
    12
 73
     8
 74
     0
 42
0.00000001
 43
0.00000001
 40
0.0
 40
0.0
 40
0.0
 40
0.0
 40
0.2500000000000001
 40
0.2500000000000001
 40
0.5
 40
0.5
 40
1.0
 40
1.0
 40
1.0
 40
1.0
 10
164.194045347112
 20
123.7786628078492
 30
0.0
 10
164.194045347112
 20
123.7786628078492
 30
0.0
 10
164.1546958215612
 20
123.7786628078492
 30
0.0
 10
164.0040363121875
 20
123.7786628078492
 30
0.0
 10
163.8931281294828
 20
123.7786628078492
 30
0.0
 10
163.471879104488
 20
123.7786628078492
 30
0.0
 10
163.0741866158755
 20
123.7786628078492
 30
0.0
 10
162.6063321068405
 20
123.7786628078492
 30
0.0
  0
LINE
  5
22D
330
1F
100
AcDbEntity
  8
0
  6
Continuous
 62
     7
370
    25
100
AcDbLine
 10
162.6063321068
 20
127.542960203
 30
0.0
 11
162.6063321068
 21
123.7786628078
 31
0.0
  0
LINE
  5
22E
330
1F
100
AcDbEntity
  8
0
  6
Continuous
 62
     7
370
    25
100
AcDbLine
 10
164.1940453471
 20
136.2786628078
 30
0.0
 11
164.1940453471
 21
123.7786628078
 31
0.0
  0
LINE
  5
22F
330
1F
100
AcDbEntity
  8
0
  6
Continuous
 62
     7
370
    25
100
AcDbLine
 10
140.2817585874
 20
123.7786628078
 30
0.0
 11
140.2817585874
 21
127.542960203
 31
0.0
  0
SPLINE
  5
230
330
1F
100
AcDbEntity
  8
0
  6
Continuous
 62
     7
370
    25
100
AcDbSpline
210
0.0
220
0.0
230
1.0
 70
    24
 71
     3
 72
    12
 73
     8
 74
     0
 42
0.00000001
 43
0.00000001
 40
0.0
 40
0.0
 40
0.0
 40
0.0
 40
0.2500000000000001
 40
0.2500000000000001
 40
0.5000000000000001
 40
0.5000000000000001
 40
1.0
 40
1.0
 40
1.0
 40
1.0
 10
138.694045347112
 20
123.7786628078492
 30
0.0
 10
138.694045347112
 20
123.7786628078492
 30
0.0
 10
138.7334384324816
 20
123.7786628078492
 30
0.0
 10
138.884069835247
 20
123.7786628078492
 30
0.0
 10
138.9949502644188
 20
123.7786628078492
 30
0.0
 10
139.4161376703832
 20
123.7786628078492
 30
0.0
 10
139.8138254158629
 20
123.7786628078492
 30
0.0
 10
140.2817585873835
 20
123.7786628078492
 30
0.0
  0
LINE
  5
231
330
1F
100
AcDbEntity
  8
0
  6
Continuous
 62
     7
370
    25
100
AcDbLine
 10
138.6940453471
 20
123.7786628078
 30
0.0
 11
138.6940453471
 21
131.1961014452
 31
0.0
  0
LINE
  5
232
330
1F
100
AcDbEntity
  8
0
  6
Continuous
 62
     7
370
    25
100
AcDbLine
 10
162.6063321068
 20
123.7786628078
 30
0.0
 11
140.2817585874
 21
123.7786628078
 31
0.0
  0
LINE
  5
233
330
1F
100
AcDbEntity
  8
0
  6
Continuous
 62
     7
370
    25
100
AcDbLine
 10
176.4976540742
 20
125.9719005806
 30
0.0
 11
176.4976540742
 21
146.5854250351
 31
0.0
  0
LINE
  5
234
330
1F
100
AcDbEntity
  8
0
  6
Continuous
 62
     7
370
    25
100
AcDbLine
 10
179.1940453471
 20
145.0286628078
 30
0.0
 11
179.1940453471
 21
127.5286628078
 31
0.0
  0
LINE
  5
235
330
1F
100
AcDbEntity
  8
0
  6
Continuous
 62
     7
370
    25
100
AcDbLine
 10
149.4565613256
 20
135.3033902629
 30
0.0
 11
149.4237657986
 21
135.3221343021
 31
0.0
  0
SPLINE
  5
236
330
1F
100
AcDbEntity
  8
0
  6
Continuous
 62
     7
370
    25
100
AcDbSpline
210
0.0
220
0.0
230
1.0
 70
     8
 71
     3
 72
    15
 73
    11
 74
     0
 42
0.00000001
 43
0.00000001
 40
0.0
 40
0.0
 40
0.0
 40
0.0
 40
0.1241930067305288
 40
0.2496556654892296
 40
0.3743703853151211
 40
0.4998404796364202
 40
0.6240146704162363
 40
0.7475381382242062
 40
0.8745858500551816
 40
1.0
 40
1.0
 40
1.0
 40
1.0
 10
150.2368510472425
 20
135.575829913435
 30
0.0
 10
150.2212906521328
 20
135.5399827106911
 30
0.0
 10
150.1900107846213
 20
135.4679218314793
 30
0.0
 10
150.1125744251329
 20
135.3780463181364
 30
0.0
 10
150.019220421394
 20
135.305722540342
 30
0.0
 10
149.911994815373
 20
135.2567951218375
 30
0.0
 10
149.7976089046521
 20
135.2304670683827
 30
0.0
 10
149.6799381417668
 20
135.2296079743801
 30
0.0
 10
149.5630544165416
 20
135.2509907350097
 30
0.0
 10
149.4919055656468
 20
135.2859992614705
 30
0.0
 10
149.4565613255634
 20
135.3033902628519
 30
0.0
  0
LINE
  5
237
330
1F
100
AcDbEntity
  8
0
  6
Continuous
 62
     7
370
    25
100
AcDbLine
 10
151.2287050919
 20
138.3494091293
 30
0.0
 11
150.2368510472
 21
135.5758299134
 31
0.0
  0
SPLINE
  5
238
330
1F
100
AcDbEntity
  8
0
  6
Continuous
 62
     7
370
    25
100
AcDbSpline
210
0.0
220
0.0
230
1.0
 70
     8
 71
     3
 72
    15
 73
    11
 74
     0
 42
0.00000001
 43
0.00000001
 40
0.0
 40
0.0
 40
0.0
 40
0.0
 40
0.1233025178081761
 40
0.2485158700387114
 40
0.3756924668130948
 40
0.4999990880429331
 40
0.6243057092728396
 40
0.7514823060473043
 40
0.8766757256079959
 40
1.0
 40
1.0
 40
1.0
 40
1.0
 10
152.1593856054637
 20
138.3494091293483
 30
0.0
 10
152.1352346335013
 20
138.3900542652841
 30
0.0
 10
152.0865584189666
 20
138.471974419872
 30
0.0
 10
151.9712077607614
 20
138.5617933756844
 30
0.0
 10
151.8380481384996
 20
138.6193675238456
 30
0.0
 10
151.6940454951308
 20
138.6385262195157
 30
0.0
 10
151.5500419664323
 20
138.6193681166306
 30
0.0
 10
151.4168920934668
 20
138.5617940028921
 30
0.0
 10
151.3015297359323
 20
138.4719884407454
 30
0.0
 10
151.2528579502612
 20
138.3900635092206
 30
0.0
 10
151.2287050919444
 20
138.3494091293485
 30
0.0
  0
LINE
  5
239
330
1F
100
AcDbEntity
  8
0
  6
Continuous
 62
     7
370
    25
100
AcDbLine
 10
153.1510085118
 20
135.576476259
 30
0.0
 11
152.1593856055
 21
138.3494091293
 31
0.0
  0
SPLINE
  5
23A
330
1F
100
AcDbEntity
  8
0
  6
Continuous
 62
     7
370
    25
100
AcDbSpline
210
0.0
220
0.0
230
1.0
 70
     8
 71
     3
 72
    15
 73
    11
 74
     0
 42
0.00000001
 43
0.00000001
 40
0.0
 40
0.0
 40
0.0
 40
0.0
 40
0.1253320172137755
 40
0.2522975129251765
 40
0.3758847553984062
 40
0.5001929511416483
 40
0.6255758307380151
 40
0.7502289462456482
 40
0.8757444935777828
 40
1.0
 40
1.0
 40
1.0
 40
1.0
 10
153.9237102763775
 20
135.299780408394
 30
0.0
 10
153.8884593597495
 20
135.2831060999113
 30
0.0
 10
153.8174980938951
 20
135.249540163182
 30
0.0
 10
153.7015112031067
 20
135.2297585469279
 30
0.0
 10
153.5849148368664
 20
135.2318313272744
 30
0.0
 10
153.4717942302849
 20
135.258909353625
 30
0.0
 10
153.3659185159454
 20
135.3081221693322
 30
0.0
 10
153.2738094313263
 20
135.3802079332061
 30
0.0
 10
153.1973777674579
 20
135.4694954547055
 30
0.0
 10
153.1664128599586
 20
135.5409361251426
 30
0.0
 10
153.1510085118373
 20
135.5764762590006
 30
0.0
  0
LINE
  5
23B
330
1F
100
AcDbEntity
  8
0
  6
Continuous
 62
     7
370
    25
100
AcDbLine
 10
153.9643248988
 20
135.3221343021
 30
0.0
 11
153.9237102764
 21
135.2997804084
 31
0.0
  0
LINE
  5
23C
330
1F
100
AcDbEntity
  8
0
  6
Continuous
 62
     7
370
    25
100
AcDbLine
 10
153.3373417024
 20
134.1267231986
 30
0.0
 11
153.9643248988
 21
135.3221343021
 31
0.0
  0
SPLINE
  5
23D
330
1F
100
AcDbEntity
  8
0
  6
Continuous
 62
     7
370
    25
100
AcDbSpline
210
0.0
220
0.0
230
1.0
 70
     8
 71
     3
 72
    15
 73
    11
 74
     0
 42
0.00000001
 43
0.00000001
 40
0.0
 40
0.0
 40
0.0
 40
0.0
 40
0.1246332186438571
 40
0.2519059530189798
 40
0.3765391000744966
 40
0.4994035903146521
 40
0.6264494152300174
 40
0.7526064410610431
 40
0.8746804377363274
 40
1.0
 40
1.0
 40
1.0
 40
1.0
 10
153.2321132135685
 20
134.1086060318966
 30
0.0
 10
153.2361276892366
 20
134.1055007970439
 30
0.0
 10
153.2442416602153
 20
134.0992245638421
 30
0.0
 10
153.2586802520518
 20
134.0936115503622
 30
0.0
 10
153.2738137019849
 20
134.0910751977354
 30
0.0
 10
153.2891762442667
 20
134.0919606013033
 30
0.0
 10
153.3041068231034
 20
134.0960916718189
 30
0.0
 10
153.3176087231327
 20
134.1035823717648
 30
0.0
 10
153.3292943780191
 20
134.1137209536791
 30
0.0
 10
153.3346359023598
 20
134.1223513760219
 30
0.0
 10
153.3373417023616
 20
134.1267231986142
 30
0.0
  0
SPLINE
  5
23E
330
1F
100
AcDbEntity
  8
0
  6
Continuous
 62
     7
370
    25
100
AcDbSpline
210
0.0
220
0.0
230
1.0
 70
     8
 71
     3
 72
    11
 73
     7
 74
     0
 42
0.00000001
 43
0.00000001
 40
0.0
 40
0.0
 40
0.0
 40
0.0
 40
0.250625260598601
 40
0.4999999999996214
 40
0.7493747394010042
 40
1.0
 40
1.0
 40
1.0
 40
1.0
 10
150.1559774838396
 20
134.1086060318965
 30
0.0
 10
150.3857051780129
 20
134.2714603238575
 30
0.0
 10
150.8440143157759
 20
134.5963563290964
 30
0.0
 10
151.694045348712
 20
134.7300882760335
 30
0.0
 10
152.5440763816422
 20
134.5963563290912
 30
0.0
 10
153.0023855193985
 20
134.2714603238558
 30
0.0
 10
153.2321132135685
 20
134.1086060318966
 30
0.0
  0
SPLINE
  5
23F
330
1F
100
AcDbEntity
  8
0
  6
Continuous
 62
     7
370
    25
100
AcDbSpline
210
0.0
220
0.0
230
1.0
 70
     8
 71
     3
 72
    15
 73
    11
 74
     0
 42
0.00000001
 43
0.00000001
 40
0.0
 40
0.0
 40
0.0
 40
0.0
 40
0.125319195797913
 40
0.2473928354984057
 40
0.3734492416489697
 40
0.5005950046079961
 40
0.6235484391777629
 40
0.7480947836179478
 40
0.875367145815393
 40
1.0
 40
1.0
 40
1.0
 40
1.0
 10
150.0507489950464
 20
134.1267231986142
 30
0.0
 10
150.0534547913788
 20
134.1223513703303
 30
0.0
 10
150.058796308476
 20
134.1137209367515
 30
0.0
 10
150.0704788810651
 20
134.1035851592517
 30
0.0
 10
150.0839798610523
 20
134.0960930433781
 30
0.0
 10
150.0989138899024
 20
134.0919605980859
 30
0.0
 10
150.1142809010914
 20
134.0910726563124
 30
0.0
 10
150.1294136375297
 20
134.0936135985699
 30
0.0
 10
150.1438490673113
 20
134.0992243768371
 30
0.0
 10
150.1519630181406
 20
134.1055007351459
 30
0.0
 10
150.1559774838395
 20
134.1086060318965
 30
0.0
  0
LINE
  5
240
330
1F
100
AcDbEntity
  8
0
  6
Continuous
 62
     7
370
    25
100
AcDbLine
 10
149.4237657986
 20
135.3221343021
 30
0.0
 11
150.050748995
 21
134.1267231986
 31
0.0
  0
SPLINE
  5
241
330
1F
100
AcDbEntity
  8
0
  6
Continuous
 62
     7
370
    25
100
AcDbSpline
210
0.0
220
0.0
230
1.0
 70
     8
 71
     3
 72
    15
 73
    11
 74
     0
 42
0.00000001
 43
0.00000001
 40
0.0
 40
0.0
 40
0.0
 40
0.0
 40
0.1233867499278388
 40
0.2487396502211602
 40
0.3739317114754985
 40
0.4999973617625659
 40
0.6259591330513601
 40
0.7512551380600303
 40
0.8765613478174267
 40
1.0
 40
1.0
 40
1.0
 40
1.0
 10
151.6311624823059
 20
136.300072265992
 30
0.0
 10
151.6340406834978
 20
136.306087062075
 30
0.0
 10
151.6398429496094
 20
136.3182124991636
 30
0.0
 10
151.6553723543302
 20
136.3316037595137
 30
0.0
 10
151.6737269362036
 20
136.3404814710937
 30
0.0
 10
151.6940397526865
 20
136.3432381343901
 30
0.0
 10
151.7143581704016
 20
136.3404834531895
 30
0.0
 10
151.7327110395657
 20
136.3316077549001
 30
0.0
 10
151.7482491439612
 20
136.3182173876463
 30
0.0
 10
151.7540497059925
 20
136.3060902901003
 30
0.0
 10
151.7569282119181
 20
136.300072265992
 30
0.0
  0
LINE
  5
242
330
1F
100
AcDbEntity
  8
0
  6
Continuous
 62
     7
370
    25
100
AcDbLine
 10
151.3920489566
 20
135.6618182367
 30
0.0
 11
151.6311624823
 21
136.300072266
 31
0.0
  0
SPLINE
  5
243
330
1F
100
AcDbEntity
  8
0
  6
Continuous
 62
     7
370
    25
100
AcDbSpline
210
0.0
220
0.0
230
1.0
 70
     8
 71
     3
 72
    15
 73
    11
 74
     0
 42
0.00000001
 43
0.00000001
 40
0.0
 40
0.0
 40
0.0
 40
0.0
 40
0.1261585224210642
 40
0.25131214515488
 40
0.376284684878379
 40
0.4993062783340883
 40
0.6261594278645745
 40
0.752117134202131
 40
0.87581969226928
 40
1.0
 40
1.0
 40
1.0
 40
1.0
 10
151.4549318214342
 20
135.5767538833695
 30
0.0
 10
151.4497007249455
 20
135.5770761899618
 30
0.0
 10
151.4392801996029
 20
135.5777182358543
 30
0.0
 10
151.4244936490885
 20
135.5831664762295
 30
0.0
 10
151.411303296463
 20
135.5913890788151
 30
0.0
 10
151.4004327216217
 20
135.6026456851277
 30
0.0
 10
151.3924251342932
 20
135.6161664304688
 30
0.0
 10
151.3882585072605
 20
135.6313033180456
 30
0.0
 10
151.3876374557489
 20
135.6469924496167
 30
0.0
 10
151.3905765681037
 20
135.6568699619754
 30
0.0
 10
151.3920489565864
 20
135.6618182367194
 30
0.0
  0
LINE
  5
244
330
1F
100
AcDbEntity
  8
0
  6
Continuous
 62
     7
370
    25
100
AcDbLine
 10
151.9331588756
 20
135.5767538834
 30
0.0
 11
151.4549318214
 21
135.5767538834
 31
0.0
  0
SPLINE
  5
245
330
1F
100
AcDbEntity
  8
0
  6
Continuous
 62
     7
370
    25
100
AcDbSpline
210
0.0
220
0.0
230
1.0
 70
     8
 71
     3
 72
    15
 73
    11
 74
     0
 42
0.00000001
 43
0.00000001
 40
0.0
 40
0.0
 40
0.0
 40
0.0
 40
0.1241186784437693
 40
0.247847491662898
 40
0.3736574149478939
 40
0.5005082335853293
 40
0.6234527658309921
 40
0.7484986612277522
 40
0.8736976492452766
 40
1.0
 40
1.0
 40
1.0
 40
1.0
 10
151.9960417403636
 20
135.6618182369425
 30
0.0
 10
151.9975128129724
 20
135.6568723912844
 30
0.0
 10
152.0004503374508
 20
135.6469962352062
 30
0.0
 10
151.9998336029507
 20
135.6313148395805
 30
0.0
 10
151.9956716413561
 20
135.6161823075003
 30
0.0
 10
151.9876728935577
 20
135.6026673998858
 30
0.0
 10
151.9768068020209
 20
135.5914073386898
 30
0.0
 10
151.9636190841962
 20
135.5831776262563
 30
0.0
 10
151.948824637621
 20
135.5777180558713
 30
0.0
 10
151.9383960467137
 20
135.5770762128143
 30
0.0
 10
151.9331588755993
 20
135.5767538833695
 30
0.0
  0
LINE
  5
246
330
1F
100
AcDbEntity
  8
0
  6
Continuous
 62
     7
370
    25
100
AcDbLine
 10
151.7569282119
 20
136.300072266
 30
0.0
 11
151.9960417404
 21
135.6618182369
 31
0.0
  0
CIRCLE
  5
247
330
1F
100
AcDbEntity
  8
0
  6
Continuous
 62
     7
370
    25
100
AcDbCircle
 10
151.6940453471
 20
136.2786628078
 30
0.0
 40
4.5
  0
LINE
  5
248
330
1F
100
AcDbEntity
  8
0
  6
Continuous
 62
     7
370
    25
100
AcDbLine
 10
138.3940453471
 20
135.2662465732
 30
0.0
 11
138.3940453471
 21
137.2910790425
 31
0.0
  0
SPLINE
  5
249
330
1F
100
AcDbEntity
  8
0
  6
Continuous
 62
     7
370
    25
100
AcDbSpline
210
0.0
220
0.0
230
1.0
 70
     8
 71
     3
 72
    11
 73
     7
 74
     0
 42
0.00000001
 43
0.00000001
 40
0.0
 40
0.0
 40
0.0
 40
0.0
 40
0.2561894651307311
 40
0.5096044939206912
 40
0.7692742066553653
 40
1.0
 40
1.0
 40
1.0
 40
1.0
 10
138.394045347112
 20
135.2662465732158
 30
0.0
 10
138.3184492148181
 20
135.2067345325674
 30
0.0
 10
138.1680756281434
 20
135.088354944471
 30
0.0
 10
137.8688628421882
 20
134.9177174023356
 30
0.0
 10
137.5413431073014
 20
134.7660934914349
 30
0.0
 10
137.3051647264876
 20
134.6866574557637
 30
0.0
 10
137.194045347112
 20
134.6492836582408
 30
0.0
  0
LINE
  5
24A
330
1F
100
AcDbEntity
  8
0
  6
Continuous
 62
     7
370
    25
100
AcDbLine
 10
137.1940453471
 20
137.9080419575
 30
0.0
 11
137.1940453471
 21
134.6492836582
 31
0.0
  0
SPLINE
  5
24B
330
1F
100
AcDbEntity
  8
0
  6
Continuous
 62
     7
370
    25
100
AcDbSpline
210
0.0
220
0.0
230
1.0
 70
     8
 71
     3
 72
    11
 73
     7
 74
     0
 42
0.00000001
 43
0.00000001
 40
0.0
 40
0.0
 40
0.0
 40
0.0
 40
0.2307374805224078
 40
0.490395540300584
 40
0.743810552073064
 40
1.0
 40
1.0
 40
1.0
 40
1.0
 10
137.194045347112
 20
137.9080419574576
 30
0.0
 10
137.3051705808684
 20
137.8706667665446
 30
0.0
 10
137.5413494579439
 20
137.7912317874501
 30
0.0
 10
137.868867098895
 20
137.6396051076864
 30
0.0
 10
138.1680756955575
 20
137.468970802738
 30
0.0
 10
138.3184492373709
 20
137.3505911271267
 30
0.0
 10
138.394045347112
 20
137.2910790424827
 30
0.0
  0
LINE
  5
24C
330
1F
100
AcDbEntity
  8
0
  6
Continuous
 62
     7
370
    25
100
AcDbLine
 10
136.5888171336
 20
134.5025023881
 30
0.0
 11
102.3120793359
 21
135.4000703557
 31
0.0
  0
LINE
  5
24D
330
1F
100
AcDbEntity
  8
0
  6
Continuous
 62
     7
370
    25
100
AcDbLine
 10
102.3120793359
 20
135.4000703557
 30
0.0
 11
102.3120793359
 21
137.15725526
 31
0.0
  0
LINE
  5
24E
330
1F
100
AcDbEntity
  8
0
  6
Continuous
 62
     7
370
    25
100
AcDbLine
 10
102.3120793359
 20
137.15725526
 30
0.0
 11
136.5888171336
 21
138.0548232276
 31
0.0
  0
ELLIPSE
  5
24F
330
1F
100
AcDbEntity
  8
0
  6
Continuous
 62
     7
370
    25
100
AcDbEllipse
 10
136.5940453471
 20
137.2544115712
 30
0.0
 11
0.9988086229566305
 21
0.06103964413864559
 31
0.0
210
0.0
220
0.0
230
0.9999999999999998
 40
0.7994627403
 41
0.8784769082855979
 42
1.527206254409821
  0
ELLIPSE
  5
250
330
1F
100
AcDbEntity
  8
0
  6
Continuous
 62
     7
370
    25
100
AcDbEllipse
 10
136.5940453471
 20
135.3029140445
 30
0.0
 11
0.9988086229566305
 21
-0.06103964413861718
 31
0.0
210
0.0
220
0.0
230
0.9999999999999999
 40
0.7994627403
 41
4.755979052769752
 42
5.404708398893958
  0
SPLINE
  5
251
330
1F
100
AcDbEntity
  8
0
  6
Continuous
 62
     7
370
    25
100
AcDbSpline
210
0.0
220
0.0
230
1.0
 70
    24
 71
     3
 72
    11
 73
     7
 74
     0
 42
0.00000001
 43
0.00000001
 40
0.0
 40
0.0
 40
0.0
 40
0.0
 40
0.2499999999999973
 40
0.4999999999999962
 40
0.7499999999999991
 40
1.0
 40
1.0
 40
1.0
 40
1.0
 10
102.2937617511769
 20
137.8567755971627
 30
0.0
 10
102.2940896124327
 20
137.8442550809401
 30
0.0
 10
102.2947453349443
 20
137.819214048495
 30
0.0
 10
102.2990043040836
 20
137.6565705788724
 30
0.0
 10
102.3049961597454
 20
137.4277508428179
 30
0.0
 10
102.3097182771564
 20
137.2474204542717
 30
0.0
 10
102.3120793358619
 20
137.1572552599985
 30
0.0
  0
LINE
  5
252
330
1F
100
AcDbEntity
  8
0
  6
Continuous
 62
     7
370
    25
100
AcDbLine
 10
136.5704995489
 20
138.7543435648
 30
0.0
 11
102.2937617512
 21
137.8567755972
 31
0.0
  0
SPLINE
  5
253
330
1F
100
AcDbEntity
  8
0
  6
Continuous
 62
     7
370
    25
100
AcDbSpline
210
0.0
220
0.0
230
1.0
 70
    24
 71
     3
 72
    11
 73
     7
 74
     0
 42
0.00000001
 43
0.00000001
 40
0.0
 40
0.0
 40
0.0
 40
0.0
 40
0.2499999999999975
 40
0.5000000000000014
 40
0.7500000000000004
 40
1.0
 40
1.0
 40
1.0
 40
1.0
 10
136.5704995489145
 20
138.7543435647818
 30
0.0
 10
136.5708274101703
 20
138.7418230485592
 30
0.0
 10
136.5714831326819
 20
138.7167820161141
 30
0.0
 10
136.5757421018212
 20
138.5541385464915
 30
0.0
 10
136.581733957483
 20
138.3253188104371
 30
0.0
 10
136.586456074894
 20
138.1449884218908
 30
0.0
 10
136.5888171335995
 20
138.0548232276177
 30
0.0
  0
LINE
  5
254
330
1F
100
AcDbEntity
  8
0
  6
Continuous
 62
     7
370
    25
100
AcDbLine
 10
102.2937617512
 20
134.7005500185
 30
0.0
 11
136.5704995489
 21
133.8029820509
 31
0.0
  0
SPLINE
  5
255
330
1F
100
AcDbEntity
  8
0
  6
Continuous
 62
     7
370
    25
100
AcDbSpline
210
0.0
220
0.0
230
1.0
 70
    24
 71
     3
 72
    11
 73
     7
 74
     0
 42
0.00000001
 43
0.00000001
 40
0.0
 40
0.0
 40
0.0
 40
0.0
 40
0.2499999999999975
 40
0.5000000000000017
 40
0.7500000000000006
 40
1.0
 40
1.0
 40
1.0
 40
1.0
 10
102.2937617511769
 20
134.7005500185357
 30
0.0
 10
102.2940896124327
 20
134.7130705347583
 30
0.0
 10
102.2947453349443
 20
134.7381115672034
 30
0.0
 10
102.2990043040835
 20
134.900755036826
 30
0.0
 10
102.3049961597454
 20
135.1295747728805
 30
0.0
 10
102.3097182771564
 20
135.3099051614267
 30
0.0
 10
102.3120793358619
 20
135.4000703556999
 30
0.0
  0
SPLINE
  5
256
330
1F
100
AcDbEntity
  8
0
  6
Continuous
 62
     7
370
    25
100
AcDbSpline
210
0.0
220
0.0
230
1.0
 70
    24
 71
     3
 72
    11
 73
     7
 74
     0
 42
0.00000001
 43
0.00000001
 40
0.0
 40
0.0
 40
0.0
 40
0.0
 40
0.2500000000000002
 40
0.5000000000000036
 40
0.7500000000000022
 40
1.0
 40
1.0
 40
1.0
 40
1.0
 10
136.5888171335995
 20
134.5025023880807
 30
0.0
 10
136.586456074894
 20
134.4123371938076
 30
0.0
 10
136.581733957483
 20
134.2320068052613
 30
0.0
 10
136.5757421018212
 20
134.0031870692069
 30
0.0
 10
136.5714831326819
 20
133.8405435995843
 30
0.0
 10
136.5708274101703
 20
133.8155025671392
 30
0.0
 10
136.5704995489145
 20
133.8029820509166
 30
0.0
  0
ELLIPSE
  5
257
330
1F
100
AcDbEntity
  8
0
  6
Continuous
 62
     7
370
    25
100
AcDbEllipse
 10
102.3120793359
 20
137.1782111783
 30
0.0
 11
1.49999997144873
 21
0.02095282558966005
 31
0.0
210
0.0
220
0.0
230
1.0
 40
0.0139678873
 41
3.842044658399484
 42
4.712193869245415
  0
ELLIPSE
  5
258
330
1F
100
AcDbEntity
  8
0
  6
Continuous
 62
     7
370
    25
100
AcDbEllipse
 10
102.3120793359
 20
135.3791144374
 30
0.0
 11
1.49999997144873
 21
-0.02095282558966005
 31
0.0
210
0.0
220
0.0
230
1.0
 40
0.0139678873
 41
1.570991437934171
 42
2.441140648780705
  0
SPLINE
  5
259
330
1F
100
AcDbEntity
  8
0
  6
Continuous
 62
     7
370
    25
100
AcDbSpline
210
0.0
220
0.0
230
1.0
 70
     8
 71
     3
 72
     9
 73
     5
 74
     0
 42
0.00000001
 43
0.00000001
 40
0.0
 40
0.0
 40
0.0
 40
0.0
 40
0.5600029565045049
 40
1.0
 40
1.0
 40
1.0
 40
1.0
 10
101.1654416204134
 20
135.4086387212253
 30
0.0
 10
101.1572938610602
 20
135.408633083159
 30
0.0
 10
101.1427443676005
 20
135.4086230152368
 30
0.0
 10
101.1287997246599
 20
135.4087451918402
 30
0.0
 10
101.1226641229935
 20
135.4087989491845
 30
0.0
  0
ELLIPSE
  5
25A
330
1F
100
AcDbEntity
  8
0
  6
Continuous
 62
     7
370
    25
100
AcDbEllipse
 10
102.3120793359
 20
135.3615252753
 30
0.0
 11
1.499999872704151
 21
-0.04307925670957503
 31
0.0
210
0.0
220
0.0
230
1.0
 40
0.0143449667
 41
2.486833182543494
 42
2.678357024934869
  0
LINE
  5
25B
330
1F
100
AcDbEntity
  8
0
  6
Continuous
 62
     7
370
    25
100
AcDbLine
 10
100.9704385494
 20
137.1476461824
 30
0.0
 11
100.9704385494
 21
135.4096794333
 31
0.0
  0
ELLIPSE
  5
25C
330
1F
100
AcDbEntity
  8
0
  6
Continuous
 62
     7
370
    25
100
AcDbEllipse
 10
102.3120793359
 20
137.1958003404
 30
0.0
 11
1.499999872704151
 21
0.04307925670957503
 31
0.0
210
0.0
220
0.0
230
1.0
 40
0.0143449667
 41
3.604828282245496
 42
3.796352124635653
  0
SPLINE
  5
25D
330
1F
100
AcDbEntity
  8
0
  6
Continuous
 62
     7
370
    25
100
AcDbSpline
210
0.0
220
0.0
230
1.0
 70
     8
 71
     3
 72
     9
 73
     5
 74
     0
 42
0.00000001
 43
0.00000001
 40
0.0
 40
0.0
 40
0.0
 40
0.0
 40
0.5599925069634167
 40
1.0
 40
1.0
 40
1.0
 40
1.0
 10
101.1226641229935
 20
137.1485266665139
 30
0.0
 10
101.1304869328504
 20
137.1485924116653
 30
0.0
 10
101.144456423084
 20
137.1487098152922
 30
0.0
 10
101.1590294009545
 20
137.1486938981396
 30
0.0
 10
101.1654416204134
 20
137.1486868944731
 30
0.0
  0
ELLIPSE
  5
25E
330
1F
100
AcDbEntity
  8
0
  6
Continuous
 62
     7
370
    25
100
AcDbEllipse
 10
102.2937617512
 20
134.6795941002
 30
0.0
 11
0.7999998117959422
 21
-0.02096310677478641
 31
0.0
210
0.0
220
0.0
230
1.0
 40
0.026176936
 41
1.571482264229188
 42
2.441631475078147
  0
SPLINE
  5
25F
330
1F
100
AcDbEntity
  8
0
  6
Continuous
 62
     7
370
    25
100
AcDbSpline
210
0.0
220
0.0
230
1.0
 70
     8
 71
     3
 72
    12
 73
     8
 74
     0
 42
0.00000001
 43
0.00000001
 40
0.0
 40
0.0
 40
0.0
 40
0.0
 40
0.219860960079126
 40
0.4397396970008154
 40
0.6583291451397754
 40
0.8791239516843591
 40
1.0
 40
1.0
 40
1.0
 40
1.0
 10
101.682221636271
 20
134.7091183840612
 30
0.0
 10
101.6223065735421
 20
134.7197903787053
 30
0.0
 10
101.5024716036561
 20
134.7411352308768
 30
0.0
 10
101.3457366153816
 20
134.8692536261439
 30
0.0
 10
101.2291682915955
 20
135.0521915622089
 30
0.0
 10
101.1729115998012
 20
135.2437407340961
 30
0.0
 10
101.1673937285849
 20
135.3655464057811
 30
0.0
 10
101.1654416204134
 20
135.4086387212253
 30
0.0
  0
ELLIPSE
  5
260
330
1F
100
AcDbEntity
  8
0
  6
Continuous
 62
     7
370
    25
100
AcDbEllipse
 10
102.2937617512
 20
137.8777315155
 30
0.0
 11
0.7999998117959422
 21
0.02096310677475799
 31
0.0
210
0.0
220
0.0
230
1.0
 40
0.026176936
 41
3.841553832103628
 42
4.7117030429504
  0
SPLINE
  5
261
330
1F
100
AcDbEntity
  8
0
  6
Continuous
 62
     7
370
    25
100
AcDbSpline
210
0.0
220
0.0
230
1.0
 70
     8
 71
     3
 72
    12
 73
     8
 74
     0
 42
0.00000001
 43
0.00000001
 40
0.0
 40
0.0
 40
0.0
 40
0.0
 40
0.2198610998683207
 40
0.4397399767664978
 40
0.6583294271823329
 40
0.8791242261983195
 40
1.0
 40
1.0
 40
1.0
 40
1.0
 10
101.1654416204134
 20
137.1486868944731
 30
0.0
 10
101.1715445703087
 20
137.2273778041923
 30
0.0
 10
101.1837509635578
 20
137.3847659862416
 30
0.0
 10
101.2762749046562
 20
137.5940477347266
 30
0.0
 10
101.4120588520779
 20
137.7526970553909
 30
0.0
 10
101.5564867154413
 20
137.8327971181062
 30
0.0
 10
101.6493637270901
 20
137.8441801554079
 30
0.0
 10
101.682221636271
 20
137.8482072316372
 30
0.0
  0
SPLINE
  5
262
330
1F
100
AcDbEntity
  8
0
  6
Continuous
 62
     7
370
    25
100
AcDbSpline
210
0.0
220
0.0
230
1.0
 70
     8
 71
     3
 72
    11
 73
     7
 74
     0
 42
0.00000001
 43
0.00000001
 40
0.0
 40
0.0
 40
0.0
 40
0.0
 40
0.2561894651307117
 40
0.5096044939206582
 40
0.7692742066444705
 40
1.0
 40
1.0
 40
1.0
 40
1.0
 10
138.394045347112
 20
137.2910790424827
 30
0.0
 10
138.3496803564952
 20
137.4045865778039
 30
0.0
 10
138.2614308315605
 20
137.6303724041807
 30
0.0
 10
138.051618744636
 20
137.9555747399402
 30
0.0
 10
137.8041108751444
 20
138.2455310978694
 30
0.0
 10
137.6093610444063
 20
138.3965929190478
 30
0.0
 10
137.517733350747
 20
138.4676658756819
 30
0.0
  0
SPLINE
  5
263
330
1F
100
AcDbEntity
  8
0
  6
Continuous
 62
     7
370
    25
100
AcDbSpline
210
0.0
220
0.0
230
1.0
 70
    24
 71
     3
 72
    10
 73
     6
 74
     0
 42
0.00000001
 43
0.00000001
 40
0.0
 40
0.0
 40
0.0
 40
0.0
 40
0.2808335173386724
 40
0.5616510917414119
 40
1.0
 40
1.0
 40
1.0
 40
1.0
 10
137.517733350747
 20
138.4676658756819
 30
0.0
 10
137.4995252311022
 20
138.4361858728869
 30
0.0
 10
137.4631100254886
 20
138.3732276544185
 30
0.0
 10
137.3533269406882
 20
138.1834237711087
 30
0.0
 10
137.2543649879544
 20
138.0123285339604
 30
0.0
 10
137.194045347112
 20
137.9080419574576
 30
0.0
  0
ELLIPSE
  5
264
330
1F
100
AcDbEntity
  8
0
  6
Continuous
 62
     7
370
    25
100
AcDbEllipse
 10
136.5940453471
 20
137.2544115712
 30
0.0
 11
1.557390436637235
 21
0.09517594847733335
 31
0.0
210
0.0
220
0.0
230
1.0
 40
0.9613560848
 41
0.878476908285613
 42
1.527206254409841
  0
SPLINE
  5
265
330
1F
100
AcDbEntity
  8
0
  6
Continuous
 62
     7
370
    25
100
AcDbSpline
210
0.0
220
0.0
230
1.0
 70
    24
 71
     3
 72
    10
 73
     6
 74
     0
 42
0.00000001
 43
0.00000001
 40
0.0
 40
0.0
 40
0.0
 40
0.0
 40
0.280833517338672
 40
0.5616510917414106
 40
1.0
 40
1.0
 40
1.0
 40
1.0
 10
137.194045347112
 20
134.6492836582408
 30
0.0
 10
137.2323957960744
 20
134.5829795991684
 30
0.0
 10
137.309094516842
 20
134.4503752451093
 30
0.0
 10
137.434248866884
 20
134.2339959942049
 30
0.0
 10
137.4861179332373
 20
134.1443196088545
 30
0.0
 10
137.517733350747
 20
134.0896597400165
 30
0.0
  0
ELLIPSE
  5
266
330
1F
100
AcDbEntity
  8
0
  6
Continuous
 62
     7
370
    25
100
AcDbEllipse
 10
136.5940453471
 20
135.3029140445
 30
0.0
 11
1.557390436637235
 21
-0.09517594847733335
 31
0.0
210
0.0
220
0.0
230
1.0
 40
0.9613560848
 41
4.755979052769759
 42
5.404708398893998
  0
SPLINE
  5
267
330
1F
100
AcDbEntity
  8
0
  6
Continuous
 62
     7
370
    25
100
AcDbSpline
210
0.0
220
0.0
230
1.0
 70
     8
 71
     3
 72
    11
 73
     7
 74
     0
 42
0.00000001
 43
0.00000001
 40
0.0
 40
0.0
 40
0.0
 40
0.0
 40
0.2307374805226514
 40
0.4903955403005859
 40
0.743810552073065
 40
1.0
 40
1.0
 40
1.0
 40
1.0
 10
137.517733350747
 20
134.0896597400165
 30
0.0
 10
137.6093653555065
 20
134.1607367582067
 30
0.0
 10
137.8041144980432
 20
134.311799570626
 30
0.0
 10
138.0516220652811
 20
134.6017555997815
 30
0.0
 10
138.2614307946752
 20
134.9269532603302
 30
0.0
 10
138.3496803441556
 20
135.1527390542243
 30
0.0
 10
138.394045347112
 20
135.2662465732158
 30
0.0
  0
LINE
  5
268
330
1F
100
AcDbEntity
  8
0
  6
Continuous
 62
     7
370
    25
100
AcDbLine
 10
138.6940588024
 20
138.884119478
 30
0.0
 11
136.5704995489
 21
138.7543435648
 31
0.0
  0
SPLINE
  5
269
330
1F
100
AcDbEntity
  8
0
  6
Continuous
 62
     7
370
    25
100
AcDbSpline
210
0.0
220
0.0
230
1.0
 70
     8
 71
     3
 72
    13
 73
     9
 74
     0
 42
0.00000001
 43
0.00000001
 40
0.0
 40
0.0
 40
0.0
 40
0.0
 40
0.1035746466401555
 40
0.2111076158583394
 40
0.3219769626223817
 40
0.4454462032504118
 40
0.7113049728010375
 40
1.0
 40
1.0
 40
1.0
 40
1.0
 10
140.794045347112
 20
137.4377489275494
 30
0.0
 10
140.7867891823516
 20
137.5360917059982
 30
0.0
 10
140.77199954326
 20
137.7365356386466
 30
0.0
 10
140.6457269336981
 20
138.0194776888765
 30
0.0
 10
140.4491795455673
 20
138.2777359138955
 30
0.0
 10
140.08532787248
 20
138.5808312636505
 30
0.0
 10
139.4877404857447
 20
138.846360929934
 30
0.0
 10
138.965784002185
 20
138.8711924453488
 30
0.0
 10
138.6940588023916
 20
138.8841194779651
 30
0.0
  0
LINE
  5
26A
330
1F
100
AcDbEntity
  8
0
  6
Continuous
 62
     7
370
    25
100
AcDbLine
 10
138.3940453471
 20
137.2910790425
 30
0.0
 11
140.7940453471
 21
137.4377489275
 31
0.0
  0
LINE
  5
26B
330
1F
100
AcDbEntity
  8
0
  6
Continuous
 62
     7
370
    25
100
AcDbLine
 10
140.7940453471
 20
135.1195766881
 30
0.0
 11
138.3940453471
 21
135.2662465732
 31
0.0
  0
SPLINE
  5
26C
330
1F
100
AcDbEntity
  8
0
  6
Continuous
 62
     7
370
    25
100
AcDbSpline
210
0.0
220
0.0
230
1.0
 70
     8
 71
     3
 72
    13
 73
     9
 74
     0
 42
0.00000001
 43
0.00000001
 40
0.0
 40
0.0
 40
0.0
 40
0.0
 40
0.2886949682914854
 40
0.5545536835943152
 40
0.6780091910936104
 40
0.7888922083801199
 40
0.8964194071406489
 40
1.0
 40
1.0
 40
1.0
 40
1.0
 10
138.6940588023916
 20
133.6732061377333
 30
0.0
 10
138.9657839929678
 20
133.686133143216
 30
0.0
 10
139.4877404588223
 20
133.7109646065101
 30
0.0
 10
140.0853158669255
 20
133.9764892079426
 30
0.0
 10
140.449170047105
 20
134.2795802045469
 30
0.0
 10
140.6457175386707
 20
134.5378319586675
 30
0.0
 10
140.7720008277769
 20
134.8207833248357
 30
0.0
 10
140.786789329748
 20
135.0212279875268
 30
0.0
 10
140.794045347112
 20
135.119576688149
 30
0.0
  0
LINE
  5
26D
330
1F
100
AcDbEntity
  8
0
  6
Continuous
 62
     7
370
    25
100
AcDbLine
 10
136.5704995489
 20
133.8029820509
 30
0.0
 11
138.6940588024
 21
133.6732061377
 31
0.0
  0
SPLINE
  5
26E
330
1F
100
AcDbEntity
  8
0
  6
Continuous
 62
     7
370
    25
100
AcDbSpline
210
0.0
220
0.0
230
1.0
 70
     8
 71
     3
 72
    12
 73
     8
 74
     0
 42
0.00000001
 43
0.00000001
 40
0.0
 40
0.0
 40
0.0
 40
0.0
 40
0.2225634137434412
 40
0.446206317369527
 40
0.6680851268156954
 40
0.8917990985568369
 40
1.0
 40
1.0
 40
1.0
 40
1.0
 10
101.6401060532385
 20
137.8472619957652
 30
0.0
 10
101.5784094876036
 20
137.8349088881984
 30
0.0
 10
101.4547171120992
 20
137.8101427573114
 30
0.0
 10
101.2955507703057
 20
137.6775588293136
 30
0.0
 10
101.1794688822888
 20
137.491201425819
 30
0.0
 10
101.1277538315609
 20
137.3031106144657
 30
0.0
 10
101.123915409784
 20
137.1865305815773
 30
0.0
 10
101.1226641229935
 20
137.1485266665139
 30
0.0
  0
SPLINE
  5
26F
330
1F
100
AcDbEntity
  8
0
  6
Continuous
 62
     7
370
    25
100
AcDbSpline
210
0.0
220
0.0
230
1.0
 70
     8
 71
     3
 72
    12
 73
     8
 74
     0
 42
0.00000001
 43
0.00000001
 40
0.0
 40
0.0
 40
0.0
 40
0.0
 40
0.222563413743527
 40
0.4462063173695677
 40
0.6680851268158018
 40
0.8917990985569334
 40
1.0
 40
1.0
 40
1.0
 40
1.0
 10
101.1226641229935
 20
135.4087989491845
 30
0.0
 10
101.128250689096
 20
135.330295289142
 30
0.0
 10
101.1394509175856
 20
135.1729072060853
 30
0.0
 10
101.2335016952726
 20
134.9635556684579
 30
0.0
 10
101.3729927586707
 20
134.8047963739878
 30
0.0
 10
101.518216858507
 20
134.7269475036712
 30
0.0
 10
101.6101400272371
 20
134.7142144628378
 30
0.0
 10
101.6401060532385
 20
134.7100636199332
 30
0.0
  0
ELLIPSE
  5
270
330
1F
100
AcDbEntity
  8
0
  6
Continuous
 62
     7
370
    25
100
AcDbEllipse
 10
102.2744608334
 20
134.6627899461
 30
0.0
 11
0.7999991634988818
 21
-0.04310148564320571
 31
0.0
210
0.0
220
0.0
230
0.9999999999999999
 40
0.0268411366
 41
2.487867318781103
 42
2.679391161173522
  0
SPLINE
  5
271
330
1F
100
AcDbEntity
  8
0
  6
Continuous
 62
     7
370
    25
100
AcDbSpline
210
0.0
220
0.0
230
1.0
 70
     8
 71
     3
 72
    11
 73
     7
 74
     0
 42
0.00000001
 43
0.00000001
 40
0.0
 40
0.0
 40
0.0
 40
0.0
 40
0.2500000000000014
 40
0.4999999999999973
 40
0.7500000000000001
 40
1.0
 40
1.0
 40
1.0
 40
1.0
 10
101.558919080635
 20
134.7109441040792
 30
0.0
 10
101.4806839723028
 20
134.7259434092458
 30
0.0
 10
101.3242137556382
 20
134.7559420195789
 30
0.0
 10
101.1308876042218
 20
134.9194617223756
 30
0.0
 10
100.9965111719428
 20
135.145041336458
 30
0.0
 10
100.9791294235556
 20
135.321466734373
 30
0.0
 10
100.970438549362
 20
135.4096794333305
 30
0.0
  0
SPLINE
  5
272
330
1F
100
AcDbEntity
  8
0
  6
Continuous
 62
     7
370
    25
100
AcDbSpline
210
0.0
220
0.0
230
1.0
 70
     8
 71
     3
 72
    11
 73
     7
 74
     0
 42
0.00000001
 43
0.00000001
 40
0.0
 40
0.0
 40
0.0
 40
0.0
 40
0.2499999999999991
 40
0.5000000000000002
 40
0.7499999999999993
 40
1.0
 40
1.0
 40
1.0
 40
1.0
 10
101.5589190806351
 20
137.8463815116192
 30
0.0
 10
101.4806839723028
 20
137.8313822064526
 30
0.0
 10
101.3242137556383
 20
137.8013835961195
 30
0.0
 10
101.1308876042218
 20
137.6378638933228
 30
0.0
 10
100.9965111719428
 20
137.4122842792405
 30
0.0
 10
100.9791294235556
 20
137.2358588813254
 30
0.0
 10
100.970438549362
 20
137.1476461823679
 30
0.0
  0
ELLIPSE
  5
273
330
1F
100
AcDbEntity
  8
0
  6
Continuous
 62
     7
370
    25
100
AcDbEllipse
 10
102.2744608334
 20
137.8945356696
 30
0.0
 11
0.7999991634988818
 21
0.04310148564320571
 31
0.0
210
0.0
220
0.0
230
0.9999999999999999
 40
0.0268411366
 41
3.603794146007214
 42
3.795317988398174
  0
LINE
  5
274
330
1F
100
AcDbEntity
  8
0
  6
Continuous
 62
     7
370
    25
100
AcDbLine
 10
140.7940453471
 20
137.4377489275
 30
0.0
 11
140.7940453471
 21
135.1195766881
 31
0.0
  0
LINE
  5
275
330
1F
100
AcDbEntity
  8
0
  6
Continuous
 62
     7
370
    25
100
AcDbLine
 10
101.4597767251
 20
138.0649034703
 30
0.0
 11
123.0873248938
 21
138.6312407503
 31
0.0
  0
SPLINE
  5
276
330
1F
100
AcDbEntity
  8
0
  6
Continuous
 62
     7
370
    25
100
AcDbSpline
210
0.0
220
0.0
230
1.0
 70
     8
 71
     3
 72
     9
 73
     5
 74
     0
 42
0.00000001
 43
0.00000001
 40
0.0
 40
0.0
 40
0.0
 40
0.0
 40
0.5600012771711204
 40
1.0
 40
1.0
 40
1.0
 40
1.0
 10
123.0873248938308
 20
138.6312407503463
 30
0.0
 10
123.5647550303558
 20
138.6194063380013
 30
0.0
 10
124.4173069011958
 20
138.5982735070105
 30
0.0
 10
125.2741961058393
 20
138.5773127775981
 30
0.0
 10
125.6512262614882
 20
138.568090083427
 30
0.0
  0
SPLINE
  5
277
330
1F
100
AcDbEntity
  8
0
  6
Continuous
 62
     7
370
    25
100
AcDbSpline
210
0.0
220
0.0
230
1.0
 70
     8
 71
     3
 72
     9
 73
     5
 74
     0
 42
0.00000001
 43
0.00000001
 40
0.0
 40
0.0
 40
0.0
 40
0.0
 40
0.5599999095971039
 40
1.0
 40
1.0
 40
1.0
 40
1.0
 10
125.6512262614882
 20
138.568090083427
 30
0.0
 10
125.7453557521507
 20
138.5657926735298
 30
0.0
 10
125.9134441554689
 20
138.5616901551939
 30
0.0
 10
126.0816866751646
 20
138.5575937620009
 30
0.0
 10
126.1557133990404
 20
138.5557913486256
 30
0.0
  0
LINE
  5
278
330
1F
100
AcDbEntity
  8
0
  6
Continuous
 62
     7
370
    25
100
AcDbLine
 10
126.155713399
 20
138.5557913486
 30
0.0
 11
138.6940588024
 21
138.884119478
 31
0.0
  0
LINE
  5
279
330
1F
100
AcDbEntity
  8
0
  6
Continuous
 62
     7
370
    25
100
AcDbLine
 10
101.6822216363
 20
137.8482072316
 30
0.0
 11
101.4597767251
 21
138.0649034703
 31
0.0
  0
LINE
  5
27A
330
1F
100
AcDbEntity
  8
0
  6
Continuous
 62
     7
370
    25
100
AcDbLine
 10
138.6940588024
 20
133.6732061377
 30
0.0
 11
126.155713399
 21
134.0015342671
 31
0.0
  0
SPLINE
  5
27B
330
1F
100
AcDbEntity
  8
0
  6
Continuous
 62
     7
370
    25
100
AcDbSpline
210
0.0
220
0.0
230
1.0
 70
     8
 71
     3
 72
     9
 73
     5
 74
     0
 42
0.00000001
 43
0.00000001
 40
0.0
 40
0.0
 40
0.0
 40
0.0
 40
0.5600000882143287
 40
1.0
 40
1.0
 40
1.0
 40
1.0
 10
126.1557133990404
 20
134.0015342670728
 30
0.0
 10
126.0615009835087
 20
133.9992401509318
 30
0.0
 10
125.8932645537036
 20
133.9951435156109
 30
0.0
 10
125.7251823960351
 20
133.9910407491516
 30
0.0
 10
125.6512262614882
 20
133.9892355322714
 30
0.0
  0
SPLINE
  5
27C
330
1F
100
AcDbEntity
  8
0
  6
Continuous
 62
     7
370
    25
100
AcDbSpline
210
0.0
220
0.0
230
1.0
 70
     8
 71
     3
 72
     9
 73
     5
 74
     0
 42
0.00000001
 43
0.00000001
 40
0.0
 40
0.0
 40
0.0
 40
0.0
 40
0.5599987526606145
 40
1.0
 40
1.0
 40
1.0
 40
1.0
 10
125.6512262614882
 20
133.9892355322714
 30
0.0
 10
125.1714600036011
 20
133.977493945749
 30
0.0
 10
124.3147326348208
 20
133.956526780257
 30
0.0
 10
123.4623668863482
 20
133.9353865798848
 30
0.0
 10
123.0873248938308
 20
133.9260848653521
 30
0.0
  0
LINE
  5
27D
330
1F
100
AcDbEntity
  8
0
  6
Continuous
 62
     7
370
    25
100
AcDbLine
 10
123.0873248938
 20
133.9260848654
 30
0.0
 11
101.4597767251
 21
134.4924221454
 31
0.0
  0
LINE
  5
27E
330
1F
100
AcDbEntity
  8
0
  6
Continuous
 62
     7
370
    25
100
AcDbLine
 10
101.4597767251
 20
134.4924221454
 30
0.0
 11
101.6822216363
 21
134.7091183841
 31
0.0
  0
LINE
  5
27F
330
1F
100
AcDbEntity
  8
0
  6
Continuous
 62
     7
370
    25
100
AcDbLine
 10
96.3914884062
 20
137.1476461824
 30
0.0
 11
100.9704385494
 21
137.1476461824
 31
0.0
  0
SPLINE
  5
280
330
1F
100
AcDbEntity
  8
0
  6
Continuous
 62
     7
370
    25
100
AcDbSpline
210
0.0
220
0.0
230
1.0
 70
     8
 71
     3
 72
    13
 73
     9
 74
     0
 42
0.00000001
 43
0.00000001
 40
0.0
 40
0.0
 40
0.0
 40
0.0
 40
0.1143463544469914
 40
0.2890454840074685
 40
0.5294852105593209
 40
0.7014879056604271
 40
0.9335094878266192
 40
1.0
 40
1.0
 40
1.0
 40
1.0
 10
97.15344925643048
 20
137.8463815116192
 30
0.0
 10
97.11224805572152
 20
137.8415469201141
 30
0.0
 10
97.00809938339867
 20
137.8293260071841
 30
0.0
 10
96.82073988901882
 20
137.756677912143
 30
0.0
 10
96.63871215901004
 20
137.6261656457363
 30
0.0
 10
96.48642857779569
 20
137.4392980465666
 30
0.0
 10
96.4139253009157
 20
137.27792464181
 30
0.0
 10
96.39557561159698
 20
137.1713782909581
 30
0.0
 10
96.39148840620679
 20
137.1476461823679
 30
0.0
  0
LINE
  5
281
330
1F
100
AcDbEntity
  8
0
  6
Continuous
 62
     7
370
    25
100
AcDbLine
 10
101.5589190806
 20
137.8463815116
 30
0.0
 11
97.1534492564
 21
137.8463815116
 31
0.0
  0
LINE
  5
282
330
1F
100
AcDbEntity
  8
0
  6
Continuous
 62
     7
370
    25
100
AcDbLine
 10
97.1534492564
 20
134.7109441041
 30
0.0
 11
101.5589190806
 21
134.7109441041
 31
0.0
  0
SPLINE
  5
283
330
1F
100
AcDbEntity
  8
0
  6
Continuous
 62
     7
370
    25
100
AcDbSpline
210
0.0
220
0.0
230
1.0
 70
     8
 71
     3
 72
    12
 73
     8
 74
     0
 42
0.00000001
 43
0.00000001
 40
0.0
 40
0.0
 40
0.0
 40
0.0
 40
0.1396834586182492
 40
0.383189627403831
 40
0.5513169293013304
 40
0.8194729461607057
 40
1.0
 40
1.0
 40
1.0
 40
1.0
 10
96.39148840620679
 20
135.4096794333305
 30
0.0
 10
96.40172978695307
 20
135.359964512852
 30
0.0
 10
96.42982467314138
 20
135.2235829967942
 30
0.0
 10
96.53697503449617
 20
135.0436668875821
 30
0.0
 10
96.71731212190915
 20
134.8653254591972
 30
0.0
 10
96.92576826647814
 20
134.7448052346458
 30
0.0
 10
97.08812516718207
 20
134.7206592213388
 30
0.0
 10
97.15344925643046
 20
134.7109441040792
 30
0.0
  0
LINE
  5
284
330
1F
100
AcDbEntity
  8
0
  6
Continuous
 62
     7
370
    25
100
AcDbLine
 10
100.9704385494
 20
135.4096794333
 30
0.0
 11
96.3914884062
 21
135.4096794333
 31
0.0
  0
ELLIPSE
  5
285
330
1F
100
AcDbEntity
  8
0
  6
Continuous
 62
     7
370
    25
100
AcDbEllipse
 10
96.7468317516
 20
136.453201363
 30
0.0
 11
0.008721666502694349
 21
1.000418978703749
 31
0.0
210
0.0
220
0.0
230
0.9999999999999999
 40
0.499714557
 41
0.8079180407726841
 42
1.588240544501514
  0
ELLIPSE
  5
286
330
1F
100
AcDbEntity
  8
0
  6
Continuous
 62
     7
370
    25
100
AcDbEllipse
 10
96.7468317516
 20
136.1041242527
 30
0.0
 11
-0.008721666502680138
 21
1.000418978703721
 31
0.0
210
0.0
220
0.0
230
1.0
 40
0.499714557
 41
1.553352109088286
 42
2.33367461281714
  0
LINE
  5
287
330
1F
100
AcDbEntity
  8
0
  6
Continuous
 62
     7
370
    25
100
AcDbLine
 10
96.2468317516
 20
136.4401084022
 30
0.0
 11
96.2468317516
 21
136.1172172135
 31
0.0
  0
LINE
  5
288
330
1F
100
AcDbEntity
  8
0
  6
Continuous
 62
     7
370
    25
100
AcDbLine
 10
101.4609045823
 20
138.0218323399
 30
0.0
 11
101.4597767251
 21
138.0649034703
 31
0.0
  0
LINE
  5
289
330
1F
100
AcDbEntity
  8
0
  6
Continuous
 62
     7
370
    25
100
AcDbLine
 10
101.4609045823
 20
134.5354932758
 30
0.0
 11
101.4597767251
 21
134.4924221454
 31
0.0
  0
ELLIPSE
  5
28A
330
1F
100
AcDbEntity
  8
0
  6
Continuous
 62
     7
370
    25
100
AcDbEllipse
 10
65.2430381476
 20
136.1163350832
 30
0.0
 11
36.18915845259204
 21
1.947628334984217
 31
0.0
210
0.0
220
0.0
230
1.0
 40
0.0007414247
 41
0.0282885576640526
 42
0.4911607830433904
  0
LINE
  5
28B
330
1F
100
AcDbEntity
  8
0
  6
Continuous
 62
     7
370
    25
100
AcDbLine
 10
101.4176766708
 20
138.063943107
 30
0.0
 11
101.6401060532
 21
137.8472619958
 31
0.0
  0
LINE
  5
28C
330
1F
100
AcDbEntity
  8
0
  6
Continuous
 62
     7
370
    25
100
AcDbLine
 10
101.6401060532
 20
134.7100636199
 30
0.0
 11
101.4176766708
 21
134.4933825087
 31
0.0
  0
ELLIPSE
  5
28D
330
1F
100
AcDbEntity
  8
0
  6
Continuous
 62
     7
370
    25
100
AcDbEllipse
 10
65.2430381476
 20
136.4409905325
 30
0.0
 11
36.18915845257634
 21
-1.947628334983363
 31
0.0
210
0.0
220
0.0
230
1.0
 40
0.0007414247
 41
5.792024524150261
 42
6.254896749548009
  0
LINE
  5
28E
330
1F
100
AcDbEntity
  8
0
  6
Continuous
 62
     7
370
    25
100
AcDbLine
 10
129.2619209251
 20
139.14361122
 30
0.0
 11
129.9125743911
 21
139.3777063538
 31
0.0
  0
SPLINE
  5
28F
330
1F
100
AcDbEntity
  8
0
  6
Continuous
 62
     7
370
    25
100
AcDbSpline
210
0.0
220
0.0
230
1.0
 70
     8
 71
     3
 72
    10
 73
     6
 74
     0
 42
0.00000001
 43
0.00000001
 40
0.0
 40
0.0
 40
0.0
 40
0.0
 40
0.2383396858856106
 40
0.5716506333689647
 40
0.9999999999999999
 40
0.9999999999999999
 40
0.9999999999999999
 40
0.9999999999999999
 10
129.2640210850291
 20
139.137185249904
 30
0.0
 10
129.0197548299291
 20
139.062587047477
 30
0.0
 10
128.4338894969286
 20
138.8836654822032
 30
0.0
 10
127.3973346959231
 20
138.6473213699482
 30
0.0
 10
126.6026406003236
 20
138.5887379937627
 30
0.0
 10
126.1557133990405
 20
138.5557913486256
 30
0.0
  0
SPLINE
  5
290
330
1F
100
AcDbEntity
  8
0
  6
Continuous
 62
     7
370
    25
100
AcDbSpline
210
0.0
220
0.0
230
1.0
 70
     8
 71
     3
 72
    11
 73
     7
 74
     0
 42
0.00000001
 43
0.00000001
 40
0.0
 40
0.0
 40
0.0
 40
0.0
 40
0.2506671725023492
 40
0.5010414677145718
 40
0.7508849997170933
 40
1.0
 40
1.0
 40
1.0
 40
1.0
 10
123.0873248938308
 20
138.6312407503463
 30
0.0
 10
123.5630129063914
 20
138.6581153170015
 30
0.0
 10
124.5138331418786
 20
138.7118330503077
 30
0.0
 10
125.9145057590909
 20
138.9972985139616
 30
0.0
 10
127.2780715203426
 20
139.4188266605813
 30
0.0
 10
128.1307390668985
 20
139.8351837382782
 30
0.0
 10
128.5564503482119
 20
140.0430583146547
 30
0.0
  0
SPLINE
  5
291
330
1F
100
AcDbEntity
  8
0
  6
Continuous
 62
     7
370
    25
100
AcDbSpline
210
0.0
220
0.0
230
1.0
 70
     8
 71
     3
 72
     9
 73
     5
 74
     0
 42
0.00000001
 43
0.00000001
 40
0.0
 40
0.0
 40
0.0
 40
0.0
 40
0.501325902198991
 40
1.0
 40
1.0
 40
1.0
 40
1.0
 10
128.5564503187701
 20
140.0430583680189
 30
0.0
 10
128.7805260196042
 20
140.168101025489
 30
0.0
 10
129.22749215451
 20
140.4175249170566
 30
0.0
 10
129.6415374342055
 20
140.7192930254778
 30
0.0
 10
129.8480110905064
 20
140.8697769646899
 30
0.0
  0
LINE
  5
292
330
1F
100
AcDbEntity
  8
0
  6
Continuous
 62
     7
370
    25
100
AcDbLine
 10
131.9137915505
 20
140.984543404
 30
0.0
 11
129.8478378156
 21
140.8697681965
 31
0.0
  0
SPLINE
  5
293
330
1F
100
AcDbEntity
  8
0
  6
Continuous
 62
     7
370
    25
100
AcDbSpline
210
0.0
220
0.0
230
1.0
 70
     8
 71
     3
 72
    14
 73
    10
 74
     0
 42
0.00000001
 43
0.00000001
 40
0.0
 40
0.0
 40
0.0
 40
0.0
 40
0.0829413618596713
 40
0.1664594845668898
 40
0.2437726390188678
 40
0.3161479456895739
 40
0.4353725718192335
 40
0.6486290670514198
 40
1.0
 40
1.0
 40
1.0
 40
1.0
 10
131.9137915376657
 20
140.9845433991865
 30
0.0
 10
131.9595908389406
 20
140.9827282096041
 30
0.0
 10
132.0515079224417
 20
140.9790852079039
 30
0.0
 10
132.102052954978
 20
140.8974240754163
 30
0.0
 10
132.0611480585378
 20
140.7641405951315
 30
0.0
 10
131.9255470124333
 20
140.5758141388939
 30
0.0
 10
131.6086387416885
 20
140.2775470592316
 30
0.0
 10
130.9316501314553
 20
139.8195199004462
 30
0.0
 10
130.3034833152419
 20
139.5471843717684
 30
0.0
 10
129.9125714515171
 20
139.3777083881186
 30
0.0
  0
LINE
  5
294
330
1F
100
AcDbEntity
  8
0
  6
Continuous
 62
     7
370
    25
100
AcDbLine
 10
129.8478378156
 20
131.6875574192
 30
0.0
 11
131.9137915505
 21
131.5727822117
 31
0.0
  0
SPLINE
  5
295
330
1F
100
AcDbEntity
  8
0
  6
Continuous
 62
     7
370
    25
100
AcDbSpline
210
0.0
220
0.0
230
1.0
 70
     8
 71
     3
 72
     9
 73
     5
 74
     0
 42
0.00000001
 43
0.00000001
 40
0.0
 40
0.0
 40
0.0
 40
0.0
 40
0.4986740982738613
 40
1.0
 40
1.0
 40
1.0
 40
1.0
 10
129.8480108892808
 20
131.6875484691733
 30
0.0
 10
129.6415372482111
 20
131.8380324054523
 30
0.0
 10
129.2274919994515
 20
132.1398005077057
 30
0.0
 10
128.7805258975066
 20
132.389224399328
 30
0.0
 10
128.556450213408
 20
132.5142670567075
 30
0.0
  0
SPLINE
  5
296
330
1F
100
AcDbEntity
  8
0
  6
Continuous
 62
     7
370
    25
100
AcDbSpline
210
0.0
220
0.0
230
1.0
 70
     8
 71
     3
 72
    11
 73
     7
 74
     0
 42
0.00000001
 43
0.00000001
 40
0.0
 40
0.0
 40
0.0
 40
0.0
 40
0.249115000282908
 40
0.4989585322854288
 40
0.749332827497652
 40
1.0
 40
1.0
 40
1.0
 40
1.0
 10
128.5564503482119
 20
132.5142673010437
 30
0.0
 10
128.1307390668985
 20
132.7221418774202
 30
0.0
 10
127.2780715203426
 20
133.1384989551172
 30
0.0
 10
125.9145057590909
 20
133.5600271017368
 30
0.0
 10
124.5138331418786
 20
133.8454925653907
 30
0.0
 10
123.5630129063914
 20
133.8992102986969
 30
0.0
 10
123.0873248938308
 20
133.9260848653521
 30
0.0
  0
SPLINE
  5
297
330
1F
100
AcDbEntity
  8
0
  6
Continuous
 62
     7
370
    25
100
AcDbSpline
210
0.0
220
0.0
230
1.0
 70
     8
 71
     3
 72
    10
 73
     6
 74
     0
 42
0.00000001
 43
0.00000001
 40
0.0
 40
0.0
 40
0.0
 40
0.0
 40
0.4283493666310629
 40
0.7616603141144171
 40
1.0
 40
1.0
 40
1.0
 40
1.0
 10
126.1557133990406
 20
134.0015342670728
 30
0.0
 10
126.6026406003236
 20
133.9685876219357
 30
0.0
 10
127.3973346959232
 20
133.9100042457503
 30
0.0
 10
128.4338894969287
 20
133.6736601334953
 30
0.0
 10
129.0197548299291
 20
133.4947385682215
 30
0.0
 10
129.2640210850291
 20
133.4201403657946
 30
0.0
  0
LINE
  5
298
330
1F
100
AcDbEntity
  8
0
  6
Continuous
 62
     7
370
    25
100
AcDbLine
 10
129.261920925
 20
133.4137143954
 30
0.0
 11
129.9125743911
 21
133.1796192616
 31
0.0
  0
SPLINE
  5
299
330
1F
100
AcDbEntity
  8
0
  6
Continuous
 62
     7
370
    25
100
AcDbSpline
210
0.0
220
0.0
230
1.0
 70
     8
 71
     3
 72
    15
 73
    11
 74
     0
 42
0.00000001
 43
0.00000001
 40
0.0
 40
0.0
 40
0.0
 40
0.0
 40
0.2091652517822445
 40
0.4176299509274902
 40
0.5931463878153087
 40
0.6923603779431098
 40
0.7731125739307014
 40
0.8543366880968448
 40
0.9261517123972136
 40
1.0
 40
1.0
 40
1.0
 40
1.0
 10
129.9125714514265
 20
133.1796172273484
 30
0.0
 10
130.1461556635219
 20
133.081919594859
 30
0.0
 10
130.612541749182
 20
132.8868515464397
 30
0.0
 10
131.2361918963612
 20
132.5375716930872
 30
0.0
 10
131.6960415256618
 20
132.2046815061437
 30
0.0
 10
131.9579258964316
 20
131.9430634201078
 30
0.0
 10
132.0783958769468
 20
131.762469407194
 30
0.0
 10
132.0971891038565
 20
131.6403752438837
 30
0.0
 10
132.03615090255
 20
131.5763252545652
 30
0.0
 10
131.9549557840386
 20
131.5739741685273
 30
0.0
 10
131.9137915376307
 20
131.5727822165138
 30
0.0
  0
SPLINE
  5
29A
330
1F
100
AcDbEntity
  8
0
  6
Continuous
 62
     7
370
    25
100
AcDbSpline
210
0.0
220
0.0
230
1.0
 70
    24
 71
     3
 72
    11
 73
     7
 74
     0
 42
0.00000001
 43
0.00000001
 40
0.0
 40
0.0
 40
0.0
 40
0.0
 40
0.2500000000000002
 40
0.5000000000000003
 40
0.7499999999999994
 40
1.0
 40
1.0
 40
1.0
 40
1.0
 10
138.6809748133309
 20
133.1735487540447
 30
0.0
 10
138.6826612838348
 20
133.2379524642397
 30
0.0
 10
138.6860342248427
 20
133.3667598846299
 30
0.0
 10
138.690314121744
 20
133.5302025532402
 30
0.0
 10
138.6933562425577
 20
133.6463764601135
 30
0.0
 10
138.6938246157803
 20
133.66426291186
 30
0.0
 10
138.6940588023916
 20
133.6732061377333
 30
0.0
  0
LINE
  5
29B
330
1F
100
AcDbEntity
  8
0
  6
Continuous
 62
     7
370
    25
100
AcDbLine
 10
129.264021085
 20
133.4201403658
 30
0.0
 11
138.6809748133
 21
133.173548754
 31
0.0
  0
LINE
  5
29C
330
1F
100
AcDbEntity
  8
0
  6
Continuous
 62
     7
370
    25
100
AcDbLine
 10
138.6809748133
 20
139.3837768617
 30
0.0
 11
129.264021085
 21
139.1371852499
 31
0.0
  0
SPLINE
  5
29D
330
1F
100
AcDbEntity
  8
0
  6
Continuous
 62
     7
370
    25
100
AcDbSpline
210
0.0
220
0.0
230
1.0
 70
    24
 71
     3
 72
    11
 73
     7
 74
     0
 42
0.00000001
 43
0.00000001
 40
0.0
 40
0.0
 40
0.0
 40
0.0
 40
0.2500000000000023
 40
0.4999999999999957
 40
0.7499999999999976
 40
1.0
 40
1.0
 40
1.0
 40
1.0
 10
138.6940588023916
 20
138.8841194779651
 30
0.0
 10
138.6938246157803
 20
138.8930627038384
 30
0.0
 10
138.6933562425577
 20
138.9109491555849
 30
0.0
 10
138.690314121744
 20
139.0271230624582
 30
0.0
 10
138.6860342248427
 20
139.1905657310685
 30
0.0
 10
138.6826612838348
 20
139.3193731514587
 30
0.0
 10
138.6809748133309
 20
139.3837768616538
 30
0.0
  0
ELLIPSE
  5
29E
330
1F
100
AcDbEntity
  8
0
  6
Continuous
 62
     7
370
    25
100
AcDbEllipse
 10
138.6940453471
 20
135.174577895
 30
0.0
 11
2.497021557391577
 21
-0.1525991103465856
 31
2.131628207280301E-14
210
-8.504919643681410E-15
220
5.197564944337115E-16
230
1.0
 40
0.7994627403
 41
4.75597905276978
 42
6.332003616895592
  0
SPLINE
  5
29F
330
1F
100
AcDbEntity
  8
0
  6
Continuous
 62
     7
370
    25
100
AcDbSpline
210
0.0
220
0.0
230
1.0
 70
    24
 71
     3
 72
    11
 73
     7
 74
     0
 42
0.00000001
 43
0.00000001
 40
0.0
 40
0.0
 40
0.0
 40
0.0
 40
0.2500000000000022
 40
0.4999999999999972
 40
0.75
 40
1.0
 40
1.0
 40
1.0
 40
1.0
 10
140.794045347112
 20
135.119576688149
 30
0.0
 10
140.8193052853161
 20
135.119576688149
 30
0.0
 10
140.8698251617244
 20
135.119576688149
 30
0.0
 10
140.9686837709248
 20
135.119576688149
 30
0.0
 10
141.0780710507483
 20
135.119576688149
 30
0.0
 10
141.1553872483241
 20
135.119576688149
 30
0.0
 10
141.194045347112
 20
135.119576688149
 30
0.0
  0
ELLIPSE
  5
2A0
330
1F
100
AcDbEntity
  8
0
  6
Continuous
 62
     7
370
    25
100
AcDbEllipse
 10
138.6940453471
 20
137.3827477206
 30
0.0
 11
2.497021557391577
 21
0.1525991103465856
 31
2.131628207280301E-14
210
-8.504919643681416E-15
220
-5.197564944335982E-16
230
1.0
 40
0.7994627403
 41
6.234366997463597
 42
7.810391561589416
  0
SPLINE
  5
2A1
330
1F
100
AcDbEntity
  8
0
  6
Continuous
 62
     7
370
    25
100
AcDbSpline
210
0.0
220
0.0
230
1.0
 70
    24
 71
     3
 72
    11
 73
     7
 74
     0
 42
0.00000001
 43
0.00000001
 40
0.0
 40
0.0
 40
0.0
 40
0.0
 40
0.2500000000000035
 40
0.5000000000000026
 40
0.7500000000000088
 40
1.0
 40
1.0
 40
1.0
 40
1.0
 10
141.194045347112
 20
137.4377489275494
 30
0.0
 10
141.1553872483241
 20
137.4377489275494
 30
0.0
 10
141.0780710507483
 20
137.4377489275494
 30
0.0
 10
140.9686837709248
 20
137.4377489275494
 30
0.0
 10
140.8698251617245
 20
137.4377489275494
 30
0.0
 10
140.8193052853161
 20
137.4377489275494
 30
0.0
 10
140.794045347112
 20
137.4377489275494
 30
0.0
  0
LINE
  5
2A2
330
1F
100
AcDbEntity
  8
0
  6
Continuous
 62
     7
370
    25
100
AcDbLine
 10
141.3308670216
 20
132.5519243836
 30
0.0
 11
129.9151377381
 21
133.186131566
 31
0.0
  0
LINE
  5
2A3
330
1F
100
AcDbEntity
  8
0
  6
Continuous
 62
     7
370
    25
100
AcDbLine
 10
141.2476619922
 20
131.0542338538
 30
0.0
 11
141.3308670216
 21
132.5519243836
 31
0.0
  0
LINE
  5
2A4
330
1F
100
AcDbEntity
  8
0
  6
Continuous
 62
     7
370
    25
100
AcDbLine
 10
131.9139839807
 20
131.5727715211
 30
0.0
 11
141.2476619922
 21
131.0542338538
 31
0.0
  0
LINE
  5
2A5
330
1F
100
AcDbEntity
  8
0
  6
Continuous
 62
     7
370
    25
100
AcDbLine
 10
141.1940453471
 20
135.1195766881
 30
0.0
 11
141.1940453471
 21
137.4377489275
 31
0.0
  0
LINE
  5
2A6
330
1F
100
AcDbEntity
  8
0
  6
Continuous
 62
     7
370
    25
100
AcDbLine
 10
141.2476619922
 20
141.5030917619
 30
0.0
 11
131.9139839807
 21
140.9845540946
 31
0.0
  0
LINE
  5
2A7
330
1F
100
AcDbEntity
  8
0
  6
Continuous
 62
     7
370
    25
100
AcDbLine
 10
141.3308670216
 20
140.0054012321
 30
0.0
 11
141.2476619922
 21
141.5030917619
 31
0.0
  0
LINE
  5
2A8
330
1F
100
AcDbEntity
  8
0
  6
Continuous
 62
     7
370
    25
100
AcDbLine
 10
129.9151377381
 20
139.3711940497
 30
0.0
 11
141.3308670216
 21
140.0054012321
 31
0.0
  0
LINE
  5
2A9
330
1F
100
AcDbEntity
  8
0
  6
Continuous
 62
     7
370
    25
100
AcDbLine
 10
141.6940453471
 20
132.9151027091
 30
0.0
 11
141.3308670216
 21
132.5519243836
 31
0.0
  0
LINE
  5
2AA
330
1F
100
AcDbEntity
  8
0
  6
Continuous
 62
     7
370
    25
100
AcDbLine
 10
141.3308670216
 20
140.0054012321
 30
0.0
 11
141.6940453471
 21
139.6422229066
 31
0.0
  0
LINE
  5
2AB
330
1F
100
AcDbEntity
  8
0
  6
Continuous
 62
     7
370
    25
100
AcDbLine
 10
141.6940453471
 20
132.9151027091
 30
0.0
 11
141.6940453471
 21
139.6422229066
 31
0.0
  0
LINE
  5
2AC
330
1F
100
AcDbEntity
  8
0
  6
Continuous
 62
     7
370
    25
100
AcDbLine
 10
141.6940453471
 20
140.3685795576
 30
0.0
 11
141.3308670216
 21
140.0054012321
 31
0.0
  0
ARC
  5
2AD
330
1F
100
AcDbEntity
  8
0
  6
Continuous
 62
     7
370
    25
100
AcDbCircle
 10
141.3308670216
 20
140.0054012321
 30
0.0
 40
1.500000000000036
100
AcDbArc
 50
75.9883675978
 51
93.1798301199
  0
LINE
  5
2AE
330
1F
100
AcDbEntity
  8
0
  6
Continuous
 62
     7
370
    25
100
AcDbLine
 10
141.6940453471
 20
140.3685795576
 30
0.0
 11
141.6940453471
 21
141.4607711177
 31
0.0
  0
LINE
  5
2AF
330
1F
100
AcDbEntity
  8
0
  6
Continuous
 62
     7
370
    25
100
AcDbLine
 10
141.6940453471
 20
139.6422229066
 30
0.0
 11
141.6940453471
 21
140.3685795576
 31
0.0
  0
LINE
  5
2B0
330
1F
100
AcDbEntity
  8
0
  6
Continuous
 62
     7
370
    25
100
AcDbLine
 10
141.3308670216
 20
132.5519243836
 30
0.0
 11
141.6940453471
 21
132.1887460581
 31
0.0
  0
LINE
  5
2B1
330
1F
100
AcDbEntity
  8
0
  6
Continuous
 62
     7
370
    25
100
AcDbLine
 10
141.6940453471
 20
132.1887460581
 30
0.0
 11
141.6940453471
 21
132.9151027091
 31
0.0
  0
ARC
  5
2B2
330
1F
100
AcDbEntity
  8
0
  6
Continuous
 62
     7
370
    25
100
AcDbCircle
 10
141.3308670216
 20
132.5519243836
 30
0.0
 40
1.500000000000036
100
AcDbArc
 50
266.8201698801
 51
284.0116324022
  0
LINE
  5
2B3
330
1F
100
AcDbEntity
  8
0
  6
Continuous
 62
     7
370
    25
100
AcDbLine
 10
141.6940453471
 20
131.096554498
 30
0.0
 11
141.6940453471
 21
132.1887460581
 31
0.0
  0
SPLINE
  5
2B4
330
1F
100
AcDbEntity
  8
0
  6
Continuous
 62
     7
370
    25
100
AcDbSpline
210
0.0
220
0.0
230
1.0
 70
    24
 71
     3
 72
     9
 73
     5
 74
     0
 42
0.00000001
 43
0.00000001
 40
0.0
 40
0.0
 40
0.0
 40
0.0
 40
0.5389665913333133
 40
0.9999999999999999
 40
0.9999999999999999
 40
0.9999999999999999
 40
0.9999999999999999
 10
129.8480118859113
 20
140.8697778670908
 30
0.0
 10
129.8020859441338
 20
140.8672264258809
 30
0.0
 10
129.7168748336198
 20
140.8624924752968
 30
0.0
 10
129.7294560257828
 20
140.863191430417
 30
0.0
 10
129.7352563756909
 20
140.8635136720786
 30
0.0
  0
SPLINE
  5
2B5
330
1F
100
AcDbEntity
  8
0
  6
Continuous
 62
     7
370
    25
100
AcDbSpline
210
0.0
220
0.0
230
1.0
 70
    24
 71
     3
 72
     9
 73
     5
 74
     0
 42
0.00000001
 43
0.00000001
 40
0.0
 40
0.0
 40
0.0
 40
0.0
 40
0.449000901028251
 40
1.0
 40
1.0
 40
1.0
 40
1.0
 10
129.7413544468562
 20
131.6934731618884
 30
0.0
 10
129.7329688942645
 20
131.6939390259213
 30
0.0
 10
129.7142928680639
 20
131.6949765829325
 30
0.0
 10
129.8005076298494
 20
131.6901868739444
 30
0.0
 10
129.8480118859113
 20
131.6875477486076
 30
0.0
  0
SPLINE
  5
2B6
330
1F
100
AcDbEntity
  8
0
  6
Continuous
 62
     7
370
    25
100
AcDbSpline
210
0.0
220
0.0
230
1.0
 70
     8
 71
     3
 72
     9
 73
     5
 74
     0
 42
0.00000001
 43
0.00000001
 40
0.0
 40
0.0
 40
0.0
 40
0.0
 40
0.5407747560677784
 40
1.0
 40
1.0
 40
1.0
 40
1.0
 10
101.4597767250899
 20
138.0649034702658
 30
0.0
 10
101.4520206830425
 20
138.0649329706787
 30
0.0
 10
101.4376782198257
 20
138.0649875228051
 30
0.0
 10
101.4233597160178
 20
138.0643832776702
 30
0.0
 10
101.4167842976138
 20
138.0641057930507
 30
0.0
  0
LINE
  5
2B7
330
1F
100
AcDbEntity
  8
0
  6
Continuous
 62
     7
370
    25
100
AcDbLine
 10
101.4597767251
 20
134.4924221454
 30
0.0
 11
101.4167842976
 21
134.4932198226
 31
0.0
  0
ARC
  5
2B8
330
1F
100
AcDbEntity
  8
0
  6
Continuous
 62
     7
370
    25
100
AcDbCircle
 10
96.6296112639
 20
137.2595944631
 30
0.0
 40
0.2631252798793626
100
AcDbArc
 50
155.8034959
 51
205.179542564
  0
CIRCLE
  5
2B9
330
1F
100
AcDbEntity
  8
0
  6
Continuous
 62
     7
370
    25
100
AcDbCircle
 10
151.6940453471
 20
136.2786628078
 30
0.0
 40
7.558608890731335
  0
CIRCLE
  5
2BA
330
1F
100
AcDbEntity
  8
0
  6
Continuous
 62
     7
370
    25
100
AcDbCircle
 10
151.6940453471
 20
136.2786628078
 30
0.0
 40
8.0547478290882
  0
CIRCLE
  5
2BB
330
1F
100
AcDbEntity
  8
0
  6
Continuous
 62
     7
370
    25
100
AcDbCircle
 10
151.6940453471
 20
136.2786628078
 30
0.0
 40
5.5
  0
SPLINE
  5
2BC
330
1F
100
AcDbEntity
  8
0
  6
Continuous
 62
     7
370
    25
100
AcDbSpline
210
0.0
220
0.0
230
1.0
 70
     8
 71
     3
 72
    11
 73
     7
 74
     0
 42
0.00000001
 43
0.00000001
 40
0.0
 40
0.0
 40
0.0
 40
0.0
 40
0.2920574028183088
 40
0.5665622171831315
 40
0.8065682389915577
 40
1.0
 40
1.0
 40
1.0
 40
1.0
 10
143.5778397400586
 20
134.7988971020582
 30
0.0
 10
143.6095002763741
 20
134.6312965666346
 30
0.0
 10
143.6709185574347
 20
134.306168252699
 30
0.0
 10
143.7508309166993
 20
133.9055645868328
 30
0.0
 10
143.7899297304268
 20
133.6477243908276
 30
0.0
 10
143.7745133674972
 20
133.597078962546
 30
0.0
 10
143.7676334545131
 20
133.5744772541396
 30
0.0
  0
ARC
  5
2BD
330
1F
100
AcDbEntity
  8
0
  6
Continuous
 62
     7
370
    25
100
AcDbCircle
 10
151.6940453471
 20
136.2786628078
 30
0.0
 40
8.249999999999968
100
AcDbArc
 50
169.6671934996
 51
190.3328065004
  0
SPLINE
  5
2BE
330
1F
100
AcDbEntity
  8
0
  6
Continuous
 62
     7
370
    25
100
AcDbSpline
210
0.0
220
0.0
230
1.0
 70
     8
 71
     3
 72
    12
 73
     8
 74
     0
 42
0.00000001
 43
0.00000001
 40
0.0
 40
0.0
 40
0.0
 40
0.0
 40
0.1882084234719072
 40
0.3759134198095933
 40
0.5768476463044265
 40
0.80182437569794
 40
1.0
 40
1.0
 40
1.0
 40
1.0
 10
143.7676334545164
 20
138.9828483615555
 30
0.0
 10
143.7745050458859
 20
138.9612451670428
 30
0.0
 10
143.7882298482279
 20
138.9180965630736
 30
0.0
 10
143.7624051482698
 20
138.724556705291
 30
0.0
 10
143.7113253536281
 20
138.449727647252
 30
0.0
 10
143.6440853519599
 20
138.1139875098826
 30
0.0
 10
143.5989691048397
 20
137.8718358098699
 30
0.0
 10
143.5778397400586
 20
137.7584285136402
 30
0.0
  0
ARC
  5
2BF
330
1F
100
AcDbEntity
  8
0
  6
Continuous
 62
     7
370
    25
100
AcDbCircle
 10
151.6940453471
 20
136.2786628078
 30
0.0
 40
8.986048245082024
100
AcDbArc
 50
200.7364869057
 51
159.2635130943
  0
LINE
  5
2C0
330
1F
100
AcDbEntity
  8
0
  6
Continuous
 62
     7
370
    25
100
AcDbLine
 10
143.7676334545
 20
133.5744772541
 30
0.0
 11
142.0379738028
 21
131.8448176024
 31
0.0
  0
LINE
  5
2C1
330
1F
100
AcDbEntity
  8
0
  6
Continuous
 62
     7
370
    25
100
AcDbLine
 10
142.0379738028
 20
140.7125080133
 30
0.0
 11
143.7676334545
 21
138.9828483616
 31
0.0
  0
ARC
  5
2C2
330
1F
100
AcDbEntity
  8
0
  6
Continuous
 62
     7
370
    25
100
AcDbCircle
 10
141.3308670216
 20
140.0054012321
 30
0.0
 40
1.000000000000006
100
AcDbArc
 50
45.0
 51
68.7044833353
  0
ARC
  5
2C3
330
1F
100
AcDbEntity
  8
0
  6
Continuous
 62
     7
370
    25
100
AcDbCircle
 10
141.3308670216
 20
132.5519243836
 30
0.0
 40
1.000000000000006
100
AcDbArc
 50
291.2955166647
 51
315.0
  0
LINE
  5
2C4
330
1F
100
AcDbEntity
  8
0
  6
Continuous
 62
     7
370
    25
100
AcDbLine
 10
127.6940453471
 20
139.6914949239
 30
0.0
 11
127.6940453471
 21
142.6286628078
 31
0.0
  0
LINE
  5
2C5
330
1F
100
AcDbEntity
  8
0
  6
Continuous
 62
     7
370
    25
100
AcDbLine
 10
127.6940453471
 20
129.9286628078
 30
0.0
 11
127.6940453471
 21
132.8707038118
 31
0.0
  0
LINE
  5
2C6
330
1F
100
AcDbEntity
  8
0
  6
Continuous
 62
     7
370
    25
100
AcDbLine
 10
128.5433745494
 20
132.4905670214
 30
0.0
 11
128.5564503482
 21
132.514267301
 31
0.0
  0
ARC
  5
2C7
330
1F
100
AcDbEntity
  8
0
  6
Continuous
 62
     7
370
    25
100
AcDbCircle
 10
96.629925013
 20
135.2976676236
 30
0.0
 40
0.2634362559595839
100
AcDbArc
 50
154.8369856874
 51
203.8307940263
  0
LINE
  5
2C8
330
1F
100
AcDbEntity
  8
0
  6
Continuous
 62
     7
370
    25
100
AcDbLine
 10
96.2468317516
 20
136.4401084022
 30
0.0
 11
96.194045437
 21
136.4401084022
 31
0.0
  0
LINE
  5
2C9
330
1F
100
AcDbEntity
  8
0
  6
Continuous
 62
     7
370
    25
100
AcDbLine
 10
96.2468317516
 20
136.1172172135
 30
0.0
 11
96.1940454142
 21
136.1172172135
 31
0.0
  0
LINE
  5
2CA
330
1F
100
AcDbEntity
  8
0
  6
Continuous
 62
     7
370
    25
100
AcDbLine
 10
142.0379738028
 20
131.8448176024
 30
0.0
 11
141.6940453471
 21
132.1887460581
 31
0.0
  0
LINE
  5
2CB
330
1F
100
AcDbEntity
  8
0
  6
Continuous
 62
     7
370
    25
100
AcDbLine
 10
141.6940453471
 20
132.9151027091
 30
0.0
 11
143.5778397401
 21
134.7988971021
 31
0.0
  0
LINE
  5
2CC
330
1F
100
AcDbEntity
  8
0
  6
Continuous
 62
     7
370
    25
100
AcDbLine
 10
143.5778397401
 20
137.7584285136
 30
0.0
 11
141.6940453471
 21
139.6422229066
 31
0.0
  0
LINE
  5
2CD
330
1F
100
AcDbEntity
  8
0
  6
Continuous
 62
     7
370
    25
100
AcDbLine
 10
142.0379738028
 20
140.7125080133
 30
0.0
 11
141.6940453471
 21
140.3685795576
 31
0.0
  0
INSERT
  5
2D9
330
1F
100
AcDbEntity
  8
0
  6
Continuous
 62
     7
370
    18
100
AcDbBlockReference
  2
SW_CENTERMARKSYMBOL_1
 10
151.6940453471
 20
136.2786628078
 30
0.0
  0
LINE
  5
2DA
330
1F
100
AcDbEntity
  8
0
  6
Continuous
 62
     7
370
    18
100
AcDbLine
 10
164.6940453471
 20
126.5100378078
 30
0.0
 11
178.1585212284
 21
126.9308026791
 31
0.0
  0
LINE
  5
2DB
330
1F
100
AcDbEntity
  8
0
  6
Continuous
 62
     7
370
    18
100
AcDbLine
 10
178.1585212284
 20
145.6265229366
 30
0.0
 11
164.6940453471
 21
146.0472878078
 31
0.0
  0
ENDSEC
  0
SECTION
  2
OBJECTS
  0
DICTIONARY
  5
C
330
0
100
AcDbDictionary
281
     1
  3
ACAD_GROUP
350
D
  3
ACAD_LAYOUT
350
1A
  3
ACAD_MLINESTYLE
350
17
  3
ACAD_PLOTSETTINGS
350
19
  3
ACAD_PLOTSTYLENAME
350
E
  3
ACAD_SCALELIST
350
47
  3
DWGPROPS
350
2DC
  0
DICTIONARY
  5
D
102
{ACAD_REACTORS
330
C
102
}
330
C
100
AcDbDictionary
281
     1
  0
DICTIONARY
  5
1A
102
{ACAD_REACTORS
330
C
102
}
330
C
100
AcDbDictionary
281
     1
  3
Layout1
350
1E
  3
Layout2
350
26
  3
Model
350
22
  0
DICTIONARY
  5
17
102
{ACAD_REACTORS
330
C
102
}
330
C
100
AcDbDictionary
281
     1
  3
Standard
350
18
  0
DICTIONARY
  5
19
102
{ACAD_REACTORS
330
C
102
}
330
C
100
AcDbDictionary
281
     1
  0
ACDBDICTIONARYWDFLT
  5
E
102
{ACAD_REACTORS
330
C
102
}
330
C
100
AcDbDictionary
281
     1
  3
Normal
350
F
100
AcDbDictionaryWithDefault
340
F
  0
DICTIONARY
  5
47
102
{ACAD_REACTORS
330
C
102
}
330
C
100
AcDbDictionary
281
     1
  3
A0
350
48
  3
A1
350
49
  3
A2
350
4A
  3
A3
350
4B
  3
A4
350
4C
  3
A5
350
4D
  3
A6
350
4E
  3
A7
350
4F
  3
A8
350
50
  3
A9
350
51
  3
B0
350
52
  3
B1
350
53
  3
B2
350
54
  3
B3
350
55
  3
B4
350
56
  3
B5
350
57
  3
B6
350
58
  0
XRECORD
  5
2DC
102
{ACAD_REACTORS
330
C
102
}
330
C
100
AcDbXrecord
280
     1
  1
DWGPROPS COOKIE
  2

  3

  4

  6

  7

  8
user28
  9

300
=
301
=
302
=
303
=
304
=
305
=
306
=
307
=
308
=
309
=
 40
0.0
 41
2460297.30059581
 42
2460297.300596806
  1

 90
        0
  0
LAYOUT
  5
1E
102
{ACAD_REACTORS
330
1A
102
}
330
1A
100
AcDbPlotSettings
  1

  2
none_device
  4

  6

 40
0.0
 41
0.0
 42
0.0
 43
0.0
 44
0.0
 45
0.0
 46
0.0
 47
0.0
 48
0.0
 49
0.0
140
0.0
141
0.0
142
1.0
143
1.0
 70
   688
 72
     1
 73
     0
 74
     5
  7

 75
    16
147
1.0
148
0.0
149
0.0
100
AcDbLayout
  1
Layout1
 70
     1
 71
     1
 10
0.0
 20
0.0
 11
420.0
 21
297.0
 12
0.0
 22
0.0
 32
0.0
 14
1.0000000000E+20
 24
1.0000000000E+20
 34
1.0000000000E+20
 15
-1.0000000000E+20
 25
-1.0000000000E+20
 35
-1.0000000000E+20
146
0.0
 13
0.0
 23
0.0
 33
0.0
 16
1.0
 26
0.0
 36
0.0
 17
0.0
 27
1.0
 37
0.0
 76
     0
330
1B
  0
LAYOUT
  5
26
102
{ACAD_REACTORS
330
1A
102
}
330
1A
100
AcDbPlotSettings
  1

  2
none_device
  4

  6

 40
0.0
 41
0.0
 42
0.0
 43
0.0
 44
0.0
 45
0.0
 46
0.0
 47
0.0
 48
0.0
 49
0.0
140
0.0
141
0.0
142
1.0
143
1.0
 70
   688
 72
     1
 73
     0
 74
     5
  7

 75
    16
147
1.0
148
0.0
149
0.0
100
AcDbLayout
  1
Layout2
 70
     1
 71
     2
 10
0.0
 20
0.0
 11
0.0
 21
0.0
 12
0.0
 22
0.0
 32
0.0
 14
0.0
 24
0.0
 34
0.0
 15
0.0
 25
0.0
 35
0.0
146
0.0
 13
0.0
 23
0.0
 33
0.0
 16
1.0
 26
0.0
 36
0.0
 17
0.0
 27
1.0
 37
0.0
 76
     0
330
23
  0
LAYOUT
  5
22
102
{ACAD_REACTORS
330
1A
102
}
330
1A
100
AcDbPlotSettings
  1

  2
none_device
  4
Letter_(8.50_x_11.00_Inches)
  6

 40
6.35
 41
6.35
 42
6.35000508
 43
6.35000508
 44
215.9
 45
279.4
 46
0.0
 47
0.0
 48
0.0
 49
0.0
140
0.0
141
0.0
142
1.0
143
1.0
 70
  1712
 72
     1
 73
     0
 74
     0
  7

 75
     0
147
1.0
148
0.0
149
0.0
100
AcDbLayout
  1
Model
 70
     1
 71
     0
 10
0.0
 20
0.0
 11
431.8
 21
279.4
 12
0.0
 22
0.0
 32
0.0
 14
0.0
 24
0.0
 34
0.0
 15
431.8
 25
279.4
 35
0.0
146
0.0
 13
0.0
 23
0.0
 33
0.0
 16
1.0
 26
0.0
 36
0.0
 17
0.0
 27
1.0
 37
0.0
 76
     0
330
1F
331
29
  0
MLINESTYLE
  5
18
102
{ACAD_REACTORS
330
17
102
}
330
17
100
AcDbMlineStyle
  2
Standard
 70
     0
  3

 62
   256
 51
90.0
 52
90.0
 71
     2
 49
0.5
 62
   256
  6
BYLAYER
 49
-0.5
 62
   256
  6
BYLAYER
  0
ACDBPLACEHOLDER
  5
F
102
{ACAD_REACTORS
330
E
102
}
330
E
  0
SCALE
  5
48
102
{ACAD_REACTORS
330
47
102
}
330
47
100
AcDbScale
 70
     0
300
1:1
140
1.0
141
1.0
290
     1
  0
SCALE
  5
49
102
{ACAD_REACTORS
330
47
102
}
330
47
100
AcDbScale
 70
     0
300
1:2
140
1.0
141
2.0
290
     0
  0
SCALE
  5
4A
102
{ACAD_REACTORS
330
47
102
}
330
47
100
AcDbScale
 70
     0
300
1:4
140
1.0
141
4.0
290
     0
  0
SCALE
  5
4B
102
{ACAD_REACTORS
330
47
102
}
330
47
100
AcDbScale
 70
     0
300
1:5
140
1.0
141
5.0
290
     0
  0
SCALE
  5
4C
102
{ACAD_REACTORS
330
47
102
}
330
47
100
AcDbScale
 70
     0
300
1:8
140
1.0
141
8.0
290
     0
  0
SCALE
  5
4D
102
{ACAD_REACTORS
330
47
102
}
330
47
100
AcDbScale
 70
     0
300
1:10
140
1.0
141
10.0
290
     0
  0
SCALE
  5
4E
102
{ACAD_REACTORS
330
47
102
}
330
47
100
AcDbScale
 70
     0
300
1:16
140
1.0
141
16.0
290
     0
  0
SCALE
  5
4F
102
{ACAD_REACTORS
330
47
102
}
330
47
100
AcDbScale
 70
     0
300
1:20
140
1.0
141
20.0
290
     0
  0
SCALE
  5
50
102
{ACAD_REACTORS
330
47
102
}
330
47
100
AcDbScale
 70
     0
300
1:30
140
1.0
141
30.0
290
     0
  0
SCALE
  5
51
102
{ACAD_REACTORS
330
47
102
}
330
47
100
AcDbScale
 70
     0
300
1:40
140
1.0
141
40.0
290
     0
  0
SCALE
  5
52
102
{ACAD_REACTORS
330
47
102
}
330
47
100
AcDbScale
 70
     0
300
1:50
140
1.0
141
50.0
290
     0
  0
SCALE
  5
53
102
{ACAD_REACTORS
330
47
102
}
330
47
100
AcDbScale
 70
     0
300
1:100
140
1.0
141
100.0
290
     0
  0
SCALE
  5
54
102
{ACAD_REACTORS
330
47
102
}
330
47
100
AcDbScale
 70
     0
300
2:1
140
2.0
141
1.0
290
     0
  0
SCALE
  5
55
102
{ACAD_REACTORS
330
47
102
}
330
47
100
AcDbScale
 70
     0
300
4:1
140
4.0
141
1.0
290
     0
  0
SCALE
  5
56
102
{ACAD_REACTORS
330
47
102
}
330
47
100
AcDbScale
 70
     0
300
8:1
140
8.0
141
1.0
290
     0
  0
SCALE
  5
57
102
{ACAD_REACTORS
330
47
102
}
330
47
100
AcDbScale
 70
     0
300
10:1
140
10.0
141
1.0
290
     0
  0
SCALE
  5
58
102
{ACAD_REACTORS
330
47
102
}
330
47
100
AcDbScale
 70
     0
300
100:1
140
100.0
141
1.0
290
     0
  0
ENDSEC
  0
EOF
