  0
SECTION
  2
HEADER
  9
$ACADVER
  1
AC1015
  9
$ACADMAINTVER
 70
     6
  9
$DWGCODEPAGE
  3
DOS932
  9
$INSBASE
 10
0.0
 20
0.0
 30
0.0
  9
$EXTMIN
 10
0.0
 20
0.0
 30
0.0
  9
$EXTMAX
 10
297.0
 20
210.0
 30
0.0
  9
$LIMMIN
 10
0.0
 20
0.0
  9
$LIMMAX
 10
297.0
 20
210.0
  9
$ORTHOMODE
 70
     0
  9
$REGENMODE
 70
     1
  9
$FILLMODE
 70
     1
  9
$QTEXTMODE
 70
     0
  9
$MIRRTEXT
 70
     1
  9
$LTSCALE
 40
1.0
  9
$ATTMODE
 70
     1
  9
$TEXTSIZE
 40
3.5277777778
  9
$TRACEWID
 40
1.0
  9
$TEXTSTYLE
  7
Standard
  9
$CLAYER
  8
0
  9
$CELTYPE
  6
ByLayer
  9
$CECOLOR
 62
   256
  9
$CELTSCALE
 40
1.0
  9
$DISPSILH
 70
     0
  9
$DIMSCALE
 40
1.0
  9
$DIMASZ
 40
2.728515625
  9
$DIMEXO
 40
1.0
  9
$DIMDLI
 40
3.75
  9
$DIMRND
 40
0.0
  9
$DIMDLE
 40
0.0
  9
$DIMEXE
 40
1.0
  9
$DIMTP
 40
0.0
  9
$DIMTM
 40
0.0
  9
$DIMTXT
 40
3.5277777778
  9
$DIMCEN
 40
2.5
  9
$DIMTSZ
 40
0.0
  9
$DIMTOL
 70
     0
  9
$DIMLIM
 70
     0
  9
$DIMTIH
 70
     1
  9
$DIMTOH
 70
     1
  9
$DIMSE1
 70
     0
  9
$DIMSE2
 70
     0
  9
$DIMTAD
 70
     1
  9
$DIMZIN
 70
     0
  9
$DIMBLK
  1

  9
$DIMASO
 70
     1
  9
$DIMSHO
 70
     1
  9
$DIMPOST
  1

  9
$DIMAPOST
  1

  9
$DIMALT
 70
     0
  9
$DIMALTD
 70
     3
  9
$DIMALTF
 40
0.0393700787
  9
$DIMLFAC
 40
1.0
  9
$DIMTOFL
 70
     1
  9
$DIMTVP
 40
0.0
  9
$DIMTIX
 70
     0
  9
$DIMSOXD
 70
     0
  9
$DIMSAH
 70
     0
  9
$DIMBLK1
  1

  9
$DIMBLK2
  1

  9
$DIMSTYLE
  2
ISO-25
  9
$DIMCLRD
 70
     0
  9
$DIMCLRE
 70
     0
  9
$DIMCLRT
 70
     0
  9
$DIMTFAC
 40
1.0
  9
$DIMGAP
 40
1.524
  9
$DIMJUST
 70
     0
  9
$DIMSD1
 70
     0
  9
$DIMSD2
 70
     0
  9
$DIMTOLJ
 70
     0
  9
$DIMTZIN
 70
     0
  9
$DIMALTZ
 70
     0
  9
$DIMALTTZ
 70
     0
  9
$DIMUPT
 70
     0
  9
$DIMDEC
 70
     2
  9
$DIMTDEC
 70
     2
  9
$DIMALTU
 70
     2
  9
$DIMALTTD
 70
     3
  9
$DIMTXSTY
  7
Standard
  9
$DIMAUNIT
 70
     0
  9
$DIMADEC
 70
     2
  9
$DIMALTRND
 40
0.0
  9
$DIMAZIN
 70
     0
  9
$DIMDSEP
 70
    44
  9
$DIMATFIT
 70
     3
  9
$DIMFRAC
 70
     0
  9
$DIMLDRBLK
  1

  9
$DIMLUNIT
 70
     2
  9
$DIMLWD
 70
    -2
  9
$DIMLWE
 70
    -2
  9
$DIMTMOVE
 70
     0
  9
$LUNITS
 70
     2
  9
$LUPREC
 70
     2
  9
$SKETCHINC
 40
1.0
  9
$FILLETRAD
 40
0.0
  9
$AUNITS
 70
     0
  9
$AUPREC
 70
     2
  9
$MENU
  1
.
  9
$ELEVATION
 40
0.0
  9
$PELEVATION
 40
0.0
  9
$THICKNESS
 40
0.0
  9
$LIMCHECK
 70
     0
  9
$CHAMFERA
 40
0.0
  9
$CHAMFERB
 40
0.0
  9
$CHAMFERC
 40
0.0
  9
$CHAMFERD
 40
0.0
  9
$SKPOLY
 70
     0
  9
$TDCREATE
 40
2460336.649847593
  9
$TDUCREATE
 40
2460336.274847593
  9
$TDUPDATE
 40
2460336.649848287
  9
$TDUUPDATE
 40
2460336.274848287
  9
$TDINDWG
 40
0.0000000116
  9
$TDUSRTIMER
 40
0.0000000116
  9
$USRTIMER
 70
     1
  9
$ANGBASE
 50
0.0
  9
$ANGDIR
 70
     0
  9
$PDMODE
 70
     0
  9
$PDSIZE
 40
-1.0
  9
$PLINEWID
 40
0.0
  9
$SPLFRAME
 70
     0
  9
$SPLINETYPE
 70
     6
  9
$SPLINESEGS
 70
     8
  9
$HANDSEED
  5
287
  9
$SURFTAB1
 70
     6
  9
$SURFTAB2
 70
     6
  9
$SURFTYPE
 70
     6
  9
$SURFU
 70
     6
  9
$SURFV
 70
     6
  9
$UCSBASE
  2

  9
$UCSNAME
  2

  9
$UCSORG
 10
0.0
 20
0.0
 30
0.0
  9
$UCSXDIR
 10
1.0
 20
0.0
 30
0.0
  9
$UCSYDIR
 10
0.0
 20
1.0
 30
0.0
  9
$UCSORTHOREF
  2

  9
$UCSORTHOVIEW
 70
     0
  9
$UCSORGTOP
 10
0.0
 20
0.0
 30
0.0
  9
$UCSORGBOTTOM
 10
0.0
 20
0.0
 30
0.0
  9
$UCSORGLEFT
 10
0.0
 20
0.0
 30
0.0
  9
$UCSORGRIGHT
 10
0.0
 20
0.0
 30
0.0
  9
$UCSORGFRONT
 10
0.0
 20
0.0
 30
0.0
  9
$UCSORGBACK
 10
0.0
 20
0.0
 30
0.0
  9
$PUCSBASE
  2

  9
$PUCSNAME
  2

  9
$PUCSORG
 10
0.0
 20
0.0
 30
0.0
  9
$PUCSXDIR
 10
1.0
 20
0.0
 30
0.0
  9
$PUCSYDIR
 10
0.0
 20
1.0
 30
0.0
  9
$PUCSORTHOREF
  2

  9
$PUCSORTHOVIEW
 70
     0
  9
$PUCSORGTOP
 10
0.0
 20
0.0
 30
0.0
  9
$PUCSORGBOTTOM
 10
0.0
 20
0.0
 30
0.0
  9
$PUCSORGLEFT
 10
0.0
 20
0.0
 30
0.0
  9
$PUCSORGRIGHT
 10
0.0
 20
0.0
 30
0.0
  9
$PUCSORGFRONT
 10
0.0
 20
0.0
 30
0.0
  9
$PUCSORGBACK
 10
0.0
 20
0.0
 30
0.0
  9
$USERI1
 70
     0
  9
$USERI2
 70
     0
  9
$USERI3
 70
     0
  9
$USERI4
 70
     0
  9
$USERI5
 70
     0
  9
$USERR1
 40
0.0
  9
$USERR2
 40
0.0
  9
$USERR3
 40
0.0
  9
$USERR4
 40
0.0
  9
$USERR5
 40
0.0
  9
$WORLDVIEW
 70
     1
  9
$SHADEDGE
 70
     3
  9
$SHADEDIF
 70
    70
  9
$TILEMODE
 70
     1
  9
$MAXACTVP
 70
    64
  9
$PINSBASE
 10
0.0
 20
0.0
 30
0.0
  9
$PLIMCHECK
 70
     0
  9
$PEXTMIN
 10
1.0000000000E+20
 20
1.0000000000E+20
 30
1.0000000000E+20
  9
$PEXTMAX
 10
-1.0000000000E+20
 20
-1.0000000000E+20
 30
-1.0000000000E+20
  9
$PLIMMIN
 10
0.0
 20
0.0
  9
$PLIMMAX
 10
420.0
 20
297.0
  9
$UNITMODE
 70
     0
  9
$VISRETAIN
 70
     1
  9
$PLINEGEN
 70
     0
  9
$PSLTSCALE
 70
     1
  9
$TREEDEPTH
 70
  3020
  9
$CMLSTYLE
  2
Standard
  9
$CMLJUST
 70
     0
  9
$CMLSCALE
 40
20.0
  9
$PROXYGRAPHICS
 70
     1
  9
$MEASUREMENT
 70
     1
  9
$CELWEIGHT
370
    -1
  9
$ENDCAPS
280
     0
  9
$JOINSTYLE
280
     0
  9
$LWDISPLAY
290
     1
  9
$INSUNITS
 70
     4
  9
$HYPERLINKBASE
  1

  9
$STYLESHEET
  1

  9
$XEDIT
290
     1
  9
$CEPSNTYPE
380
     0
  9
$PSTYLEMODE
290
     1
  9
$FINGERPRINTGUID
  2
{4353ef8c-4e37-4be6-8cf1-0b8e337c0de0}
  9
$VERSIONGUID
  2
{FAEB1C32-E019-11D5-929B-00C0DF256EC4}
  9
$EXTNAMES
290
     1
  9
$PSVPSCALE
 40
0.0
  9
$OLESTARTUP
290
     0
  0
ENDSEC
  0
SECTION
  2
CLASSES
  0
CLASS
  1
ACDBDICTIONARYWDFLT
  2
AcDbDictionaryWithDefault
  3
ObjectDBX Classes
 90
        0
280
     0
281
     0
  0
CLASS
  1
VISUALSTYLE
  2
AcDbVisualStyle
  3
ObjectDBX Classes
 90
     4095
280
     0
281
     0
  0
CLASS
  1
MATERIAL
  2
AcDbMaterial
  3
ObjectDBX Classes
 90
     1153
280
     0
281
     0
  0
CLASS
  1
SCALE
  2
AcDbScale
  3
ObjectDBX Classes
 90
     1153
280
     0
281
     0
  0
CLASS
  1
TABLESTYLE
  2
AcDbTableStyle
  3
ObjectDBX Classes
 90
     4095
280
     0
281
     0
  0
CLASS
  1
MLEADERSTYLE
  2
AcDbMLeaderStyle
  3
ACDB_MLEADERSTYLE_CLASS
 90
     4095
280
     0
281
     0
  0
CLASS
  1
SUN
  2
AcDbSun
  3
SCENEOE
 90
     1153
280
     0
281
     0
  0
CLASS
  1
ACDBPLACEHOLDER
  2
AcDbPlaceHolder
  3
ObjectDBX Classes
 90
        0
280
     0
281
     0
  0
CLASS
  1
LAYOUT
  2
AcDbLayout
  3
ObjectDBX Classes
 90
        0
280
     0
281
     0
  0
ENDSEC
  0
SECTION
  2
TABLES
  0
TABLE
  2
VPORT
  5
8
330
0
100
AcDbSymbolTable
 70
     1
  0
VPORT
  5
29
330
8
100
AcDbSymbolTableRecord
100
AcDbViewportTableRecord
  2
*Active
 70
     0
 10
0.0
 20
0.0
 11
1.0
 21
1.0
 12
148.5
 22
105.0
 13
0.0
 23
0.0
 14
10.0
 24
10.0
 15
10.0
 25
10.0
 16
0.0
 26
0.0
 36
1.0
 17
0.0
 27
0.0
 37
0.0
 40
210.0
 41
1.4142857143
 42
50.0
 43
0.0
 44
0.0
 50
0.0
 51
0.0
 71
     0
 72
  2000
 73
     1
 74
     3
 75
     0
 76
     0
 77
     0
 78
     0
281
     0
 65
     1
110
0.0
120
0.0
130
0.0
111
1.0
121
0.0
131
0.0
112
0.0
122
1.0
132
0.0
 79
     0
146
0.0
  0
ENDTAB
  0
TABLE
  2
LTYPE
  5
5
330
0
100
AcDbSymbolTable
 70
     6
  0
LTYPE
  5
14
330
5
100
AcDbSymbolTableRecord
100
AcDbLinetypeTableRecord
  2
ByBlock
 70
     0
  3

 72
    65
 73
     0
 40
0.0
  0
LTYPE
  5
15
330
5
100
AcDbSymbolTableRecord
100
AcDbLinetypeTableRecord
  2
ByLayer
 70
     0
  3

 72
    65
 73
     0
 40
0.0
  0
LTYPE
  5
16
330
5
100
AcDbSymbolTableRecord
100
AcDbLinetypeTableRecord
  2
Continuous
 70
     0
  3
Solid line
 72
    65
 73
     0
 40
0.0
  0
LTYPE
  5
5E
330
5
100
AcDbSymbolTableRecord
100
AcDbLinetypeTableRecord
  2
HIDDEN
 70
     0
  3
Hidden __ __ __ __ __ __ __ __ __ __ __ __ __ __
 72
    65
 73
     2
 40
1.905
 49
1.27
 74
     0
 49
-0.635
 74
     0
  0
LTYPE
  5
5F
330
5
100
AcDbSymbolTableRecord
100
AcDbLinetypeTableRecord
  2
PHANTOM
 70
     0
  3
Phantom ______  __  __  ______  __  __  ______
 72
    65
 73
     6
 40
12.7
 49
6.35
 74
     0
 49
-1.27
 74
     0
 49
1.27
 74
     0
 49
-1.27
 74
     0
 49
1.27
 74
     0
 49
-1.27
 74
     0
  0
LTYPE
  5
60
330
5
100
AcDbSymbolTableRecord
100
AcDbLinetypeTableRecord
  2
CENTER
 70
     0
  3
Center ____ _ ____ _ ____ _ ____ _ ____ _ ____
 72
    65
 73
     4
 40
10.16
 49
6.35
 74
     0
 49
-1.27
 74
     0
 49
1.27
 74
     0
 49
-1.27
 74
     0
  0
LTYPE
  5
61
330
5
100
AcDbSymbolTableRecord
100
AcDbLinetypeTableRecord
  2
CENTERX2
 70
     0
  3
Center (2x) ________  __  ________  __  _____
 72
    65
 73
     4
 40
20.32
 49
12.7
 74
     0
 49
-2.54
 74
     0
 49
2.54
 74
     0
 49
-2.54
 74
     0
  0
LTYPE
  5
62
330
5
100
AcDbSymbolTableRecord
100
AcDbLinetypeTableRecord
  2
DOT2
 70
     0
  3
Dot (.5x) ........................................
 72
    65
 73
     2
 40
0.635
 49
0.0
 74
     0
 49
-0.635
 74
     0
  0
ENDTAB
  0
TABLE
  2
LAYER
  5
2
330
0
100
AcDbSymbolTable
 70
     2
  0
LAYER
  5
10
330
2
100
AcDbSymbolTableRecord
100
AcDbLayerTableRecord
  2
0
 70
     0
 62
     7
  6
Continuous
370
    -3
390
F
  0
LAYER
  5
63
330
2
100
AcDbSymbolTableRecord
100
AcDbLayerTableRecord
  2
FORMAT
 70
     0
 62
     7
  6
Continuous
370
    -3
390
F
  0
ENDTAB
  0
TABLE
  2
STYLE
  5
3
330
0
100
AcDbSymbolTable
 70
     2
  0
STYLE
  5
11
330
3
100
AcDbSymbolTableRecord
100
AcDbTextStyleTableRecord
  2
Standard
 70
     0
 40
0.0
 41
1.0
 50
0.0
 71
     0
 42
3.5277777778
  3
txt
  4
bigfont
  0
STYLE
  5
64
330
3
100
AcDbSymbolTableRecord
100
AcDbTextStyleTableRecord
  2
SLDTEXTSTYLE0
 70
     0
 40
0.0
 41
0.7
 50
0.0
 71
     0
 42
3.5277777778
  3
TXT
  4
bigfont
  0
ENDTAB
  0
TABLE
  2
VIEW
  5
6
330
0
100
AcDbSymbolTable
 70
     0
  0
ENDTAB
  0
TABLE
  2
UCS
  5
7
330
0
100
AcDbSymbolTable
 70
     0
  0
ENDTAB
  0
TABLE
  2
APPID
  5
9
330
0
100
AcDbSymbolTable
 70
     1
  0
APPID
  5
12
330
9
100
AcDbSymbolTableRecord
100
AcDbRegAppTableRecord
  2
ACAD
 70
     0
  0
ENDTAB
  0
TABLE
  2
DIMSTYLE
  5
A
330
0
100
AcDbSymbolTable
 70
     1
100
AcDbDimStyleTable
  0
DIMSTYLE
105
27
330
A
100
AcDbSymbolTableRecord
100
AcDbDimStyleTableRecord
  2
ISO-25
 70
     0
 41
2.5
 42
0.625
 43
3.75
 44
1.25
 73
     0
 74
     0
 77
     1
 78
     8
140
2.5
141
2.5
143
0.0393700787
147
0.625
171
     3
172
     1
178
     0
271
     2
272
     2
274
     3
278
    44
283
     0
284
     8
340
11
  0
ENDTAB
  0
TABLE
  2
BLOCK_RECORD
  5
1
330
0
100
AcDbSymbolTable
 70
     3
  0
BLOCK_RECORD
  5
1F
330
1
100
AcDbSymbolTableRecord
100
AcDbBlockTableRecord
  2
*Model_Space
340
22
  0
BLOCK_RECORD
  5
1B
330
1
100
AcDbSymbolTableRecord
100
AcDbBlockTableRecord
  2
*Paper_Space
340
1E
  0
BLOCK_RECORD
  5
23
330
1
100
AcDbSymbolTableRecord
100
AcDbBlockTableRecord
  2
*Paper_Space0
340
26
  0
BLOCK_RECORD
  5
1D6
330
1
100
AcDbSymbolTableRecord
100
AcDbBlockTableRecord
  2
SW_CENTERMARKSYMBOL_0
340
0
102
{BLKREFS
331
1E1
102
}
  0
BLOCK_RECORD
  5
27A
330
1
100
AcDbSymbolTableRecord
100
AcDbBlockTableRecord
  2
SW_CENTERMARKSYMBOL_1
340
0
102
{BLKREFS
331
285
102
}
  0
ENDTAB
  0
ENDSEC
  0
SECTION
  2
BLOCKS
  0
BLOCK
  5
20
330
1F
100
AcDbEntity
  8
0
100
AcDbBlockBegin
  2
*Model_Space
 70
     0
 10
0.0
 20
0.0
 30
0.0
  3
*Model_Space
  1

  0
ENDBLK
  5
21
330
1F
100
AcDbEntity
  8
0
100
AcDbBlockEnd
  0
BLOCK
  5
1C
330
1B
100
AcDbEntity
 67
     1
  8
0
100
AcDbBlockBegin
  2
*Paper_Space
 70
     0
 10
0.0
 20
0.0
 30
0.0
  3
*Paper_Space
  1

  0
ENDBLK
  5
1D
330
1B
100
AcDbEntity
 67
     1
  8
0
100
AcDbBlockEnd
  0
BLOCK
  5
24
330
23
100
AcDbEntity
  8
0
100
AcDbBlockBegin
  2
*Paper_Space0
 70
     0
 10
0.0
 20
0.0
 30
0.0
  3
*Paper_Space0
  1

  0
ENDBLK
  5
25
330
23
100
AcDbEntity
  8
0
100
AcDbBlockEnd
  0
BLOCK
  5
1D7
330
1D6
100
AcDbEntity
  8
0
100
AcDbBlockBegin
  2
SW_CENTERMARKSYMBOL_0
 70
     0
 10
0.0
 20
0.0
 30
0.0
  3
SW_CENTERMARKSYMBOL_0
  1

  0
LINE
  5
1D9
330
1D6
100
AcDbEntity
  8
FORMAT
 62
     0
100
AcDbLine
 10
0.0
 20
0.0
 30
0.0
 11
0.0
 21
2.5
 31
0.0
  0
LINE
  5
1DA
330
1D6
100
AcDbEntity
  8
FORMAT
 62
     0
100
AcDbLine
 10
0.0
 20
0.0
 30
0.0
 11
-2.5
 21
0.0
 31
0.0
  0
LINE
  5
1DB
330
1D6
100
AcDbEntity
  8
FORMAT
 62
     0
100
AcDbLine
 10
0.0
 20
0.0
 30
0.0
 11
0.0
 21
-2.5
 31
0.0
  0
LINE
  5
1DC
330
1D6
100
AcDbEntity
  8
FORMAT
 62
     0
100
AcDbLine
 10
0.0
 20
0.0
 30
0.0
 11
2.5
 21
0.0
 31
0.0
  0
LINE
  5
1DD
330
1D6
100
AcDbEntity
  8
FORMAT
 62
     0
100
AcDbLine
 10
0.0
 20
5.0
 30
0.0
 11
0.0
 21
29.612416488
 31
0.0
  0
LINE
  5
1DE
330
1D6
100
AcDbEntity
  8
FORMAT
 62
     0
100
AcDbLine
 10
-5.0
 20
0.0
 30
0.0
 11
-10.75
 21
0.0
 31
0.0
  0
LINE
  5
1DF
330
1D6
100
AcDbEntity
  8
FORMAT
 62
     0
100
AcDbLine
 10
0.0
 20
-5.0
 30
0.0
 11
0.0
 21
-25.1405804455
 31
0.0
  0
LINE
  5
1E0
330
1D6
100
AcDbEntity
  8
FORMAT
 62
     0
100
AcDbLine
 10
5.0
 20
0.0
 30
0.0
 11
10.75
 21
0.0
 31
0.0
  0
ENDBLK
  5
1D8
330
1D6
100
AcDbEntity
  8
0
100
AcDbBlockEnd
  0
BLOCK
  5
27B
330
27A
100
AcDbEntity
  8
0
100
AcDbBlockBegin
  2
SW_CENTERMARKSYMBOL_1
 70
     0
 10
0.0
 20
0.0
 30
0.0
  3
SW_CENTERMARKSYMBOL_1
  1

  0
LINE
  5
27D
330
27A
100
AcDbEntity
  8
FORMAT
 62
     0
100
AcDbLine
 10
0.0
 20
0.0
 30
0.0
 11
0.0
 21
2.5
 31
0.0
  0
LINE
  5
27E
330
27A
100
AcDbEntity
  8
FORMAT
 62
     0
100
AcDbLine
 10
0.0
 20
0.0
 30
0.0
 11
-2.5
 21
0.0
 31
0.0
  0
LINE
  5
27F
330
27A
100
AcDbEntity
  8
FORMAT
 62
     0
100
AcDbLine
 10
0.0
 20
0.0
 30
0.0
 11
0.0
 21
-2.5
 31
0.0
  0
LINE
  5
280
330
27A
100
AcDbEntity
  8
FORMAT
 62
     0
100
AcDbLine
 10
0.0
 20
0.0
 30
0.0
 11
2.5
 21
0.0
 31
0.0
  0
LINE
  5
281
330
27A
100
AcDbEntity
  8
FORMAT
 62
     0
100
AcDbLine
 10
0.0
 20
5.0
 30
0.0
 11
0.0
 21
9.95
 31
0.0
  0
LINE
  5
282
330
27A
100
AcDbEntity
  8
FORMAT
 62
     0
100
AcDbLine
 10
-5.0
 20
0.0
 30
0.0
 11
-41.9926897506
 21
0.0
 31
0.0
  0
LINE
  5
283
330
27A
100
AcDbEntity
  8
FORMAT
 62
     0
100
AcDbLine
 10
0.0
 20
-5.0
 30
0.0
 11
0.0
 21
-9.95
 31
0.0
  0
LINE
  5
284
330
27A
100
AcDbEntity
  8
FORMAT
 62
     0
100
AcDbLine
 10
5.0
 20
0.0
 30
0.0
 11
13.816635098
 21
0.0
 31
0.0
  0
ENDBLK
  5
27C
330
27A
100
AcDbEntity
  8
0
100
AcDbBlockEnd
  0
ENDSEC
  0
SECTION
  2
ENTITIES
  0
MTEXT
  5
65
330
1F
100
AcDbEntity
  8
FORMAT
100
AcDbMText
 10
119.0506399017
 20
91.3748994401
 30
0.0
 40
2.6458333333
 41
0.0
 71
     1
 72
     1
  1
エースボール　アングル型　BH-3209
  7
SLDTEXTSTYLE0
 73
     1
 44
1.0
  0
LINE
  5
66
330
1F
100
AcDbEntity
  8
0
  6
Continuous
 62
     7
370
    25
100
AcDbLine
 10
105.5227086291
 20
59.8197246386
 30
0.0
 11
102.7227086291
 21
59.8197246386
 31
0.0
  0
LINE
  5
67
330
1F
100
AcDbEntity
  8
0
  6
Continuous
 62
     7
370
    25
100
AcDbLine
 10
102.7227086291
 20
43.8197246386
 30
0.0
 11
105.5227086291
 21
43.8197246386
 31
0.0
  0
LINE
  5
68
330
1F
100
AcDbEntity
  8
0
  6
Continuous
 62
     7
370
    25
100
AcDbLine
 10
102.7227086291
 20
59.8197246386
 30
0.0
 11
102.5227086291
 21
59.6197246386
 31
0.0
  0
LINE
  5
69
330
1F
100
AcDbEntity
  8
0
  6
Continuous
 62
     7
370
    25
100
AcDbLine
 10
102.5227086291
 20
44.0197246386
 30
0.0
 11
102.7227086291
 21
43.8197246386
 31
0.0
  0
LINE
  5
6A
330
1F
100
AcDbEntity
  8
0
  6
Continuous
 62
     7
370
    25
100
AcDbLine
 10
82.0227086291
 20
56.3197246386
 30
0.0
 11
78.0027086291
 21
55.6497246386
 31
0.0
  0
LINE
  5
6B
330
1F
100
AcDbEntity
  8
0
  6
Continuous
 62
     7
370
    25
100
AcDbLine
 10
78.0027086291
 20
47.9897246386
 30
0.0
 11
82.0227086291
 21
47.3197246386
 31
0.0
  0
LINE
  5
6C
330
1F
100
AcDbEntity
  8
0
  6
Continuous
 62
     7
370
    25
100
AcDbLine
 10
95.5227086291
 20
56.3197246386
 30
0.0
 11
91.0227086291
 21
55.5697246386
 31
0.0
  0
LINE
  5
6D
330
1F
100
AcDbEntity
  8
0
  6
Continuous
 62
     7
370
    25
100
AcDbLine
 10
91.0227086291
 20
48.0697246386
 30
0.0
 11
95.5227086291
 21
47.3197246386
 31
0.0
  0
LINE
  5
6E
330
1F
100
AcDbEntity
  8
0
  6
Continuous
 62
     7
370
    25
100
AcDbLine
 10
91.0227086291
 20
56.3197246386
 30
0.0
 11
86.5227086291
 21
55.5697246386
 31
0.0
  0
LINE
  5
6F
330
1F
100
AcDbEntity
  8
0
  6
Continuous
 62
     7
370
    25
100
AcDbLine
 10
86.5227086291
 20
48.0697246386
 30
0.0
 11
91.0227086291
 21
47.3197246386
 31
0.0
  0
LINE
  5
70
330
1F
100
AcDbEntity
  8
0
  6
Continuous
 62
     7
370
    25
100
AcDbLine
 10
86.5227086291
 20
56.3197246386
 30
0.0
 11
82.0227086291
 21
55.5697246386
 31
0.0
  0
LINE
  5
71
330
1F
100
AcDbEntity
  8
0
  6
Continuous
 62
     7
370
    25
100
AcDbLine
 10
82.0227086291
 20
48.0697246386
 30
0.0
 11
86.5227086291
 21
47.3197246386
 31
0.0
  0
LINE
  5
72
330
1F
100
AcDbEntity
  8
0
  6
Continuous
 62
     7
370
    25
100
AcDbLine
 10
100.0227086291
 20
56.3197246386
 30
0.0
 11
95.5227086291
 21
55.5697246386
 31
0.0
  0
LINE
  5
73
330
1F
100
AcDbEntity
  8
0
  6
Continuous
 62
     7
370
    25
100
AcDbLine
 10
95.5227086291
 20
48.0697246386
 30
0.0
 11
100.0227086291
 21
47.3197246386
 31
0.0
  0
LINE
  5
74
330
1F
100
AcDbEntity
  8
0
  6
Continuous
 62
     7
370
    25
100
AcDbLine
 10
102.5227086291
 20
56.3197246386
 30
0.0
 11
100.0227086291
 21
56.3197246386
 31
0.0
  0
LINE
  5
75
330
1F
100
AcDbEntity
  8
0
  6
Continuous
 62
     7
370
    25
100
AcDbLine
 10
100.0227086291
 20
47.3197246386
 30
0.0
 11
102.5227086291
 21
47.3197246386
 31
0.0
  0
LINE
  5
76
330
1F
100
AcDbEntity
  8
0
  6
Continuous
 62
     7
370
    25
100
AcDbLine
 10
78.0027086291
 20
55.6497246386
 30
0.0
 11
77.5227086291
 21
55.1697246386
 31
0.0
  0
LINE
  5
77
330
1F
100
AcDbEntity
  8
0
  6
Continuous
 62
     7
370
    25
100
AcDbLine
 10
77.5227086291
 20
48.4697246386
 30
0.0
 11
78.0027086291
 21
47.9897246386
 31
0.0
  0
LINE
  5
78
330
1F
100
AcDbEntity
  8
0
  6
Continuous
 62
     7
370
    25
100
AcDbLine
 10
128.163839882
 20
42.0821203315
 30
0.0
 11
129.0227086291
 21
43.5697246386
 31
0.0
  0
LINE
  5
79
330
1F
100
AcDbEntity
  8
0
  6
Continuous
 62
     7
370
    25
100
AcDbLine
 10
129.0227086291
 20
60.0697246386
 30
0.0
 11
128.163839882
 21
61.5573289456
 31
0.0
  0
LINE
  5
7A
330
1F
100
AcDbEntity
  8
0
  6
Continuous
 62
     7
370
    25
100
AcDbLine
 10
110.2645211291
 20
39.8197246386
 30
0.0
 11
110.5581565706
 21
30.4233905124
 31
0.0
  0
LINE
  5
7B
330
1F
100
AcDbEntity
  8
0
  6
Continuous
 62
     7
370
    25
100
AcDbLine
 10
123.4872606877
 20
30.4233905124
 30
0.0
 11
123.7808961291
 21
39.8197246386
 31
0.0
  0
SPLINE
  5
7C
330
1F
100
AcDbEntity
  8
0
  6
Continuous
 62
     7
370
    25
100
AcDbSpline
210
0.0
220
0.0
230
1.0
 70
     8
 71
     3
 72
    12
 73
     8
 74
     0
 42
0.00000001
 43
0.00000001
 40
0.0
 40
0.0
 40
0.0
 40
0.0
 40
0.1607859063965061
 40
0.4144649494842351
 40
0.6730857881191626
 40
0.958828110235571
 40
0.9999999999999999
 40
0.9999999999999999
 40
0.9999999999999999
 40
0.9999999999999999
 10
111.1324398860722
 20
61.31903944218389
 30
0.0
 10
111.1331856986613
 20
61.27688643076952
 30
0.0
 10
111.1351082127918
 20
61.16822674698239
 30
0.0
 10
111.0946901442086
 20
60.99421571455157
 30
0.0
 10
111.0098031015418
 20
60.80370156440102
 30
0.0
 10
110.9251380114437
 20
60.67181667465874
 30
0.0
 10
110.8606791076208
 20
60.61545054888064
 30
0.0
 10
110.8525610913766
 20
60.60835174487445
 30
0.0
  0
SPLINE
  5
7D
330
1F
100
AcDbEntity
  8
0
  6
Continuous
 62
     7
370
    25
100
AcDbSpline
210
0.0
220
0.0
230
1.0
 70
     8
 71
     3
 72
    12
 73
     8
 74
     0
 42
0.00000001
 43
0.00000001
 40
0.0
 40
0.0
 40
0.0
 40
0.0
 40
0.0905597638590951
 40
0.3804955599270435
 40
0.6453705950803176
 40
0.8896166704505155
 40
1.0
 40
1.0
 40
1.0
 40
1.0
 10
123.2081424627561
 20
60.62537034900671
 30
0.0
 10
123.1911387790112
 20
60.64106437325731
 30
0.0
 10
123.1196961659609
 20
60.70700432595015
 30
0.0
 10
123.0318033855383
 20
60.84999679756216
 30
0.0
 10
122.9561290594213
 20
61.03922119138096
 30
0.0
 10
122.9231944972329
 20
61.19591486974964
 30
0.0
 10
122.9251779364864
 20
61.28649528588586
 30
0.0
 10
122.9257953095123
 20
61.31468969894463
 30
0.0
  0
LINE
  5
7E
330
1F
100
AcDbEntity
  8
0
  6
Continuous
 62
     7
370
    25
100
AcDbLine
 10
110.5581565706
 20
30.4233905124
 30
0.0
 11
111.7727086291
 21
28.3197246386
 31
0.0
  0
LINE
  5
7F
330
1F
100
AcDbEntity
  8
0
  6
Continuous
 62
     7
370
    25
100
AcDbLine
 10
122.2727086291
 20
28.3197246386
 30
0.0
 11
123.4872606877
 21
30.4233905124
 31
0.0
  0
LINE
  5
80
330
1F
100
AcDbEntity
  8
0
  6
Continuous
 62
     7
370
    25
100
AcDbLine
 10
122.9227086291
 20
61.3151938185
 30
0.0
 11
122.9227086291
 21
62.3197246386
 31
0.0
  0
LINE
  5
81
330
1F
100
AcDbEntity
  8
0
  6
Continuous
 62
     7
370
    25
100
AcDbLine
 10
111.1227086291
 20
62.3197246386
 30
0.0
 11
111.1227086291
 21
61.3197246386
 31
0.0
  0
LINE
  5
82
330
1F
100
AcDbEntity
  8
0
  6
Continuous
 62
     7
370
    25
100
AcDbLine
 10
110.8525417218
 20
60.6144623678
 30
0.0
 11
110.3081774493
 21
61.5573289456
 31
0.0
  0
LINE
  5
83
330
1F
100
AcDbEntity
  8
0
  6
Continuous
 62
     7
370
    25
100
AcDbLine
 10
106.237239809
 20
61.5573289456
 30
0.0
 11
105.5227086291
 21
60.3197246386
 31
0.0
  0
LINE
  5
84
330
1F
100
AcDbEntity
  8
0
  6
Continuous
 62
     7
370
    25
100
AcDbLine
 10
123.737239809
 20
61.5573289456
 30
0.0
 11
123.1928755365
 21
60.6144623678
 31
0.0
  0
LINE
  5
85
330
1F
100
AcDbEntity
  8
0
  6
Continuous
 62
     7
370
    25
100
AcDbLine
 10
125.5227086291
 20
39.8197246386
 30
0.0
 11
126.7603129362
 21
40.5342558184
 31
0.0
  0
LINE
  5
86
330
1F
100
AcDbEntity
  8
0
  6
Continuous
 62
     7
370
    25
100
AcDbLine
 10
105.5227086291
 20
43.3197246386
 30
0.0
 11
106.237239809
 21
42.0821203315
 31
0.0
  0
LINE
  5
87
330
1F
100
AcDbEntity
  8
0
  6
Continuous
 62
     7
370
    25
100
AcDbLine
 10
107.2851043221
 20
40.5342558184
 30
0.0
 11
108.5227086291
 21
39.8197246386
 31
0.0
  0
LINE
  5
88
330
1F
100
AcDbEntity
  8
0
  6
Continuous
 62
     7
370
    25
100
AcDbLine
 10
126.7603129362
 20
40.5316954371
 30
0.0
 11
126.7603129362
 21
42.0821203315
 31
0.0
  0
LINE
  5
89
330
1F
100
AcDbEntity
  8
0
  6
Continuous
 62
     7
370
    25
100
AcDbLine
 10
126.7603129362
 20
42.0821203315
 30
0.0
 11
128.1664079375
 21
42.0821203315
 31
0.0
  0
LINE
  5
8A
330
1F
100
AcDbEntity
  8
0
  6
Continuous
 62
     7
370
    25
100
AcDbLine
 10
110.3107455048
 20
61.5573289456
 30
0.0
 11
106.2346794276
 21
61.5573289456
 31
0.0
  0
LINE
  5
8B
330
1F
100
AcDbEntity
  8
0
  6
Continuous
 62
     7
370
    25
100
AcDbLine
 10
128.1664079375
 20
61.5573289456
 30
0.0
 11
123.7346717535
 21
61.5573289456
 31
0.0
  0
LINE
  5
8C
330
1F
100
AcDbEntity
  8
0
  6
Continuous
 62
     7
370
    25
100
AcDbLine
 10
107.2851043221
 20
42.0821203315
 30
0.0
 11
107.2851043221
 21
40.5316954371
 31
0.0
  0
LINE
  5
8D
330
1F
100
AcDbEntity
  8
0
  6
Continuous
 62
     7
370
    25
100
AcDbLine
 10
106.2346794276
 20
42.0821203315
 30
0.0
 11
107.2851043221
 21
42.0821203315
 31
0.0
  0
LINE
  5
8E
330
1F
100
AcDbEntity
  8
0
  6
Continuous
 62
     7
370
    25
100
AcDbLine
 10
124.0227086291
 20
62.3197246386
 30
0.0
 11
124.4727086291
 21
70.3197246386
 31
0.0
  0
LINE
  5
8F
330
1F
100
AcDbEntity
  8
0
  6
Continuous
 62
     7
370
    25
100
AcDbLine
 10
124.4727086291
 20
70.3197246386
 30
0.0
 11
122.5227086291
 21
78.3197246385
 31
0.0
  0
LINE
  5
90
330
1F
100
AcDbEntity
  8
0
  6
Continuous
 62
     7
370
    25
100
AcDbLine
 10
109.9520520034
 20
63.5758424299
 30
0.0
 11
110.0227086291
 21
62.3197246386
 31
0.0
  0
LINE
  5
91
330
1F
100
AcDbEntity
  8
0
  6
Continuous
 62
     7
370
    25
100
AcDbLine
 10
111.5227086291
 20
78.3197246385
 30
0.0
 11
111.2687317888
 21
77.2777683707
 31
0.0
  0
LINE
  5
92
330
1F
100
AcDbEntity
  8
0
  6
Continuous
 62
     7
370
    25
100
AcDbLine
 10
102.7227086291
 20
59.8197246386
 30
0.0
 11
102.7227086291
 21
43.8197246386
 31
0.0
  0
LINE
  5
93
330
1F
100
AcDbEntity
  8
0
  6
Continuous
 62
     7
370
    25
100
AcDbLine
 10
102.5227086291
 20
44.0197246386
 30
0.0
 11
102.5227086291
 21
59.6197246386
 31
0.0
  0
LINE
  5
94
330
1F
100
AcDbEntity
  8
0
  6
Continuous
 62
     7
370
    25
100
AcDbLine
 10
78.0027086291
 20
55.6497246386
 30
0.0
 11
78.0027086291
 21
47.9897246386
 31
0.0
  0
LINE
  5
95
330
1F
100
AcDbEntity
  8
0
  6
Continuous
 62
     7
370
    25
100
AcDbLine
 10
82.0227086291
 20
56.3197246386
 30
0.0
 11
82.0227086291
 21
47.3197246386
 31
0.0
  0
LINE
  5
96
330
1F
100
AcDbEntity
  8
0
  6
Continuous
 62
     7
370
    25
100
AcDbLine
 10
95.5227086291
 20
56.3197246386
 30
0.0
 11
95.5227086291
 21
47.3197246386
 31
0.0
  0
LINE
  5
97
330
1F
100
AcDbEntity
  8
0
  6
Continuous
 62
     7
370
    25
100
AcDbLine
 10
91.0227086291
 20
56.3197246386
 30
0.0
 11
91.0227086291
 21
47.3197246386
 31
0.0
  0
LINE
  5
98
330
1F
100
AcDbEntity
  8
0
  6
Continuous
 62
     7
370
    25
100
AcDbLine
 10
86.5227086291
 20
56.3197246386
 30
0.0
 11
86.5227086291
 21
47.3197246386
 31
0.0
  0
LINE
  5
99
330
1F
100
AcDbEntity
  8
0
  6
Continuous
 62
     7
370
    25
100
AcDbLine
 10
100.0227086291
 20
56.3197246386
 30
0.0
 11
100.0227086291
 21
47.3197246386
 31
0.0
  0
LINE
  5
9A
330
1F
100
AcDbEntity
  8
0
  6
Continuous
 62
     7
370
    25
100
AcDbLine
 10
77.5227086291
 20
48.4697246386
 30
0.0
 11
77.5227086291
 21
55.1697246386
 31
0.0
  0
SPLINE
  5
9B
330
1F
100
AcDbEntity
  8
0
  6
Continuous
 62
     7
370
    25
100
AcDbSpline
210
0.0
220
0.0
230
1.0
 70
     8
 71
     3
 72
    10
 73
     6
 74
     0
 42
0.00000001
 43
0.00000001
 40
0.0
 40
0.0
 40
0.0
 40
0.0
 40
0.5000000000000001
 40
0.5000000000000001
 40
1.0
 40
1.0
 40
1.0
 40
1.0
 10
112.4039064756189
 20
40.49744604381648
 30
0.0
 10
113.1545851751147
 20
40.29051599028379
 30
0.0
 10
113.9188661193373
 20
40.11871037991008
 30
0.0
 10
115.4734408534249
 20
39.88175987337871
 30
0.0
 10
116.249015820941
 20
39.81972463855632
 30
0.0
 10
117.0227086291359
 20
39.81972463855632
 30
0.0
  0
LINE
  5
9C
330
1F
100
AcDbEntity
  8
0
  6
Continuous
 62
     7
370
    25
100
AcDbLine
 10
112.4039064756
 20
43.8533280987
 30
0.0
 11
112.4039064756
 21
40.4974460438
 31
0.0
  0
SPLINE
  5
9D
330
1F
100
AcDbEntity
  8
0
  6
Continuous
 62
     7
370
    25
100
AcDbSpline
210
0.0
220
0.0
230
1.0
 70
     8
 71
     3
 72
     8
 73
     4
 74
     0
 42
0.00000001
 43
0.00000001
 40
0.0
 40
0.0
 40
0.0
 40
0.0
 40
1.0
 40
1.0
 40
1.0
 40
1.0
 10
112.4039064756189
 20
43.85332809870132
 30
0.0
 10
112.6090922981621
 20
43.90988906582554
 30
0.0
 10
112.8153154988694
 20
43.96382913723937
 30
0.0
 10
113.0227086291359
 20
44.01481342698234
 30
0.0
  0
LINE
  5
9E
330
1F
100
AcDbEntity
  8
0
  6
Continuous
 62
     7
370
    25
100
AcDbLine
 10
113.0227086291
 20
44.014813427
 30
0.0
 11
113.0227086291
 21
47.8197246386
 31
0.0
  0
LINE
  5
9F
330
1F
100
AcDbEntity
  8
0
  6
Continuous
 62
     7
370
    25
100
AcDbLine
 10
113.0227086291
 20
47.8197246386
 30
0.0
 11
110.5064725522
 21
47.8197246386
 31
0.0
  0
SPLINE
  5
A0
330
1F
100
AcDbEntity
  8
0
  6
Continuous
 62
     7
370
    25
100
AcDbSpline
210
0.0
220
0.0
230
1.0
 70
     8
 71
     3
 72
     8
 73
     4
 74
     0
 42
0.00000001
 43
0.00000001
 40
0.0
 40
0.0
 40
0.0
 40
0.0
 40
1.0
 40
1.0
 40
1.0
 40
1.0
 10
110.3449872238757
 20
47.20092248503928
 30
0.0
 10
110.4015505933439
 20
47.40611702254904
 30
0.0
 10
110.4554905161652
 20
47.6123406760662
 30
0.0
 10
110.5064725521567
 20
47.81972463855632
 30
0.0
  0
LINE
  5
A1
330
1F
100
AcDbEntity
  8
0
  6
Continuous
 62
     7
370
    25
100
AcDbLine
 10
106.2004300344
 20
47.200922485
 30
0.0
 11
110.3449872239
 21
47.200922485
 31
0.0
  0
SPLINE
  5
A2
330
1F
100
AcDbEntity
  8
0
  6
Continuous
 62
     7
370
    25
100
AcDbSpline
210
0.0
220
0.0
230
1.0
 70
     8
 71
     3
 72
    10
 73
     6
 74
     0
 42
0.00000001
 43
0.00000001
 40
0.0
 40
0.0
 40
0.0
 40
0.0
 40
0.5
 40
0.5
 40
1.0
 40
1.0
 40
1.0
 40
1.0
 10
106.2004300343961
 20
47.2009224850393
 30
0.0
 10
105.9923613581649
 20
47.9557317580886
 30
0.0
 10
105.8219623521403
 20
48.71647814532049
 30
0.0
 10
105.5868023724415
 20
50.25462052294376
 30
0.0
 10
105.5227086291359
 20
51.03212167546857
 30
0.0
 10
105.5227086291359
 20
51.81972463855632
 30
0.0
  0
SPLINE
  5
A3
330
1F
100
AcDbEntity
  8
0
  6
Continuous
 62
     7
370
    25
100
AcDbSpline
210
0.0
220
0.0
230
1.0
 70
     8
 71
     3
 72
    12
 73
     8
 74
     0
 42
0.00000001
 43
0.00000001
 40
0.0
 40
0.0
 40
0.0
 40
0.0
 40
0.2500000000000001
 40
0.2500000000000001
 40
0.5000000000000001
 40
0.5000000000000001
 40
1.0
 40
1.0
 40
1.0
 40
1.0
 10
105.5227086291359
 20
51.81972463855632
 30
0.0
 10
105.5227086291359
 20
52.21404271922816
 30
0.0
 10
105.5387074341169
 20
52.60770176317859
 30
0.0
 10
105.6004775724313
 20
53.38723776272393
 30
0.0
 10
105.6462196967329
 20
53.77419095084936
 30
0.0
 10
105.8228898440798
 20
54.92757751370335
 30
0.0
 10
105.9931449095601
 20
55.68656000290839
 30
0.0
 10
106.2004300343961
 20
56.43852679207333
 30
0.0
  0
LINE
  5
A4
330
1F
100
AcDbEntity
  8
0
  6
Continuous
 62
     7
370
    25
100
AcDbLine
 10
110.3449872239
 20
56.4385267921
 30
0.0
 11
106.2004300344
 21
56.4385267921
 31
0.0
  0
SPLINE
  5
A5
330
1F
100
AcDbEntity
  8
0
  6
Continuous
 62
     7
370
    25
100
AcDbSpline
210
0.0
220
0.0
230
1.0
 70
     8
 71
     3
 72
     8
 73
     4
 74
     0
 42
0.00000001
 43
0.00000001
 40
0.0
 40
0.0
 40
0.0
 40
0.0
 40
1.0
 40
1.0
 40
1.0
 40
1.0
 10
110.5064725521567
 20
55.81972463855632
 30
0.0
 10
110.4555738352342
 20
56.02676967698531
 30
0.0
 10
110.4016396989834
 20
56.23300900666195
 30
0.0
 10
110.3449872238757
 20
56.43852679207333
 30
0.0
  0
SPLINE
  5
A6
330
1F
100
AcDbEntity
  8
0
  6
Continuous
 62
     7
370
    25
100
AcDbSpline
210
0.0
220
0.0
230
1.0
 70
     8
 71
     3
 72
     8
 73
     4
 74
     0
 42
0.00000001
 43
0.00000001
 40
0.0
 40
0.0
 40
0.0
 40
0.0
 40
1.0
 40
1.0
 40
1.0
 40
1.0
 10
123.5389447061151
 20
55.81972463855638
 30
0.0
 10
123.5898409393701
 20
56.02675957396015
 30
0.0
 10
123.6437748943338
 20
56.23299933902514
 30
0.0
 10
123.7004300343961
 20
56.43852679207333
 30
0.0
  0
LINE
  5
A7
330
1F
100
AcDbEntity
  8
0
  6
Continuous
 62
     7
370
    25
100
AcDbLine
 10
128.2006496566
 20
56.4385267921
 30
0.0
 11
123.7004300344
 21
56.4385267921
 31
0.0
  0
SPLINE
  5
A8
330
1F
100
AcDbEntity
  8
0
  6
Continuous
 62
     7
370
    25
100
AcDbSpline
210
0.0
220
0.0
230
1.0
 70
     8
 71
     3
 72
    14
 73
    10
 74
     0
 42
0.00000001
 43
0.00000001
 40
0.0
 40
0.0
 40
0.0
 40
0.0
 40
0.25
 40
0.25
 40
0.5
 40
0.5
 40
0.75
 40
0.75
 40
1.0
 40
1.0
 40
1.0
 40
1.0
 10
128.2006496565783
 20
47.20092248503926
 30
0.0
 10
128.408600017284
 20
47.95530254568925
 30
0.0
 10
128.5808218259729
 20
48.72474371315474
 30
0.0
 10
128.8154569487238
 20
50.2652550740959
 30
0.0
 10
128.8784010073515
 20
51.04010945410293
 30
0.0
 10
128.8783410946201
 20
52.60047040898849
 30
0.0
 10
128.8137264283279
 20
53.39092660177351
 30
0.0
 10
128.5771670889267
 20
54.93320626458198
 30
0.0
 10
128.4068219488473
 20
55.69059701778316
 30
0.0
 10
128.2006496565783
 20
56.43852679207333
 30
0.0
  0
LINE
  5
A9
330
1F
100
AcDbEntity
  8
0
  6
Continuous
 62
     7
370
    25
100
AcDbLine
 10
123.7004300344
 20
47.200922485
 30
0.0
 11
128.2006496566
 21
47.200922485
 31
0.0
  0
SPLINE
  5
AA
330
1F
100
AcDbEntity
  8
0
  6
Continuous
 62
     7
370
    25
100
AcDbSpline
210
0.0
220
0.0
230
1.0
 70
     8
 71
     3
 72
     8
 73
     4
 74
     0
 42
0.00000001
 43
0.00000001
 40
0.0
 40
0.0
 40
0.0
 40
0.0
 40
1.0
 40
1.0
 40
1.0
 40
1.0
 10
123.700430034396
 20
47.20092248503929
 30
0.0
 10
123.6438681909591
 20
47.4061114865761
 30
0.0
 10
123.5899281737027
 20
47.6123348526408
 30
0.0
 10
123.5389447061151
 20
47.81972463855626
 30
0.0
  0
LINE
  5
AB
330
1F
100
AcDbEntity
  8
0
  6
Continuous
 62
     7
370
    25
100
AcDbLine
 10
123.5389447061
 20
47.8197246386
 30
0.0
 11
121.0227086291
 21
47.8197246386
 31
0.0
  0
LINE
  5
AC
330
1F
100
AcDbEntity
  8
0
  6
Continuous
 62
     7
370
    25
100
AcDbLine
 10
121.0227086291
 20
44.014813427
 30
0.0
 11
121.0227086291
 21
47.8197246386
 31
0.0
  0
SPLINE
  5
AD
330
1F
100
AcDbEntity
  8
0
  6
Continuous
 62
     7
370
    25
100
AcDbSpline
210
0.0
220
0.0
230
1.0
 70
     8
 71
     3
 72
     8
 73
     4
 74
     0
 42
0.00000001
 43
0.00000001
 40
0.0
 40
0.0
 40
0.0
 40
0.0
 40
1.0
 40
1.0
 40
1.0
 40
1.0
 10
121.0227086291359
 20
44.01481342698233
 30
0.0
 10
121.2297376924713
 20
43.96391863728151
 30
0.0
 10
121.4359777097406
 20
43.90998478792007
 30
0.0
 10
121.6415107826529
 20
43.85332809870131
 30
0.0
  0
LINE
  5
AE
330
1F
100
AcDbEntity
  8
0
  6
Continuous
 62
     7
370
    25
100
AcDbLine
 10
121.6415107827
 20
40.4974460438
 30
0.0
 11
121.6415107827
 21
43.8533280987
 31
0.0
  0
SPLINE
  5
AF
330
1F
100
AcDbEntity
  8
0
  6
Continuous
 62
     7
370
    25
100
AcDbSpline
210
0.0
220
0.0
230
1.0
 70
     8
 71
     3
 72
    10
 73
     6
 74
     0
 42
0.00000001
 43
0.00000001
 40
0.0
 40
0.0
 40
0.0
 40
0.0
 40
0.5
 40
0.5
 40
1.0
 40
1.0
 40
1.0
 40
1.0
 10
117.0227086291359
 20
39.81972463855632
 30
0.0
 10
117.7982885657428
 20
39.81972463855632
 30
0.0
 10
118.5719787844693
 20
39.88200900053484
 30
0.0
 10
120.1160133268021
 20
40.11685711854187
 30
0.0
 10
120.889322002957
 20
40.29009972567306
 30
0.0
 10
121.6415107826529
 20
40.4974460438165
 30
0.0
  0
ARC
  5
B0
330
1F
100
AcDbEntity
  8
0
  6
Continuous
 62
     7
370
    25
100
AcDbCircle
 10
118.5734399849
 20
51.2428056452
 30
0.0
 40
0.8890000000000019
100
AcDbArc
 50
45.0
 51
315.0
  0
LINE
  5
B1
330
1F
100
AcDbEntity
  8
0
  6
Continuous
 62
     7
370
    25
100
AcDbLine
 10
119.2020579133
 20
51.8714235737
 30
0.0
 11
119.668668299
 21
52.3380339593
 31
0.0
  0
ARC
  5
B2
330
1F
100
AcDbEntity
  8
0
  6
Continuous
 62
     7
370
    25
100
AcDbCircle
 10
118.5734399849
 20
51.2428056452
 30
0.0
 40
1.548886735692394
100
AcDbArc
 50
45.0
 51
315.0
  0
LINE
  5
B3
330
1F
100
AcDbEntity
  8
0
  6
Continuous
 62
     7
370
    25
100
AcDbLine
 10
119.668668299
 20
50.1475773311
 30
0.0
 11
119.2020579133
 21
50.6141877168
 31
0.0
  0
ARC
  5
B4
330
1F
100
AcDbEntity
  8
0
  6
Continuous
 62
     7
370
    25
100
AcDbCircle
 10
121.9155845812
 20
51.2428056452
 30
0.0
 40
0.8889999999999969
100
AcDbArc
 50
45.0
 51
159.0751675724
  0
LINE
  5
B5
330
1F
100
AcDbEntity
  8
0
  6
Continuous
 62
     7
370
    25
100
AcDbLine
 10
122.5442025097
 20
51.8714235737
 30
0.0
 11
123.0108128953
 21
52.3380339593
 31
0.0
  0
ARC
  5
B6
330
1F
100
AcDbEntity
  8
0
  6
Continuous
 62
     7
370
    25
100
AcDbCircle
 10
121.9155845812
 20
51.2428056452
 30
0.0
 40
1.548886735692379
100
AcDbArc
 50
45.0
 51
315.0
  0
LINE
  5
B7
330
1F
100
AcDbEntity
  8
0
  6
Continuous
 62
     7
370
    25
100
AcDbLine
 10
123.0108128953
 20
50.1475773311
 30
0.0
 11
122.5442025097
 21
50.6141877168
 31
0.0
  0
ARC
  5
B8
330
1F
100
AcDbEntity
  8
0
  6
Continuous
 62
     7
370
    25
100
AcDbCircle
 10
121.9155845812
 20
51.2428056452
 30
0.0
 40
0.8890000000000019
100
AcDbArc
 50
200.9248324276
 51
315.0
  0
LINE
  5
B9
330
1F
100
AcDbEntity
  8
0
  6
Continuous
 62
     7
370
    25
100
AcDbLine
 10
121.0852143325
 20
50.9253056452
 30
0.0
 11
123.0108128953
 21
50.9253056452
 31
0.0
  0
LINE
  5
BA
330
1F
100
AcDbEntity
  8
0
  6
Continuous
 62
     7
370
    25
100
AcDbLine
 10
123.0108128953
 20
50.9253056452
 30
0.0
 11
123.0108128953
 21
51.5603056452
 31
0.0
  0
LINE
  5
BB
330
1F
100
AcDbEntity
  8
0
  6
Continuous
 62
     7
370
    25
100
AcDbLine
 10
123.0108128953
 20
51.5603056452
 30
0.0
 11
121.0852143325
 21
51.5603056452
 31
0.0
  0
LINE
  5
BC
330
1F
100
AcDbEntity
  8
0
  6
Continuous
 62
     7
370
    25
100
AcDbLine
 10
116.1209497152
 20
50.397351621
 30
0.0
 11
116.0792993959
 21
50.3735466911
 31
0.0
  0
ELLIPSE
  5
BD
330
1F
100
AcDbEntity
  8
0
  6
Continuous
 62
     7
370
    25
100
AcDbEllipse
 10
115.7304562163
 20
50.9282291623
 30
0.0
 11
0.678412947925267
 21
6.110667527536863E-13
 31
0.0
210
0.0
220
0.0
230
1.0
 40
0.9533039403
 41
3.470145824140268
 42
5.252469180536304
  0
LINE
  5
BE
330
1F
100
AcDbEntity
  8
0
  6
Continuous
 62
     7
370
    25
100
AcDbLine
 10
115.0883314493
 20
50.7195450474
 30
0.0
 11
113.8286772444
 21
54.241989444
 31
0.0
  0
ELLIPSE
  5
BF
330
1F
100
AcDbEntity
  8
0
  6
Continuous
 62
     7
370
    25
100
AcDbEllipse
 10
113.2376946865
 20
53.979650208
 30
0.0
 11
0.6519124952381503
 21
6.110667527536862E-13
 31
0.0
210
0.0
220
0.0
230
1.0
 40
0.9533023292
 41
0.4357905044354913
 42
2.705800116361509
  0
LINE
  5
C0
330
1F
100
AcDbEntity
  8
0
  6
Continuous
 62
     7
370
    25
100
AcDbLine
 10
112.646712688
 20
54.2419905893
 30
0.0
 11
111.3873478863
 21
50.7203671875
 31
0.0
  0
ELLIPSE
  5
C1
330
1F
100
AcDbEntity
  8
0
  6
Continuous
 62
     7
370
    25
100
AcDbEllipse
 10
110.7452267023
 20
50.9290500212
 30
0.0
 11
-0.6784085062757725
 21
3.268496584496461E-13
 31
0.0
210
0.0
220
0.0
230
1.0
 40
0.9533122623
 41
1.047193771187957
 42
2.813042320199941
  0
LINE
  5
C2
330
1F
100
AcDbEntity
  8
0
  6
Continuous
 62
     7
370
    25
100
AcDbLine
 10
110.4060202283
 20
50.368962176
 30
0.0
 11
110.3544396578
 21
50.397351621
 31
0.0
  0
LINE
  5
C3
330
1F
100
AcDbEntity
  8
0
  6
Continuous
 62
     7
370
    25
100
AcDbLine
 10
110.3544396578
 20
50.397351621
 30
0.0
 11
111.1507083173
 21
48.8791795195
 31
0.0
  0
ELLIPSE
  5
C4
330
1F
100
AcDbEntity
  8
0
  6
Continuous
 62
     7
370
    25
100
AcDbEllipse
 10
111.2265571908
 20
48.9153330345
 30
0.0
 11
0.08480161849065837
 21
-1.421085471520200E-14
 31
0.0
210
0.0
220
0.0
230
1.0
 40
0.9533039403
 41
3.60524026259074
 42
5.462183310215315
  0
ELLIPSE
  5
C5
330
1F
100
AcDbEntity
  8
0
  6
Continuous
 62
     7
370
    25
100
AcDbEllipse
 10
113.2376946865
 20
46.856484414
 30
0.0
 11
2.866293551216202
 21
-1.492139745096210E-12
 31
0.0
210
0.0
220
0.0
230
1.0
 40
0.9533046568
 41
0.8210016221243817
 42
2.320591031466442
  0
ELLIPSE
  5
C6
330
1F
100
AcDbEntity
  8
0
  6
Continuous
 62
     7
370
    25
100
AcDbEllipse
 10
115.2488321822
 20
48.9153330345
 30
0.0
 11
0.08480161849060153
 21
-7.105427357601002E-15
 31
0.0
210
0.0
220
0.0
230
1.0
 40
0.9533039403
 41
3.962594650556384
 42
5.819537698177291
  0
LINE
  5
C7
330
1F
100
AcDbEntity
  8
0
  6
Continuous
 62
     7
370
    25
100
AcDbLine
 10
115.3246810556
 20
48.8791795195
 30
0.0
 11
116.1209497152
 21
50.397351621
 31
0.0
  0
LINE
  5
C8
330
1F
100
AcDbEntity
  8
0
  6
Continuous
 62
     7
370
    25
100
AcDbLine
 10
123.5389447061
 20
55.8197246386
 30
0.0
 11
110.5064725522
 21
55.8197246386
 31
0.0
  0
LINE
  5
C9
330
1F
100
AcDbEntity
  8
0
  6
Continuous
 62
     7
370
    25
100
AcDbLine
 10
111.0227086291
 20
59.1809405707
 30
0.0
 11
111.0227086291
 21
55.8197246386
 31
0.0
  0
SPLINE
  5
CA
330
1F
100
AcDbEntity
  8
0
  6
Continuous
 62
     7
370
    25
100
AcDbSpline
210
0.0
220
0.0
230
1.0
 70
     8
 71
     3
 72
    10
 73
     6
 74
     0
 42
0.00000001
 43
0.00000001
 40
0.0
 40
0.0
 40
0.0
 40
0.0
 40
0.5
 40
0.5
 40
1.0
 40
1.0
 40
1.0
 40
1.0
 10
110.3449872238757
 20
56.87153949396555
 30
0.0
 10
110.3213118294513
 20
56.82859596306432
 30
0.0
 10
110.3082207195666
 20
56.76515351844019
 30
0.0
 10
110.3081343982784
 20
56.61267468132122
 30
0.0
 10
110.3213033322222
 20
56.52444467921396
 30
0.0
 10
110.3449872238757
 20
56.43852679207333
 30
0.0
  0
SPLINE
  5
CB
330
1F
100
AcDbEntity
  8
0
  6
Continuous
 62
     7
370
    25
100
AcDbSpline
210
0.0
220
0.0
230
1.0
 70
     8
 71
     3
 72
    12
 73
     8
 74
     0
 42
0.00000001
 43
0.00000001
 40
0.0
 40
0.0
 40
0.0
 40
0.0
 40
0.2500000000000001
 40
0.2500000000000001
 40
0.5000000000000002
 40
0.5000000000000002
 40
1.0
 40
1.0
 40
1.0
 40
1.0
 10
111.0227086291359
 20
59.18094057072405
 30
0.0
 10
111.0227086291359
 20
58.98519830784453
 30
0.0
 10
111.0068656930469
 20
58.78853169865398
 30
0.0
 10
110.9453628328093
 20
58.39926347132569
 30
0.0
 10
110.8997591917656
 20
58.20585943837278
 30
0.0
 10
110.7233081742764
 20
57.62893038711601
 30
0.0
 10
110.5529108070245
 20
57.24868095391301
 30
0.0
 10
110.3449872238757
 20
56.87153949396555
 30
0.0
  0
SPLINE
  5
CC
330
1F
100
AcDbEntity
  8
0
  6
Continuous
 62
     7
370
    25
100
AcDbSpline
210
0.0
220
0.0
230
1.0
 70
     8
 71
     3
 72
    10
 73
     6
 74
     0
 42
0.00000001
 43
0.00000001
 40
0.0
 40
0.0
 40
0.0
 40
0.0
 40
0.5
 40
0.5
 40
1.0
 40
1.0
 40
1.0
 40
1.0
 10
111.9708937737267
 20
43.85332809870131
 30
0.0
 10
112.0138373046279
 20
43.82965270427692
 30
0.0
 10
112.077279749252
 20
43.81656159439229
 30
0.0
 10
112.229758586371
 20
43.816475273104
 30
0.0
 10
112.3179885884782
 20
43.82964420704784
 30
0.0
 10
112.4039064756189
 20
43.85332809870131
 30
0.0
  0
SPLINE
  5
CD
330
1F
100
AcDbEntity
  8
0
  6
Continuous
 62
     7
370
    25
100
AcDbSpline
210
0.0
220
0.0
230
1.0
 70
     8
 71
     3
 72
    10
 73
     6
 74
     0
 42
0.00000001
 43
0.00000001
 40
0.0
 40
0.0
 40
0.0
 40
0.0
 40
0.5
 40
0.5
 40
1.0
 40
1.0
 40
1.0
 40
1.0
 10
111.9708937737267
 20
40.4974460438165
 30
0.0
 10
112.0138315828259
 20
40.52111828372807
 30
0.0
 10
112.0772721727181
 20
40.53421227366333
 30
0.0
 10
112.2297613182269
 20
40.53429914112478
 30
0.0
 10
112.3179907074302
 20
40.52112935136541
 30
0.0
 10
112.4039064756189
 20
40.4974460438165
 30
0.0
  0
LINE
  5
CE
330
1F
100
AcDbEntity
  8
0
  6
Continuous
 62
     7
370
    25
100
AcDbLine
 10
111.9708937737
 20
40.4974460438
 30
0.0
 11
111.9708937737
 21
43.8533280987
 31
0.0
  0
LINE
  5
CF
330
1F
100
AcDbEntity
  8
0
  6
Continuous
 62
     7
370
    25
100
AcDbLine
 10
105.5227086291
 20
51.8197246386
 30
0.0
 11
105.5227086291
 21
59.1809405707
 31
0.0
  0
SPLINE
  5
D0
330
1F
100
AcDbEntity
  8
0
  6
Continuous
 62
     7
370
    25
100
AcDbSpline
210
0.0
220
0.0
230
1.0
 70
     8
 71
     3
 72
    10
 73
     6
 74
     0
 42
0.00000001
 43
0.00000001
 40
0.0
 40
0.0
 40
0.0
 40
0.0
 40
0.5
 40
0.5
 40
1.0
 40
1.0
 40
1.0
 40
1.0
 10
106.2004300343956
 20
56.87153949396551
 30
0.0
 10
105.9916201097293
 20
57.2502886413568
 30
0.0
 10
105.8210859699821
 20
57.6314939177681
 30
0.0
 10
105.5863001649632
 20
58.40072453895588
 30
0.0
 10
105.5227086291359
 20
58.78879224375421
 30
0.0
 10
105.5227086291359
 20
59.18094057072405
 30
0.0
  0
SPLINE
  5
D1
330
1F
100
AcDbEntity
  8
0
  6
Continuous
 62
     7
370
    25
100
AcDbSpline
210
0.0
220
0.0
230
1.0
 70
     8
 71
     3
 72
    10
 73
     6
 74
     0
 42
0.00000001
 43
0.00000001
 40
0.0
 40
0.0
 40
0.0
 40
0.0
 40
0.5
 40
0.5
 40
1.0
 40
1.0
 40
1.0
 40
1.0
 10
106.2004300343961
 20
56.87153949396555
 30
0.0
 10
106.2241022743076
 20
56.82860168486631
 30
0.0
 10
106.2371962642429
 20
56.7651610949741
 30
0.0
 10
106.2372831317043
 20
56.61267194946527
 30
0.0
 10
106.224113341945
 20
56.52444256026195
 30
0.0
 10
106.2004300343961
 20
56.43852679207333
 30
0.0
  0
LINE
  5
D2
330
1F
100
AcDbEntity
  8
0
  6
Continuous
 62
     7
370
    25
100
AcDbLine
 10
123.0227086291
 20
59.1809405707
 30
0.0
 11
123.0227086291
 21
55.8197246386
 31
0.0
  0
SPLINE
  5
D3
330
1F
100
AcDbEntity
  8
0
  6
Continuous
 62
     7
370
    25
100
AcDbSpline
210
0.0
220
0.0
230
1.0
 70
     8
 71
     3
 72
    10
 73
     6
 74
     0
 42
0.00000001
 43
0.00000001
 40
0.0
 40
0.0
 40
0.0
 40
0.0
 40
0.5
 40
0.5
 40
1.0
 40
1.0
 40
1.0
 40
1.0
 10
123.7004300343961
 20
56.87153949396552
 30
0.0
 10
123.4920092815786
 20
57.24958274336768
 30
0.0
 10
123.3215454463012
 20
57.63035224816353
 30
0.0
 10
123.0865630113628
 20
58.39950077372107
 30
0.0
 10
123.0227086291359
 20
58.78792750189632
 30
0.0
 10
123.0227086291359
 20
59.18094057072405
 30
0.0
  0
SPLINE
  5
D4
330
1F
100
AcDbEntity
  8
0
  6
Continuous
 62
     7
370
    25
100
AcDbSpline
210
0.0
220
0.0
230
1.0
 70
     8
 71
     3
 72
    10
 73
     6
 74
     0
 42
0.00000001
 43
0.00000001
 40
0.0
 40
0.0
 40
0.0
 40
0.0
 40
0.5
 40
0.5
 40
1.0
 40
1.0
 40
1.0
 40
1.0
 10
123.7004300343961
 20
56.43852679207333
 30
0.0
 10
123.7241054288205
 20
56.52441385387578
 30
0.0
 10
123.7371965387051
 20
56.61182106285589
 30
0.0
 10
123.7372828599934
 20
56.76445750544962
 30
0.0
 10
123.7241139260495
 20
56.82858055039519
 30
0.0
 10
123.7004300343961
 20
56.87153949396551
 30
0.0
  0
SPLINE
  5
D5
330
1F
100
AcDbEntity
  8
0
  6
Continuous
 62
     7
370
    25
100
AcDbSpline
210
0.0
220
0.0
230
1.0
 70
     8
 71
     3
 72
    10
 73
     6
 74
     0
 42
0.00000001
 43
0.00000001
 40
0.0
 40
0.0
 40
0.0
 40
0.0
 40
0.5
 40
0.5
 40
1.0
 40
1.0
 40
1.0
 40
1.0
 10
128.2006496565782
 20
47.20092248503931
 30
0.0
 10
128.1769742621538
 20
47.11503542323685
 30
0.0
 10
128.1638831522692
 20
47.02762821425671
 30
0.0
 10
128.163796830981
 20
46.87499177166298
 30
0.0
 10
128.1769657649248
 20
46.8108687267174
 30
0.0
 10
128.2006496565783
 20
46.76790978314709
 30
0.0
  0
SPLINE
  5
D6
330
1F
100
AcDbEntity
  8
0
  6
Continuous
 62
     7
370
    25
100
AcDbSpline
210
0.0
220
0.0
230
1.0
 70
     8
 71
     3
 72
    10
 73
     6
 74
     0
 42
0.00000001
 43
0.00000001
 40
0.0
 40
0.0
 40
0.0
 40
0.0
 40
0.5
 40
0.5
 40
1.0
 40
1.0
 40
1.0
 40
1.0
 10
128.2006496565783
 20
56.87153949396555
 30
0.0
 10
128.1769742621539
 20
56.82859596306432
 30
0.0
 10
128.1638831522692
 20
56.76515351844019
 30
0.0
 10
128.163796830981
 20
56.61267468132122
 30
0.0
 10
128.1769657649248
 20
56.52444467921395
 30
0.0
 10
128.2006496565783
 20
56.43852679207333
 30
0.0
  0
SPLINE
  5
D7
330
1F
100
AcDbEntity
  8
0
  6
Continuous
 62
     7
370
    25
100
AcDbSpline
210
0.0
220
0.0
230
1.0
 70
     8
 71
     3
 72
    16
 73
    12
 74
     0
 42
0.00000001
 43
0.00000001
 40
0.0
 40
0.0
 40
0.0
 40
0.0
 40
0.2500000000000001
 40
0.2500000000000001
 40
0.5000000000000001
 40
0.5000000000000001
 40
0.6250000000000001
 40
0.6250000000000001
 40
0.7500000000000002
 40
0.7500000000000002
 40
1.0
 40
1.0
 40
1.0
 40
1.0
 10
128.2006496565783
 20
61.49034164748255
 30
0.0
 10
128.408665104684
 20
61.11303355860606
 30
0.0
 10
128.578871409657
 20
60.73300982823186
 30
0.0
 10
128.8138074412246
 20
59.96538651282115
 30
0.0
 10
128.8778795728883
 20
59.57773969603236
 30
0.0
 10
128.8786125218093
 20
58.98941914414452
 30
0.0
 10
128.8629530417262
 20
58.79234595158886
 30
0.0
 10
128.8016779150893
 20
58.40228897403477
 30
0.0
 10
128.7561216425902
 20
58.20849607344672
 30
0.0
 10
128.5796356098339
 20
57.6304150886833
 30
0.0
 10
128.4089791563482
 20
57.24941722434848
 30
0.0
 10
128.2006496565783
 20
56.87153949396555
 30
0.0
  0
SPLINE
  5
D8
330
1F
100
AcDbEntity
  8
0
  6
Continuous
 62
     7
370
    25
100
AcDbSpline
210
0.0
220
0.0
230
1.0
 70
     8
 71
     3
 72
    10
 73
     6
 74
     0
 42
0.00000001
 43
0.00000001
 40
0.0
 40
0.0
 40
0.0
 40
0.0
 40
0.1601790552921226
 40
0.7197651707803578
 40
1.0
 40
1.0
 40
1.0
 40
1.0
 10
128.1664202234614
 20
61.5526199262323
 30
0.0
 10
128.1656574333681
 20
61.55401215425866
 30
0.0
 10
128.1622298332944
 20
61.56026813598699
 30
0.0
 10
128.1767372980927
 20
61.53376087125908
 30
0.0
 10
128.1946668512105
 20
61.50120501611392
 30
0.0
 10
128.2006496565783
 20
61.49034164748255
 30
0.0
  0
SPLINE
  5
D9
330
1F
100
AcDbEntity
  8
0
  6
Continuous
 62
     7
370
    25
100
AcDbSpline
210
0.0
220
0.0
230
1.0
 70
     8
 71
     3
 72
     9
 73
     5
 74
     0
 42
0.00000001
 43
0.00000001
 40
0.0
 40
0.0
 40
0.0
 40
0.0
 40
0.5797912171256352
 40
1.0
 40
1.0
 40
1.0
 40
1.0
 10
128.2006496565783
 20
42.14910762963008
 30
0.0
 10
128.1882910532318
 20
42.12663398138896
 30
0.0
 10
128.1669754434374
 20
42.08787235896813
 30
0.0
 10
128.1665845009346
 20
42.08713795420992
 30
0.0
 10
128.1664202234614
 20
42.08682935088034
 30
0.0
  0
SPLINE
  5
DA
330
1F
100
AcDbEntity
  8
0
  6
Continuous
 62
     7
370
    25
100
AcDbSpline
210
0.0
220
0.0
230
1.0
 70
     8
 71
     3
 72
    16
 73
    12
 74
     0
 42
0.00000001
 43
0.00000001
 40
0.0
 40
0.0
 40
0.0
 40
0.0
 40
0.2500000000000001
 40
0.2500000000000001
 40
0.5000000000000002
 40
0.5000000000000002
 40
0.6250000000000001
 40
0.6250000000000001
 40
0.7500000000000001
 40
0.7500000000000001
 40
1.0
 40
1.0
 40
1.0
 40
1.0
 10
128.2006496565783
 20
46.76790978314709
 30
0.0
 10
128.408665104684
 20
46.39060169427059
 30
0.0
 10
128.578871409657
 20
46.01057796389639
 30
0.0
 10
128.8138074412246
 20
45.2429546484857
 30
0.0
 10
128.8778795728883
 20
44.8553078316969
 30
0.0
 10
128.8786125218093
 20
44.26698727980905
 30
0.0
 10
128.8629530417262
 20
44.0699140872534
 30
0.0
 10
128.8016779150893
 20
43.6798571096993
 30
0.0
 10
128.7561216425902
 20
43.48606420911127
 30
0.0
 10
128.5796356098339
 20
42.90798322434784
 30
0.0
 10
128.4089791563482
 20
42.52698536001301
 30
0.0
 10
128.2006496565783
 20
42.14910762963008
 30
0.0
  0
LINE
  5
DB
330
1F
100
AcDbEntity
  8
0
  6
Continuous
 62
     7
370
    25
100
AcDbLine
 10
129.0227086291
 20
60.0697246386
 30
0.0
 11
129.0227086291
 21
43.5697246386
 31
0.0
  0
LINE
  5
DC
330
1F
100
AcDbEntity
  8
0
  6
Continuous
 62
     7
370
    25
100
AcDbLine
 10
111.0227086291
 20
47.8197246386
 30
0.0
 11
111.0227086291
 21
45.8197246386
 31
0.0
  0
SPLINE
  5
DD
330
1F
100
AcDbEntity
  8
0
  6
Continuous
 62
     7
370
    25
100
AcDbSpline
210
0.0
220
0.0
230
1.0
 70
     8
 71
     3
 72
     8
 73
     4
 74
     0
 42
0.00000001
 43
0.00000001
 40
0.0
 40
0.0
 40
0.0
 40
0.0
 40
1.0
 40
1.0
 40
1.0
 40
1.0
 10
111.0227086291359
 20
45.81972463855631
 30
0.0
 10
110.9829299709457
 20
45.68233954955621
 30
0.0
 10
110.9424410081175
 20
45.54563546774444
 30
0.0
 10
110.9013251376397
 20
45.40960310523106
 30
0.0
  0
SPLINE
  5
DE
330
1F
100
AcDbEntity
  8
0
  6
Continuous
 62
     7
370
    25
100
AcDbSpline
210
0.0
220
0.0
230
1.0
 70
     8
 71
     3
 72
     8
 73
     4
 74
     0
 42
0.00000001
 43
0.00000001
 40
0.0
 40
0.0
 40
0.0
 40
0.0
 40
1.0
 40
1.0
 40
1.0
 40
1.0
 10
110.3449872238757
 20
46.76790978314709
 30
0.0
 10
110.5921610047596
 20
46.31957449009577
 30
0.0
 10
110.7858826730636
 20
45.86739999935217
 30
0.0
 10
110.9013251376397
 20
45.40960310523106
 30
0.0
  0
SPLINE
  5
DF
330
1F
100
AcDbEntity
  8
0
  6
Continuous
 62
     7
370
    25
100
AcDbSpline
210
0.0
220
0.0
230
1.0
 70
     8
 71
     3
 72
    10
 73
     6
 74
     0
 42
0.00000001
 43
0.00000001
 40
0.0
 40
0.0
 40
0.0
 40
0.0
 40
0.5
 40
0.5
 40
1.0
 40
1.0
 40
1.0
 40
1.0
 10
110.3449872238756
 20
47.20092248503931
 30
0.0
 10
110.3213118294512
 20
47.11503542323685
 30
0.0
 10
110.3082207195666
 20
47.02762821425672
 30
0.0
 10
110.3081343982784
 20
46.87499177166299
 30
0.0
 10
110.3213033322222
 20
46.8108687267174
 30
0.0
 10
110.3449872238757
 20
46.76790978314709
 30
0.0
  0
LINE
  5
E0
330
1F
100
AcDbEntity
  8
0
  6
Continuous
 62
     7
370
    25
100
AcDbLine
 10
106.2004300344
 20
56.871539494
 30
0.0
 11
110.3449872239
 21
56.871539494
 31
0.0
  0
SPLINE
  5
E1
330
1F
100
AcDbEntity
  8
0
  6
Continuous
 62
     7
370
    25
100
AcDbSpline
210
0.0
220
0.0
230
1.0
 70
     8
 71
     3
 72
    10
 73
     6
 74
     0
 42
0.00000001
 43
0.00000001
 40
0.0
 40
0.0
 40
0.0
 40
0.0
 40
0.5
 40
0.5
 40
1.0
 40
1.0
 40
1.0
 40
1.0
 10
121.6415107826529
 20
43.8533280987013
 30
0.0
 10
121.7273978444554
 20
43.82965270427688
 30
0.0
 10
121.8148050534356
 20
43.81656159439225
 30
0.0
 10
121.9674414960295
 20
43.81647527310403
 30
0.0
 10
122.0315645409752
 20
43.82964420704798
 30
0.0
 10
122.0745234845455
 20
43.85332809870153
 30
0.0
  0
LINE
  5
E2
330
1F
100
AcDbEntity
  8
0
  6
Continuous
 62
     7
370
    25
100
AcDbLine
 10
122.0745234845
 20
43.8533280987
 30
0.0
 11
122.0745234845
 21
40.4974460438
 31
0.0
  0
SPLINE
  5
E3
330
1F
100
AcDbEntity
  8
0
  6
Continuous
 62
     7
370
    25
100
AcDbSpline
210
0.0
220
0.0
230
1.0
 70
     8
 71
     3
 72
    10
 73
     6
 74
     0
 42
0.00000001
 43
0.00000001
 40
0.0
 40
0.0
 40
0.0
 40
0.0
 40
0.5
 40
0.5
 40
1.0
 40
1.0
 40
1.0
 40
1.0
 10
121.6415107826529
 20
40.4974460438165
 30
0.0
 10
121.7273924251593
 20
40.52111994437246
 30
0.0
 10
121.8148016311248
 20
40.5342125015516
 30
0.0
 10
121.9674441161997
 20
40.53429891553388
 30
0.0
 10
122.0315671012821
 20
40.52112852393526
 30
0.0
 10
122.0745234845451
 20
40.4974460438165
 30
0.0
  0
SPLINE
  5
E4
330
1F
100
AcDbEntity
  8
0
  6
Continuous
 62
     7
370
    25
100
AcDbSpline
210
0.0
220
0.0
230
1.0
 70
     8
 71
     3
 72
     8
 73
     4
 74
     0
 42
0.00000001
 43
0.00000001
 40
0.0
 40
0.0
 40
0.0
 40
0.0
 40
1.0
 40
1.0
 40
1.0
 40
1.0
 10
123.144092120632
 20
45.40960310523107
 30
0.0
 10
123.1029768449908
 20
45.54563349972062
 30
0.0
 10
123.0624878621229
 20
45.68233756435806
 30
0.0
 10
123.0227086291359
 20
45.81972463855631
 30
0.0
  0
LINE
  5
E5
330
1F
100
AcDbEntity
  8
0
  6
Continuous
 62
     7
370
    25
100
AcDbLine
 10
123.0227086291
 20
47.8197246386
 30
0.0
 11
123.0227086291
 21
45.8197246386
 31
0.0
  0
SPLINE
  5
E6
330
1F
100
AcDbEntity
  8
0
  6
Continuous
 62
     7
370
    25
100
AcDbSpline
210
0.0
220
0.0
230
1.0
 70
     8
 71
     3
 72
    10
 73
     6
 74
     0
 42
0.00000001
 43
0.00000001
 40
0.0
 40
0.0
 40
0.0
 40
0.0
 40
0.5
 40
0.5
 40
1.0
 40
1.0
 40
1.0
 40
1.0
 10
123.7004300343928
 20
46.76790978314709
 30
0.0
 10
123.7241054288172
 20
46.81085331404825
 30
0.0
 10
123.7371965387051
 20
46.87429575867204
 30
0.0
 10
123.7372828599934
 20
47.02677459579112
 30
0.0
 10
123.7241139260496
 20
47.11500459789855
 30
0.0
 10
123.7004300343961
 20
47.2009224850393
 30
0.0
  0
SPLINE
  5
E7
330
1F
100
AcDbEntity
  8
0
  6
Continuous
 62
     7
370
    25
100
AcDbSpline
210
0.0
220
0.0
230
1.0
 70
     8
 71
     3
 72
     8
 73
     4
 74
     0
 42
0.00000001
 43
0.00000001
 40
0.0
 40
0.0
 40
0.0
 40
0.0
 40
1.0
 40
1.0
 40
1.0
 40
1.0
 10
123.144092120632
 20
45.40960310523107
 30
0.0
 10
123.2597247306611
 20
45.86815403728883
 30
0.0
 10
123.4536141354815
 20
46.32022363304708
 30
0.0
 10
123.7004300343959
 20
46.76790978314683
 30
0.0
  0
SPLINE
  5
E8
330
1F
100
AcDbEntity
  8
0
  6
Continuous
 62
     7
370
    25
100
AcDbSpline
210
0.0
220
0.0
230
1.0
 70
     8
 71
     3
 72
    12
 73
     8
 74
     0
 42
0.00000001
 43
0.00000001
 40
0.0
 40
0.0
 40
0.0
 40
0.0
 40
0.2499999999999998
 40
0.2499999999999998
 40
0.4999999999999996
 40
0.4999999999999996
 40
1.0
 40
1.0
 40
1.0
 40
1.0
 10
124.3839245613036
 20
39.81972463855632
 30
0.0
 10
124.1889210812978
 20
39.81972463855632
 30
0.0
 10
123.9923864222734
 20
39.83547096857827
 30
0.0
 10
123.6029667346678
 20
39.8969159931637
 30
0.0
 10
123.4094820416076
 20
39.94250475241743
 30
0.0
 10
122.832298442852
 20
40.11895575467403
 30
0.0
 10
122.451862661069
 20
40.28941345663753
 30
0.0
 10
122.0745234845451
 20
40.49744604381636
 30
0.0
  0
LINE
  5
E9
330
1F
100
AcDbEntity
  8
0
  6
Continuous
 62
     7
370
    25
100
AcDbLine
 10
117.0227086291
 20
39.8197246386
 30
0.0
 11
124.3839245613
 21
39.8197246386
 31
0.0
  0
LINE
  5
EA
330
1F
100
AcDbEntity
  8
0
  6
Continuous
 62
     7
370
    25
100
AcDbLine
 10
109.661492697
 20
39.8197246386
 30
0.0
 11
117.0227086291
 21
39.8197246386
 31
0.0
  0
SPLINE
  5
EB
330
1F
100
AcDbEntity
  8
0
  6
Continuous
 62
     7
370
    25
100
AcDbSpline
210
0.0
220
0.0
230
1.0
 70
     8
 71
     3
 72
    10
 73
     6
 74
     0
 42
0.00000001
 43
0.00000001
 40
0.0
 40
0.0
 40
0.0
 40
0.0
 40
0.5
 40
0.5
 40
1.0
 40
1.0
 40
1.0
 40
1.0
 10
111.9708937737267
 20
40.49744604381604
 30
0.0
 10
111.5921446263354
 20
40.28863611914979
 30
0.0
 10
111.2109393499241
 20
40.11810197940252
 30
0.0
 10
110.4417087287363
 20
39.88331617438361
 30
0.0
 10
110.053641023938
 20
39.81972463855632
 30
0.0
 10
109.6614926969682
 20
39.81972463855632
 30
0.0
  0
LINE
  5
EC
330
1F
100
AcDbEntity
  8
0
  6
Continuous
 62
     7
370
    25
100
AcDbLine
 10
128.2006496566
 20
46.7679097831
 30
0.0
 11
123.7004300344
 21
46.7679097831
 31
0.0
  0
SPLINE
  5
ED
330
1F
100
AcDbEntity
  8
0
  6
Continuous
 62
     7
370
    25
100
AcDbSpline
210
0.0
220
0.0
230
1.0
 70
     8
 71
     3
 72
     8
 73
     4
 74
     0
 42
0.00000001
 43
0.00000001
 40
0.0
 40
0.0
 40
0.0
 40
0.0
 40
1.0
 40
1.0
 40
1.0
 40
1.0
 10
109.7333324445192
 20
44.53034845392758
 30
0.0
 10
110.042349587161
 20
44.63135356175771
 30
0.0
 10
110.357667343479
 20
44.72801035082364
 30
0.0
 10
110.680146670322
 20
44.81972463855632
 30
0.0
  0
SPLINE
  5
EE
330
1F
100
AcDbEntity
  8
0
  6
Continuous
 62
     7
370
    25
100
AcDbSpline
210
0.0
220
0.0
230
1.0
 70
     8
 71
     3
 72
    12
 73
     8
 74
     0
 42
0.00000001
 43
0.00000001
 40
0.0
 40
0.0
 40
0.0
 40
0.0
 40
0.2500000000000002
 40
0.2500000000000002
 40
0.5000000000000004
 40
0.5000000000000004
 40
1.0
 40
1.0
 40
1.0
 40
1.0
 10
109.733332444514
 20
44.53034845392146
 30
0.0
 10
109.9233586198172
 20
44.52663996806503
 30
0.0
 10
110.113573682503
 20
44.50805746522735
 30
0.0
 10
110.4905104416354
 20
44.4431904282612
 30
0.0
 10
110.6778332328949
 20
44.39692487501093
 30
0.0
 10
111.236743189209
 20
44.22120034470397
 30
0.0
 10
111.6052788473194
 20
44.05489693592722
 30
0.0
 10
111.9708937737267
 20
43.85332809870131
 30
0.0
  0
SPLINE
  5
EF
330
1F
100
AcDbEntity
  8
0
  6
Continuous
 62
     7
370
    25
100
AcDbSpline
210
0.0
220
0.0
230
1.0
 70
     8
 71
     3
 72
     8
 73
     4
 74
     0
 42
0.00000001
 43
0.00000001
 40
0.0
 40
0.0
 40
0.0
 40
0.0
 40
1.0
 40
1.0
 40
1.0
 40
1.0
 10
123.3652705879497
 20
44.81972463855632
 30
0.0
 10
123.687749914799
 20
44.72801035082185
 30
0.0
 10
124.003067671123
 20
44.63135356175395
 30
0.0
 10
124.3120848137705
 20
44.5303484539217
 30
0.0
  0
SPLINE
  5
F0
330
1F
100
AcDbEntity
  8
0
  6
Continuous
 62
     7
370
    25
100
AcDbSpline
210
0.0
220
0.0
230
1.0
 70
     8
 71
     3
 72
    10
 73
     6
 74
     0
 42
0.00000001
 43
0.00000001
 40
0.0
 40
0.0
 40
0.0
 40
0.0
 40
0.5
 40
0.5
 40
1.0
 40
1.0
 40
1.0
 40
1.0
 10
122.0745234845454
 20
43.85332809870147
 30
0.0
 10
122.4410414313859
 20
44.05539478425239
 30
0.0
 10
122.8101216568517
 20
44.22178755652303
 30
0.0
 10
123.5553740050791
 20
44.45583453039309
 30
0.0
 10
123.9315867770269
 20
44.52292278435192
 30
0.0
 10
124.3120848137705
 20
44.5303484539217
 30
0.0
  0
LINE
  5
F1
330
1F
100
AcDbEntity
  8
0
  6
Continuous
 62
     7
370
    25
100
AcDbLine
 10
110.3449872239
 20
46.7679097831
 30
0.0
 11
106.2004300344
 21
46.7679097831
 31
0.0
  0
SPLINE
  5
F2
330
1F
100
AcDbEntity
  8
0
  6
Continuous
 62
     7
370
    25
100
AcDbSpline
210
0.0
220
0.0
230
1.0
 70
     8
 71
     3
 72
    10
 73
     6
 74
     0
 42
0.00000001
 43
0.00000001
 40
0.0
 40
0.0
 40
0.0
 40
0.0
 40
0.5
 40
0.5
 40
1.0
 40
1.0
 40
1.0
 40
1.0
 10
106.2004300343961
 20
47.2009224850393
 30
0.0
 10
106.224103934952
 20
47.11504084253285
 30
0.0
 10
106.2371964921312
 20
47.02763163656742
 30
0.0
 10
106.2372829061134
 20
46.87498915149249
 30
0.0
 10
106.2241125145148
 20
46.81086616641011
 30
0.0
 10
106.2004300343961
 20
46.76790978314709
 30
0.0
  0
SPLINE
  5
F3
330
1F
100
AcDbEntity
  8
0
  6
Continuous
 62
     7
370
    25
100
AcDbSpline
210
0.0
220
0.0
230
1.0
 70
     8
 71
     3
 72
    12
 73
     8
 74
     0
 42
0.00000001
 43
0.00000001
 40
0.0
 40
0.0
 40
0.0
 40
0.0
 40
0.2499999999999999
 40
0.2499999999999999
 40
0.4999999999999998
 40
0.4999999999999998
 40
1.0
 40
1.0
 40
1.0
 40
1.0
 10
105.5227086291359
 20
44.45850870638858
 30
0.0
 10
105.5227086291359
 20
44.65351218639438
 30
0.0
 10
105.5384549591578
 20
44.85004684541879
 30
0.0
 10
105.5998999837433
 20
45.23946653302434
 30
0.0
 10
105.645488742997
 20
45.4329512260846
 30
0.0
 10
105.8219397452536
 20
46.01013482484021
 30
0.0
 10
105.9923974472171
 20
46.39057060662316
 30
0.0
 10
106.2004300343959
 20
46.7679097831471
 30
0.0
  0
LINE
  5
F4
330
1F
100
AcDbEntity
  8
0
  6
Continuous
 62
     7
370
    25
100
AcDbLine
 10
105.5227086291
 20
51.8197246386
 30
0.0
 11
105.5227086291
 21
44.4585087064
 31
0.0
  0
LINE
  5
F5
330
1F
100
AcDbEntity
  8
0
  6
Continuous
 62
     7
370
    25
100
AcDbLine
 10
112.9689476226
 20
51.2452927821
 30
0.0
 11
113.5762959814
 21
51.2452927821
 31
0.0
  0
ELLIPSE
  5
F6
330
1F
100
AcDbEntity
  8
0
  6
Continuous
 62
     7
370
    25
100
AcDbEllipse
 10
113.2726218038
 20
52.1367171162
 30
0.0
 11
0.08480161849065837
 21
0.0
 31
0.0
210
0.0
220
0.0
230
1.0
 40
0.9533039403
 41
0.3430239404206368
 42
2.798568713169074
  0
LINE
  5
F7
330
1F
100
AcDbEntity
  8
0
  6
Continuous
 62
     7
370
    25
100
AcDbLine
 10
113.6561572198
 20
51.3533245108
 30
0.0
 11
113.3524830421
 21
52.163907128
 31
0.0
  0
ELLIPSE
  5
F8
330
1F
100
AcDbEntity
  8
0
  6
Continuous
 62
     7
370
    25
100
AcDbEllipse
 10
113.5762959814
 20
51.3261344991
 30
0.0
 11
-0.08480161849067258
 21
-4.973799150320701E-14
 31
0.0
210
0.0
220
0.0
230
1.0
 40
0.9533039403
 41
1.570796326794337
 42
3.484616592149139
  0
LINE
  5
F9
330
1F
100
AcDbEntity
  8
0
  6
Continuous
 62
     7
370
    25
100
AcDbLine
 10
113.1927605655
 20
52.163907128
 30
0.0
 11
112.8890863844
 21
51.3533245111
 31
0.0
  0
ELLIPSE
  5
FA
330
1F
100
AcDbEntity
  8
0
  6
Continuous
 62
     7
370
    25
100
AcDbEllipse
 10
112.9689476226
 20
51.3261344991
 30
0.0
 11
0.08480161849065837
 21
-7.105427357601002E-15
 31
0.0
210
0.0
220
0.0
230
1.0
 40
0.9533039403
 41
2.798568711308437
 42
4.712388980384782
  0
LINE
  5
FB
330
1F
100
AcDbEntity
  8
0
  6
Continuous
 62
     7
370
    25
100
AcDbLine
 10
123.7004300344
 20
56.871539494
 30
0.0
 11
128.2006496566
 21
56.871539494
 31
0.0
  0
SPLINE
  5
FC
330
1F
100
AcDbEntity
  8
0
  6
Continuous
 62
     7
370
    25
100
AcDbSpline
210
0.0
220
0.0
230
1.0
 70
     8
 71
     3
 72
    12
 73
     8
 74
     0
 42
0.00000001
 43
0.00000001
 40
0.0
 40
0.0
 40
0.0
 40
0.0
 40
0.2499999999999999
 40
0.2499999999999999
 40
0.4999999999999998
 40
0.4999999999999998
 40
1.0
 40
1.0
 40
1.0
 40
1.0
 10
123.0227086291359
 20
59.18094057072405
 30
0.0
 10
123.0227086291359
 20
59.37668283360356
 30
0.0
 10
123.0385515652248
 20
59.57334944279412
 30
0.0
 10
123.1000544254625
 20
59.96261767012241
 30
0.0
 10
123.1456580665062
 20
60.15602170307533
 30
0.0
 10
123.3221090839954
 20
60.73295075433209
 30
0.0
 10
123.4925064512473
 20
61.11320018753509
 30
0.0
 10
123.7004300343961
 20
61.49034164748255
 30
0.0
  0
LINE
  5
FD
330
1F
100
AcDbEntity
  8
0
  6
Continuous
 62
     7
370
    25
100
AcDbLine
 10
128.2006496566
 20
61.4903416475
 30
0.0
 11
123.7004300344
 21
61.4903416475
 31
0.0
  0
ELLIPSE
  5
FE
330
1F
100
AcDbEntity
  8
0
  6
Continuous
 62
     7
370
    25
100
AcDbEllipse
 10
117.0227086291
 20
42.0047700623
 30
0.0
 11
8.499999999999986
 21
0.0
 31
0.0
210
0.0
220
0.0
230
1.0
 40
0.5773502692
 41
2.374833212873086
 42
2.53069227991306
  0
LINE
  5
FF
330
1F
100
AcDbEntity
  8
0
  6
Continuous
 62
     7
370
    25
100
AcDbLine
 10
109.7333324445
 20
44.5303484539
 30
0.0
 11
107.3520916202
 21
42.1491076296
 31
0.0
  0
LINE
  5
100
330
1F
100
AcDbEntity
  8
0
  6
Continuous
 62
     7
370
    25
100
AcDbLine
 10
106.2004300344
 20
42.1491076296
 30
0.0
 11
107.3520916202
 21
42.1491076296
 31
0.0
  0
SPLINE
  5
101
330
1F
100
AcDbEntity
  8
0
  6
Continuous
 62
     7
370
    25
100
AcDbSpline
210
0.0
220
0.0
230
1.0
 70
     8
 71
     3
 72
    10
 73
     6
 74
     0
 42
0.00000001
 43
0.00000001
 40
0.0
 40
0.0
 40
0.0
 40
0.0
 40
0.5
 40
0.5
 40
1.0
 40
1.0
 40
1.0
 40
1.0
 10
106.2004300343956
 20
42.14910762963004
 30
0.0
 10
105.9916201097293
 20
42.52785677702134
 30
0.0
 10
105.8210859699821
 20
42.90906205343264
 30
0.0
 10
105.5863001649632
 20
43.67829267462042
 30
0.0
 10
105.5227086291359
 20
44.06636037941875
 30
0.0
 10
105.5227086291359
 20
44.45850870638858
 30
0.0
  0
ELLIPSE
  5
102
330
1F
100
AcDbEntity
  8
0
  6
Continuous
 62
     7
370
    25
100
AcDbEllipse
 10
117.0227086291
 20
42.0047700623
 30
0.0
 11
8.499999999999986
 21
0.0
 31
0.0
210
0.0
220
0.0
230
1.0
 40
0.5773502692
 41
0.6109003736767338
 42
0.7667594407167075
  0
LINE
  5
103
330
1F
100
AcDbEntity
  8
0
  6
Continuous
 62
     7
370
    25
100
AcDbLine
 10
126.6933256381
 20
42.1491076296
 30
0.0
 11
128.2006496566
 21
42.1491076296
 31
0.0
  0
LINE
  5
104
330
1F
100
AcDbEntity
  8
0
  6
Continuous
 62
     7
370
    25
100
AcDbLine
 10
126.6933256381
 20
42.1491076296
 30
0.0
 11
124.3120848138
 21
44.5303484539
 31
0.0
  0
SPLINE
  5
105
330
1F
100
AcDbEntity
  8
0
  6
Continuous
 62
     7
370
    25
100
AcDbSpline
210
0.0
220
0.0
230
1.0
 70
     8
 71
     3
 72
    12
 73
     8
 74
     0
 42
0.00000001
 43
0.00000001
 40
0.0
 40
0.0
 40
0.0
 40
0.0
 40
0.2500000000000002
 40
0.2500000000000002
 40
0.5000000000000001
 40
0.5000000000000001
 40
1.0
 40
1.0
 40
1.0
 40
1.0
 10
109.6614926969682
 20
39.81972463855632
 30
0.0
 10
109.4664892169623
 20
39.81972463855632
 30
0.0
 10
109.269954557938
 20
39.83547096857828
 30
0.0
 10
108.8805348703324
 20
39.8969159931637
 30
0.0
 10
108.6870501772721
 20
39.94250475241743
 30
0.0
 10
108.1098665785165
 20
40.11895575467402
 30
0.0
 10
107.7294307967336
 20
40.28941345663753
 30
0.0
 10
107.3520916202096
 20
40.49744604381636
 30
0.0
  0
LINE
  5
106
330
1F
100
AcDbEntity
  8
0
  6
Continuous
 62
     7
370
    25
100
AcDbLine
 10
107.3520916202
 20
42.1491076296
 30
0.0
 11
107.3520916202
 21
40.4974460438
 31
0.0
  0
SPLINE
  5
107
330
1F
100
AcDbEntity
  8
0
  6
Continuous
 62
     7
370
    25
100
AcDbSpline
210
0.0
220
0.0
230
1.0
 70
     8
 71
     3
 72
    12
 73
     8
 74
     0
 42
0.00000001
 43
0.00000001
 40
0.0
 40
0.0
 40
0.0
 40
0.0
 40
0.2499999999999999
 40
0.2499999999999999
 40
0.5
 40
0.5
 40
1.0
 40
1.0
 40
1.0
 40
1.0
 10
105.5227086291359
 20
59.18094057072405
 30
0.0
 10
105.5227086291359
 20
59.37594405072984
 30
0.0
 10
105.5384549591578
 20
59.57247870975425
 30
0.0
 10
105.5998999837433
 20
59.9618983973598
 30
0.0
 10
105.645488742997
 20
60.15538309042006
 30
0.0
 10
105.8219397452536
 20
60.73256668917566
 30
0.0
 10
105.9923974472171
 20
61.11300247095863
 30
0.0
 10
106.2004300343959
 20
61.49034164748257
 30
0.0
  0
LINE
  5
108
330
1F
100
AcDbEntity
  8
0
  6
Continuous
 62
     7
370
    25
100
AcDbLine
 10
110.3449872239
 20
61.4903416475
 30
0.0
 11
106.2004300344
 21
61.4903416475
 31
0.0
  0
SPLINE
  5
109
330
1F
100
AcDbEntity
  8
0
  6
Continuous
 62
     7
370
    25
100
AcDbSpline
210
0.0
220
0.0
230
1.0
 70
     8
 71
     3
 72
    10
 73
     6
 74
     0
 42
0.00000001
 43
0.00000001
 40
0.0
 40
0.0
 40
0.0
 40
0.0
 40
0.5
 40
0.5
 40
1.0
 40
1.0
 40
1.0
 40
1.0
 10
110.3449872238757
 20
61.49034164748257
 30
0.0
 10
110.5534079766931
 20
61.11229839808041
 30
0.0
 10
110.7238718119705
 20
60.73152889328456
 30
0.0
 10
110.9588542469089
 20
59.96238036772701
 30
0.0
 10
111.0227086291359
 20
59.57395363955178
 30
0.0
 10
111.0227086291359
 20
59.18094057072405
 30
0.0
  0
LINE
  5
10A
330
1F
100
AcDbEntity
  8
0
  6
Continuous
 62
     7
370
    25
100
AcDbLine
 10
126.6933256381
 20
40.4974460438
 30
0.0
 11
126.6933256381
 21
42.1491076296
 31
0.0
  0
SPLINE
  5
10B
330
1F
100
AcDbEntity
  8
0
  6
Continuous
 62
     7
370
    25
100
AcDbSpline
210
0.0
220
0.0
230
1.0
 70
     8
 71
     3
 72
    10
 73
     6
 74
     0
 42
0.00000001
 43
0.00000001
 40
0.0
 40
0.0
 40
0.0
 40
0.0
 40
0.5
 40
0.5
 40
1.0
 40
1.0
 40
1.0
 40
1.0
 10
126.6933256380621
 20
40.49744604381604
 30
0.0
 10
126.3145764906708
 20
40.28863611914979
 30
0.0
 10
125.9333712142595
 20
40.11810197940253
 30
0.0
 10
125.1641405930718
 20
39.88331617438361
 30
0.0
 10
124.7760728882734
 20
39.81972463855632
 30
0.0
 10
124.3839245613036
 20
39.81972463855632
 30
0.0
  0
LINE
  5
10C
330
1F
100
AcDbEntity
  8
0
  6
Continuous
 62
     7
370
    25
100
AcDbLine
 10
123.0227086291
 20
45.8197246386
 30
0.0
 11
121.0227086291
 21
47.8197246386
 31
0.0
  0
LINE
  5
10D
330
1F
100
AcDbEntity
  8
0
  6
Continuous
 62
     7
370
    25
100
AcDbLine
 10
121.0227086291
 20
44.8197246386
 30
0.0
 11
123.9853297018
 21
44.8197246386
 31
0.0
  0
LINE
  5
10E
330
1F
100
AcDbEntity
  8
0
  6
Continuous
 62
     7
370
    25
100
AcDbLine
 10
113.0227086291
 20
47.8197246386
 30
0.0
 11
111.0227086291
 21
45.8197246386
 31
0.0
  0
LINE
  5
10F
330
1F
100
AcDbEntity
  8
0
  6
Continuous
 62
     7
370
    25
100
AcDbLine
 10
110.0600875565
 20
44.8197246386
 30
0.0
 11
113.0227086291
 21
44.8197246386
 31
0.0
  0
LINE
  5
110
330
1F
100
AcDbEntity
  8
0
  6
Continuous
 62
     7
370
    25
100
AcDbLine
 10
111.0227086291
 20
59.7541791168
 30
0.0
 11
111.0227086291
 21
59.1809405707
 31
0.0
  0
SPLINE
  5
111
330
1F
100
AcDbEntity
  8
0
  6
Continuous
 62
     7
370
    25
100
AcDbSpline
210
0.0
220
0.0
230
1.0
 70
     8
 71
     3
 72
    32
 73
    28
 74
     0
 42
0.00000001
 43
0.00000001
 40
0.0
 40
0.0
 40
0.0
 40
0.0
 40
0.0625000000000001
 40
0.0625000000000001
 40
0.1250000000000001
 40
0.1250000000000001
 40
0.1875000000000002
 40
0.1875000000000002
 40
0.2500000000000003
 40
0.2500000000000003
 40
0.3750000000000003
 40
0.3750000000000003
 40
0.4375000000000003
 40
0.4375000000000003
 40
0.5000000000000002
 40
0.5000000000000002
 40
0.5625000000000002
 40
0.5625000000000002
 40
0.6250000000000001
 40
0.6250000000000001
 40
0.7500000000000001
 40
0.7500000000000001
 40
0.8750000000000002
 40
0.8750000000000002
 40
0.9375000000000001
 40
0.9375000000000001
 40
1.0
 40
1.0
 40
1.0
 40
1.0
 10
123.0227086291274
 20
59.75417911677697
 30
0.0
 10
122.8658522932105
 20
59.65922213888127
 30
0.0
 10
122.6928538590549
 20
59.55646896425609
 30
0.0
 10
122.3161492724291
 20
59.33975776260782
 30
0.0
 10
122.1132964919724
 20
59.22633905211782
 30
0.0
 10
121.6873152291698
 20
58.99824891541964
 30
0.0
 10
121.4631372688818
 20
58.88294203296779
 30
0.0
 10
120.9917861753054
 20
58.65461893059301
 30
0.0
 10
120.7431006599403
 20
58.54096891445926
 30
0.0
 10
119.9725281752486
 20
58.21790488322522
 30
0.0
 10
119.4268907651665
 20
58.02500635906171
 30
0.0
 10
118.5441110166701
 20
57.81341243378802
 30
0.0
 10
118.2454719167973
 20
57.75777004767027
 30
0.0
 10
117.6389703160815
 20
57.68210197830643
 30
0.0
 10
117.3288230774156
 20
57.66212873253011
 30
0.0
 10
116.7087375887318
 20
57.66246249878337
 30
0.0
 10
116.4021665512638
 20
57.68246146410615
 30
0.0
 10
115.7955118039556
 20
57.75850025030262
 30
0.0
 10
115.4931387393303
 20
57.81515335043417
 30
0.0
 10
114.6165024365773
 20
58.02593190048001
 30
0.0
 10
114.0684483046004
 20
58.21947773105177
 30
0.0
 10
113.0379510373571
 20
58.65209702432756
 30
0.0
 10
112.5703910020777
 20
58.88457366901798
 30
0.0
 10
111.9321773984497
 20
59.22631166993703
 30
0.0
 10
111.7289676602599
 20
59.33992918536542
 30
0.0
 10
111.3526307338655
 20
59.55643157772165
 30
0.0
 10
111.179652125374
 20
59.65916937416604
 30
0.0
 10
111.0227086291359
 20
59.75417911678213
 30
0.0
  0
LINE
  5
112
330
1F
100
AcDbEntity
  8
0
  6
Continuous
 62
     7
370
    25
100
AcDbLine
 10
123.0227086291
 20
59.7541791168
 30
0.0
 11
123.0227086291
 21
59.1809405707
 31
0.0
  0
LINE
  5
113
330
1F
100
AcDbEntity
  8
0
  6
Continuous
 62
     7
370
    25
100
AcDbLine
 10
110.5581565706
 20
30.4233905124
 30
0.0
 11
123.4872606877
 21
30.4233905124
 31
0.0
  0
SPLINE
  5
114
330
1F
100
AcDbEntity
  8
0
  6
Continuous
 62
     7
370
    25
100
AcDbSpline
210
0.0
220
0.0
230
1.0
 70
     8
 71
     3
 72
    12
 73
     8
 74
     0
 42
0.00000001
 43
0.00000001
 40
0.0
 40
0.0
 40
0.0
 40
0.0
 40
0.0821706373085738
 40
0.3096913011701716
 40
0.5425037178468742
 40
0.7710675998263611
 40
0.9999999999999999
 40
0.9999999999999999
 40
0.9999999999999999
 40
0.9999999999999999
 10
123.1961478165274
 20
60.61293409863295
 30
0.0
 10
123.1972798400677
 20
60.61670388525229
 30
0.0
 10
123.2015463013565
 20
60.63091176000552
 30
0.0
 10
123.1690909524007
 20
60.52355532992572
 30
0.0
 10
123.1131263579167
 20
60.31761709639237
 30
0.0
 10
123.0449169617188
 20
60.0343217445074
 30
0.0
 10
123.0301153809412
 20
59.8476101254274
 30
0.0
 10
123.0227086291359
 20
59.75417911677499
 30
0.0
  0
SPLINE
  5
115
330
1F
100
AcDbEntity
  8
0
  6
Continuous
 62
     7
370
    25
100
AcDbSpline
210
0.0
220
0.0
230
1.0
 70
     8
 71
     3
 72
    11
 73
     7
 74
     0
 42
0.00000001
 43
0.00000001
 40
0.0
 40
0.0
 40
0.0
 40
0.0
 40
0.317641693171442
 40
0.6359705314661563
 40
0.8657039182175625
 40
0.9999999999999999
 40
0.9999999999999999
 40
0.9999999999999999
 40
0.9999999999999999
 10
111.0227086291359
 20
59.75417911678203
 30
0.0
 10
111.00906985537
 20
59.88544380603462
 30
0.0
 10
110.981762803472
 20
60.14825714566022
 30
0.0
 10
110.8937583808907
 20
60.45990087142074
 30
0.0
 10
110.8491985627572
 20
60.61364545838069
 30
0.0
 10
110.849547051721
 20
60.61213289798351
 30
0.0
 10
110.8496756146711
 20
60.61157489113967
 30
0.0
  0
LINE
  5
116
330
1F
100
AcDbEntity
  8
0
  6
Continuous
 62
     7
370
    25
100
AcDbLine
 10
111.1227086291
 20
61.3197246386
 30
0.0
 11
111.1233597102
 21
61.3191716856
 31
0.0
  0
LINE
  5
117
330
1F
100
AcDbEntity
  8
0
  6
Continuous
 62
     7
370
    25
100
AcDbLine
 10
122.2727086291
 20
28.3197246386
 30
0.0
 11
111.7727086291
 21
28.3197246386
 31
0.0
  0
SPLINE
  5
118
330
1F
100
AcDbEntity
  8
0
  6
Continuous
 62
     7
370
    25
100
AcDbSpline
210
0.0
220
0.0
230
1.0
 70
     8
 71
     3
 72
    10
 73
     6
 74
     0
 42
0.00000001
 43
0.00000001
 40
0.0
 40
0.0
 40
0.0
 40
0.0
 40
0.1601790552921523
 40
0.7197651707804853
 40
1.0
 40
1.0
 40
1.0
 40
1.0
 10
110.3107577907588
 20
61.5526199262323
 30
0.0
 10
110.3099950006655
 20
61.55401215425866
 30
0.0
 10
110.3065674005918
 20
61.56026813598699
 30
0.0
 10
110.3210748653901
 20
61.53376087125908
 30
0.0
 10
110.3390044185079
 20
61.50120501611394
 30
0.0
 10
110.3449872238757
 20
61.49034164748257
 30
0.0
  0
SPLINE
  5
119
330
1F
100
AcDbEntity
  8
0
  6
Continuous
 62
     7
370
    25
100
AcDbSpline
210
0.0
220
0.0
230
1.0
 70
     8
 71
     3
 72
    10
 73
     6
 74
     0
 42
0.00000001
 43
0.00000001
 40
0.0
 40
0.0
 40
0.0
 40
0.0
 40
0.1593935212994522
 40
0.7189934545690309
 40
1.0
 40
1.0
 40
1.0
 40
1.0
 10
106.2346670239735
 20
61.55263372694901
 30
0.0
 10
106.235428550971
 20
61.55402364577563
 30
0.0
 10
106.2388636524869
 20
61.56029330172257
 30
0.0
 10
106.2243690300204
 20
61.53380935989877
 30
0.0
 10
106.2064276595277
 20
61.5012319558519
 30
0.0
 10
106.2004300343961
 20
61.49034164748255
 30
0.0
  0
LINE
  5
11A
330
1F
100
AcDbEntity
  8
0
  6
Continuous
 62
     7
370
    25
100
AcDbLine
 10
105.5227086291
 20
60.3197246386
 30
0.0
 11
105.5227086291
 21
59.1809405707
 31
0.0
  0
SPLINE
  5
11B
330
1F
100
AcDbEntity
  8
0
  6
Continuous
 62
     7
370
    25
100
AcDbSpline
210
0.0
220
0.0
230
1.0
 70
     8
 71
     3
 72
     9
 73
     5
 74
     0
 42
0.00000001
 43
0.00000001
 40
0.0
 40
0.0
 40
0.0
 40
0.0
 40
0.5797912171256431
 40
1.0
 40
1.0
 40
1.0
 40
1.0
 10
123.7004300343961
 20
61.49034164748255
 30
0.0
 10
123.7127886377425
 20
61.51281529572368
 30
0.0
 10
123.7341042475369
 20
61.55157691814451
 30
0.0
 10
123.7344951900397
 20
61.55231132290272
 30
0.0
 10
123.734659467513
 20
61.5526199262323
 30
0.0
  0
SPLINE
  5
11C
330
1F
100
AcDbEntity
  8
0
  6
Continuous
 62
     7
370
    25
100
AcDbSpline
210
0.0
220
0.0
230
1.0
 70
     8
 71
     3
 72
     9
 73
     5
 74
     0
 42
0.00000001
 43
0.00000001
 40
0.0
 40
0.0
 40
0.0
 40
0.0
 40
0.5789479223911498
 40
1.0
 40
1.0
 40
1.0
 40
1.0
 10
126.6933256380621
 20
40.49744604381651
 30
0.0
 10
126.7157670052547
 20
40.50978693413091
 30
0.0
 10
126.7545293296793
 20
40.53110299700483
 30
0.0
 10
126.7552952325384
 20
40.53151117091922
 30
0.0
 10
126.7556177175285
 20
40.53168303339389
 30
0.0
  0
LINE
  5
11D
330
1F
100
AcDbEntity
  8
0
  6
Continuous
 62
     7
370
    25
100
AcDbLine
 10
124.3839245613
 20
39.8197246386
 30
0.0
 11
125.5227086291
 21
39.8197246386
 31
0.0
  0
SPLINE
  5
11E
330
1F
100
AcDbEntity
  8
0
  6
Continuous
 62
     7
370
    25
100
AcDbSpline
210
0.0
220
0.0
230
1.0
 70
     8
 71
     3
 72
     9
 73
     5
 74
     0
 42
0.00000001
 43
0.00000001
 40
0.0
 40
0.0
 40
0.0
 40
0.0
 40
0.5789479223839474
 40
0.9999999999999999
 40
0.9999999999999999
 40
0.9999999999999999
 40
0.9999999999999999
 10
106.2004300343961
 20
42.14910762963007
 30
0.0
 10
106.2127709247103
 20
42.12666626243771
 30
0.0
 10
106.2340869875842
 20
42.08790393801316
 30
0.0
 10
106.2344951614988
 20
42.08713803515379
 30
0.0
 10
106.2346670239735
 20
42.08681555016361
 30
0.0
  0
LINE
  5
11F
330
1F
100
AcDbEntity
  8
0
  6
Continuous
 62
     7
370
    25
100
AcDbLine
 10
105.5227086291
 20
44.4585087064
 30
0.0
 11
105.5227086291
 21
43.3197246386
 31
0.0
  0
SPLINE
  5
120
330
1F
100
AcDbEntity
  8
0
  6
Continuous
 62
     7
370
    25
100
AcDbSpline
210
0.0
220
0.0
230
1.0
 70
     8
 71
     3
 72
    10
 73
     6
 74
     0
 42
0.00000001
 43
0.00000001
 40
0.0
 40
0.0
 40
0.0
 40
0.0
 40
0.1593935213061655
 40
0.7189934545756295
 40
1.0
 40
1.0
 40
1.0
 40
1.0
 10
107.2897995407433
 20
40.53168303339389
 30
0.0
 10
107.2884096219167
 20
40.53244456039135
 30
0.0
 10
107.2821399659698
 20
40.53587966190722
 30
0.0
 10
107.3086239077938
 20
40.52138503944061
 30
0.0
 10
107.3412013118405
 20
40.50344366894799
 30
0.0
 10
107.3520916202096
 20
40.4974460438165
 30
0.0
  0
LINE
  5
121
330
1F
100
AcDbEntity
  8
0
  6
Continuous
 62
     7
370
    25
100
AcDbLine
 10
108.5227086291
 20
39.8197246386
 30
0.0
 11
109.661492697
 21
39.8197246386
 31
0.0
  0
LINE
  5
122
330
1F
100
AcDbEntity
  8
0
  6
Continuous
 62
     7
370
    25
100
AcDbLine
 10
126.7603129362
 20
42.0821203315
 30
0.0
 11
126.6933256381
 21
42.1491076296
 31
0.0
  0
LINE
  5
123
330
1F
100
AcDbEntity
  8
0
  6
Continuous
 62
     7
370
    25
100
AcDbLine
 10
107.3520916202
 20
42.1491076296
 30
0.0
 11
107.2851043221
 21
42.0821203315
 31
0.0
  0
SPLINE
  5
124
330
1F
100
AcDbEntity
  8
0
  6
Continuous
 62
     7
370
    25
100
AcDbSpline
210
0.0
220
0.0
230
1.0
 70
     8
 71
     3
 72
    15
 73
    11
 74
     0
 42
0.00000001
 43
0.00000001
 40
0.0
 40
0.0
 40
0.0
 40
0.0
 40
0.0090459071881971
 40
0.1032433785236875
 40
0.1542564497735248
 40
0.313316902671511
 40
0.5243720399414434
 40
0.6678060008509189
 40
0.9918332554187028
 40
1.0
 40
1.0
 40
1.0
 40
1.0
 10
122.261793961794
 20
78.91972463855632
 30
0.0
 10
122.2617882698273
 20
78.92140573714073
 30
0.0
 10
122.2617233058765
 20
78.94059256869626
 30
0.0
 10
122.2597276194406
 20
78.96928684821624
 30
0.0
 10
122.2519106232242
 20
79.01996288818816
 30
0.0
 10
122.2347407994692
 20
79.07783918776508
 30
0.0
 10
122.2081569029017
 20
79.12270470249977
 30
0.0
 10
122.170327604413
 20
79.16006708575428
 30
0.0
 10
122.1420468244028
 20
79.16961309802386
 30
0.0
 10
122.1222156768715
 20
79.16972196221053
 30
0.0
 10
122.1217281427287
 20
79.16972463855632
 30
0.0
  0
LINE
  5
125
330
1F
100
AcDbEntity
  8
0
  6
Continuous
 62
     7
370
    25
100
AcDbLine
 10
122.2617939618
 20
78.9197246386
 30
0.0
 11
111.7836232965
 21
78.9197246386
 31
0.0
  0
SPLINE
  5
126
330
1F
100
AcDbEntity
  8
0
  6
Continuous
 62
     7
370
    25
100
AcDbSpline
210
0.0
220
0.0
230
1.0
 70
     8
 71
     3
 72
    15
 73
    11
 74
     0
 42
0.00000001
 43
0.00000001
 40
0.0
 40
0.0
 40
0.0
 40
0.0
 40
0.0081667445812973
 40
0.3321939991490813
 40
0.4756279600585592
 40
0.6866830973284899
 40
0.845743550226481
 40
0.8967566214763184
 40
0.9909540928118029
 40
1.0
 40
1.0
 40
1.0
 40
1.0
 10
111.9236891155431
 20
79.16972463855632
 30
0.0
 10
111.9232015814002
 20
79.16972196221053
 30
0.0
 10
111.9033704338689
 20
79.16961309802386
 30
0.0
 10
111.8750896538587
 20
79.16006708575429
 30
0.0
 10
111.8372603553701
 20
79.12270470249976
 30
0.0
 10
111.8106764588025
 20
79.07783918776508
 30
0.0
 10
111.7935066350476
 20
79.01996288818816
 30
0.0
 10
111.7856896388311
 20
78.96928684821624
 30
0.0
 10
111.7836939523952
 20
78.94059256869623
 30
0.0
 10
111.7836289884444
 20
78.92140573714073
 30
0.0
 10
111.7836232964778
 20
78.91972463855632
 30
0.0
  0
LINE
  5
127
330
1F
100
AcDbEntity
  8
0
  6
Continuous
 62
     7
370
    25
100
AcDbLine
 10
111.9236891155
 20
79.1697246386
 30
0.0
 11
122.1217281427
 21
79.1697246386
 31
0.0
  0
LINE
  5
128
330
1F
100
AcDbEntity
  8
0
  6
Continuous
 62
     7
370
    25
100
AcDbLine
 10
122.2617939618
 20
78.3197246386
 30
0.0
 11
122.2617939618
 21
78.9197246386
 31
0.0
  0
LINE
  5
129
330
1F
100
AcDbEntity
  8
0
  6
Continuous
 62
     7
370
    25
100
AcDbLine
 10
111.7836232965
 20
78.3197246386
 30
0.0
 11
122.2617939618
 21
78.3197246386
 31
0.0
  0
LINE
  5
12A
330
1F
100
AcDbEntity
  8
0
  6
Continuous
 62
     7
370
    25
100
AcDbLine
 10
111.7836232965
 20
78.9197246386
 30
0.0
 11
111.7836232965
 21
78.3197246386
 31
0.0
  0
SPLINE
  5
12B
330
1F
100
AcDbEntity
  8
0
  6
Continuous
 62
     7
370
    25
100
AcDbSpline
210
0.0
220
0.0
230
1.0
 70
     8
 71
     3
 72
    15
 73
    11
 74
     0
 42
0.00000001
 43
0.00000001
 40
0.0
 40
0.0
 40
0.0
 40
0.0
 40
0.0089557228015919
 40
0.0999003359608153
 40
0.1531632460581696
 40
0.3125636920784855
 40
0.5249666935695051
 40
0.6689893599351772
 40
0.991915253381045
 40
1.0
 40
1.0
 40
1.0
 40
1.0
 10
111.5454830540842
 20
78.91972463855632
 30
0.0
 10
111.5454988096628
 20
78.92140576412923
 30
0.0
 10
111.5456745618194
 20
78.94015857875367
 30
0.0
 10
111.5511035778389
 20
78.96892080786115
 30
0.0
 10
111.5726390615462
 20
79.01980788132947
 30
0.0
 10
111.620344489811
 20
79.07794353146214
 30
0.0
 10
111.692735434803
 20
79.12265140464552
 30
0.0
 10
111.7946545468206
 20
79.15993322810729
 30
0.0
 10
111.8700096382757
 20
79.16961238294489
 30
0.0
 10
111.922409283999
 20
79.16972196214664
 30
0.0
 10
111.9236891155431
 20
79.16972463855632
 30
0.0
  0
LINE
  5
12C
330
1F
100
AcDbEntity
  8
0
  6
Continuous
 62
     7
370
    25
100
AcDbLine
 10
111.5454830541
 20
78.9197246386
 30
0.0
 11
111.7836232965
 21
78.9197246386
 31
0.0
  0
SPLINE
  5
12D
330
1F
100
AcDbEntity
  8
0
  6
Continuous
 62
     7
370
    25
100
AcDbSpline
210
0.0
220
0.0
230
1.0
 70
     8
 71
     3
 72
    15
 73
    11
 74
     0
 42
0.00000001
 43
0.00000001
 40
0.0
 40
0.0
 40
0.0
 40
0.0
 40
0.0080847466189581
 40
0.3310106400648237
 40
0.4750333064304937
 40
0.6874363079215094
 40
0.8468367539418249
 40
0.9000996640391792
 40
0.9910442771984082
 40
1.0
 40
1.0
 40
1.0
 40
1.0
 10
122.1217281427287
 20
79.16972463855632
 30
0.0
 10
122.1230079742728
 20
79.16972196214664
 30
0.0
 10
122.175407619996
 20
79.16961238294492
 30
0.0
 10
122.2507627114511
 20
79.15993322810729
 30
0.0
 10
122.3526818234688
 20
79.12265140464552
 30
0.0
 10
122.4250727684607
 20
79.07794353146214
 30
0.0
 10
122.4727781967255
 20
79.01980788132948
 30
0.0
 10
122.4943136804328
 20
78.96892080786117
 30
0.0
 10
122.4997426964524
 20
78.94015857875365
 30
0.0
 10
122.4999184486089
 20
78.92140576412923
 30
0.0
 10
122.4999342041875
 20
78.91972463855632
 30
0.0
  0
LINE
  5
12E
330
1F
100
AcDbEntity
  8
0
  6
Continuous
 62
     7
370
    25
100
AcDbLine
 10
122.2617939618
 20
78.9197246386
 30
0.0
 11
122.4999342042
 21
78.9197246386
 31
0.0
  0
LINE
  5
12F
330
1F
100
AcDbEntity
  8
0
  6
Continuous
 62
     7
370
    25
100
AcDbLine
 10
122.4999342042
 20
78.9197246386
 30
0.0
 11
122.4999342042
 21
78.3197246386
 31
0.0
  0
LINE
  5
130
330
1F
100
AcDbEntity
  8
0
  6
Continuous
 62
     7
370
    25
100
AcDbLine
 10
122.4999342042
 20
78.3197246386
 30
0.0
 11
122.2617939618
 21
78.3197246386
 31
0.0
  0
LINE
  5
131
330
1F
100
AcDbEntity
  8
0
  6
Continuous
 62
     7
370
    25
100
AcDbLine
 10
111.5454830541
 20
78.3197246386
 30
0.0
 11
111.5454830541
 21
78.9197246386
 31
0.0
  0
LINE
  5
132
330
1F
100
AcDbEntity
  8
0
  6
Continuous
 62
     7
370
    25
100
AcDbLine
 10
111.7836232965
 20
78.3197246386
 30
0.0
 11
111.5454830541
 21
78.3197246386
 31
0.0
  0
LINE
  5
133
330
1F
100
AcDbEntity
  8
0
  6
Continuous
 62
     7
370
    25
100
AcDbLine
 10
111.2727086291
 20
78.9197246386
 30
0.0
 11
111.2727086291
 21
78.3197246386
 31
0.0
  0
LINE
  5
134
330
1F
100
AcDbEntity
  8
0
  6
Continuous
 62
     7
370
    25
100
AcDbLine
 10
111.5454830541
 20
78.9197246386
 30
0.0
 11
111.2727086291
 21
78.9197246386
 31
0.0
  0
LINE
  5
135
330
1F
100
AcDbEntity
  8
0
  6
Continuous
 62
     7
370
    25
100
AcDbLine
 10
111.2727086291
 20
78.3197246386
 30
0.0
 11
111.5454830541
 21
78.3197246386
 31
0.0
  0
LINE
  5
136
330
1F
100
AcDbEntity
  8
0
  6
Continuous
 62
     7
370
    25
100
AcDbLine
 10
111.0227086291
 20
78.3197246386
 30
0.0
 11
111.0227086291
 21
78.9197246386
 31
0.0
  0
LINE
  5
137
330
1F
100
AcDbEntity
  8
0
  6
Continuous
 62
     7
370
    25
100
AcDbLine
 10
111.0227086291
 20
78.9197246386
 30
0.0
 11
111.2727086291
 21
78.9197246386
 31
0.0
  0
LINE
  5
138
330
1F
100
AcDbEntity
  8
0
  6
Continuous
 62
     7
370
    25
100
AcDbLine
 10
111.2727086291
 20
78.3197246386
 30
0.0
 11
111.0227086291
 21
78.3197246386
 31
0.0
  0
LINE
  5
139
330
1F
100
AcDbEntity
  8
0
  6
Continuous
 62
     7
370
    25
100
AcDbLine
 10
122.7727086291
 20
78.9197246386
 30
0.0
 11
123.0227086291
 21
78.9197246386
 31
0.0
  0
LINE
  5
13A
330
1F
100
AcDbEntity
  8
0
  6
Continuous
 62
     7
370
    25
100
AcDbLine
 10
122.7727086291
 20
78.9197246386
 30
0.0
 11
122.7727086291
 21
79.1697246386
 31
0.0
  0
ARC
  5
13B
330
1F
100
AcDbEntity
  8
0
  6
Continuous
 62
     7
370
    25
100
AcDbCircle
 10
122.7727086291
 20
78.9197246386
 30
0.0
 40
0.25
100
AcDbArc
 50
0.0
 51
90.0
  0
LINE
  5
13C
330
1F
100
AcDbEntity
  8
0
  6
Continuous
 62
     7
370
    25
100
AcDbLine
 10
122.7727086291
 20
78.3197246386
 30
0.0
 11
122.7727086291
 21
78.9197246386
 31
0.0
  0
LINE
  5
13D
330
1F
100
AcDbEntity
  8
0
  6
Continuous
 62
     7
370
    25
100
AcDbLine
 10
122.7727086291
 20
78.9197246386
 30
0.0
 11
122.4999342042
 21
78.9197246386
 31
0.0
  0
LINE
  5
13E
330
1F
100
AcDbEntity
  8
0
  6
Continuous
 62
     7
370
    25
100
AcDbLine
 10
122.4999342042
 20
78.3197246386
 30
0.0
 11
122.7727086291
 21
78.3197246386
 31
0.0
  0
ARC
  5
13F
330
1F
100
AcDbEntity
  8
0
  6
Continuous
 62
     7
370
    25
100
AcDbCircle
 10
111.2727086291
 20
78.9197246386
 30
0.0
 40
0.25
100
AcDbArc
 50
90.0
 51
180.0
  0
LINE
  5
140
330
1F
100
AcDbEntity
  8
0
  6
Continuous
 62
     7
370
    25
100
AcDbLine
 10
111.2727086291
 20
79.1697246386
 30
0.0
 11
111.2727086291
 21
78.9197246386
 31
0.0
  0
LINE
  5
141
330
1F
100
AcDbEntity
  8
0
  6
Continuous
 62
     7
370
    25
100
AcDbLine
 10
123.0227086291
 20
78.9197246386
 30
0.0
 11
123.0227086291
 21
78.3197246386
 31
0.0
  0
LINE
  5
142
330
1F
100
AcDbEntity
  8
0
  6
Continuous
 62
     7
370
    25
100
AcDbLine
 10
123.0227086291
 20
78.3197246386
 30
0.0
 11
122.7727086291
 21
78.3197246386
 31
0.0
  0
LINE
  5
143
330
1F
100
AcDbEntity
  8
0
  6
Continuous
 62
     7
370
    25
100
AcDbLine
 10
122.1217281427
 20
79.1697246386
 30
0.0
 11
122.7727086291
 21
79.1697246386
 31
0.0
  0
LINE
  5
144
330
1F
100
AcDbEntity
  8
0
  6
Continuous
 62
     7
370
    25
100
AcDbLine
 10
111.2727086291
 20
79.1697246386
 30
0.0
 11
111.9236891155
 21
79.1697246386
 31
0.0
  0
LINE
  5
145
330
1F
100
AcDbEntity
  8
0
  6
Continuous
 62
     7
370
    25
100
AcDbLine
 10
112.0227086291
 20
79.1697246386
 30
0.0
 11
112.0227086291
 21
79.1797246386
 31
0.0
  0
LINE
  5
146
330
1F
100
AcDbEntity
  8
0
  6
Continuous
 62
     7
370
    25
100
AcDbLine
 10
112.0227086291
 20
79.1797246386
 30
0.0
 11
122.0227086291
 21
79.1797246386
 31
0.0
  0
LINE
  5
147
330
1F
100
AcDbEntity
  8
0
  6
Continuous
 62
     7
370
    25
100
AcDbLine
 10
122.0227086291
 20
79.1697246386
 30
0.0
 11
122.0227086291
 21
79.1797246386
 31
0.0
  0
LINE
  5
148
330
1F
100
AcDbEntity
  8
0
  6
Continuous
 62
     7
370
    25
100
AcDbLine
 10
115.0227086291
 20
62.3197246386
 30
0.0
 11
124.0227086291
 21
62.3197246386
 31
0.0
  0
LINE
  5
149
330
1F
100
AcDbEntity
  8
0
  6
Continuous
 62
     7
370
    25
100
AcDbLine
 10
115.0227086291
 20
62.3575415624
 30
0.0
 11
115.0227086291
 21
62.3197246386
 31
0.0
  0
SPLINE
  5
14A
330
1F
100
AcDbEntity
  8
0
  6
Continuous
 62
     7
370
    25
100
AcDbSpline
210
0.0
220
0.0
230
1.0
 70
     8
 71
     3
 72
     9
 73
     5
 74
     0
 42
0.00000001
 43
0.00000001
 40
0.0
 40
0.0
 40
0.0
 40
0.0
 40
0.4875141023677128
 40
0.9999999999999999
 40
0.9999999999999999
 40
0.9999999999999999
 40
0.9999999999999999
 10
114.8667633787087
 20
62.31972463855638
 30
0.0
 10
114.8930699526313
 20
62.32145198452808
 30
0.0
 10
114.9470305945795
 20
62.32499515581956
 30
0.0
 10
114.9970661252743
 20
62.34651364176887
 30
0.0
 10
115.0227086291359
 20
62.3575415623563
 30
0.0
  0
SPLINE
  5
14B
330
1F
100
AcDbEntity
  8
0
  6
Continuous
 62
     7
370
    25
100
AcDbSpline
210
0.0
220
0.0
230
1.0
 70
     8
 71
     3
 72
    17
 73
    13
 74
     0
 42
0.00000001
 43
0.00000001
 40
0.0
 40
0.0
 40
0.0
 40
0.0
 40
0.3241697628029873
 40
0.5422758463620719
 40
0.689509052693928
 40
0.7894036290694505
 40
0.8577090008137825
 40
0.9049823971474138
 40
0.9551712229700868
 40
0.9753097783197817
 40
0.9919572060138848
 40
1.0
 40
1.0
 40
1.0
 40
1.0
 10
112.5481617450537
 20
70.31972463855395
 30
0.0
 10
112.6908771050709
 20
69.40711113594827
 30
0.0
 10
112.9296134140129
 20
67.88047812968692
 30
0.0
 10
113.3092006084645
 20
65.95370522740596
 30
0.0
 10
113.6183348168116
 20
64.66606975647319
 30
0.0
 10
113.8744483450117
 20
63.80691778975145
 30
0.0
 10
114.0887593479067
 20
63.23344990137404
 30
0.0
 10
114.2919935689346
 20
62.81191774734408
 30
0.0
 10
114.4765388334772
 20
62.53142520454865
 30
0.0
 10
114.6626099198453
 20
62.37587653596799
 30
0.0
 10
114.7778205191013
 20
62.32526593677049
 30
0.0
 10
114.8449093245741
 20
62.32108618496585
 30
0.0
 10
114.8667633787087
 20
62.31972463855638
 30
0.0
  0
LINE
  5
14C
330
1F
100
AcDbEntity
  8
0
  6
Continuous
 62
     7
370
    25
100
AcDbLine
 10
112.5481617451
 20
70.3197246386
 30
0.0
 11
124.4727086291
 21
70.3197246385
 31
0.0
  0
SPLINE
  5
14D
330
1F
100
AcDbEntity
  8
0
  6
Continuous
 62
     7
370
    25
100
AcDbSpline
210
0.0
220
0.0
230
1.0
 70
     8
 71
     3
 72
     9
 73
     5
 74
     0
 42
0.00000001
 43
0.00000001
 40
0.0
 40
0.0
 40
0.0
 40
0.0
 40
0.4978401817595073
 40
1.0
 40
1.0
 40
1.0
 40
1.0
 10
113.3083725008155
 20
71.31446821652324
 30
0.0
 10
113.1720505924448
 20
71.15795703383064
 30
0.0
 10
112.8982239441239
 20
70.84357665951163
 30
0.0
 10
112.6651846930273
 20
70.49484411148536
 30
0.0
 10
112.5481617450537
 20
70.31972463855395
 30
0.0
  0
LINE
  5
14E
330
1F
100
AcDbEntity
  8
0
  6
Continuous
 62
     7
370
    25
100
AcDbLine
 10
111.7989064548
 20
78.3197246385
 30
0.0
 11
110.0707677908
 21
71.3144682165
 31
0.0
  0
LINE
  5
14F
330
1F
100
AcDbEntity
  8
0
  6
Continuous
 62
     7
370
    25
100
AcDbLine
 10
122.2617939618
 20
78.3197246385
 30
0.0
 11
111.7989064548
 21
78.3197246385
 31
0.0
  0
SPLINE
  5
150
330
1F
100
AcDbEntity
  8
0
  6
Continuous
 62
     7
370
    25
100
AcDbSpline
210
0.0
220
0.0
230
1.0
 70
     8
 71
     3
 72
    14
 73
    10
 74
     0
 42
0.00000001
 43
0.00000001
 40
0.0
 40
0.0
 40
0.0
 40
0.0
 40
0.1576095309202822
 40
0.3152382602707094
 40
0.4726926441579498
 40
0.6301650083177254
 40
0.7907313191165901
 40
0.9513050385928076
 40
1.0
 40
1.0
 40
1.0
 40
1.0
 10
110.5227086291359
 20
62.31972463855632
 30
0.0
 10
110.4561376143538
 20
62.53322642703371
 30
0.0
 10
110.3229874757689
 20
62.96025601065923
 30
0.0
 10
109.9944205140182
 20
63.54550308951553
 30
0.0
 10
109.5810308732862
 20
64.06765763033796
 30
0.0
 10
109.0853559543416
 20
64.51663575775783
 30
0.0
 10
108.519066249057
 20
64.87591748956422
 30
0.0
 10
108.042815592664
 20
65.0804836686654
 30
0.0
 10
107.7626210244712
 20
65.1612782170167
 30
0.0
 10
107.6974222396982
 20
65.18007839006347
 30
0.0
  0
LINE
  5
151
330
1F
100
AcDbEntity
  8
0
  6
Continuous
 62
     7
370
    25
100
AcDbLine
 10
107.6974222397
 20
65.1800783901
 30
0.0
 11
101.9176653898
 21
66.7486998305
 31
0.0
  0
SPLINE
  5
152
330
1F
100
AcDbEntity
  8
0
  6
Continuous
 62
     7
370
    25
100
AcDbSpline
210
0.0
220
0.0
230
1.0
 70
     8
 71
     3
 72
    11
 73
     7
 74
     0
 42
0.00000001
 43
0.00000001
 40
0.0
 40
0.0
 40
0.0
 40
0.0
 40
0.2488466353289361
 40
0.4976946020535204
 40
0.7488461225871278
 40
1.0
 40
1.0
 40
1.0
 40
1.0
 10
94.84727176759921
 20
68.07190033153186
 30
0.0
 10
95.44170781673549
 20
68.00237595503822
 30
0.0
 10
96.63058309539888
 20
67.86332683007706
 30
0.0
 10
98.40530776610792
 20
67.56299809195177
 30
0.0
 10
100.1718884078503
 20
67.20108847369663
 30
0.0
 10
101.33573790887
 20
66.89949651663207
 30
0.0
 10
101.917665389843
 20
66.74869983054634
 30
0.0
  0
LINE
  5
153
330
1F
100
AcDbEntity
  8
0
  6
Continuous
 62
     7
370
    25
100
AcDbLine
 10
94.8472717676
 20
68.0719003315
 30
0.0
 11
94.8472717676
 21
71.3144682165
 31
0.0
  0
LINE
  5
154
330
1F
100
AcDbEntity
  8
0
  6
Continuous
 62
     7
370
    25
100
AcDbLine
 10
94.8472717676
 20
71.3144682165
 30
0.0
 11
113.3083725008
 21
71.3144682165
 31
0.0
  0
LINE
  5
155
330
1F
100
AcDbEntity
  8
0
  6
Continuous
 62
     7
370
    25
100
AcDbLine
 10
114.8667633787
 20
62.3197246386
 30
0.0
 11
110.5227086291
 21
62.3197246386
 31
0.0
  0
LINE
  5
156
330
1F
100
AcDbEntity
  8
0
  6
Continuous
 62
     7
370
    25
100
AcDbLine
 10
115.0227086291
 20
62.3575415624
 30
0.0
 11
115.0159092712
 21
62.3197246386
 31
0.0
  0
LINE
  5
157
330
1F
100
AcDbEntity
  8
0
  6
Continuous
 62
     7
370
    25
100
AcDbLine
 10
115.0227086291
 20
62.3197246386
 30
0.0
 11
115.0159092712
 21
62.3197246386
 31
0.0
  0
LINE
  5
158
330
1F
100
AcDbEntity
  8
0
  6
Continuous
 62
     7
370
    25
100
AcDbLine
 10
115.0159092712
 20
62.3197246386
 30
0.0
 11
114.8667633787
 21
62.3197246386
 31
0.0
  0
LINE
  5
159
330
1F
100
AcDbEntity
  8
0
  6
Continuous
 62
     7
370
    25
100
AcDbLine
 10
77.0227086291
 20
80.3197246386
 30
0.0
 11
94.8472717676
 21
80.3197246386
 31
0.0
  0
LINE
  5
15A
330
1F
100
AcDbEntity
  8
0
  6
Continuous
 62
     7
370
    25
100
AcDbLine
 10
94.8472717676
 20
80.3197246386
 30
0.0
 11
94.8472717676
 21
71.3144682165
 31
0.0
  0
LINE
  5
15B
330
1F
100
AcDbEntity
  8
0
  6
Continuous
 62
     7
370
    25
100
AcDbLine
 10
90.1310407714
 20
68.3197246386
 30
0.0
 11
82.0227086291
 21
68.3197246386
 31
0.0
  0
ARC
  5
15C
330
1F
100
AcDbEntity
  8
0
  6
Continuous
 62
     7
370
    25
100
AcDbCircle
 10
82.0227086291
 20
73.3197246386
 30
0.0
 40
5.0
100
AcDbArc
 50
180.0
 51
270.0
  0
LINE
  5
15D
330
1F
100
AcDbEntity
  8
0
  6
Continuous
 62
     7
370
    25
100
AcDbLine
 10
77.0227086291
 20
73.3197246386
 30
0.0
 11
77.0227086291
 21
80.3197246386
 31
0.0
  0
ARC
  5
15E
330
1F
100
AcDbEntity
  8
0
  6
Continuous
 62
     7
370
    25
100
AcDbCircle
 10
90.1310407714
 20
23.3195953844
 30
0.0
 40
45.00012925418375
100
AcDbArc
 50
83.9840777705
 51
90.0
  0
LINE
  5
15F
330
1F
100
AcDbEntity
  8
0
  6
Continuous
 62
     7
370
    25
100
AcDbLine
 10
94.8472717676
 20
80.3197246386
 30
0.0
 11
97.0227086291
 21
80.3197246386
 31
0.0
  0
LINE
  5
160
330
1F
100
AcDbEntity
  8
0
  6
Continuous
 62
     7
370
    25
100
AcDbLine
 10
97.0227086291
 20
80.3197246386
 30
0.0
 11
97.0227086291
 21
78.3386801619
 31
0.0
  0
ARC
  5
161
330
1F
100
AcDbEntity
  8
0
  6
Continuous
 62
     7
370
    25
100
AcDbCircle
 10
103.0227086291
 20
78.3386801619
 30
0.0
 40
6.000000000000014
100
AcDbArc
 50
180.0
 51
275.5801667845
  0
ARC
  5
162
330
1F
100
AcDbEntity
  8
0
  6
Continuous
 62
     7
370
    25
100
AcDbCircle
 10
102.6337550649
 20
82.3197246386
 30
0.0
 40
10.00000000000847
100
AcDbArc
 50
275.5801667845
 51
336.4218215217
  0
LINE
  5
163
330
1F
100
AcDbEntity
  8
0
  6
Continuous
 62
     7
370
    25
100
AcDbLine
 10
110.5227086291
 20
62.3197246386
 30
0.0
 11
110.0227086291
 21
62.3197246386
 31
0.0
  0
LINE
  5
164
330
1F
100
AcDbEntity
  8
0
  6
Continuous
 62
     7
370
    25
100
AcDbLine
 10
111.7836232965
 20
78.3197246385
 30
0.0
 11
111.7989064548
 21
78.3197246385
 31
0.0
  0
SPLINE
  5
165
330
1F
100
AcDbEntity
  8
0
  6
Continuous
 62
     7
370
    25
100
AcDbSpline
210
0.0
220
0.0
230
1.0
 70
     8
 71
     3
 72
    32
 73
    28
 74
     0
 42
0.00000001
 43
0.00000001
 40
0.0
 40
0.0
 40
0.0
 40
0.0
 40
0.009274521934124
 40
0.0517118722528723
 40
0.0941764838803118
 40
0.1320954273225199
 40
0.170204505166916
 40
0.2081927049230235
 40
0.2154548900105547
 40
0.25611233885426
 40
0.2968957405088296
 40
0.3375526517743442
 40
0.3848690761800674
 40
0.4320903160466227
 40
0.4692563323198677
 40
0.506383433822833
 40
0.5434682665343297
 40
0.5806023984161244
 40
0.6303614212286607
 40
0.6802126104978026
 40
0.7334879836326138
 40
0.7867546341130407
 40
0.8315953428027029
 40
0.8764010940712551
 40
0.9190734809543506
 40
0.9617107011102378
 40
0.9999999999999999
 40
0.9999999999999999
 40
0.9999999999999999
 40
0.9999999999999999
 10
111.1233597102429
 20
61.31917168559905
 30
0.0
 10
111.1241045941567
 20
61.31854054944677
 30
0.0
 10
111.128257836994
 20
61.31502152902576
 30
0.0
 10
111.1985397373289
 20
61.25509553409353
 30
0.0
 10
111.3898593870001
 20
61.09470500801566
 30
0.0
 10
111.6647804756342
 20
60.86841042512664
 30
0.0
 10
111.997198557242
 20
60.60304025989417
 30
0.0
 10
112.2842590757106
 20
60.38296255003963
 30
0.0
 10
112.6043718155299
 20
60.14543571543268
 30
0.0
 10
112.9607592783915
 20
59.88915543676766
 30
0.0
 10
113.5074402536973
 20
59.5284140428647
 30
0.0
 10
114.1415847667055
 20
59.1567919158596
 30
0.0
 10
114.8731723194588
 20
58.7985981779205
 30
0.0
 10
115.6565407333075
 20
58.52159914730179
 30
0.0
 10
116.4295337363454
 20
58.37018197635522
 30
0.0
 10
117.1601220480992
 20
58.33203251183627
 30
0.0
 10
117.8848450359138
 20
58.41136440114962
 30
0.0
 10
118.6582145016592
 20
58.60386760947598
 30
0.0
 10
119.4486093780548
 20
58.92102707852845
 30
0.0
 10
120.2454139084561
 20
59.34630561616135
 30
0.0
 10
120.9727810209571
 20
59.8087663275901
 30
0.0
 10
121.5869868502207
 20
60.24917969837527
 30
0.0
 10
122.0804450975679
 20
60.62763889717409
 30
0.0
 10
122.4555133356114
 20
60.92940973492369
 30
0.0
 10
122.7257025889643
 20
61.15299952899809
 30
0.0
 10
122.8941628528603
 20
61.29549168593944
 30
0.0
 10
122.9095772266444
 20
61.30851049087621
 30
0.0
 10
122.9168703312037
 20
61.31467016411177
 30
0.0
  0
LINE
  5
166
330
1F
100
AcDbEntity
  8
FORMAT
100
AcDbLine
 10
111.2731703253
 20
29.1849503611
 30
0.0
 11
110.9564586291
 21
39.3197246386
 31
0.0
  0
LINE
  5
167
330
1F
100
AcDbEntity
  8
FORMAT
100
AcDbLine
 10
122.772246933
 20
29.1849503611
 30
0.0
 11
123.0889586291
 21
39.3197246386
 31
0.0
  0
LINE
  5
168
330
1F
100
AcDbEntity
  8
FORMAT
100
AcDbLine
 10
123.7652711291
 20
39.3197246386
 30
0.0
 11
110.2801461291
 21
39.3197246386
 31
0.0
  0
LINE
  5
169
330
1F
100
AcDbEntity
  8
FORMAT
  6
CENTERX2
370
    18
100
AcDbLine
 10
130.8393437272
 20
51.8197246386
 30
0.0
 11
75.5227086291
 21
51.8197246386
 31
0.0
  0
LINE
  5
16A
330
1F
100
AcDbEntity
  8
FORMAT
  6
CENTERX2
370
    18
100
AcDbLine
 10
117.0227086291
 20
25.7988709304
 30
0.0
 11
117.0227086291
 21
80.903977169
 31
0.0
  0
LINE
  5
16B
330
1F
100
AcDbEntity
  8
0
  6
Continuous
 62
     7
370
    25
100
AcDbLine
 10
156.2991576382
 20
39.8197246386
 30
0.0
 11
156.5927930796
 21
30.4233905124
 31
0.0
  0
LINE
  5
16C
330
1F
100
AcDbEntity
  8
0
  6
Continuous
 62
     7
370
    25
100
AcDbLine
 10
169.5218971967
 20
30.4233905124
 30
0.0
 11
169.8155326382
 21
39.8197246386
 31
0.0
  0
LINE
  5
16D
330
1F
100
AcDbEntity
  8
0
  6
Continuous
 62
     7
370
    25
100
AcDbLine
 10
156.5927930796
 20
30.4233905124
 30
0.0
 11
157.8073451382
 21
28.3197246386
 31
0.0
  0
LINE
  5
16E
330
1F
100
AcDbEntity
  8
0
  6
Continuous
 62
     7
370
    25
100
AcDbLine
 10
168.3073451382
 20
28.3197246386
 30
0.0
 11
169.5218971967
 21
30.4233905124
 31
0.0
  0
LINE
  5
16F
330
1F
100
AcDbEntity
  8
0
  6
Continuous
 62
     7
370
    25
100
AcDbLine
 10
168.9652793905
 20
58.2237317838
 30
0.0
 11
168.9599183499
 21
58.3524876106
 31
0.0
  0
SPLINE
  5
170
330
1F
100
AcDbEntity
  8
0
  6
Continuous
 62
     7
370
    25
100
AcDbSpline
210
0.0
220
0.0
230
1.0
 70
     8
 71
     3
 72
     9
 73
     5
 74
     0
 42
0.00000001
 43
0.00000001
 40
0.0
 40
0.0
 40
0.0
 40
0.0
 40
0.0282993288825642
 40
1.0
 40
1.0
 40
1.0
 40
1.0
 10
157.1581887198155
 20
58.35854343664202
 30
0.0
 10
157.1583012677438
 20
58.35726894123139
 30
0.0
 10
157.1622783206545
 20
58.31223269970377
 30
0.0
 10
157.1553998088286
 20
58.2671436372002
 30
0.0
 10
157.1487159542711
 20
58.22333056490542
 30
0.0
  0
LINE
  5
171
330
1F
100
AcDbEntity
  8
0
  6
Continuous
 62
     7
370
    25
100
AcDbLine
 10
168.9573451382
 20
58.3529508917
 30
0.0
 11
168.9573451382
 21
62.3197246386
 31
0.0
  0
LINE
  5
172
330
1F
100
AcDbEntity
  8
0
  6
Continuous
 62
     7
370
    25
100
AcDbLine
 10
157.1573451382
 20
62.3197246386
 30
0.0
 11
157.1573451382
 21
58.3582533025
 31
0.0
  0
ARC
  5
173
330
1F
100
AcDbEntity
  8
0
  6
Continuous
 62
     7
370
    25
100
AcDbCircle
 10
157.8073451382
 20
78.9197246386
 30
0.0
 40
0.25
100
AcDbArc
 50
90.0
 51
180.0
  0
ARC
  5
174
330
1F
100
AcDbEntity
  8
0
  6
Continuous
 62
     7
370
    25
100
AcDbCircle
 10
168.3073451382
 20
78.9197246386
 30
0.0
 40
0.25
100
AcDbArc
 50
0.0
 51
90.0
  0
LINE
  5
175
330
1F
100
AcDbEntity
  8
0
  6
Continuous
 62
     7
370
    25
100
AcDbLine
 10
168.5573451382
 20
78.3197246386
 30
0.0
 11
168.5573451382
 21
78.9197246386
 31
0.0
  0
LINE
  5
176
330
1F
100
AcDbEntity
  8
0
  6
Continuous
 62
     7
370
    25
100
AcDbLine
 10
157.5573451382
 20
78.9197246386
 30
0.0
 11
157.5573451382
 21
78.3197246386
 31
0.0
  0
LINE
  5
177
330
1F
100
AcDbEntity
  8
0
  6
Continuous
 62
     7
370
    25
100
AcDbLine
 10
170.5073451382
 20
70.3197246386
 30
0.0
 11
168.5573451382
 21
78.3197246385
 31
0.0
  0
LINE
  5
178
330
1F
100
AcDbEntity
  8
0
  6
Continuous
 62
     7
370
    25
100
AcDbLine
 10
157.5573451382
 20
78.3197246385
 30
0.0
 11
155.6073451382
 21
70.3197246386
 31
0.0
  0
LINE
  5
179
330
1F
100
AcDbEntity
  8
0
  6
Continuous
 62
     7
370
    25
100
AcDbLine
 10
155.6073451382
 20
70.3197246386
 30
0.0
 11
156.0573451382
 21
62.3197246386
 31
0.0
  0
LINE
  5
17A
330
1F
100
AcDbEntity
  8
0
  6
Continuous
 62
     7
370
    25
100
AcDbLine
 10
170.0573451382
 20
62.3197246386
 30
0.0
 11
170.5073451382
 21
70.3197246386
 31
0.0
  0
SPLINE
  5
17B
330
1F
100
AcDbEntity
  8
0
  6
Continuous
 62
     7
370
    25
100
AcDbSpline
210
0.0
220
0.0
230
1.0
 70
     8
 71
     3
 72
    10
 73
     6
 74
     0
 42
0.00000001
 43
0.00000001
 40
0.0
 40
0.0
 40
0.0
 40
0.0
 40
0.5
 40
0.5
 40
1.0
 40
1.0
 40
1.0
 40
1.0
 10
154.5573451381852
 20
47.20092248503931
 30
0.0
 10
154.5573451381852
 20
47.11503542323685
 30
0.0
 10
154.580137587515
 20
47.02762821425671
 30
0.0
 10
154.668080291608
 20
46.87499177166298
 30
0.0
 10
154.7329380652819
 20
46.8108687267174
 30
0.0
 10
154.8073451381852
 20
46.76790978314709
 30
0.0
  0
SPLINE
  5
17C
330
1F
100
AcDbEntity
  8
0
  6
Continuous
 62
     7
370
    25
100
AcDbSpline
210
0.0
220
0.0
230
1.0
 70
    24
 71
     3
 72
    14
 73
    10
 74
     0
 42
0.00000001
 43
0.00000001
 40
0.0
 40
0.0
 40
0.0
 40
0.0
 40
0.25
 40
0.25
 40
0.5
 40
0.5
 40
0.75
 40
0.75
 40
1.0
 40
1.0
 40
1.0
 40
1.0
 10
154.5573451381852
 20
47.20092248503926
 30
0.0
 10
154.5573451381852
 20
47.95530254568925
 30
0.0
 10
154.5573451381852
 20
48.72474371315474
 30
0.0
 10
154.5573451381852
 20
50.2652550740959
 30
0.0
 10
154.5573451381852
 20
51.04010945410293
 30
0.0
 10
154.5573451381852
 20
52.60047040898849
 30
0.0
 10
154.5573451381852
 20
53.39092660177351
 30
0.0
 10
154.5573451381852
 20
54.93320626458198
 30
0.0
 10
154.5573451381852
 20
55.69059701778316
 30
0.0
 10
154.5573451381852
 20
56.43852679207333
 30
0.0
  0
SPLINE
  5
17D
330
1F
100
AcDbEntity
  8
0
  6
Continuous
 62
     7
370
    25
100
AcDbSpline
210
0.0
220
0.0
230
1.0
 70
     8
 71
     3
 72
    10
 73
     6
 74
     0
 42
0.00000001
 43
0.00000001
 40
0.0
 40
0.0
 40
0.0
 40
0.0
 40
0.5
 40
0.5
 40
1.0
 40
1.0
 40
1.0
 40
1.0
 10
154.8073451381852
 20
56.87153949396555
 30
0.0
 10
154.7329647608078
 20
56.82859596306432
 30
0.0
 10
154.6686641220221
 20
56.76515351844019
 30
0.0
 10
154.5804484372391
 20
56.61267468132122
 30
0.0
 10
154.5573451381852
 20
56.52444467921395
 30
0.0
 10
154.5573451381852
 20
56.43852679207333
 30
0.0
  0
SPLINE
  5
17E
330
1F
100
AcDbEntity
  8
0
  6
Continuous
 62
     7
370
    25
100
AcDbSpline
210
0.0
220
0.0
230
1.0
 70
    24
 71
     3
 72
    16
 73
    12
 74
     0
 42
0.00000001
 43
0.00000001
 40
0.0
 40
0.0
 40
0.0
 40
0.0
 40
0.2500000000000001
 40
0.2500000000000001
 40
0.5000000000000001
 40
0.5000000000000001
 40
0.6250000000000001
 40
0.6250000000000001
 40
0.7500000000000002
 40
0.7500000000000002
 40
1.0
 40
1.0
 40
1.0
 40
1.0
 10
162.8073451381852
 20
61.49034164748255
 30
0.0
 10
162.1538283581444
 20
61.11303355860606
 30
0.0
 10
161.4956079490544
 20
60.73300982823186
 30
0.0
 10
160.1660453656886
 20
59.96538651282115
 30
0.0
 10
159.494621383618
 20
59.57773969603236
 30
0.0
 10
158.4756202966113
 20
58.98941914414452
 30
0.0
 10
158.1342795142951
 20
58.79234595158886
 30
0.0
 10
157.4586810113247
 20
58.40228897403477
 30
0.0
 10
157.1230218613601
 20
58.20849607344672
 30
0.0
 10
156.1217562248603
 20
57.6304150886833
 30
0.0
 10
155.4618485662572
 20
57.24941722434848
 30
0.0
 10
154.8073451381852
 20
56.87153949396555
 30
0.0
  0
SPLINE
  5
17F
330
1F
100
AcDbEntity
  8
0
  6
Continuous
 62
     7
370
    25
100
AcDbSpline
210
0.0
220
0.0
230
1.0
 70
     8
 71
     3
 72
    10
 73
     6
 74
     0
 42
0.00000001
 43
0.00000001
 40
0.0
 40
0.0
 40
0.0
 40
0.0
 40
0.5
 40
0.5
 40
1.0
 40
1.0
 40
1.0
 40
1.0
 10
163.3073451381852
 20
61.49034164748255
 30
0.0
 10
163.2329647608078
 20
61.53328517838378
 30
0.0
 10
163.1458716726923
 20
61.55724994273977
 30
0.0
 10
162.9697132838162
 20
61.55740754821454
 30
0.0
 10
162.8817522110884
 20
61.53330059105286
 30
0.0
 10
162.8073451381852
 20
61.49034164748256
 30
0.0
  0
SPLINE
  5
180
330
1F
100
AcDbEntity
  8
0
  6
Continuous
 62
     7
370
    25
100
AcDbSpline
210
0.0
220
0.0
230
1.0
 70
    24
 71
     3
 72
    16
 73
    12
 74
     0
 42
0.00000001
 43
0.00000001
 40
0.0
 40
0.0
 40
0.0
 40
0.0
 40
0.2499999999999997
 40
0.2499999999999997
 40
0.4999999999999993
 40
0.4999999999999993
 40
0.6249999999999993
 40
0.6249999999999993
 40
0.7499999999999996
 40
0.7499999999999996
 40
1.0
 40
1.0
 40
1.0
 40
1.0
 10
171.3073451381852
 20
56.87153949396555
 30
0.0
 10
170.6538283581444
 20
57.24884758284205
 30
0.0
 10
169.9956079490544
 20
57.62887131321624
 30
0.0
 10
168.6660453656886
 20
58.39649462862693
 30
0.0
 10
167.994621383618
 20
58.78414144541574
 30
0.0
 10
166.9756202966113
 20
59.37246199730359
 30
0.0
 10
166.6342795142951
 20
59.56953518985923
 30
0.0
 10
165.9586810113247
 20
59.95959216741333
 30
0.0
 10
165.6230218613601
 20
60.15338506800137
 30
0.0
 10
164.6217562248603
 20
60.7314660527648
 30
0.0
 10
163.9618485662572
 20
61.11246391709962
 30
0.0
 10
163.3073451381852
 20
61.49034164748255
 30
0.0
  0
SPLINE
  5
181
330
1F
100
AcDbEntity
  8
0
  6
Continuous
 62
     7
370
    25
100
AcDbSpline
210
0.0
220
0.0
230
1.0
 70
     8
 71
     3
 72
    10
 73
     6
 74
     0
 42
0.00000001
 43
0.00000001
 40
0.0
 40
0.0
 40
0.0
 40
0.0
 40
0.5
 40
0.5
 40
1.0
 40
1.0
 40
1.0
 40
1.0
 10
171.5573451381852
 20
56.43852679207333
 30
0.0
 10
171.5573451381852
 20
56.52441385387579
 30
0.0
 10
171.5345526888554
 20
56.6118210628559
 30
0.0
 10
171.4466099847623
 20
56.76445750544964
 30
0.0
 10
171.3817522110884
 20
56.82858055039523
 30
0.0
 10
171.3073451381852
 20
56.87153949396555
 30
0.0
  0
SPLINE
  5
182
330
1F
100
AcDbEntity
  8
0
  6
Continuous
 62
     7
370
    25
100
AcDbSpline
210
0.0
220
0.0
230
1.0
 70
    24
 71
     3
 72
    14
 73
    10
 74
     0
 42
0.00000001
 43
0.00000001
 40
0.0
 40
0.0
 40
0.0
 40
0.0
 40
0.25
 40
0.25
 40
0.5
 40
0.5
 40
0.75
 40
0.75
 40
1.0
 40
1.0
 40
1.0
 40
1.0
 10
171.5573451381852
 20
47.20092248503926
 30
0.0
 10
171.5573451381852
 20
47.95530254568924
 30
0.0
 10
171.5573451381852
 20
48.72474371315474
 30
0.0
 10
171.5573451381852
 20
50.2652550740959
 30
0.0
 10
171.5573451381852
 20
51.04010945410293
 30
0.0
 10
171.5573451381852
 20
52.60047040898848
 30
0.0
 10
171.5573451381852
 20
53.39092660177351
 30
0.0
 10
171.5573451381852
 20
54.93320626458198
 30
0.0
 10
171.5573451381852
 20
55.69059701778316
 30
0.0
 10
171.5573451381852
 20
56.43852679207333
 30
0.0
  0
SPLINE
  5
183
330
1F
100
AcDbEntity
  8
0
  6
Continuous
 62
     7
370
    25
100
AcDbSpline
210
0.0
220
0.0
230
1.0
 70
     8
 71
     3
 72
    10
 73
     6
 74
     0
 42
0.00000001
 43
0.00000001
 40
0.0
 40
0.0
 40
0.0
 40
0.0
 40
0.5
 40
0.5
 40
1.0
 40
1.0
 40
1.0
 40
1.0
 10
171.3073451381852
 20
46.76790978314709
 30
0.0
 10
171.3817255155623
 20
46.81085331404822
 30
0.0
 10
171.4460261543478
 20
46.87429575867189
 30
0.0
 10
171.5342418391311
 20
47.02677459579101
 30
0.0
 10
171.5573451381852
 20
47.1150045978985
 30
0.0
 10
171.5573451381852
 20
47.20092248503929
 30
0.0
  0
SPLINE
  5
184
330
1F
100
AcDbEntity
  8
0
  6
Continuous
 62
     7
370
    25
100
AcDbSpline
210
0.0
220
0.0
230
1.0
 70
    24
 71
     3
 72
    16
 73
    12
 74
     0
 42
0.00000001
 43
0.00000001
 40
0.0
 40
0.0
 40
0.0
 40
0.0
 40
0.2500000000000002
 40
0.2500000000000002
 40
0.5000000000000004
 40
0.5000000000000004
 40
0.6250000000000003
 40
0.6250000000000003
 40
0.7500000000000002
 40
0.7500000000000002
 40
1.0
 40
1.0
 40
1.0
 40
1.0
 10
163.3073451381852
 20
42.14910762963008
 30
0.0
 10
163.9608619182259
 20
42.52641571850655
 30
0.0
 10
164.6190823273158
 20
42.90643944888073
 30
0.0
 10
165.9486449106815
 20
43.67406276429136
 30
0.0
 10
166.620068892752
 20
44.06170958108013
 30
0.0
 10
167.6390699797586
 20
44.65003013296792
 30
0.0
 10
167.9804107620748
 20
44.84710332552356
 30
0.0
 10
168.6560092650452
 20
45.23716030307763
 30
0.0
 10
168.9916684150098
 20
45.43095320366566
 30
0.0
 10
169.9929340515095
 20
46.00903418842904
 30
0.0
 10
170.6528417101125
 20
46.39003205276384
 30
0.0
 10
171.3073451381846
 20
46.76790978314674
 30
0.0
  0
SPLINE
  5
185
330
1F
100
AcDbEntity
  8
0
  6
Continuous
 62
     7
370
    25
100
AcDbSpline
210
0.0
220
0.0
230
1.0
 70
     8
 71
     3
 72
    10
 73
     6
 74
     0
 42
0.00000001
 43
0.00000001
 40
0.0
 40
0.0
 40
0.0
 40
0.0
 40
0.5
 40
0.5
 40
1.0
 40
1.0
 40
1.0
 40
1.0
 10
162.8073451381852
 20
42.14910762963008
 30
0.0
 10
162.8817255155625
 20
42.10616409872885
 30
0.0
 10
162.968818603678
 20
42.08219933437287
 30
0.0
 10
163.1449769925541
 20
42.08204172889809
 30
0.0
 10
163.2329380652819
 20
42.10614868605978
 30
0.0
 10
163.3073451381852
 20
42.14910762963008
 30
0.0
  0
SPLINE
  5
186
330
1F
100
AcDbEntity
  8
0
  6
Continuous
 62
     7
370
    25
100
AcDbSpline
210
0.0
220
0.0
230
1.0
 70
    24
 71
     3
 72
    16
 73
    12
 74
     0
 42
0.00000001
 43
0.00000001
 40
0.0
 40
0.0
 40
0.0
 40
0.0
 40
0.2500000000000001
 40
0.2500000000000001
 40
0.5000000000000002
 40
0.5000000000000002
 40
0.6250000000000001
 40
0.6250000000000001
 40
0.7500000000000001
 40
0.7500000000000001
 40
1.0
 40
1.0
 40
1.0
 40
1.0
 10
154.8073451381852
 20
46.76790978314709
 30
0.0
 10
155.460861918226
 20
46.39060169427059
 30
0.0
 10
156.1190823273159
 20
46.01057796389639
 30
0.0
 10
157.4486449106817
 20
45.2429546484857
 30
0.0
 10
158.1200688927523
 20
44.8553078316969
 30
0.0
 10
159.139069979759
 20
44.26698727980905
 30
0.0
 10
159.4804107620752
 20
44.0699140872534
 30
0.0
 10
160.1560092650456
 20
43.6798571096993
 30
0.0
 10
160.4916684150103
 20
43.48606420911127
 30
0.0
 10
161.4929340515099
 20
42.90798322434784
 30
0.0
 10
162.1528417101131
 20
42.52698536001301
 30
0.0
 10
162.8073451381852
 20
42.14910762963008
 30
0.0
  0
CIRCLE
  5
187
330
1F
100
AcDbEntity
  8
0
  6
Continuous
 62
     7
370
    25
100
AcDbCircle
 10
163.0573451382
 20
51.8197246386
 30
0.0
 40
8.25
  0
SPLINE
  5
188
330
1F
100
AcDbEntity
  8
0
  6
Continuous
 62
     7
370
    25
100
AcDbSpline
210
0.0
220
0.0
230
1.0
 70
     8
 71
     3
 72
    10
 73
     6
 74
     0
 42
0.00000001
 43
0.00000001
 40
0.0
 40
0.0
 40
0.0
 40
0.0
 40
0.5
 40
0.5
 40
1.0
 40
1.0
 40
1.0
 40
1.0
 10
162.8073451381852
 20
40.49744604381651
 30
0.0
 10
162.8817198921752
 20
40.52111964830763
 30
0.0
 10
162.9688136237411
 20
40.53421242410086
 30
0.0
 10
163.1449794522856
 20
40.53429899220181
 30
0.0
 10
163.2329404761759
 20
40.52112916807852
 30
0.0
 10
163.3073451381852
 20
40.4974460438165
 30
0.0
  0
SPLINE
  5
189
330
1F
100
AcDbEntity
  8
0
  6
Continuous
 62
     7
370
    25
100
AcDbSpline
210
0.0
220
0.0
230
1.0
 70
     8
 71
     3
 72
    12
 73
     8
 74
     0
 42
0.00000001
 43
0.00000001
 40
0.0
 40
0.0
 40
0.0
 40
0.0
 40
0.2500000000000003
 40
0.2500000000000003
 40
0.5000000000000002
 40
0.5000000000000002
 40
1.0
 40
1.0
 40
1.0
 40
1.0
 10
167.3073451381852
 20
39.81972463855632
 30
0.0
 10
166.9695892031624
 20
39.81972463855632
 30
0.0
 10
166.6291811882839
 20
39.83547096857827
 30
0.0
 10
165.9546865038835
 20
39.8969159931637
 30
0.0
 10
165.6195611850162
 20
39.94250475241743
 30
0.0
 10
164.6198498666761
 20
40.11895575467403
 30
0.0
 10
163.9609157636108
 20
40.28941345663753
 30
0.0
 10
163.3073451381851
 20
40.49744604381636
 30
0.0
  0
LINE
  5
18A
330
1F
100
AcDbEntity
  8
0
  6
Continuous
 62
     7
370
    25
100
AcDbLine
 10
158.8073451382
 20
39.8197246386
 30
0.0
 11
167.3073451382
 21
39.8197246386
 31
0.0
  0
SPLINE
  5
18B
330
1F
100
AcDbEntity
  8
0
  6
Continuous
 62
     7
370
    25
100
AcDbSpline
210
0.0
220
0.0
230
1.0
 70
     8
 71
     3
 72
    10
 73
     6
 74
     0
 42
0.00000001
 43
0.00000001
 40
0.0
 40
0.0
 40
0.0
 40
0.0
 40
0.5
 40
0.5
 40
1.0
 40
1.0
 40
1.0
 40
1.0
 10
162.8073451381852
 20
40.49744604381604
 30
0.0
 10
162.1513323715801
 20
40.28863611914979
 30
0.0
 10
161.4910654647224
 20
40.11810197940253
 30
0.0
 10
160.1587189460874
 20
39.88331617438361
 30
0.0
 10
159.4865659646
 20
39.81972463855632
 30
0.0
 10
158.8073451381852
 20
39.81972463855632
 30
0.0
  0
LINE
  5
18C
330
1F
100
AcDbEntity
  8
0
  6
Continuous
 62
     7
370
    25
100
AcDbLine
 10
163.3073451382
 20
42.1491076296
 30
0.0
 11
163.3073451382
 21
40.4974460438
 31
0.0
  0
LINE
  5
18D
330
1F
100
AcDbEntity
  8
0
  6
Continuous
 62
     7
370
    25
100
AcDbLine
 10
162.8073451382
 20
40.4974460438
 30
0.0
 11
162.8073451382
 21
42.1491076296
 31
0.0
  0
SPLINE
  5
18E
330
1F
100
AcDbEntity
  8
0
  6
Continuous
 62
     7
370
    25
100
AcDbSpline
210
0.0
220
0.0
230
1.0
 70
     8
 71
     3
 72
    12
 73
     8
 74
     0
 42
0.00000001
 43
0.00000001
 40
0.0
 40
0.0
 40
0.0
 40
0.0
 40
0.2499999999999999
 40
0.2499999999999999
 40
0.4999999999999998
 40
0.4999999999999998
 40
1.0
 40
1.0
 40
1.0
 40
1.0
 10
167.4317752309375
 20
44.53034845392146
 30
0.0
 10
167.7609102213307
 20
44.52663996806503
 30
0.0
 10
168.0903723742674
 20
44.50805746522735
 30
0.0
 10
168.7432459923251
 20
44.4431904282612
 30
0.0
 10
169.0676985842021
 20
44.39692487501093
 30
0.0
 10
170.0357590253942
 20
44.22120034470397
 30
0.0
 10
170.6740815096422
 20
44.05489693592721
 30
0.0
 10
171.3073451381852
 20
43.85332809870131
 30
0.0
  0
LINE
  5
18F
330
1F
100
AcDbEntity
  8
0
  6
Continuous
 62
     7
370
    25
100
AcDbLine
 10
171.3073451382
 20
40.4974460438
 30
0.0
 11
171.3073451382
 21
43.8533280987
 31
0.0
  0
SPLINE
  5
190
330
1F
100
AcDbEntity
  8
0
  6
Continuous
 62
     7
370
    25
100
AcDbSpline
210
0.0
220
0.0
230
1.0
 70
     8
 71
     3
 72
    10
 73
     6
 74
     0
 42
0.00000001
 43
0.00000001
 40
0.0
 40
0.0
 40
0.0
 40
0.0
 40
0.5
 40
0.5
 40
1.0
 40
1.0
 40
1.0
 40
1.0
 10
171.3073451381852
 20
40.49744604381604
 30
0.0
 10
170.6513323715801
 20
40.28863611914979
 30
0.0
 10
169.9910654647224
 20
40.11810197940253
 30
0.0
 10
168.6587189460874
 20
39.88331617438361
 30
0.0
 10
167.9865659646
 20
39.81972463855632
 30
0.0
 10
167.3073451381852
 20
39.81972463855632
 30
0.0
  0
SPLINE
  5
191
330
1F
100
AcDbEntity
  8
0
  6
Continuous
 62
     7
370
    25
100
AcDbSpline
210
0.0
220
0.0
230
1.0
 70
     8
 71
     3
 72
    12
 73
     8
 74
     0
 42
0.00000001
 43
0.00000001
 40
0.0
 40
0.0
 40
0.0
 40
0.0
 40
0.2499999999999998
 40
0.2499999999999998
 40
0.4999999999999996
 40
0.4999999999999996
 40
1.0
 40
1.0
 40
1.0
 40
1.0
 10
158.8073451381852
 20
39.81972463855632
 30
0.0
 10
158.4695892031624
 20
39.81972463855632
 30
0.0
 10
158.1291811882839
 20
39.83547096857827
 30
0.0
 10
157.4546865038834
 20
39.8969159931637
 30
0.0
 10
157.1195611850162
 20
39.94250475241743
 30
0.0
 10
156.1198498666761
 20
40.11895575467403
 30
0.0
 10
155.4609157636108
 20
40.28941345663753
 30
0.0
 10
154.8073451381851
 20
40.49744604381636
 30
0.0
  0
LINE
  5
192
330
1F
100
AcDbEntity
  8
0
  6
Continuous
 62
     7
370
    25
100
AcDbLine
 10
154.8073451382
 20
43.8533280987
 30
0.0
 11
154.8073451382
 21
40.4974460438
 31
0.0
  0
SPLINE
  5
193
330
1F
100
AcDbEntity
  8
0
  6
Continuous
 62
     7
370
    25
100
AcDbSpline
210
0.0
220
0.0
230
1.0
 70
     8
 71
     3
 72
    10
 73
     6
 74
     0
 42
0.00000001
 43
0.00000001
 40
0.0
 40
0.0
 40
0.0
 40
0.0
 40
0.5
 40
0.5
 40
1.0
 40
1.0
 40
1.0
 40
1.0
 10
154.8073451381856
 20
43.85332809870147
 30
0.0
 10
155.4421728439993
 20
44.05539478425239
 30
0.0
 10
156.081438546575
 20
44.22178755652303
 30
0.0
 10
157.3722534781649
 20
44.45583453039309
 30
0.0
 10
158.0238731136348
 20
44.52292278435192
 30
0.0
 10
158.6829150454549
 20
44.5303484539217
 30
0.0
  0
SPLINE
  5
194
330
1F
100
AcDbEntity
  8
0
  6
Continuous
 62
     7
370
    25
100
AcDbSpline
210
0.0
220
0.0
230
1.0
 70
     8
 71
     3
 72
    10
 73
     6
 74
     0
 42
0.00000001
 43
0.00000001
 40
0.0
 40
0.0
 40
0.0
 40
0.0
 40
0.5
 40
0.5
 40
1.0
 40
1.0
 40
1.0
 40
1.0
 10
171.3073451381852
 20
40.49744604381651
 30
0.0
 10
171.3817156051107
 20
40.52111828372807
 30
0.0
 10
171.4460212013986
 20
40.53421227366333
 30
0.0
 10
171.5342439892044
 20
40.53429914112478
 30
0.0
 10
171.5573451381852
 20
40.52112935136541
 30
0.0
 10
171.5573451381852
 20
40.4974460438165
 30
0.0
  0
LINE
  5
195
330
1F
100
AcDbEntity
  8
0
  6
Continuous
 62
     7
370
    25
100
AcDbLine
 10
167.3073451382
 20
39.8197246386
 30
0.0
 11
171.5573451382
 21
39.8197246386
 31
0.0
  0
SPLINE
  5
196
330
1F
100
AcDbEntity
  8
0
  6
Continuous
 62
     7
370
    25
100
AcDbSpline
210
0.0
220
0.0
230
1.0
 70
    24
 71
     3
 72
    10
 73
     6
 74
     0
 42
0.00000001
 43
0.00000001
 40
0.0
 40
0.0
 40
0.0
 40
0.0
 40
0.4999999999999999
 40
0.4999999999999999
 40
1.0
 40
1.0
 40
1.0
 40
1.0
 10
171.5573451381852
 20
39.81972463855632
 30
0.0
 10
171.5573451381852
 20
39.81972463855632
 30
0.0
 10
171.5573451381852
 20
39.88200900053484
 30
0.0
 10
171.5573451381852
 20
40.11685711854187
 30
0.0
 10
171.5573451381852
 20
40.29009972567307
 30
0.0
 10
171.5573451381852
 20
40.49744604381651
 30
0.0
  0
SPLINE
  5
197
330
1F
100
AcDbEntity
  8
0
  6
Continuous
 62
     7
370
    25
100
AcDbSpline
210
0.0
220
0.0
230
1.0
 70
     8
 71
     3
 72
    10
 73
     6
 74
     0
 42
0.00000001
 43
0.00000001
 40
0.0
 40
0.0
 40
0.0
 40
0.0
 40
0.5
 40
0.5
 40
1.0
 40
1.0
 40
1.0
 40
1.0
 10
154.5573451381852
 20
40.4974460438165
 30
0.0
 10
154.5573451381852
 20
40.52111994437246
 30
0.0
 10
154.5801357098326
 20
40.5342125015516
 30
0.0
 10
154.6680817071314
 20
40.53429891553388
 30
0.0
 10
154.7329424998642
 20
40.52112852393526
 30
0.0
 10
154.8073451381852
 20
40.4974460438165
 30
0.0
  0
LINE
  5
198
330
1F
100
AcDbEntity
  8
0
  6
Continuous
 62
     7
370
    25
100
AcDbLine
 10
154.5573451382
 20
39.8197246386
 30
0.0
 11
158.8073451382
 21
39.8197246386
 31
0.0
  0
SPLINE
  5
199
330
1F
100
AcDbEntity
  8
0
  6
Continuous
 62
     7
370
    25
100
AcDbSpline
210
0.0
220
0.0
230
1.0
 70
    24
 71
     3
 72
    10
 73
     6
 74
     0
 42
0.00000001
 43
0.00000001
 40
0.0
 40
0.0
 40
0.0
 40
0.0
 40
0.5
 40
0.5
 40
1.0
 40
1.0
 40
1.0
 40
1.0
 10
154.5573451381852
 20
39.81972463855632
 30
0.0
 10
154.5573451381852
 20
39.81972463855632
 30
0.0
 10
154.5573451381852
 20
39.88200900053484
 30
0.0
 10
154.5573451381852
 20
40.11685711854187
 30
0.0
 10
154.5573451381852
 20
40.29009972567306
 30
0.0
 10
154.5573451381852
 20
40.4974460438165
 30
0.0
  0
SPLINE
  5
19A
330
1F
100
AcDbEntity
  8
0
  6
Continuous
 62
     7
370
    25
100
AcDbSpline
210
0.0
220
0.0
230
1.0
 70
     8
 71
     3
 72
     8
 73
     4
 74
     0
 42
0.00000001
 43
0.00000001
 40
0.0
 40
0.0
 40
0.0
 40
0.0
 40
1.0
 40
1.0
 40
1.0
 40
1.0
 10
154.5573451381852
 20
44.01481342698233
 30
0.0
 10
155.079151289487
 20
44.28740356265168
 30
0.0
 10
155.6028047583432
 20
44.55655606377308
 30
0.0
 10
156.1291419079096
 20
44.81972463855632
 30
0.0
  0
SPLINE
  5
19B
330
1F
100
AcDbEntity
  8
0
  6
Continuous
 62
     7
370
    25
100
AcDbSpline
210
0.0
220
0.0
230
1.0
 70
     8
 71
     3
 72
    10
 73
     6
 74
     0
 42
0.00000001
 43
0.00000001
 40
0.0
 40
0.0
 40
0.0
 40
0.0
 40
0.5
 40
0.5
 40
1.0
 40
1.0
 40
1.0
 40
1.0
 10
154.5573451381852
 20
43.8533280987013
 30
0.0
 10
154.5573451381852
 20
43.82965270427688
 30
0.0
 10
154.580137587515
 20
43.81656159439225
 30
0.0
 10
154.6680802916082
 20
43.81647527310403
 30
0.0
 10
154.7329380652824
 20
43.82964420704798
 30
0.0
 10
154.8073451381858
 20
43.85332809870153
 30
0.0
  0
SPLINE
  5
19C
330
1F
100
AcDbEntity
  8
0
  6
Continuous
 62
     7
370
    25
100
AcDbSpline
210
0.0
220
0.0
230
1.0
 70
    24
 71
     3
 72
     8
 73
     4
 74
     0
 42
0.00000001
 43
0.00000001
 40
0.0
 40
0.0
 40
0.0
 40
0.0
 40
1.0
 40
1.0
 40
1.0
 40
1.0
 10
154.5573451381852
 20
44.01481342698233
 30
0.0
 10
154.5573451381852
 20
43.96391863728151
 30
0.0
 10
154.5573451381852
 20
43.90998478792007
 30
0.0
 10
154.5573451381852
 20
43.85332809870131
 30
0.0
  0
SPLINE
  5
19D
330
1F
100
AcDbEntity
  8
0
  6
Continuous
 62
     7
370
    25
100
AcDbSpline
210
0.0
220
0.0
230
1.0
 70
     8
 71
     3
 72
     8
 73
     4
 74
     0
 42
0.00000001
 43
0.00000001
 40
0.0
 40
0.0
 40
0.0
 40
0.0
 40
1.0
 40
1.0
 40
1.0
 40
1.0
 10
169.9855483684607
 20
44.81972463855631
 30
0.0
 10
170.5119692296699
 20
44.55651420795171
 30
0.0
 10
171.0355136863836
 20
44.28741677956501
 30
0.0
 10
171.5573451381852
 20
44.01481342698235
 30
0.0
  0
SPLINE
  5
19E
330
1F
100
AcDbEntity
  8
0
  6
Continuous
 62
     7
370
    25
100
AcDbSpline
210
0.0
220
0.0
230
1.0
 70
     8
 71
     3
 72
    10
 73
     6
 74
     0
 42
0.00000001
 43
0.00000001
 40
0.0
 40
0.0
 40
0.0
 40
0.0
 40
0.5
 40
0.5
 40
1.0
 40
1.0
 40
1.0
 40
1.0
 10
171.3073451381852
 20
43.85332809870131
 30
0.0
 10
171.3817255155625
 20
43.82965270427692
 30
0.0
 10
171.4460261543483
 20
43.81656159439229
 30
0.0
 10
171.5342418391312
 20
43.816475273104
 30
0.0
 10
171.5573451381852
 20
43.82964420704784
 30
0.0
 10
171.5573451381852
 20
43.85332809870131
 30
0.0
  0
SPLINE
  5
19F
330
1F
100
AcDbEntity
  8
0
  6
Continuous
 62
     7
370
    25
100
AcDbSpline
210
0.0
220
0.0
230
1.0
 70
    24
 71
     3
 72
     8
 73
     4
 74
     0
 42
0.00000001
 43
0.00000001
 40
0.0
 40
0.0
 40
0.0
 40
0.0
 40
1.0
 40
1.0
 40
1.0
 40
1.0
 10
171.5573451381852
 20
44.01481342698233
 30
0.0
 10
171.5573451381852
 20
43.96391863728151
 30
0.0
 10
171.5573451381852
 20
43.90998478792007
 30
0.0
 10
171.5573451381852
 20
43.85332809870131
 30
0.0
  0
LINE
  5
1A0
330
1F
100
AcDbEntity
  8
0
  6
Continuous
 62
     7
370
    25
100
AcDbLine
 10
170.5573451382
 20
46.3348970813
 30
0.0
 11
170.5573451382
 21
44.8197246386
 31
0.0
  0
LINE
  5
1A1
330
1F
100
AcDbEntity
  8
0
  6
Continuous
 62
     7
370
    25
100
AcDbLine
 10
167.9329894852
 20
44.8197246386
 30
0.0
 11
170.5573451382
 21
44.8197246386
 31
0.0
  0
LINE
  5
1A2
330
1F
100
AcDbEntity
  8
0
  6
Continuous
 62
     7
370
    25
100
AcDbLine
 10
155.5573451382
 20
44.8197246386
 30
0.0
 11
155.5573451382
 21
46.3348970813
 31
0.0
  0
LINE
  5
1A3
330
1F
100
AcDbEntity
  8
0
  6
Continuous
 62
     7
370
    25
100
AcDbLine
 10
155.5573451382
 20
44.8197246386
 30
0.0
 11
158.1817007912
 21
44.8197246386
 31
0.0
  0
LINE
  5
1A4
330
1F
100
AcDbEntity
  8
0
  6
Continuous
 62
     7
370
    25
100
AcDbLine
 10
163.0573451382
 20
30.4233905124
 30
0.0
 11
169.5218971967
 21
30.4233905124
 31
0.0
  0
LINE
  5
1A5
330
1F
100
AcDbEntity
  8
0
  6
Continuous
 62
     7
370
    25
100
AcDbLine
 10
156.5927930796
 20
30.4233905124
 30
0.0
 11
163.0573451382
 21
30.4233905124
 31
0.0
  0
LINE
  5
1A6
330
1F
100
AcDbEntity
  8
0
  6
Continuous
 62
     7
370
    25
100
AcDbLine
 10
168.3073451382
 20
28.3197246386
 30
0.0
 11
157.8073451382
 21
28.3197246386
 31
0.0
  0
LINE
  5
1A7
330
1F
100
AcDbEntity
  8
0
  6
Continuous
 62
     7
370
    25
100
AcDbLine
 10
154.5573451382
 20
40.4974460438
 30
0.0
 11
154.5573451382
 21
43.8533280987
 31
0.0
  0
LINE
  5
1A8
330
1F
100
AcDbEntity
  8
0
  6
Continuous
 62
     7
370
    25
100
AcDbLine
 10
171.5573451382
 20
43.8533280987
 30
0.0
 11
171.5573451382
 21
40.4974460438
 31
0.0
  0
LINE
  5
1A9
330
1F
100
AcDbEntity
  8
0
  6
Continuous
 62
     7
370
    25
100
AcDbLine
 10
154.5573451382
 20
44.014813427
 30
0.0
 11
154.5573451382
 21
47.1751554559
 31
0.0
  0
LINE
  5
1AA
330
1F
100
AcDbEntity
  8
0
  6
Continuous
 62
     7
370
    25
100
AcDbLine
 10
171.5573451382
 20
44.014813427
 30
0.0
 11
171.5573451382
 21
47.1751554559
 31
0.0
  0
LINE
  5
1AB
330
1F
100
AcDbEntity
  8
0
  6
Continuous
 62
     7
370
    25
100
AcDbLine
 10
164.3073451382
 20
78.3197246386
 30
0.0
 11
164.3073451382
 21
78.9197246386
 31
0.0
  0
LINE
  5
1AC
330
1F
100
AcDbEntity
  8
0
  6
Continuous
 62
     7
370
    25
100
AcDbLine
 10
164.3073451382
 20
78.9197246386
 30
0.0
 11
164.5573451382
 21
78.9197246386
 31
0.0
  0
LINE
  5
1AD
330
1F
100
AcDbEntity
  8
0
  6
Continuous
 62
     7
370
    25
100
AcDbLine
 10
164.5573451382
 20
78.9197246386
 30
0.0
 11
164.5573451382
 21
78.3197246386
 31
0.0
  0
LINE
  5
1AE
330
1F
100
AcDbEntity
  8
0
  6
Continuous
 62
     7
370
    25
100
AcDbLine
 10
164.5573451382
 20
78.3197246386
 30
0.0
 11
164.3073451382
 21
78.3197246386
 31
0.0
  0
LINE
  5
1AF
330
1F
100
AcDbEntity
  8
0
  6
Continuous
 62
     7
370
    25
100
AcDbLine
 10
161.5573451382
 20
78.3197246386
 30
0.0
 11
161.5573451382
 21
78.9197246386
 31
0.0
  0
LINE
  5
1B0
330
1F
100
AcDbEntity
  8
0
  6
Continuous
 62
     7
370
    25
100
AcDbLine
 10
161.5573451382
 20
78.9197246386
 30
0.0
 11
161.8073451382
 21
78.9197246386
 31
0.0
  0
LINE
  5
1B1
330
1F
100
AcDbEntity
  8
0
  6
Continuous
 62
     7
370
    25
100
AcDbLine
 10
161.8073451382
 20
78.9197246386
 30
0.0
 11
161.8073451382
 21
78.3197246386
 31
0.0
  0
LINE
  5
1B2
330
1F
100
AcDbEntity
  8
0
  6
Continuous
 62
     7
370
    25
100
AcDbLine
 10
161.8073451382
 20
78.3197246386
 30
0.0
 11
161.5573451382
 21
78.3197246386
 31
0.0
  0
ARC
  5
1B3
330
1F
100
AcDbEntity
  8
0
  6
Continuous
 62
     7
370
    25
100
AcDbCircle
 10
161.8073451382
 20
78.9197246386
 30
0.0
 40
0.25
100
AcDbArc
 50
90.0
 51
180.0
  0
LINE
  5
1B4
330
1F
100
AcDbEntity
  8
0
  6
Continuous
 62
     7
370
    25
100
AcDbLine
 10
161.8073451382
 20
79.1697246386
 30
0.0
 11
161.8073451382
 21
78.9197246386
 31
0.0
  0
LINE
  5
1B5
330
1F
100
AcDbEntity
  8
0
  6
Continuous
 62
     7
370
    25
100
AcDbLine
 10
164.3073451382
 20
78.9197246386
 30
0.0
 11
164.3073451382
 21
79.1697246386
 31
0.0
  0
ARC
  5
1B6
330
1F
100
AcDbEntity
  8
0
  6
Continuous
 62
     7
370
    25
100
AcDbCircle
 10
164.3073451382
 20
78.9197246386
 30
0.0
 40
0.25
100
AcDbArc
 50
0.0
 51
90.0
  0
LINE
  5
1B7
330
1F
100
AcDbEntity
  8
0
  6
Continuous
 62
     7
370
    25
100
AcDbLine
 10
164.3073451382
 20
78.9197246386
 30
0.0
 11
161.8073451382
 21
78.9197246386
 31
0.0
  0
LINE
  5
1B8
330
1F
100
AcDbEntity
  8
0
  6
Continuous
 62
     7
370
    25
100
AcDbLine
 10
161.8073451382
 20
78.3197246386
 30
0.0
 11
164.3073451382
 21
78.3197246386
 31
0.0
  0
LINE
  5
1B9
330
1F
100
AcDbEntity
  8
0
  6
Continuous
 62
     7
370
    25
100
AcDbLine
 10
161.8073451382
 20
79.1697246386
 30
0.0
 11
164.3073451382
 21
79.1697246386
 31
0.0
  0
SPLINE
  5
1BA
330
1F
100
AcDbEntity
  8
0
  6
Continuous
 62
     7
370
    25
100
AcDbSpline
210
0.0
220
0.0
230
1.0
 70
     8
 71
     3
 72
    15
 73
    11
 74
     0
 42
0.00000001
 43
0.00000001
 40
0.0
 40
0.0
 40
0.0
 40
0.0
 40
0.0090459071881971
 40
0.1032433785236875
 40
0.1542564497735248
 40
0.313316902671511
 40
0.5243720399414434
 40
0.6678060008509189
 40
0.9918332554187028
 40
1.0
 40
1.0
 40
1.0
 40
1.0
 10
161.3834320947069
 20
78.91972463855632
 30
0.0
 10
161.3834497404313
 20
78.92140573714073
 30
0.0
 10
161.3836511358439
 20
78.94059256869626
 30
0.0
 10
161.3898407565101
 20
78.96928684821624
 30
0.0
 10
161.4140426883542
 20
79.01996288818816
 30
0.0
 10
161.4670616803559
 20
79.07783918776508
 30
0.0
 10
161.5484325675525
 20
79.12270470249977
 30
0.0
 10
161.663011639575
 20
79.16006708575428
 30
0.0
 10
161.7474368172941
 20
79.16961309802386
 30
0.0
 10
161.8059076752461
 20
79.16972196221053
 30
0.0
 10
161.8073451381852
 20
79.16972463855632
 30
0.0
  0
LINE
  5
1BB
330
1F
100
AcDbEntity
  8
0
  6
Continuous
 62
     7
370
    25
100
AcDbLine
 10
161.3834320947
 20
78.9197246386
 30
0.0
 11
161.5573451382
 21
78.9197246386
 31
0.0
  0
LINE
  5
1BC
330
1F
100
AcDbEntity
  8
0
  6
Continuous
 62
     7
370
    25
100
AcDbLine
 10
164.5573451382
 20
78.9197246386
 30
0.0
 11
164.7312581817
 21
78.9197246386
 31
0.0
  0
SPLINE
  5
1BD
330
1F
100
AcDbEntity
  8
0
  6
Continuous
 62
     7
370
    25
100
AcDbSpline
210
0.0
220
0.0
230
1.0
 70
     8
 71
     3
 72
    15
 73
    11
 74
     0
 42
0.00000001
 43
0.00000001
 40
0.0
 40
0.0
 40
0.0
 40
0.0
 40
0.0081667445812695
 40
0.3321939991490077
 40
0.4756279600585576
 40
0.68668309732849
 40
0.8457435502264807
 40
0.8967566214763126
 40
0.9909540928118029
 40
1.0
 40
1.0
 40
1.0
 40
1.0
 10
164.3073451381852
 20
79.16972463855632
 30
0.0
 10
164.3087826011242
 20
79.16972196221053
 30
0.0
 10
164.3672534590759
 20
79.1696130980238
 30
0.0
 10
164.4516786367954
 20
79.16006708575429
 30
0.0
 10
164.5662577088178
 20
79.12270470249976
 30
0.0
 10
164.6476285960144
 20
79.07783918776508
 30
0.0
 10
164.7006475880161
 20
79.01996288818816
 30
0.0
 10
164.7248495198602
 20
78.96928684821624
 30
0.0
 10
164.7310391405264
 20
78.94059256869623
 30
0.0
 10
164.731240535939
 20
78.92140573714073
 30
0.0
 10
164.7312581816634
 20
78.91972463855632
 30
0.0
  0
LINE
  5
1BE
330
1F
100
AcDbEntity
  8
0
  6
Continuous
 62
     7
370
    25
100
AcDbLine
 10
164.7312581817
 20
78.9197246386
 30
0.0
 11
164.7312581817
 21
78.3197246386
 31
0.0
  0
LINE
  5
1BF
330
1F
100
AcDbEntity
  8
0
  6
Continuous
 62
     7
370
    25
100
AcDbLine
 10
164.7312581817
 20
78.3197246386
 30
0.0
 11
164.5573451382
 21
78.3197246386
 31
0.0
  0
LINE
  5
1C0
330
1F
100
AcDbEntity
  8
0
  6
Continuous
 62
     7
370
    25
100
AcDbLine
 10
161.3834320947
 20
78.3197246386
 30
0.0
 11
161.3834320947
 21
78.9197246386
 31
0.0
  0
LINE
  5
1C1
330
1F
100
AcDbEntity
  8
0
  6
Continuous
 62
     7
370
    25
100
AcDbLine
 10
161.5573451382
 20
78.3197246386
 30
0.0
 11
161.3834320947
 21
78.3197246386
 31
0.0
  0
LINE
  5
1C2
330
1F
100
AcDbEntity
  8
0
  6
Continuous
 62
     7
370
    25
100
AcDbLine
 10
157.8073451382
 20
79.1697246386
 30
0.0
 11
161.8073451382
 21
79.1697246386
 31
0.0
  0
LINE
  5
1C3
330
1F
100
AcDbEntity
  8
0
  6
Continuous
 62
     7
370
    25
100
AcDbLine
 10
164.3073451382
 20
79.1697246386
 30
0.0
 11
168.3073451382
 21
79.1697246386
 31
0.0
  0
LINE
  5
1C4
330
1F
100
AcDbEntity
  8
0
  6
Continuous
 62
     7
370
    25
100
AcDbLine
 10
164.7312581817
 20
78.3197246386
 30
0.0
 11
168.5573451382
 21
78.3197246386
 31
0.0
  0
LINE
  5
1C5
330
1F
100
AcDbEntity
  8
0
  6
Continuous
 62
     7
370
    25
100
AcDbLine
 10
157.5573451382
 20
78.3197246386
 30
0.0
 11
161.3834320947
 21
78.3197246386
 31
0.0
  0
LINE
  5
1C6
330
1F
100
AcDbEntity
  8
0
  6
Continuous
 62
     7
370
    25
100
AcDbLine
 10
162.4573451382
 20
79.1797246386
 30
0.0
 11
163.6573451382
 21
79.1797246386
 31
0.0
  0
LINE
  5
1C7
330
1F
100
AcDbEntity
  8
0
  6
Continuous
 62
     7
370
    25
100
AcDbLine
 10
163.6573451382
 20
79.1697246386
 30
0.0
 11
163.6573451382
 21
79.1797246386
 31
0.0
  0
LINE
  5
1C8
330
1F
100
AcDbEntity
  8
0
  6
Continuous
 62
     7
370
    25
100
AcDbLine
 10
162.4573451382
 20
79.1697246386
 30
0.0
 11
162.4573451382
 21
79.1797246386
 31
0.0
  0
LINE
  5
1C9
330
1F
100
AcDbEntity
  8
0
  6
Continuous
 62
     7
370
    25
100
AcDbLine
 10
155.6073451382
 20
70.3197246385
 30
0.0
 11
170.5073451382
 21
70.3197246385
 31
0.0
  0
LINE
  5
1CA
330
1F
100
AcDbEntity
  8
0
  6
Continuous
 62
     7
370
    25
100
AcDbLine
 10
156.0573451382
 20
62.3197246386
 30
0.0
 11
170.0573451382
 21
62.3197246386
 31
0.0
  0
LINE
  5
1CB
330
1F
100
AcDbEntity
  8
0
  6
Continuous
 62
     7
370
    25
100
AcDbLine
 10
159.5573451382
 20
80.3197246386
 30
0.0
 11
159.5573451382
 21
79.1697246386
 31
0.0
  0
LINE
  5
1CC
330
1F
100
AcDbEntity
  8
0
  6
Continuous
 62
     7
370
    25
100
AcDbLine
 10
159.5573451382
 20
80.3197246386
 30
0.0
 11
159.7856458741
 21
80.3197246386
 31
0.0
  0
LINE
  5
1CD
330
1F
100
AcDbEntity
  8
0
  6
Continuous
 62
     7
370
    25
100
AcDbLine
 10
159.7856458741
 20
80.3197246386
 30
0.0
 11
159.7856458741
 21
79.1697246386
 31
0.0
  0
LINE
  5
1CE
330
1F
100
AcDbEntity
  8
0
  6
Continuous
 62
     7
370
    25
100
AcDbLine
 10
166.3290444022
 20
80.3197246386
 30
0.0
 11
166.3290444022
 21
79.1697246386
 31
0.0
  0
LINE
  5
1CF
330
1F
100
AcDbEntity
  8
0
  6
Continuous
 62
     7
370
    25
100
AcDbLine
 10
166.3290444022
 20
80.3197246386
 30
0.0
 11
166.5573451382
 21
80.3197246386
 31
0.0
  0
LINE
  5
1D0
330
1F
100
AcDbEntity
  8
0
  6
Continuous
 62
     7
370
    25
100
AcDbLine
 10
166.5573451382
 20
79.1697246386
 30
0.0
 11
166.5573451382
 21
80.3197246386
 31
0.0
  0
LINE
  5
1D1
330
1F
100
AcDbEntity
  8
0
  6
Continuous
 62
     7
370
    25
100
AcDbLine
 10
159.7856458741
 20
80.3197246386
 30
0.0
 11
166.3290444022
 21
80.3197246386
 31
0.0
  0
SPLINE
  5
1D2
330
1F
100
AcDbEntity
  8
0
  6
Continuous
 62
     7
370
    25
100
AcDbSpline
210
0.0
220
0.0
230
1.0
 70
     8
 71
     3
 72
    19
 73
    15
 74
     0
 42
0.00000001
 43
0.00000001
 40
0.0
 40
0.0
 40
0.0
 40
0.0
 40
0.0167787882523154
 40
0.0954951978969557
 40
0.1743162501515416
 40
0.2799349448265308
 40
0.3857492723795242
 40
0.4988317858770382
 40
0.6118957846345491
 40
0.7070748466902124
 40
0.8021797079883418
 40
0.8927562817735324
 40
0.9832582105272537
 40
1.0
 40
1.0
 40
1.0
 40
1.0
 10
157.1649930167446
 20
58.35913372010547
 30
0.0
 10
157.1624663907047
 20
58.3559976958105
 30
0.0
 10
157.1480862906602
 20
58.33814925192085
 30
0.0
 10
157.2115316177529
 20
58.41721223912085
 30
0.0
 10
157.3666379718887
 20
58.60169767203671
 30
0.0
 10
157.6549353553293
 20
58.92167642843499
 30
0.0
 10
158.0873693193403
 20
59.34612475208249
 30
0.0
 10
158.6418020617085
 20
59.80878931502274
 30
0.0
 10
159.2846976196426
 20
60.24926931423456
 30
0.0
 10
159.9841345438974
 20
60.62733024690819
 30
0.0
 10
160.7061348641171
 20
60.93055377709951
 30
0.0
 10
161.483854253327
 20
61.14895289520106
 30
0.0
 10
162.0719027261002
 20
61.27035265499789
 30
0.0
 10
162.4014929046137
 20
61.28365248234616
 30
0.0
 10
162.4529451432363
 20
61.28572871499802
 30
0.0
  0
SPLINE
  5
1D3
330
1F
100
AcDbEntity
  8
0
  6
Continuous
 62
     7
370
    25
100
AcDbSpline
210
0.0
220
0.0
230
1.0
 70
     8
 71
     3
 72
    20
 73
    16
 74
     0
 42
0.00000001
 43
0.00000001
 40
0.0
 40
0.0
 40
0.0
 40
0.0
 40
0.0313496699912697
 40
0.0973828319380215
 40
0.197382038549411
 40
0.29749349443159
 40
0.4180638109210237
 40
0.5387305563191785
 40
0.617111017908073
 40
0.6956729026920505
 40
0.773938297049078
 40
0.8504619021732363
 40
0.9268848122454229
 40
0.996741699815282
 40
1.0
 40
1.0
 40
1.0
 40
1.0
 10
163.6695423481262
 20
61.28122699082335
 30
0.0
 10
163.7654142593579
 20
61.27600695899024
 30
0.0
 10
164.0632253119672
 20
61.25979174897827
 30
0.0
 10
164.64611125817
 20
61.14541888083031
 30
0.0
 10
165.3953521965511
 20
60.93614889466551
 30
0.0
 10
166.2158314166848
 20
60.59181626241424
 30
0.0
 10
166.9829133248967
 20
60.1562652192086
 30
0.0
 10
167.5899387312387
 20
59.71486502881433
 30
0.0
 10
168.0351705235739
 20
59.33248598654598
 30
0.0
 10
168.3569619759269
 20
59.02375008987659
 30
0.0
 10
168.616660061823
 20
58.74975833801837
 30
0.0
 10
168.8117535314021
 20
58.52670452469318
 30
0.0
 10
168.9228296729073
 20
58.39227121952666
 30
0.0
 10
168.966812206407
 20
58.33836829069853
 30
0.0
 10
168.9558876617989
 20
58.3517011512006
 30
0.0
 10
168.9554008211464
 20
58.35229531587652
 30
0.0
  0
LINE
  5
1D4
330
1F
100
AcDbEntity
  8
0
  6
Continuous
 62
     7
370
    25
100
AcDbLine
 10
161.3834320947
 20
78.9197246386
 30
0.0
 11
157.5573451382
 21
78.9197246386
 31
0.0
  0
LINE
  5
1D5
330
1F
100
AcDbEntity
  8
0
  6
Continuous
 62
     7
370
    25
100
AcDbLine
 10
168.5573451382
 20
78.9197246386
 30
0.0
 11
164.7312581817
 21
78.9197246386
 31
0.0
  0
INSERT
  5
1E1
330
1F
100
AcDbEntity
  8
FORMAT
100
AcDbBlockReference
  2
SW_CENTERMARKSYMBOL_0
 10
163.0573451382
 20
51.8197246386
 30
0.0
  0
ARC
  5
1E2
330
1F
100
AcDbEntity
  8
FORMAT
100
AcDbCircle
 10
163.0573451382
 20
51.8197246386
 30
0.0
 40
6.999999999999998
100
AcDbArc
 50
75.0
 51
345.0
  0
LINE
  5
1E3
330
1F
100
AcDbEntity
  8
FORMAT
100
AcDbLine
 10
157.3078068344
 20
29.1849503611
 30
0.0
 11
156.9910951382
 21
39.3197246386
 31
0.0
  0
LINE
  5
1E4
330
1F
100
AcDbEntity
  8
FORMAT
100
AcDbLine
 10
168.806883442
 20
29.1849503611
 30
0.0
 11
169.1235951382
 21
39.3197246386
 31
0.0
  0
LINE
  5
1E5
330
1F
100
AcDbEntity
  8
FORMAT
100
AcDbLine
 10
169.7999076382
 20
39.3197246386
 30
0.0
 11
156.3147826382
 21
39.3197246386
 31
0.0
  0
LINE
  5
1E6
330
1F
100
AcDbEntity
  8
0
  6
Continuous
 62
     7
370
    25
100
AcDbLine
 10
105.5227086291
 20
115.8403390044
 30
0.0
 11
102.7227086291
 21
115.8403390044
 31
0.0
  0
LINE
  5
1E7
330
1F
100
AcDbEntity
  8
0
  6
Continuous
 62
     7
370
    25
100
AcDbLine
 10
102.7227086291
 20
99.8403390044
 30
0.0
 11
105.5227086291
 21
99.8403390044
 31
0.0
  0
LINE
  5
1E8
330
1F
100
AcDbEntity
  8
0
  6
Continuous
 62
     7
370
    25
100
AcDbLine
 10
102.7227086291
 20
115.8403390044
 30
0.0
 11
102.5227086291
 21
115.6403390044
 31
0.0
  0
LINE
  5
1E9
330
1F
100
AcDbEntity
  8
0
  6
Continuous
 62
     7
370
    25
100
AcDbLine
 10
102.5227086291
 20
100.0403390044
 30
0.0
 11
102.7227086291
 21
99.8403390044
 31
0.0
  0
LINE
  5
1EA
330
1F
100
AcDbEntity
  8
0
  6
Continuous
 62
     7
370
    25
100
AcDbLine
 10
95.5227086291
 20
112.3403390044
 30
0.0
 11
91.0227086291
 21
111.5903390044
 31
0.0
  0
LINE
  5
1EB
330
1F
100
AcDbEntity
  8
0
  6
Continuous
 62
     7
370
    25
100
AcDbLine
 10
91.0227086291
 20
104.0903390044
 30
0.0
 11
95.5227086291
 21
103.3403390044
 31
0.0
  0
LINE
  5
1EC
330
1F
100
AcDbEntity
  8
0
  6
Continuous
 62
     7
370
    25
100
AcDbLine
 10
100.0227086291
 20
112.3403390044
 30
0.0
 11
95.5227086291
 21
111.5903390044
 31
0.0
  0
LINE
  5
1ED
330
1F
100
AcDbEntity
  8
0
  6
Continuous
 62
     7
370
    25
100
AcDbLine
 10
95.5227086291
 20
104.0903390044
 30
0.0
 11
100.0227086291
 21
103.3403390044
 31
0.0
  0
LINE
  5
1EE
330
1F
100
AcDbEntity
  8
0
  6
Continuous
 62
     7
370
    25
100
AcDbLine
 10
82.0227086291
 20
112.3403390044
 30
0.0
 11
78.0027086291
 21
111.6703390044
 31
0.0
  0
LINE
  5
1EF
330
1F
100
AcDbEntity
  8
0
  6
Continuous
 62
     7
370
    25
100
AcDbLine
 10
78.0027086291
 20
104.0103390044
 30
0.0
 11
82.0227086291
 21
103.3403390044
 31
0.0
  0
LINE
  5
1F0
330
1F
100
AcDbEntity
  8
0
  6
Continuous
 62
     7
370
    25
100
AcDbLine
 10
102.5227086291
 20
112.3403390044
 30
0.0
 11
100.0227086291
 21
112.3403390044
 31
0.0
  0
LINE
  5
1F1
330
1F
100
AcDbEntity
  8
0
  6
Continuous
 62
     7
370
    25
100
AcDbLine
 10
100.0227086291
 20
103.3403390044
 30
0.0
 11
102.5227086291
 21
103.3403390044
 31
0.0
  0
LINE
  5
1F2
330
1F
100
AcDbEntity
  8
0
  6
Continuous
 62
     7
370
    25
100
AcDbLine
 10
91.0227086291
 20
112.3403390044
 30
0.0
 11
86.5227086291
 21
111.5903390044
 31
0.0
  0
LINE
  5
1F3
330
1F
100
AcDbEntity
  8
0
  6
Continuous
 62
     7
370
    25
100
AcDbLine
 10
86.5227086291
 20
104.0903390044
 30
0.0
 11
91.0227086291
 21
103.3403390044
 31
0.0
  0
LINE
  5
1F4
330
1F
100
AcDbEntity
  8
0
  6
Continuous
 62
     7
370
    25
100
AcDbLine
 10
86.5227086291
 20
112.3403390044
 30
0.0
 11
82.0227086291
 21
111.5903390044
 31
0.0
  0
LINE
  5
1F5
330
1F
100
AcDbEntity
  8
0
  6
Continuous
 62
     7
370
    25
100
AcDbLine
 10
82.0227086291
 20
104.0903390044
 30
0.0
 11
86.5227086291
 21
103.3403390044
 31
0.0
  0
LINE
  5
1F6
330
1F
100
AcDbEntity
  8
0
  6
Continuous
 62
     7
370
    25
100
AcDbLine
 10
78.0027086291
 20
111.6703390044
 30
0.0
 11
77.6727086291
 21
111.3403390044
 31
0.0
  0
LINE
  5
1F7
330
1F
100
AcDbEntity
  8
0
  6
Continuous
 62
     7
370
    25
100
AcDbLine
 10
77.6727086291
 20
104.3403390044
 30
0.0
 11
78.0027086291
 21
104.0103390044
 31
0.0
  0
LINE
  5
1F8
330
1F
100
AcDbEntity
  8
0
  6
Continuous
 62
     7
370
    25
100
AcDbLine
 10
128.8783710618
 20
99.3403390044
 30
0.0
 11
129.0227086291
 21
99.5903390044
 31
0.0
  0
LINE
  5
1F9
330
1F
100
AcDbEntity
  8
0
  6
Continuous
 62
     7
370
    25
100
AcDbLine
 10
129.0227086291
 20
116.0903390044
 30
0.0
 11
128.8783710618
 21
116.3403390044
 31
0.0
  0
LINE
  5
1FA
330
1F
100
AcDbEntity
  8
0
  6
Continuous
 62
     7
370
    25
100
AcDbLine
 10
102.7227086291
 20
103.8614789063
 30
0.0
 11
102.7227086291
 21
99.8403390044
 31
0.0
  0
LINE
  5
1FB
330
1F
100
AcDbEntity
  8
0
  6
Continuous
 62
     7
370
    25
100
AcDbLine
 10
102.7227086291
 20
115.8403390044
 30
0.0
 11
102.7227086291
 21
111.8191991025
 31
0.0
  0
LINE
  5
1FC
330
1F
100
AcDbEntity
  8
0
  6
Continuous
 62
     7
370
    25
100
AcDbLine
 10
102.5227086291
 20
111.7951016202
 30
0.0
 11
102.5227086291
 21
115.6403390044
 31
0.0
  0
LINE
  5
1FD
330
1F
100
AcDbEntity
  8
0
  6
Continuous
 62
     7
370
    25
100
AcDbLine
 10
102.5227086291
 20
100.0403390044
 30
0.0
 11
102.5227086291
 21
103.8855763886
 31
0.0
  0
LINE
  5
1FE
330
1F
100
AcDbEntity
  8
0
  6
Continuous
 62
     7
370
    25
100
AcDbLine
 10
95.5227086291
 20
104.3368295639
 30
0.0
 11
95.5227086291
 21
103.3403390044
 31
0.0
  0
LINE
  5
1FF
330
1F
100
AcDbEntity
  8
0
  6
Continuous
 62
     7
370
    25
100
AcDbLine
 10
95.5227086291
 20
112.3403390044
 30
0.0
 11
95.5227086291
 21
111.3438484449
 31
0.0
  0
LINE
  5
200
330
1F
100
AcDbEntity
  8
0
  6
Continuous
 62
     7
370
    25
100
AcDbLine
 10
100.0227086291
 20
104.1339718188
 30
0.0
 11
100.0227086291
 21
103.3403390044
 31
0.0
  0
LINE
  5
201
330
1F
100
AcDbEntity
  8
0
  6
Continuous
 62
     7
370
    25
100
AcDbLine
 10
100.0227086291
 20
112.3403390044
 30
0.0
 11
100.0227086291
 21
111.54670619
 31
0.0
  0
LINE
  5
202
330
1F
100
AcDbEntity
  8
0
  6
Continuous
 62
     7
370
    25
100
AcDbLine
 10
82.0227086291
 20
104.3403390044
 30
0.0
 11
82.0227086291
 21
103.3403390044
 31
0.0
  0
LINE
  5
203
330
1F
100
AcDbEntity
  8
0
  6
Continuous
 62
     7
370
    25
100
AcDbLine
 10
82.0227086291
 20
112.3403390044
 30
0.0
 11
82.0227086291
 21
111.3403390044
 31
0.0
  0
LINE
  5
204
330
1F
100
AcDbEntity
  8
0
  6
Continuous
 62
     7
370
    25
100
AcDbLine
 10
78.0027086291
 20
111.6703390044
 30
0.0
 11
78.0027086291
 21
111.3403390044
 31
0.0
  0
LINE
  5
205
330
1F
100
AcDbEntity
  8
0
  6
Continuous
 62
     7
370
    25
100
AcDbLine
 10
78.0027086291
 20
104.3403390044
 30
0.0
 11
78.0027086291
 21
104.0103390044
 31
0.0
  0
LINE
  5
206
330
1F
100
AcDbEntity
  8
0
  6
Continuous
 62
     7
370
    25
100
AcDbLine
 10
91.0227086291
 20
104.3403390044
 30
0.0
 11
91.0227086291
 21
103.3403390044
 31
0.0
  0
LINE
  5
207
330
1F
100
AcDbEntity
  8
0
  6
Continuous
 62
     7
370
    25
100
AcDbLine
 10
91.0227086291
 20
112.3403390044
 30
0.0
 11
91.0227086291
 21
111.3403390044
 31
0.0
  0
LINE
  5
208
330
1F
100
AcDbEntity
  8
0
  6
Continuous
 62
     7
370
    25
100
AcDbLine
 10
86.5227086291
 20
104.3403390044
 30
0.0
 11
86.5227086291
 21
103.3403390044
 31
0.0
  0
LINE
  5
209
330
1F
100
AcDbEntity
  8
0
  6
Continuous
 62
     7
370
    25
100
AcDbLine
 10
86.5227086291
 20
112.3403390044
 30
0.0
 11
86.5227086291
 21
111.3403390044
 31
0.0
  0
SPLINE
  5
20A
330
1F
100
AcDbEntity
  8
0
  6
Continuous
 62
     7
370
    25
100
AcDbSpline
210
0.0
220
0.0
230
1.0
 70
    24
 71
     3
 72
    10
 73
     6
 74
     0
 42
0.00000001
 43
0.00000001
 40
0.0
 40
0.0
 40
0.0
 40
0.0
 40
0.3696341342713231
 40
0.7423139531965647
 40
1.0
 40
1.0
 40
1.0
 40
1.0
 10
128.2006496565783
 20
99.34033900439502
 30
0.0
 10
128.3418522063092
 20
99.34033900439502
 30
0.0
 10
128.6254207763463
 20
99.34033900439502
 30
0.0
 10
128.8445540989744
 20
99.34033900439502
 30
0.0
 10
128.8669450175146
 20
99.34033900439502
 30
0.0
 10
128.8760981579313
 20
99.34033900439502
 30
0.0
  0
SPLINE
  5
20B
330
1F
100
AcDbEntity
  8
0
  6
Continuous
 62
     7
370
    25
100
AcDbSpline
210
0.0
220
0.0
230
1.0
 70
     8
 71
     3
 72
    10
 73
     6
 74
     0
 42
0.00000001
 43
0.00000001
 40
0.0
 40
0.0
 40
0.0
 40
0.0
 40
0.5
 40
0.5
 40
1.0
 40
1.0
 40
1.0
 40
1.0
 10
128.2006496565783
 20
99.59033900439502
 30
0.0
 10
128.1769742621539
 20
99.5159586270177
 30
0.0
 10
128.1638831522692
 20
99.45165798823193
 30
0.0
 10
128.163796830981
 20
99.36344230344899
 30
0.0
 10
128.1769657649248
 20
99.34033900439502
 30
0.0
 10
128.2006496565783
 20
99.34033900439502
 30
0.0
  0
SPLINE
  5
20C
330
1F
100
AcDbEntity
  8
0
  6
Continuous
 62
     7
370
    25
100
AcDbSpline
210
0.0
220
0.0
230
1.0
 70
     8
 71
     3
 72
    16
 73
    12
 74
     0
 42
0.00000001
 43
0.00000001
 40
0.0
 40
0.0
 40
0.0
 40
0.0
 40
0.2500000000000001
 40
0.2500000000000001
 40
0.5000000000000001
 40
0.5000000000000001
 40
0.6250000000000001
 40
0.6250000000000001
 40
0.7500000000000002
 40
0.7500000000000002
 40
1.0
 40
1.0
 40
1.0
 40
1.0
 10
128.2006496565783
 20
107.590339004395
 30
0.0
 10
128.408665104684
 20
106.9368222243542
 30
0.0
 10
128.578871409657
 20
106.2786018152642
 30
0.0
 10
128.8138074412246
 20
104.9490392318985
 30
0.0
 10
128.8778795728883
 20
104.2776152498279
 30
0.0
 10
128.8786125218093
 20
103.2586141628212
 30
0.0
 10
128.8629530417262
 20
102.917273380505
 30
0.0
 10
128.8016779150893
 20
102.2416748775345
 30
0.0
 10
128.7561216425902
 20
101.9060157275699
 30
0.0
 10
128.5796356098339
 20
100.9047500910702
 30
0.0
 10
128.4089791563482
 20
100.2448424324671
 30
0.0
 10
128.2006496565783
 20
99.59033900439502
 30
0.0
  0
SPLINE
  5
20D
330
1F
100
AcDbEntity
  8
0
  6
Continuous
 62
     7
370
    25
100
AcDbSpline
210
0.0
220
0.0
230
1.0
 70
     8
 71
     3
 72
    10
 73
     6
 74
     0
 42
0.00000001
 43
0.00000001
 40
0.0
 40
0.0
 40
0.0
 40
0.0
 40
0.5
 40
0.5
 40
1.0
 40
1.0
 40
1.0
 40
1.0
 10
128.2006496565783
 20
108.090339004395
 30
0.0
 10
128.1769742621539
 20
108.0159586270177
 30
0.0
 10
128.1638831522692
 20
107.9288655389021
 30
0.0
 10
128.163796830981
 20
107.7527071500261
 30
0.0
 10
128.1769657649248
 20
107.6647460772983
 30
0.0
 10
128.2006496565783
 20
107.590339004395
 30
0.0
  0
SPLINE
  5
20E
330
1F
100
AcDbEntity
  8
0
  6
Continuous
 62
     7
370
    25
100
AcDbSpline
210
0.0
220
0.0
230
1.0
 70
     8
 71
     3
 72
    16
 73
    12
 74
     0
 42
0.00000001
 43
0.00000001
 40
0.0
 40
0.0
 40
0.0
 40
0.0
 40
0.2499999999999997
 40
0.2499999999999997
 40
0.4999999999999993
 40
0.4999999999999993
 40
0.6249999999999993
 40
0.6249999999999993
 40
0.7499999999999996
 40
0.7499999999999996
 40
1.0
 40
1.0
 40
1.0
 40
1.0
 10
128.2006496565783
 20
116.090339004395
 30
0.0
 10
128.408665104684
 20
115.4368222243542
 30
0.0
 10
128.578871409657
 20
114.7786018152643
 30
0.0
 10
128.8138074412246
 20
113.4490392318985
 30
0.0
 10
128.8778795728883
 20
112.7776152498279
 30
0.0
 10
128.8786125218093
 20
111.7586141628212
 30
0.0
 10
128.8629530417262
 20
111.417273380505
 30
0.0
 10
128.8016779150893
 20
110.7416748775346
 30
0.0
 10
128.7561216425902
 20
110.4060157275699
 30
0.0
 10
128.5796356098339
 20
109.4047500910702
 30
0.0
 10
128.4089791563482
 20
108.7448424324671
 30
0.0
 10
128.2006496565783
 20
108.090339004395
 30
0.0
  0
SPLINE
  5
20F
330
1F
100
AcDbEntity
  8
0
  6
Continuous
 62
     7
370
    25
100
AcDbSpline
210
0.0
220
0.0
230
1.0
 70
     8
 71
     3
 72
    10
 73
     6
 74
     0
 42
0.00000001
 43
0.00000001
 40
0.0
 40
0.0
 40
0.0
 40
0.0
 40
0.5
 40
0.5
 40
1.0
 40
1.0
 40
1.0
 40
1.0
 10
128.2006496565783
 20
116.340339004395
 30
0.0
 10
128.1769742621539
 20
116.340339004395
 30
0.0
 10
128.1638831522692
 20
116.3175465550652
 30
0.0
 10
128.163796830981
 20
116.2296038509722
 30
0.0
 10
128.1769657649248
 20
116.1647460772983
 30
0.0
 10
128.2006496565783
 20
116.090339004395
 30
0.0
  0
SPLINE
  5
210
330
1F
100
AcDbEntity
  8
0
  6
Continuous
 62
     7
370
    25
100
AcDbSpline
210
0.0
220
0.0
230
1.0
 70
    24
 71
     3
 72
    10
 73
     6
 74
     0
 42
0.00000001
 43
0.00000001
 40
0.0
 40
0.0
 40
0.0
 40
0.0
 40
0.2576829734866751
 40
0.6270636780176618
 40
1.0
 40
1.0
 40
1.0
 40
1.0
 10
128.8747567713301
 20
116.340339004395
 30
0.0
 10
128.866153953416
 20
116.340339004395
 30
0.0
 10
128.8452192576947
 20
116.340339004395
 30
0.0
 10
128.6262550963033
 20
116.340339004395
 30
0.0
 10
128.3429704373415
 20
116.340339004395
 30
0.0
 10
128.2006496565783
 20
116.340339004395
 30
0.0
  0
LINE
  5
211
330
1F
100
AcDbEntity
  8
0
  6
Continuous
 62
     7
370
    25
100
AcDbLine
 10
129.0227086291
 20
116.0903390044
 30
0.0
 11
129.0227086291
 21
99.5903390044
 31
0.0
  0
SPLINE
  5
212
330
1F
100
AcDbEntity
  8
0
  6
Continuous
 62
     7
370
    25
100
AcDbSpline
210
0.0
220
0.0
230
1.0
 70
     8
 71
     3
 72
    12
 73
     8
 74
     0
 42
0.00000001
 43
0.00000001
 40
0.0
 40
0.0
 40
0.0
 40
0.0
 40
0.0400414577012696
 40
0.2780626671221362
 40
0.5161134386365052
 40
0.7580369140637166
 40
1.0
 40
1.0
 40
1.0
 40
1.0
 10
123.024701800475
 20
112.2360453590158
 30
0.0
 10
123.0252532060202
 20
112.28821789393
 30
0.0
 10
123.0290823697268
 20
112.6505232404779
 30
0.0
 10
123.079759210099
 20
113.3224363452251
 30
0.0
 10
123.2183872479202
 20
114.250670633396
 30
0.0
 10
123.4239973326838
 20
115.1751727031618
 30
0.0
 10
123.6082807720677
 20
115.7852669234
 30
0.0
 10
123.7004300343961
 20
116.090339004395
 30
0.0
  0
LINE
  5
213
330
1F
100
AcDbEntity
  8
0
  6
Continuous
 62
     7
370
    25
100
AcDbLine
 10
128.2006496566
 20
116.0903390044
 30
0.0
 11
123.7004300344
 21
116.0903390044
 31
0.0
  0
SPLINE
  5
214
330
1F
100
AcDbEntity
  8
0
  6
Continuous
 62
     7
370
    25
100
AcDbSpline
210
0.0
220
0.0
230
1.0
 70
     8
 71
     3
 72
    12
 73
     8
 74
     0
 42
0.00000001
 43
0.00000001
 40
0.0
 40
0.0
 40
0.0
 40
0.0
 40
0.0893735743394649
 40
0.3153923644682927
 40
0.5414371529578733
 40
0.7707027498731427
 40
1.0
 40
1.0
 40
1.0
 40
1.0
 10
105.5260594400989
 20
112.2391490623975
 30
0.0
 10
105.5278484898487
 20
112.355511286555
 30
0.0
 10
105.5341619067051
 20
112.7661444886293
 30
0.0
 10
105.5982746561964
 20
113.4697324894683
 30
0.0
 10
105.7384550627003
 20
114.3487876368265
 30
0.0
 10
105.9379780292582
 20
115.2239239671527
 30
0.0
 10
106.1129420069381
 20
115.8015207020602
 30
0.0
 10
106.2004300343961
 20
116.090339004395
 30
0.0
  0
LINE
  5
215
330
1F
100
AcDbEntity
  8
0
  6
Continuous
 62
     7
370
    25
100
AcDbLine
 10
110.3449872239
 20
116.0903390044
 30
0.0
 11
106.2004300344
 21
116.0903390044
 31
0.0
  0
SPLINE
  5
216
330
1F
100
AcDbEntity
  8
0
  6
Continuous
 62
     7
370
    25
100
AcDbSpline
210
0.0
220
0.0
230
1.0
 70
     8
 71
     3
 72
    10
 73
     6
 74
     0
 42
0.00000001
 43
0.00000001
 40
0.0
 40
0.0
 40
0.0
 40
0.0
 40
0.364791796745555
 40
0.7295114259439567
 40
0.9999999999999999
 40
0.9999999999999999
 40
0.9999999999999999
 40
0.9999999999999999
 10
110.3449872238757
 20
116.0903390043951
 30
0.0
 10
110.4420579606783
 20
115.7660319643875
 30
0.0
 10
110.6361802305706
 20
115.1174820427327
 30
0.0
 10
110.8385749233316
 20
114.2145521096372
 30
0.0
 10
110.9084638611677
 20
113.6341590723038
 30
0.0
 10
110.9382244326476
 20
113.3870122561008
 30
0.0
  0
SPLINE
  5
217
330
1F
100
AcDbEntity
  8
0
  6
Continuous
 62
     7
370
    25
100
AcDbSpline
210
0.0
220
0.0
230
1.0
 70
     8
 71
     3
 72
    10
 73
     6
 74
     0
 42
0.00000001
 43
0.00000001
 40
0.0
 40
0.0
 40
0.0
 40
0.0
 40
0.3125631102822423
 40
0.6562534186652085
 40
1.0
 40
1.0
 40
1.0
 40
1.0
 10
110.9439563295285
 20
102.2894274886245
 30
0.0
 10
110.9057193210409
 20
102.0045913672203
 30
0.0
 10
110.8254373980819
 20
101.4065531717913
 30
0.0
 10
110.6204988517068
 20
100.505597650486
 30
0.0
 10
110.4368294448223
 20
99.89544186868915
 30
0.0
 10
110.3449872238757
 20
99.59033900439502
 30
0.0
  0
LINE
  5
218
330
1F
100
AcDbEntity
  8
0
  6
Continuous
 62
     7
370
    25
100
AcDbLine
 10
106.2004300344
 20
99.5903390044
 30
0.0
 11
110.3449872239
 21
99.5903390044
 31
0.0
  0
SPLINE
  5
219
330
1F
100
AcDbEntity
  8
0
  6
Continuous
 62
     7
370
    25
100
AcDbSpline
210
0.0
220
0.0
230
1.0
 70
     8
 71
     3
 72
    11
 73
     7
 74
     0
 42
0.00000001
 43
0.00000001
 40
0.0
 40
0.0
 40
0.0
 40
0.0
 40
0.2567799536879578
 40
0.5135091080444031
 40
0.7747131571294635
 40
1.0
 40
1.0
 40
1.0
 40
1.0
 10
106.2004300343961
 20
99.59033900439502
 30
0.0
 10
106.10266934655
 20
99.91459296465139
 30
0.0
 10
105.9071673110654
 20
100.5630367373045
 30
0.0
 10
105.6948208706939
 20
101.5575914500342
 30
0.0
 10
105.5557381907069
 20
102.5211758888505
 30
0.0
 10
105.537606832959
 20
103.1560243455193
 30
0.0
 10
105.529210465398
 20
103.4500134147273
 30
0.0
  0
LINE
  5
21A
330
1F
100
AcDbEntity
  8
0
  6
Continuous
 62
     7
370
    25
100
AcDbLine
 10
123.7004300344
 20
99.5903390044
 30
0.0
 11
128.2006496566
 21
99.5903390044
 31
0.0
  0
SPLINE
  5
21B
330
1F
100
AcDbEntity
  8
0
  6
Continuous
 62
     7
370
    25
100
AcDbSpline
210
0.0
220
0.0
230
1.0
 70
     8
 71
     3
 72
    11
 73
     7
 74
     0
 42
0.00000001
 43
0.00000001
 40
0.0
 40
0.0
 40
0.0
 40
0.0
 40
0.2551574668651126
 40
0.5102644553787771
 40
0.7698180636033751
 40
0.9999999999999999
 40
0.9999999999999999
 40
0.9999999999999999
 40
0.9999999999999999
 10
123.7004300343961
 20
99.59033900439499
 30
0.0
 10
123.6026756667283
 20
99.9145933212152
 30
0.0
 10
123.4071862703499
 20
100.5630378069254
 30
0.0
 10
123.194744500417
 20
101.5575871414725
 30
0.0
 10
123.0548262379307
 20
102.5294357106379
 30
0.0
 10
123.0366168430741
 20
103.1725910358943
 30
0.0
 10
123.0280581958312
 20
103.4748822209988
 30
0.0
  0
LINE
  5
21C
330
1F
100
AcDbEntity
  8
0
  6
Continuous
 62
     7
370
    25
100
AcDbLine
 10
123.0227086291
 20
103.424175511
 30
0.0
 11
123.0227086291
 21
100.3403390044
 31
0.0
  0
LINE
  5
21D
330
1F
100
AcDbEntity
  8
0
  6
Continuous
 62
     7
370
    25
100
AcDbLine
 10
123.0227086291
 20
100.3403390044
 30
0.0
 11
111.0227086291
 21
100.3403390044
 31
0.0
  0
LINE
  5
21E
330
1F
100
AcDbEntity
  8
0
  6
Continuous
 62
     7
370
    25
100
AcDbLine
 10
111.0227086291
 20
102.2955234004
 30
0.0
 11
111.0227086291
 21
100.3403390044
 31
0.0
  0
LINE
  5
21F
330
1F
100
AcDbEntity
  8
0
  6
Continuous
 62
     7
370
    25
100
AcDbLine
 10
111.0227086291
 20
115.3403390044
 30
0.0
 11
111.0227086291
 21
113.3851546084
 31
0.0
  0
LINE
  5
220
330
1F
100
AcDbEntity
  8
0
  6
Continuous
 62
     7
370
    25
100
AcDbLine
 10
111.0227086291
 20
115.3403390044
 30
0.0
 11
123.0227086291
 21
115.3403390044
 31
0.0
  0
LINE
  5
221
330
1F
100
AcDbEntity
  8
0
  6
Continuous
 62
     7
370
    25
100
AcDbLine
 10
123.0227086291
 20
115.3403390044
 30
0.0
 11
123.0227086291
 21
112.2565024978
 31
0.0
  0
SPLINE
  5
222
330
1F
100
AcDbEntity
  8
0
  6
Continuous
 62
     7
370
    25
100
AcDbSpline
210
0.0
220
0.0
230
1.0
 70
     8
 71
     3
 72
     8
 73
     4
 74
     0
 42
0.00000001
 43
0.00000001
 40
0.0
 40
0.0
 40
0.0
 40
0.0
 40
1.0
 40
1.0
 40
1.0
 40
1.0
 10
110.5064725521567
 20
116.340339004395
 30
0.0
 10
110.6801756283765
 20
116.0078275822595
 30
0.0
 10
110.8524778474392
 20
115.6745004823607
 30
0.0
 10
111.0227086291359
 20
115.340339004395
 30
0.0
  0
SPLINE
  5
223
330
1F
100
AcDbEntity
  8
0
  6
Continuous
 62
     7
370
    25
100
AcDbSpline
210
0.0
220
0.0
230
1.0
 70
     8
 71
     3
 72
    10
 73
     6
 74
     0
 42
0.00000001
 43
0.00000001
 40
0.0
 40
0.0
 40
0.0
 40
0.0
 40
0.5
 40
0.5
 40
1.0
 40
1.0
 40
1.0
 40
1.0
 10
110.3449872238813
 20
116.340339004395
 30
0.0
 10
110.321311829457
 20
116.340339004395
 30
0.0
 10
110.3082207195667
 20
116.3175465550655
 30
0.0
 10
110.3081343982783
 20
116.2296038509725
 30
0.0
 10
110.3213033322221
 20
116.1647460772985
 30
0.0
 10
110.3449872238757
 20
116.0903390043951
 30
0.0
  0
SPLINE
  5
224
330
1F
100
AcDbEntity
  8
0
  6
Continuous
 62
     7
370
    25
100
AcDbSpline
210
0.0
220
0.0
230
1.0
 70
    24
 71
     3
 72
     8
 73
     4
 74
     0
 42
0.00000001
 43
0.00000001
 40
0.0
 40
0.0
 40
0.0
 40
0.0
 40
1.0
 40
1.0
 40
1.0
 40
1.0
 10
110.5064725521567
 20
116.340339004395
 30
0.0
 10
110.4555738352343
 20
116.340339004395
 30
0.0
 10
110.4016396989837
 20
116.340339004395
 30
0.0
 10
110.3449872238761
 20
116.340339004395
 30
0.0
  0
SPLINE
  5
225
330
1F
100
AcDbEntity
  8
0
  6
Continuous
 62
     7
370
    25
100
AcDbSpline
210
0.0
220
0.0
230
1.0
 70
     8
 71
     3
 72
     8
 73
     4
 74
     0
 42
0.00000001
 43
0.00000001
 40
0.0
 40
0.0
 40
0.0
 40
0.0
 40
1.0
 40
1.0
 40
1.0
 40
1.0
 10
123.0227086291359
 20
115.340339004395
 30
0.0
 10
123.1929862364796
 20
115.6745924006804
 30
0.0
 10
123.3652579851053
 20
116.0078588902493
 30
0.0
 10
123.5389447061149
 20
116.3403390043948
 30
0.0
  0
SPLINE
  5
226
330
1F
100
AcDbEntity
  8
0
  6
Continuous
 62
     7
370
    25
100
AcDbSpline
210
0.0
220
0.0
230
1.0
 70
    24
 71
     3
 72
     8
 73
     4
 74
     0
 42
0.00000001
 43
0.00000001
 40
0.0
 40
0.0
 40
0.0
 40
0.0
 40
1.0
 40
1.0
 40
1.0
 40
1.0
 10
123.5389447061145
 20
116.340339004395
 30
0.0
 10
123.5898409393698
 20
116.340339004395
 30
0.0
 10
123.6437748943336
 20
116.340339004395
 30
0.0
 10
123.7004300343961
 20
116.340339004395
 30
0.0
  0
SPLINE
  5
227
330
1F
100
AcDbEntity
  8
0
  6
Continuous
 62
     7
370
    25
100
AcDbSpline
210
0.0
220
0.0
230
1.0
 70
     8
 71
     3
 72
    10
 73
     6
 74
     0
 42
0.00000001
 43
0.00000001
 40
0.0
 40
0.0
 40
0.0
 40
0.0
 40
0.5
 40
0.5
 40
1.0
 40
1.0
 40
1.0
 40
1.0
 10
123.7004300343961
 20
116.090339004395
 30
0.0
 10
123.7241054288205
 20
116.1647193817724
 30
0.0
 10
123.7371965387051
 20
116.2290200205581
 30
0.0
 10
123.7372828599934
 20
116.3172357053411
 30
0.0
 10
123.7241139260495
 20
116.340339004395
 30
0.0
 10
123.7004300343961
 20
116.340339004395
 30
0.0
  0
SPLINE
  5
228
330
1F
100
AcDbEntity
  8
0
  6
Continuous
 62
     7
370
    25
100
AcDbSpline
210
0.0
220
0.0
230
1.0
 70
     8
 71
     3
 72
    10
 73
     6
 74
     0
 42
0.00000001
 43
0.00000001
 40
0.0
 40
0.0
 40
0.0
 40
0.0
 40
0.5
 40
0.5
 40
1.0
 40
1.0
 40
1.0
 40
1.0
 10
106.2004300343961
 20
116.340339004395
 30
0.0
 10
106.224103934952
 20
116.340339004395
 30
0.0
 10
106.2371964921312
 20
116.3175484327476
 30
0.0
 10
106.2372829061134
 20
116.2296024354488
 30
0.0
 10
106.2241125145148
 20
116.164741642716
 30
0.0
 10
106.2004300343961
 20
116.090339004395
 30
0.0
  0
SPLINE
  5
229
330
1F
100
AcDbEntity
  8
0
  6
Continuous
 62
     7
370
    25
100
AcDbSpline
210
0.0
220
0.0
230
1.0
 70
    24
 71
     3
 72
    12
 73
     8
 74
     0
 42
0.00000001
 43
0.00000001
 40
0.0
 40
0.0
 40
0.0
 40
0.0
 40
0.2499999999999999
 40
0.2499999999999999
 40
0.4999999999999998
 40
0.4999999999999998
 40
1.0
 40
1.0
 40
1.0
 40
1.0
 10
105.5227086291359
 20
116.340339004395
 30
0.0
 10
105.5227086291359
 20
116.340339004395
 30
0.0
 10
105.5387074341169
 20
116.340339004395
 30
0.0
 10
105.6004775724313
 20
116.340339004395
 30
0.0
 10
105.6462196967329
 20
116.340339004395
 30
0.0
 10
105.8228898440798
 20
116.340339004395
 30
0.0
 10
105.9931449095601
 20
116.340339004395
 30
0.0
 10
106.2004300343961
 20
116.340339004395
 30
0.0
  0
LINE
  5
22A
330
1F
100
AcDbEntity
  8
0
  6
Continuous
 62
     7
370
    25
100
AcDbLine
 10
105.5227086291
 20
116.3403390044
 30
0.0
 11
105.5227086291
 21
112.2229852863
 31
0.0
  0
SPLINE
  5
22B
330
1F
100
AcDbEntity
  8
0
  6
Continuous
 62
     7
370
    25
100
AcDbSpline
210
0.0
220
0.0
230
1.0
 70
     8
 71
     3
 72
     8
 73
     4
 74
     0
 42
0.00000001
 43
0.00000001
 40
0.0
 40
0.0
 40
0.0
 40
0.0
 40
1.0
 40
1.0
 40
1.0
 40
1.0
 10
111.0227086291359
 20
100.340339004395
 30
0.0
 10
110.8524310217921
 20
100.0060856081096
 30
0.0
 10
110.6801592731664
 20
99.6728191185406
 30
0.0
 10
110.5064725521567
 20
99.34033900439502
 30
0.0
  0
SPLINE
  5
22C
330
1F
100
AcDbEntity
  8
0
  6
Continuous
 62
     7
370
    25
100
AcDbSpline
210
0.0
220
0.0
230
1.0
 70
    24
 71
     3
 72
     8
 73
     4
 74
     0
 42
0.00000001
 43
0.00000001
 40
0.0
 40
0.0
 40
0.0
 40
0.0
 40
1.0
 40
1.0
 40
1.0
 40
1.0
 10
110.5064725521567
 20
99.34033900439502
 30
0.0
 10
110.4555738352342
 20
99.34033900439502
 30
0.0
 10
110.4016396989834
 20
99.34033900439502
 30
0.0
 10
110.3449872238757
 20
99.34033900439502
 30
0.0
  0
SPLINE
  5
22D
330
1F
100
AcDbEntity
  8
0
  6
Continuous
 62
     7
370
    25
100
AcDbSpline
210
0.0
220
0.0
230
1.0
 70
     8
 71
     3
 72
    10
 73
     6
 74
     0
 42
0.00000001
 43
0.00000001
 40
0.0
 40
0.0
 40
0.0
 40
0.0
 40
0.5
 40
0.5
 40
1.0
 40
1.0
 40
1.0
 40
1.0
 10
110.3449872238757
 20
99.59033900439502
 30
0.0
 10
110.3213118294513
 20
99.5159586270177
 30
0.0
 10
110.3082207195666
 20
99.45165798823193
 30
0.0
 10
110.3081343982784
 20
99.36344230344899
 30
0.0
 10
110.3213033322222
 20
99.34033900439502
 30
0.0
 10
110.3449872238757
 20
99.34033900439502
 30
0.0
  0
SPLINE
  5
22E
330
1F
100
AcDbEntity
  8
0
  6
Continuous
 62
     7
370
    25
100
AcDbSpline
210
0.0
220
0.0
230
1.0
 70
     8
 71
     3
 72
     8
 73
     4
 74
     0
 42
0.00000001
 43
0.00000001
 40
0.0
 40
0.0
 40
0.0
 40
0.0
 40
1.0
 40
1.0
 40
1.0
 40
1.0
 10
123.538944706115
 20
99.340339004395
 30
0.0
 10
123.3652416298953
 20
99.67285042653053
 30
0.0
 10
123.1929394108326
 20
100.0061775264294
 30
0.0
 10
123.0227086291359
 20
100.340339004395
 30
0.0
  0
SPLINE
  5
22F
330
1F
100
AcDbEntity
  8
0
  6
Continuous
 62
     7
370
    25
100
AcDbSpline
210
0.0
220
0.0
230
1.0
 70
     8
 71
     3
 72
    10
 73
     6
 74
     0
 42
0.00000001
 43
0.00000001
 40
0.0
 40
0.0
 40
0.0
 40
0.0
 40
0.5
 40
0.5
 40
1.0
 40
1.0
 40
1.0
 40
1.0
 10
123.7004300343961
 20
99.34033900439502
 30
0.0
 10
123.7241054288205
 20
99.34033900439502
 30
0.0
 10
123.7371965387051
 20
99.36313145372482
 30
0.0
 10
123.7372828599934
 20
99.45107415781787
 30
0.0
 10
123.7241139260495
 20
99.51593193149172
 30
0.0
 10
123.7004300343961
 20
99.59033900439498
 30
0.0
  0
SPLINE
  5
230
330
1F
100
AcDbEntity
  8
0
  6
Continuous
 62
     7
370
    25
100
AcDbSpline
210
0.0
220
0.0
230
1.0
 70
    24
 71
     3
 72
     8
 73
     4
 74
     0
 42
0.00000001
 43
0.00000001
 40
0.0
 40
0.0
 40
0.0
 40
0.0
 40
1.0
 40
1.0
 40
1.0
 40
1.0
 10
123.5389447061151
 20
99.34033900439502
 30
0.0
 10
123.5898409393701
 20
99.34033900439502
 30
0.0
 10
123.6437748943338
 20
99.34033900439502
 30
0.0
 10
123.7004300343961
 20
99.34033900439502
 30
0.0
  0
SPLINE
  5
231
330
1F
100
AcDbEntity
  8
0
  6
Continuous
 62
     7
370
    25
100
AcDbSpline
210
0.0
220
0.0
230
1.0
 70
     8
 71
     3
 72
    10
 73
     6
 74
     0
 42
0.00000001
 43
0.00000001
 40
0.0
 40
0.0
 40
0.0
 40
0.0
 40
0.5
 40
0.5
 40
1.0
 40
1.0
 40
1.0
 40
1.0
 10
106.2004300343961
 20
99.59033900439502
 30
0.0
 10
106.2241022743076
 20
99.51596853746946
 30
0.0
 10
106.2371962642429
 20
99.4516629411816
 30
0.0
 10
106.2372831317043
 20
99.36344015337575
 30
0.0
 10
106.224113341945
 20
99.34033900439502
 30
0.0
 10
106.2004300343961
 20
99.34033900439502
 30
0.0
  0
SPLINE
  5
232
330
1F
100
AcDbEntity
  8
0
  6
Continuous
 62
     7
370
    25
100
AcDbSpline
210
0.0
220
0.0
230
1.0
 70
    24
 71
     3
 72
    12
 73
     8
 74
     0
 42
0.00000001
 43
0.00000001
 40
0.0
 40
0.0
 40
0.0
 40
0.0
 40
0.2500000000000001
 40
0.2500000000000001
 40
0.5000000000000001
 40
0.5000000000000001
 40
1.0
 40
1.0
 40
1.0
 40
1.0
 10
105.5227086291359
 20
99.34033900439502
 30
0.0
 10
105.5227086291359
 20
99.34033900439502
 30
0.0
 10
105.5387074341169
 20
99.34033900439502
 30
0.0
 10
105.6004775724313
 20
99.34033900439502
 30
0.0
 10
105.6462196967329
 20
99.34033900439502
 30
0.0
 10
105.8228898440798
 20
99.34033900439502
 30
0.0
 10
105.9931449095601
 20
99.34033900439502
 30
0.0
 10
106.2004300343961
 20
99.34033900439502
 30
0.0
  0
LINE
  5
233
330
1F
100
AcDbEntity
  8
0
  6
Continuous
 62
     7
370
    25
100
AcDbLine
 10
105.5227086291
 20
99.3403390044
 30
0.0
 11
105.5227086291
 21
103.4576927225
 31
0.0
  0
LINE
  5
234
330
1F
100
AcDbEntity
  8
0
  6
Continuous
 62
     7
370
    25
100
AcDbLine
 10
123.7004300344
 20
116.3403390044
 30
0.0
 11
128.2006496566
 21
116.3403390044
 31
0.0
  0
LINE
  5
235
330
1F
100
AcDbEntity
  8
0
  6
Continuous
 62
     7
370
    25
100
AcDbLine
 10
106.2004300344
 20
116.3403390044
 30
0.0
 11
110.3449872239
 21
116.3403390044
 31
0.0
  0
LINE
  5
236
330
1F
100
AcDbEntity
  8
0
  6
Continuous
 62
     7
370
    25
100
AcDbLine
 10
128.2006496566
 20
99.3403390044
 30
0.0
 11
123.7004300344
 21
99.3403390044
 31
0.0
  0
LINE
  5
237
330
1F
100
AcDbEntity
  8
0
  6
Continuous
 62
     7
370
    25
100
AcDbLine
 10
110.3449872239
 20
99.3403390044
 30
0.0
 11
106.2004300344
 21
99.3403390044
 31
0.0
  0
LINE
  5
238
330
1F
100
AcDbEntity
  8
0
  6
Continuous
 62
     7
370
    25
100
AcDbLine
 10
123.5389447061
 20
116.3403390044
 30
0.0
 11
110.5064725522
 21
116.3403390044
 31
0.0
  0
LINE
  5
239
330
1F
100
AcDbEntity
  8
0
  6
Continuous
 62
     7
370
    25
100
AcDbLine
 10
123.5389447061
 20
99.3403390044
 30
0.0
 11
110.5064725522
 21
99.3403390044
 31
0.0
  0
SPLINE
  5
23A
330
1F
100
AcDbEntity
  8
0
  6
Continuous
 62
     7
370
    25
100
AcDbSpline
210
0.0
220
0.0
230
1.0
 70
     8
 71
     3
 72
    15
 73
    11
 74
     0
 42
0.00000001
 43
0.00000001
 40
0.0
 40
0.0
 40
0.0
 40
0.0
 40
0.0081667445812695
 40
0.3321939991490077
 40
0.4756279600585576
 40
0.68668309732849
 40
0.8457435502264807
 40
0.8967566214763126
 40
0.9909540928118029
 40
1.0
 40
1.0
 40
1.0
 40
1.0
 10
122.1217281427287
 20
109.090339004395
 30
0.0
 10
122.1222156768715
 20
109.091776467334
 30
0.0
 10
122.1420468244036
 20
109.1502473252858
 30
0.0
 10
122.1703276044129
 20
109.2346725030052
 30
0.0
 10
122.2081569029017
 20
109.3492515750277
 30
0.0
 10
122.2347407994692
 20
109.4306224622243
 30
0.0
 10
122.2519106232242
 20
109.4836414542259
 30
0.0
 10
122.2597276194406
 20
109.5078433860701
 30
0.0
 10
122.2617233058765
 20
109.5140330067363
 30
0.0
 10
122.2617882698273
 20
109.5142344021488
 30
0.0
 10
122.261793961794
 20
109.5142520478733
 30
0.0
  0
ARC
  5
23B
330
1F
100
AcDbEntity
  8
0
  6
Continuous
 62
     7
370
    25
100
AcDbCircle
 10
117.0227086291
 20
107.8403390044
 30
0.0
 40
5.249999999999995
100
AcDbArc
 50
13.774146998
 51
166.225853002
  0
SPLINE
  5
23C
330
1F
100
AcDbEntity
  8
0
  6
Continuous
 62
     7
370
    25
100
AcDbSpline
210
0.0
220
0.0
230
1.0
 70
     8
 71
     3
 72
    15
 73
    11
 74
     0
 42
0.00000001
 43
0.00000001
 40
0.0
 40
0.0
 40
0.0
 40
0.0
 40
0.0090459071881971
 40
0.1032433785236816
 40
0.1542564497735189
 40
0.3133169026715104
 40
0.5243720399414397
 40
0.6678060008509895
 40
0.9918332554187292
 40
1.0
 40
1.0
 40
1.0
 40
1.0
 10
111.7836232964778
 20
109.5142520478733
 30
0.0
 10
111.7836289884444
 20
109.5142344021488
 30
0.0
 10
111.7836939523952
 20
109.5140330067363
 30
0.0
 10
111.7856896388311
 20
109.5078433860701
 30
0.0
 10
111.7935066350476
 20
109.4836414542259
 30
0.0
 10
111.8106764588025
 20
109.4306224622243
 30
0.0
 10
111.83726035537
 20
109.3492515750277
 30
0.0
 10
111.8750896538589
 20
109.2346725030052
 30
0.0
 10
111.9033704338681
 20
109.1502473252858
 30
0.0
 10
111.9232015814002
 20
109.091776467334
 30
0.0
 10
111.9236891155431
 20
109.090339004395
 30
0.0
  0
ARC
  5
23D
330
1F
100
AcDbEntity
  8
0
  6
Continuous
 62
     7
370
    25
100
AcDbCircle
 10
117.0227086291
 20
107.8403390044
 30
0.0
 40
5.500000000000011
100
AcDbArc
 50
17.7189318734
 51
162.2810681266
  0
SPLINE
  5
23E
330
1F
100
AcDbEntity
  8
0
  6
Continuous
 62
     7
370
    25
100
AcDbSpline
210
0.0
220
0.0
230
1.0
 70
     8
 71
     3
 72
    15
 73
    11
 74
     0
 42
0.00000001
 43
0.00000001
 40
0.0
 40
0.0
 40
0.0
 40
0.0
 40
0.0090459071881971
 40
0.1032433785236875
 40
0.1542564497735248
 40
0.313316902671511
 40
0.5243720399414434
 40
0.6678060008509189
 40
0.9918332554187028
 40
1.0
 40
1.0
 40
1.0
 40
1.0
 10
122.261793961794
 20
106.1664259609168
 30
0.0
 10
122.2617882698273
 20
106.1664436066412
 30
0.0
 10
122.2617233058765
 20
106.1666450020538
 30
0.0
 10
122.2597276194406
 20
106.17283462272
 30
0.0
 10
122.2519106232242
 20
106.1970365545641
 30
0.0
 10
122.2347407994692
 20
106.2500555465658
 30
0.0
 10
122.2081569029017
 20
106.3314264337623
 30
0.0
 10
122.170327604413
 20
106.4460055057849
 30
0.0
 10
122.1420468244028
 20
106.530430683504
 30
0.0
 10
122.1222156768715
 20
106.588901541456
 30
0.0
 10
122.1217281427287
 20
106.590339004395
 30
0.0
  0
ARC
  5
23F
330
1F
100
AcDbEntity
  8
0
  6
Continuous
 62
     7
370
    25
100
AcDbCircle
 10
117.0227086291
 20
107.8403390044
 30
0.0
 40
5.500000000000011
100
AcDbArc
 50
197.7189318734
 51
342.2810681266
  0
SPLINE
  5
240
330
1F
100
AcDbEntity
  8
0
  6
Continuous
 62
     7
370
    25
100
AcDbSpline
210
0.0
220
0.0
230
1.0
 70
     8
 71
     3
 72
    15
 73
    11
 74
     0
 42
0.00000001
 43
0.00000001
 40
0.0
 40
0.0
 40
0.0
 40
0.0
 40
0.0081667445812973
 40
0.3321939991490813
 40
0.4756279600585592
 40
0.6866830973284899
 40
0.845743550226481
 40
0.8967566214763184
 40
0.9909540928118029
 40
1.0
 40
1.0
 40
1.0
 40
1.0
 10
111.9236891155431
 20
106.590339004395
 30
0.0
 10
111.9232015814002
 20
106.588901541456
 30
0.0
 10
111.9033704338689
 20
106.530430683504
 30
0.0
 10
111.8750896538587
 20
106.4460055057849
 30
0.0
 10
111.8372603553701
 20
106.3314264337623
 30
0.0
 10
111.8106764588025
 20
106.2500555465658
 30
0.0
 10
111.7935066350476
 20
106.1970365545641
 30
0.0
 10
111.7856896388311
 20
106.17283462272
 30
0.0
 10
111.7836939523952
 20
106.1666450020538
 30
0.0
 10
111.7836289884444
 20
106.1664436066412
 30
0.0
 10
111.7836232964778
 20
106.1664259609168
 30
0.0
  0
ARC
  5
241
330
1F
100
AcDbEntity
  8
0
  6
Continuous
 62
     7
370
    25
100
AcDbCircle
 10
117.0227086291
 20
107.8403390044
 30
0.0
 40
5.249999999999995
100
AcDbArc
 50
193.774146998
 51
346.225853002
  0
SPLINE
  5
242
330
1F
100
AcDbEntity
  8
0
  6
Continuous
 62
     7
370
    25
100
AcDbSpline
210
0.0
220
0.0
230
1.0
 70
     8
 71
     3
 72
    15
 73
    11
 74
     0
 42
0.00000001
 43
0.00000001
 40
0.0
 40
0.0
 40
0.0
 40
0.0
 40
0.0089557228015919
 40
0.0999003359608153
 40
0.1531632460581696
 40
0.3125636920784855
 40
0.5249666935695051
 40
0.6689893599351772
 40
0.991915253381045
 40
1.0
 40
1.0
 40
1.0
 40
1.0
 10
111.5454830540842
 20
106.340339004395
 30
0.0
 10
111.5454988096628
 20
106.3403497887582
 30
0.0
 10
111.5456745618194
 20
106.3404700874237
 30
0.0
 10
111.5511035778389
 20
106.3441885383418
 30
0.0
 10
111.5726390615462
 20
106.3588995794081
 30
0.0
 10
111.620344489811
 20
106.3913484408666
 30
0.0
 10
111.692735434803
 20
106.4399324812101
 30
0.0
 10
111.7946545468206
 20
106.5073029534784
 30
0.0
 10
111.8700096382757
 20
106.5561165182123
 30
0.0
 10
111.922409283999
 20
106.5895230684067
 30
0.0
 10
111.9236891155431
 20
106.590339004395
 30
0.0
  0
ARC
  5
243
330
1F
100
AcDbEntity
  8
0
  6
Continuous
 62
     7
370
    25
100
AcDbCircle
 10
111.5454830541
 20
106.0903390044
 30
0.0
 40
0.25
100
AcDbArc
 50
17.7189318734
 51
90.0
  0
SPLINE
  5
244
330
1F
100
AcDbEntity
  8
0
  6
Continuous
 62
     7
370
    25
100
AcDbSpline
210
0.0
220
0.0
230
1.0
 70
     8
 71
     3
 72
    15
 73
    11
 74
     0
 42
0.00000001
 43
0.00000001
 40
0.0
 40
0.0
 40
0.0
 40
0.0
 40
0.0080847466189581
 40
0.3310106400648237
 40
0.4750333064304937
 40
0.6874363079215094
 40
0.8468367539418249
 40
0.9000996640391792
 40
0.9910442771984082
 40
1.0
 40
1.0
 40
1.0
 40
1.0
 10
122.1217281427287
 20
106.590339004395
 30
0.0
 10
122.1230079742728
 20
106.5895230684067
 30
0.0
 10
122.175407619996
 20
106.5561165182122
 30
0.0
 10
122.2507627114511
 20
106.5073029534784
 30
0.0
 10
122.3526818234688
 20
106.4399324812101
 30
0.0
 10
122.4250727684607
 20
106.3913484408666
 30
0.0
 10
122.4727781967255
 20
106.3588995794081
 30
0.0
 10
122.4943136804328
 20
106.3441885383418
 30
0.0
 10
122.4997426964524
 20
106.3404700874237
 30
0.0
 10
122.4999184486089
 20
106.3403497887582
 30
0.0
 10
122.4999342041875
 20
106.340339004395
 30
0.0
  0
ARC
  5
245
330
1F
100
AcDbEntity
  8
0
  6
Continuous
 62
     7
370
    25
100
AcDbCircle
 10
122.4999342042
 20
106.0903390044
 30
0.0
 40
0.2500000000000034
100
AcDbArc
 50
90.0
 51
162.2810681266
  0
ARC
  5
246
330
1F
100
AcDbEntity
  8
0
  6
Continuous
 62
     7
370
    25
100
AcDbCircle
 10
111.5454830541
 20
109.5903390044
 30
0.0
 40
0.25
100
AcDbArc
 50
270.0
 51
342.2810681266
  0
SPLINE
  5
247
330
1F
100
AcDbEntity
  8
0
  6
Continuous
 62
     7
370
    25
100
AcDbSpline
210
0.0
220
0.0
230
1.0
 70
     8
 71
     3
 72
    15
 73
    11
 74
     0
 42
0.00000001
 43
0.00000001
 40
0.0
 40
0.0
 40
0.0
 40
0.0
 40
0.0080847466189819
 40
0.3310106400647582
 40
0.4750333064304994
 40
0.6874363079215138
 40
0.8468367539418308
 40
0.9000996640391851
 40
0.9910442771984082
 40
1.0
 40
1.0
 40
1.0
 40
1.0
 10
111.9236891155431
 20
109.090339004395
 30
0.0
 10
111.9224092839989
 20
109.0911549403833
 30
0.0
 10
111.8700096382752
 20
109.1245614905769
 30
0.0
 10
111.7946545468207
 20
109.1733750553118
 30
0.0
 10
111.6927354348029
 20
109.2407455275799
 30
0.0
 10
111.620344489811
 20
109.2893295679234
 30
0.0
 10
111.5726390615462
 20
109.321778429382
 30
0.0
 10
111.5511035778389
 20
109.3364894704482
 30
0.0
 10
111.5456745618194
 20
109.3402079213664
 30
0.0
 10
111.5454988096628
 20
109.3403282200319
 30
0.0
 10
111.5454830540842
 20
109.340339004395
 30
0.0
  0
ARC
  5
248
330
1F
100
AcDbEntity
  8
0
  6
Continuous
 62
     7
370
    25
100
AcDbCircle
 10
122.4999342042
 20
109.5903390044
 30
0.0
 40
0.2500000000000034
100
AcDbArc
 50
197.7189318734
 51
270.0
  0
SPLINE
  5
249
330
1F
100
AcDbEntity
  8
0
  6
Continuous
 62
     7
370
    25
100
AcDbSpline
210
0.0
220
0.0
230
1.0
 70
     8
 71
     3
 72
    15
 73
    11
 74
     0
 42
0.00000001
 43
0.00000001
 40
0.0
 40
0.0
 40
0.0
 40
0.0
 40
0.0089557228015919
 40
0.0999003359608147
 40
0.1531632460581688
 40
0.3125636920784845
 40
0.5249666935695023
 40
0.6689893599352456
 40
0.9919152533810159
 40
1.0
 40
1.0
 40
1.0
 40
1.0
 10
122.4999342041875
 20
109.340339004395
 30
0.0
 10
122.4999184486089
 20
109.3403282200319
 30
0.0
 10
122.4997426964524
 20
109.3402079213664
 30
0.0
 10
122.4943136804328
 20
109.3364894704482
 30
0.0
 10
122.4727781967255
 20
109.321778429382
 30
0.0
 10
122.4250727684607
 20
109.2893295679234
 30
0.0
 10
122.3526818234688
 20
109.2407455275799
 30
0.0
 10
122.250762711451
 20
109.1733750553118
 30
0.0
 10
122.1754076199966
 20
109.124561490577
 30
0.0
 10
122.1230079742728
 20
109.0911549403833
 30
0.0
 10
122.1217281427287
 20
109.090339004395
 30
0.0
  0
LINE
  5
24A
330
1F
100
AcDbEntity
  8
0
  6
Continuous
 62
     7
370
    25
100
AcDbLine
 10
112.0227086291
 20
107.2403390044
 30
0.0
 11
122.0227086291
 21
107.2403390044
 31
0.0
  0
LINE
  5
24B
330
1F
100
AcDbEntity
  8
0
  6
Continuous
 62
     7
370
    25
100
AcDbLine
 10
122.0227086291
 20
107.2403390044
 30
0.0
 11
122.0227086291
 21
108.4403390044
 31
0.0
  0
LINE
  5
24C
330
1F
100
AcDbEntity
  8
0
  6
Continuous
 62
     7
370
    25
100
AcDbLine
 10
122.0227086291
 20
108.4403390044
 30
0.0
 11
112.0227086291
 21
108.4403390044
 31
0.0
  0
LINE
  5
24D
330
1F
100
AcDbEntity
  8
0
  6
Continuous
 62
     7
370
    25
100
AcDbLine
 10
112.0227086291
 20
108.4403390044
 30
0.0
 11
112.0227086291
 21
107.2403390044
 31
0.0
  0
LINE
  5
24E
330
1F
100
AcDbEntity
  8
0
  6
Continuous
 62
     7
370
    25
100
AcDbLine
 10
122.7727086291
 20
109.0903390044
 30
0.0
 11
122.1217281427
 21
109.0903390044
 31
0.0
  0
LINE
  5
24F
330
1F
100
AcDbEntity
  8
0
  6
Continuous
 62
     7
370
    25
100
AcDbLine
 10
122.7727086291
 20
106.5903390044
 30
0.0
 11
122.7727086291
 21
109.0903390044
 31
0.0
  0
LINE
  5
250
330
1F
100
AcDbEntity
  8
0
  6
Continuous
 62
     7
370
    25
100
AcDbLine
 10
122.1217281427
 20
106.5903390044
 30
0.0
 11
122.7727086291
 21
106.5903390044
 31
0.0
  0
LINE
  5
251
330
1F
100
AcDbEntity
  8
0
  6
Continuous
 62
     7
370
    25
100
AcDbLine
 10
111.2727086291
 20
106.5903390044
 30
0.0
 11
111.9236891155
 21
106.5903390044
 31
0.0
  0
LINE
  5
252
330
1F
100
AcDbEntity
  8
0
  6
Continuous
 62
     7
370
    25
100
AcDbLine
 10
111.2727086291
 20
109.0903390044
 30
0.0
 11
111.2727086291
 21
106.5903390044
 31
0.0
  0
LINE
  5
253
330
1F
100
AcDbEntity
  8
0
  6
Continuous
 62
     7
370
    25
100
AcDbLine
 10
111.9236891155
 20
109.0903390044
 30
0.0
 11
111.2727086291
 21
109.0903390044
 31
0.0
  0
LINE
  5
254
330
1F
100
AcDbEntity
  8
0
  6
Continuous
 62
     7
370
    25
100
AcDbLine
 10
111.2727086291
 20
109.3403390044
 30
0.0
 11
111.2727086291
 21
109.0903390044
 31
0.0
  0
LINE
  5
255
330
1F
100
AcDbEntity
  8
0
  6
Continuous
 62
     7
370
    25
100
AcDbLine
 10
111.2727086291
 20
109.3403390044
 30
0.0
 11
111.5454830541
 21
109.3403390044
 31
0.0
  0
LINE
  5
256
330
1F
100
AcDbEntity
  8
0
  6
Continuous
 62
     7
370
    25
100
AcDbLine
 10
111.2727086291
 20
109.0903390044
 30
0.0
 11
111.0227086291
 21
109.0903390044
 31
0.0
  0
ARC
  5
257
330
1F
100
AcDbEntity
  8
0
  6
Continuous
 62
     7
370
    25
100
AcDbCircle
 10
111.2727086291
 20
109.0903390044
 30
0.0
 40
0.25
100
AcDbArc
 50
90.0
 51
180.0
  0
ARC
  5
258
330
1F
100
AcDbEntity
  8
0
  6
Continuous
 62
     7
370
    25
100
AcDbCircle
 10
122.7727086291
 20
109.0903390044
 30
0.0
 40
0.25
100
AcDbArc
 50
0.0
 51
90.0
  0
LINE
  5
259
330
1F
100
AcDbEntity
  8
0
  6
Continuous
 62
     7
370
    25
100
AcDbLine
 10
123.0227086291
 20
109.0903390044
 30
0.0
 11
122.7727086291
 21
109.0903390044
 31
0.0
  0
LINE
  5
25A
330
1F
100
AcDbEntity
  8
0
  6
Continuous
 62
     7
370
    25
100
AcDbLine
 10
122.7727086291
 20
109.0903390044
 30
0.0
 11
122.7727086291
 21
109.3403390044
 31
0.0
  0
LINE
  5
25B
330
1F
100
AcDbEntity
  8
0
  6
Continuous
 62
     7
370
    25
100
AcDbLine
 10
122.4999342042
 20
109.3403390044
 30
0.0
 11
122.7727086291
 21
109.3403390044
 31
0.0
  0
LINE
  5
25C
330
1F
100
AcDbEntity
  8
0
  6
Continuous
 62
     7
370
    25
100
AcDbLine
 10
123.0227086291
 20
109.0903390044
 30
0.0
 11
123.0227086291
 21
106.5903390044
 31
0.0
  0
LINE
  5
25D
330
1F
100
AcDbEntity
  8
0
  6
Continuous
 62
     7
370
    25
100
AcDbLine
 10
122.7727086291
 20
106.5903390044
 30
0.0
 11
123.0227086291
 21
106.5903390044
 31
0.0
  0
LINE
  5
25E
330
1F
100
AcDbEntity
  8
0
  6
Continuous
 62
     7
370
    25
100
AcDbLine
 10
111.0227086291
 20
106.5903390044
 30
0.0
 11
111.2727086291
 21
106.5903390044
 31
0.0
  0
LINE
  5
25F
330
1F
100
AcDbEntity
  8
0
  6
Continuous
 62
     7
370
    25
100
AcDbLine
 10
111.0227086291
 20
106.5903390044
 30
0.0
 11
111.0227086291
 21
109.0903390044
 31
0.0
  0
LINE
  5
260
330
1F
100
AcDbEntity
  8
0
  6
Continuous
 62
     7
370
    25
100
AcDbLine
 10
122.7727086291
 20
106.3403390044
 30
0.0
 11
122.7727086291
 21
106.5903390044
 31
0.0
  0
LINE
  5
261
330
1F
100
AcDbEntity
  8
0
  6
Continuous
 62
     7
370
    25
100
AcDbLine
 10
122.7727086291
 20
106.3403390044
 30
0.0
 11
122.4999342042
 21
106.3403390044
 31
0.0
  0
LINE
  5
262
330
1F
100
AcDbEntity
  8
0
  6
Continuous
 62
     7
370
    25
100
AcDbLine
 10
111.5454830541
 20
106.3403390044
 30
0.0
 11
111.2727086291
 21
106.3403390044
 31
0.0
  0
LINE
  5
263
330
1F
100
AcDbEntity
  8
0
  6
Continuous
 62
     7
370
    25
100
AcDbLine
 10
111.2727086291
 20
106.5903390044
 30
0.0
 11
111.2727086291
 21
106.3403390044
 31
0.0
  0
ARC
  5
264
330
1F
100
AcDbEntity
  8
0
  6
Continuous
 62
     7
370
    25
100
AcDbCircle
 10
122.7727086291
 20
106.5903390044
 30
0.0
 40
0.25
100
AcDbArc
 50
270.0
 51
0.0
  0
ARC
  5
265
330
1F
100
AcDbEntity
  8
0
  6
Continuous
 62
     7
370
    25
100
AcDbCircle
 10
111.2727086291
 20
106.5903390044
 30
0.0
 40
0.25
100
AcDbArc
 50
180.0
 51
270.0
  0
LINE
  5
266
330
1F
100
AcDbEntity
  8
0
  6
Continuous
 62
     7
370
    25
100
AcDbLine
 10
97.0227086291
 20
111.1120382685
 30
0.0
 11
94.8472717676
 21
111.3403390044
 31
0.0
  0
LINE
  5
267
330
1F
100
AcDbEntity
  8
0
  6
Continuous
 62
     7
370
    25
100
AcDbLine
 10
97.0227086291
 20
104.5686397403
 30
0.0
 11
97.0227086291
 21
111.1120382685
 31
0.0
  0
LINE
  5
268
330
1F
100
AcDbEntity
  8
0
  6
Continuous
 62
     7
370
    25
100
AcDbLine
 10
94.8472717676
 20
104.3403390044
 30
0.0
 11
97.0227086291
 21
104.5686397403
 31
0.0
  0
LINE
  5
269
330
1F
100
AcDbEntity
  8
0
  6
Continuous
 62
     7
370
    25
100
AcDbLine
 10
77.0227086291
 20
104.3403390044
 30
0.0
 11
94.8472717676
 21
104.3403390044
 31
0.0
  0
LINE
  5
26A
330
1F
100
AcDbEntity
  8
0
  6
Continuous
 62
     7
370
    25
100
AcDbLine
 10
94.8472717676
 20
111.3403390044
 30
0.0
 11
77.0227086291
 21
111.3403390044
 31
0.0
  0
LINE
  5
26B
330
1F
100
AcDbEntity
  8
0
  6
Continuous
 62
     7
370
    25
100
AcDbLine
 10
77.0227086291
 20
111.3403390044
 30
0.0
 11
77.0227086291
 21
104.3403390044
 31
0.0
  0
LINE
  5
26C
330
1F
100
AcDbEntity
  8
0
  6
Continuous
 62
     7
370
    25
100
AcDbLine
 10
111.7989064548
 20
109.5613534852
 30
0.0
 11
111.6704974161
 21
109.3772118518
 31
0.0
  0
LINE
  5
26D
330
1F
100
AcDbEntity
  8
0
  6
Continuous
 62
     7
370
    25
100
AcDbLine
 10
111.6800647569
 20
106.295121337
 30
0.0
 11
111.7989064548
 21
106.1193245236
 31
0.0
  0
LINE
  5
26E
330
1F
100
AcDbEntity
  8
0
  6
Continuous
 62
     7
370
    25
100
AcDbLine
 10
103.6061389755
 20
110.42114164
 30
0.0
 11
103.6061389755
 21
105.2595363688
 31
0.0
  0
LINE
  5
26F
330
1F
100
AcDbEntity
  8
0
  6
Continuous
 62
     7
370
    25
100
AcDbLine
 10
111.7989064548
 20
106.1193245236
 30
0.0
 11
103.6061389755
 21
105.2595363688
 31
0.0
  0
LINE
  5
270
330
1F
100
AcDbEntity
  8
0
  6
Continuous
 62
     7
370
    25
100
AcDbLine
 10
103.6061389755
 20
110.42114164
 30
0.0
 11
111.7989064548
 21
109.5613534852
 31
0.0
  0
LINE
  5
271
330
1F
100
AcDbEntity
  8
0
  6
Continuous
 62
     7
370
    25
100
AcDbLine
 10
103.6061389755
 20
105.2595363688
 30
0.0
 11
97.0227086291
 21
104.5686397403
 31
0.0
  0
LINE
  5
272
330
1F
100
AcDbEntity
  8
0
  6
Continuous
 62
     7
370
    25
100
AcDbLine
 10
97.0227086291
 20
111.1120382685
 30
0.0
 11
103.6061389755
 21
110.42114164
 31
0.0
  0
ARC
  5
273
330
1F
100
AcDbEntity
  8
0
  6
Continuous
 62
     7
370
    25
100
AcDbCircle
 10
117.0227086291
 20
107.8403390044
 30
0.0
 40
7.450000000000653
100
AcDbArc
 50
233.0863788866
 51
126.9136211134
  0
ARC
  5
274
330
1F
100
AcDbEntity
  8
0
  6
Continuous
 62
     7
370
    25
100
AcDbCircle
 10
117.0227086291
 20
107.8403390044
 30
0.0
 40
7.207531252870791
100
AcDbArc
 50
195.3041237151
 51
238.9797515565
  0
ARC
  5
275
330
1F
100
AcDbEntity
  8
0
  6
Continuous
 62
     7
370
    25
100
AcDbCircle
 10
117.0227086291
 20
107.8403390044
 30
0.0
 40
7.207531252872443
100
AcDbArc
 50
121.0202484435
 51
164.6958762849
  0
ARC
  5
276
330
1F
100
AcDbEntity
  8
0
  6
Continuous
 62
     7
370
    25
100
AcDbCircle
 10
94.8472717676
 20
176.3403390044
 30
0.0
 40
65.0
100
AcDbArc
 50
270.0
 51
286.5000949923
  0
ARC
  5
277
330
1F
100
AcDbEntity
  8
0
  6
Continuous
 62
     7
370
    25
100
AcDbCircle
 10
94.8472717676
 20
39.3403390044
 30
0.0
 40
65.00000000000003
100
AcDbArc
 50
73.4999050077
 51
90.0
  0
LINE
  5
278
330
1F
100
AcDbEntity
  8
0
  6
Continuous
 62
     7
370
    25
100
AcDbLine
 10
128.2006496566
 20
107.5903390044
 30
0.0
 11
124.4685128167
 21
107.5903390044
 31
0.0
  0
LINE
  5
279
330
1F
100
AcDbEntity
  8
0
  6
Continuous
 62
     7
370
    25
100
AcDbLine
 10
124.4685128167
 20
108.0903390044
 30
0.0
 11
128.2006496566
 21
108.0903390044
 31
0.0
  0
INSERT
  5
285
330
1F
100
AcDbEntity
  8
FORMAT
100
AcDbBlockReference
  2
SW_CENTERMARKSYMBOL_1
 10
117.0227086291
 20
107.8403390044
 30
0.0
  0
ENDSEC
  0
SECTION
  2
OBJECTS
  0
DICTIONARY
  5
C
330
0
100
AcDbDictionary
281
     1
  3
ACAD_GROUP
350
D
  3
ACAD_LAYOUT
350
1A
  3
ACAD_MLINESTYLE
350
17
  3
ACAD_PLOTSETTINGS
350
19
  3
ACAD_PLOTSTYLENAME
350
E
  3
ACAD_SCALELIST
350
47
  3
DWGPROPS
350
286
  0
DICTIONARY
  5
D
102
{ACAD_REACTORS
330
C
102
}
330
C
100
AcDbDictionary
281
     1
  0
DICTIONARY
  5
1A
102
{ACAD_REACTORS
330
C
102
}
330
C
100
AcDbDictionary
281
     1
  3
Layout1
350
1E
  3
Layout2
350
26
  3
Model
350
22
  0
DICTIONARY
  5
17
102
{ACAD_REACTORS
330
C
102
}
330
C
100
AcDbDictionary
281
     1
  3
Standard
350
18
  0
DICTIONARY
  5
19
102
{ACAD_REACTORS
330
C
102
}
330
C
100
AcDbDictionary
281
     1
  0
ACDBDICTIONARYWDFLT
  5
E
102
{ACAD_REACTORS
330
C
102
}
330
C
100
AcDbDictionary
281
     1
  3
Normal
350
F
100
AcDbDictionaryWithDefault
340
F
  0
DICTIONARY
  5
47
102
{ACAD_REACTORS
330
C
102
}
330
C
100
AcDbDictionary
281
     1
  3
A0
350
48
  3
A1
350
49
  3
A2
350
4A
  3
A3
350
4B
  3
A4
350
4C
  3
A5
350
4D
  3
A6
350
4E
  3
A7
350
4F
  3
A8
350
50
  3
A9
350
51
  3
B0
350
52
  3
B1
350
53
  3
B2
350
54
  3
B3
350
55
  3
B4
350
56
  3
B5
350
57
  3
B6
350
58
  0
XRECORD
  5
286
102
{ACAD_REACTORS
330
C
102
}
330
C
100
AcDbXrecord
280
     1
  1
DWGPROPS COOKIE
  2

  3

  4

  6

  7

  8
user28
  9

300
=
301
=
302
=
303
=
304
=
305
=
306
=
307
=
308
=
309
=
 40
0.0
 41
2460336.274847593
 42
2460336.274848287
  1

 90
        0
  0
LAYOUT
  5
1E
102
{ACAD_REACTORS
330
1A
102
}
330
1A
100
AcDbPlotSettings
  1

  2
none_device
  4

  6

 40
0.0
 41
0.0
 42
0.0
 43
0.0
 44
0.0
 45
0.0
 46
0.0
 47
0.0
 48
0.0
 49
0.0
140
0.0
141
0.0
142
1.0
143
1.0
 70
   688
 72
     1
 73
     0
 74
     5
  7

 75
    16
147
1.0
148
0.0
149
0.0
100
AcDbLayout
  1
Layout1
 70
     1
 71
     1
 10
0.0
 20
0.0
 11
420.0
 21
297.0
 12
0.0
 22
0.0
 32
0.0
 14
1.0000000000E+20
 24
1.0000000000E+20
 34
1.0000000000E+20
 15
-1.0000000000E+20
 25
-1.0000000000E+20
 35
-1.0000000000E+20
146
0.0
 13
0.0
 23
0.0
 33
0.0
 16
1.0
 26
0.0
 36
0.0
 17
0.0
 27
1.0
 37
0.0
 76
     0
330
1B
  0
LAYOUT
  5
26
102
{ACAD_REACTORS
330
1A
102
}
330
1A
100
AcDbPlotSettings
  1

  2
none_device
  4

  6

 40
0.0
 41
0.0
 42
0.0
 43
0.0
 44
0.0
 45
0.0
 46
0.0
 47
0.0
 48
0.0
 49
0.0
140
0.0
141
0.0
142
1.0
143
1.0
 70
   688
 72
     1
 73
     0
 74
     5
  7

 75
    16
147
1.0
148
0.0
149
0.0
100
AcDbLayout
  1
Layout2
 70
     1
 71
     2
 10
0.0
 20
0.0
 11
0.0
 21
0.0
 12
0.0
 22
0.0
 32
0.0
 14
0.0
 24
0.0
 34
0.0
 15
0.0
 25
0.0
 35
0.0
146
0.0
 13
0.0
 23
0.0
 33
0.0
 16
1.0
 26
0.0
 36
0.0
 17
0.0
 27
1.0
 37
0.0
 76
     0
330
23
  0
LAYOUT
  5
22
102
{ACAD_REACTORS
330
1A
102
}
330
1A
100
AcDbPlotSettings
  1

  2
none_device
  4
Letter_(8.50_x_11.00_Inches)
  6

 40
6.35
 41
6.35
 42
6.35000508
 43
6.35000508
 44
215.9
 45
279.4
 46
0.0
 47
0.0
 48
0.0
 49
0.0
140
0.0
141
0.0
142
1.0
143
1.0
 70
  1712
 72
     1
 73
     0
 74
     0
  7

 75
     0
147
1.0
148
0.0
149
0.0
100
AcDbLayout
  1
Model
 70
     1
 71
     0
 10
0.0
 20
0.0
 11
297.0
 21
210.0
 12
0.0
 22
0.0
 32
0.0
 14
0.0
 24
0.0
 34
0.0
 15
297.0
 25
210.0
 35
0.0
146
0.0
 13
0.0
 23
0.0
 33
0.0
 16
1.0
 26
0.0
 36
0.0
 17
0.0
 27
1.0
 37
0.0
 76
     0
330
1F
331
29
  0
MLINESTYLE
  5
18
102
{ACAD_REACTORS
330
17
102
}
330
17
100
AcDbMlineStyle
  2
Standard
 70
     0
  3

 62
   256
 51
90.0
 52
90.0
 71
     2
 49
0.5
 62
   256
  6
BYLAYER
 49
-0.5
 62
   256
  6
BYLAYER
  0
ACDBPLACEHOLDER
  5
F
102
{ACAD_REACTORS
330
E
102
}
330
E
  0
SCALE
  5
48
102
{ACAD_REACTORS
330
47
102
}
330
47
100
AcDbScale
 70
     0
300
1:1
140
1.0
141
1.0
290
     1
  0
SCALE
  5
49
102
{ACAD_REACTORS
330
47
102
}
330
47
100
AcDbScale
 70
     0
300
1:2
140
1.0
141
2.0
290
     0
  0
SCALE
  5
4A
102
{ACAD_REACTORS
330
47
102
}
330
47
100
AcDbScale
 70
     0
300
1:4
140
1.0
141
4.0
290
     0
  0
SCALE
  5
4B
102
{ACAD_REACTORS
330
47
102
}
330
47
100
AcDbScale
 70
     0
300
1:5
140
1.0
141
5.0
290
     0
  0
SCALE
  5
4C
102
{ACAD_REACTORS
330
47
102
}
330
47
100
AcDbScale
 70
     0
300
1:8
140
1.0
141
8.0
290
     0
  0
SCALE
  5
4D
102
{ACAD_REACTORS
330
47
102
}
330
47
100
AcDbScale
 70
     0
300
1:10
140
1.0
141
10.0
290
     0
  0
SCALE
  5
4E
102
{ACAD_REACTORS
330
47
102
}
330
47
100
AcDbScale
 70
     0
300
1:16
140
1.0
141
16.0
290
     0
  0
SCALE
  5
4F
102
{ACAD_REACTORS
330
47
102
}
330
47
100
AcDbScale
 70
     0
300
1:20
140
1.0
141
20.0
290
     0
  0
SCALE
  5
50
102
{ACAD_REACTORS
330
47
102
}
330
47
100
AcDbScale
 70
     0
300
1:30
140
1.0
141
30.0
290
     0
  0
SCALE
  5
51
102
{ACAD_REACTORS
330
47
102
}
330
47
100
AcDbScale
 70
     0
300
1:40
140
1.0
141
40.0
290
     0
  0
SCALE
  5
52
102
{ACAD_REACTORS
330
47
102
}
330
47
100
AcDbScale
 70
     0
300
1:50
140
1.0
141
50.0
290
     0
  0
SCALE
  5
53
102
{ACAD_REACTORS
330
47
102
}
330
47
100
AcDbScale
 70
     0
300
1:100
140
1.0
141
100.0
290
     0
  0
SCALE
  5
54
102
{ACAD_REACTORS
330
47
102
}
330
47
100
AcDbScale
 70
     0
300
2:1
140
2.0
141
1.0
290
     0
  0
SCALE
  5
55
102
{ACAD_REACTORS
330
47
102
}
330
47
100
AcDbScale
 70
     0
300
4:1
140
4.0
141
1.0
290
     0
  0
SCALE
  5
56
102
{ACAD_REACTORS
330
47
102
}
330
47
100
AcDbScale
 70
     0
300
8:1
140
8.0
141
1.0
290
     0
  0
SCALE
  5
57
102
{ACAD_REACTORS
330
47
102
}
330
47
100
AcDbScale
 70
     0
300
10:1
140
10.0
141
1.0
290
     0
  0
SCALE
  5
58
102
{ACAD_REACTORS
330
47
102
}
330
47
100
AcDbScale
 70
     0
300
100:1
140
100.0
141
1.0
290
     0
  0
ENDSEC
  0
EOF
