  0
SECTION
  2
HEADER
  9
$ACADVER
  1
AC1015
  9
$ACADMAINTVER
 70
     6
  9
$DWGCODEPAGE
  3
DOS932
  9
$INSBASE
 10
0.0
 20
0.0
 30
0.0
  9
$EXTMIN
 10
0.0
 20
0.0
 30
0.0
  9
$EXTMAX
 10
297.0
 20
210.0
 30
0.0
  9
$LIMMIN
 10
0.0
 20
0.0
  9
$LIMMAX
 10
297.0
 20
210.0
  9
$ORTHOMODE
 70
     0
  9
$REGENMODE
 70
     1
  9
$FILLMODE
 70
     1
  9
$QTEXTMODE
 70
     0
  9
$MIRRTEXT
 70
     1
  9
$LTSCALE
 40
1.0
  9
$ATTMODE
 70
     1
  9
$TEXTSIZE
 40
3.5277777778
  9
$TRACEWID
 40
1.0
  9
$TEXTSTYLE
  7
Standard
  9
$CLAYER
  8
0
  9
$CELTYPE
  6
ByLayer
  9
$CECOLOR
 62
   256
  9
$CELTSCALE
 40
1.0
  9
$DISPSILH
 70
     0
  9
$DIMSCALE
 40
1.0
  9
$DIMASZ
 40
2.728515625
  9
$DIMEXO
 40
1.0
  9
$DIMDLI
 40
3.75
  9
$DIMRND
 40
0.0
  9
$DIMDLE
 40
0.0
  9
$DIMEXE
 40
1.0
  9
$DIMTP
 40
0.0
  9
$DIMTM
 40
0.0
  9
$DIMTXT
 40
3.5277777778
  9
$DIMCEN
 40
2.5
  9
$DIMTSZ
 40
0.0
  9
$DIMTOL
 70
     0
  9
$DIMLIM
 70
     0
  9
$DIMTIH
 70
     1
  9
$DIMTOH
 70
     1
  9
$DIMSE1
 70
     0
  9
$DIMSE2
 70
     0
  9
$DIMTAD
 70
     1
  9
$DIMZIN
 70
     0
  9
$DIMBLK
  1

  9
$DIMASO
 70
     1
  9
$DIMSHO
 70
     1
  9
$DIMPOST
  1

  9
$DIMAPOST
  1

  9
$DIMALT
 70
     0
  9
$DIMALTD
 70
     3
  9
$DIMALTF
 40
0.0393700787
  9
$DIMLFAC
 40
1.0
  9
$DIMTOFL
 70
     1
  9
$DIMTVP
 40
0.0
  9
$DIMTIX
 70
     0
  9
$DIMSOXD
 70
     0
  9
$DIMSAH
 70
     0
  9
$DIMBLK1
  1

  9
$DIMBLK2
  1

  9
$DIMSTYLE
  2
ISO-25
  9
$DIMCLRD
 70
     0
  9
$DIMCLRE
 70
     0
  9
$DIMCLRT
 70
     0
  9
$DIMTFAC
 40
1.0
  9
$DIMGAP
 40
1.524
  9
$DIMJUST
 70
     0
  9
$DIMSD1
 70
     0
  9
$DIMSD2
 70
     0
  9
$DIMTOLJ
 70
     0
  9
$DIMTZIN
 70
     0
  9
$DIMALTZ
 70
     0
  9
$DIMALTTZ
 70
     0
  9
$DIMUPT
 70
     0
  9
$DIMDEC
 70
     2
  9
$DIMTDEC
 70
     2
  9
$DIMALTU
 70
     2
  9
$DIMALTTD
 70
     3
  9
$DIMTXSTY
  7
Standard
  9
$DIMAUNIT
 70
     0
  9
$DIMADEC
 70
     2
  9
$DIMALTRND
 40
0.0
  9
$DIMAZIN
 70
     0
  9
$DIMDSEP
 70
    44
  9
$DIMATFIT
 70
     3
  9
$DIMFRAC
 70
     0
  9
$DIMLDRBLK
  1

  9
$DIMLUNIT
 70
     2
  9
$DIMLWD
 70
    -2
  9
$DIMLWE
 70
    -2
  9
$DIMTMOVE
 70
     0
  9
$LUNITS
 70
     2
  9
$LUPREC
 70
     2
  9
$SKETCHINC
 40
1.0
  9
$FILLETRAD
 40
0.0
  9
$AUNITS
 70
     0
  9
$AUPREC
 70
     2
  9
$MENU
  1
.
  9
$ELEVATION
 40
0.0
  9
$PELEVATION
 40
0.0
  9
$THICKNESS
 40
0.0
  9
$LIMCHECK
 70
     0
  9
$CHAMFERA
 40
0.0
  9
$CHAMFERB
 40
0.0
  9
$CHAMFERC
 40
0.0
  9
$CHAMFERD
 40
0.0
  9
$SKPOLY
 70
     0
  9
$TDCREATE
 40
2460336.644741829
  9
$TDUCREATE
 40
2460336.269741829
  9
$TDUPDATE
 40
2460336.644742523
  9
$TDUUPDATE
 40
2460336.269742523
  9
$TDINDWG
 40
0.0000000116
  9
$TDUSRTIMER
 40
0.0000000116
  9
$USRTIMER
 70
     1
  9
$ANGBASE
 50
0.0
  9
$ANGDIR
 70
     0
  9
$PDMODE
 70
     0
  9
$PDSIZE
 40
-1.0
  9
$PLINEWID
 40
0.0
  9
$SPLFRAME
 70
     0
  9
$SPLINETYPE
 70
     6
  9
$SPLINESEGS
 70
     8
  9
$HANDSEED
  5
275
  9
$SURFTAB1
 70
     6
  9
$SURFTAB2
 70
     6
  9
$SURFTYPE
 70
     6
  9
$SURFU
 70
     6
  9
$SURFV
 70
     6
  9
$UCSBASE
  2

  9
$UCSNAME
  2

  9
$UCSORG
 10
0.0
 20
0.0
 30
0.0
  9
$UCSXDIR
 10
1.0
 20
0.0
 30
0.0
  9
$UCSYDIR
 10
0.0
 20
1.0
 30
0.0
  9
$UCSORTHOREF
  2

  9
$UCSORTHOVIEW
 70
     0
  9
$UCSORGTOP
 10
0.0
 20
0.0
 30
0.0
  9
$UCSORGBOTTOM
 10
0.0
 20
0.0
 30
0.0
  9
$UCSORGLEFT
 10
0.0
 20
0.0
 30
0.0
  9
$UCSORGRIGHT
 10
0.0
 20
0.0
 30
0.0
  9
$UCSORGFRONT
 10
0.0
 20
0.0
 30
0.0
  9
$UCSORGBACK
 10
0.0
 20
0.0
 30
0.0
  9
$PUCSBASE
  2

  9
$PUCSNAME
  2

  9
$PUCSORG
 10
0.0
 20
0.0
 30
0.0
  9
$PUCSXDIR
 10
1.0
 20
0.0
 30
0.0
  9
$PUCSYDIR
 10
0.0
 20
1.0
 30
0.0
  9
$PUCSORTHOREF
  2

  9
$PUCSORTHOVIEW
 70
     0
  9
$PUCSORGTOP
 10
0.0
 20
0.0
 30
0.0
  9
$PUCSORGBOTTOM
 10
0.0
 20
0.0
 30
0.0
  9
$PUCSORGLEFT
 10
0.0
 20
0.0
 30
0.0
  9
$PUCSORGRIGHT
 10
0.0
 20
0.0
 30
0.0
  9
$PUCSORGFRONT
 10
0.0
 20
0.0
 30
0.0
  9
$PUCSORGBACK
 10
0.0
 20
0.0
 30
0.0
  9
$USERI1
 70
     0
  9
$USERI2
 70
     0
  9
$USERI3
 70
     0
  9
$USERI4
 70
     0
  9
$USERI5
 70
     0
  9
$USERR1
 40
0.0
  9
$USERR2
 40
0.0
  9
$USERR3
 40
0.0
  9
$USERR4
 40
0.0
  9
$USERR5
 40
0.0
  9
$WORLDVIEW
 70
     1
  9
$SHADEDGE
 70
     3
  9
$SHADEDIF
 70
    70
  9
$TILEMODE
 70
     1
  9
$MAXACTVP
 70
    64
  9
$PINSBASE
 10
0.0
 20
0.0
 30
0.0
  9
$PLIMCHECK
 70
     0
  9
$PEXTMIN
 10
1.0000000000E+20
 20
1.0000000000E+20
 30
1.0000000000E+20
  9
$PEXTMAX
 10
-1.0000000000E+20
 20
-1.0000000000E+20
 30
-1.0000000000E+20
  9
$PLIMMIN
 10
0.0
 20
0.0
  9
$PLIMMAX
 10
420.0
 20
297.0
  9
$UNITMODE
 70
     0
  9
$VISRETAIN
 70
     1
  9
$PLINEGEN
 70
     0
  9
$PSLTSCALE
 70
     1
  9
$TREEDEPTH
 70
  3020
  9
$CMLSTYLE
  2
Standard
  9
$CMLJUST
 70
     0
  9
$CMLSCALE
 40
20.0
  9
$PROXYGRAPHICS
 70
     1
  9
$MEASUREMENT
 70
     1
  9
$CELWEIGHT
370
    -1
  9
$ENDCAPS
280
     0
  9
$JOINSTYLE
280
     0
  9
$LWDISPLAY
290
     1
  9
$INSUNITS
 70
     4
  9
$HYPERLINKBASE
  1

  9
$STYLESHEET
  1

  9
$XEDIT
290
     1
  9
$CEPSNTYPE
380
     0
  9
$PSTYLEMODE
290
     1
  9
$FINGERPRINTGUID
  2
{5bf563f5-d190-4574-b499-a14d4a40cc1f}
  9
$VERSIONGUID
  2
{FAEB1C32-E019-11D5-929B-00C0DF256EC4}
  9
$EXTNAMES
290
     1
  9
$PSVPSCALE
 40
0.0
  9
$OLESTARTUP
290
     0
  0
ENDSEC
  0
SECTION
  2
CLASSES
  0
CLASS
  1
ACDBDICTIONARYWDFLT
  2
AcDbDictionaryWithDefault
  3
ObjectDBX Classes
 90
        0
280
     0
281
     0
  0
CLASS
  1
VISUALSTYLE
  2
AcDbVisualStyle
  3
ObjectDBX Classes
 90
     4095
280
     0
281
     0
  0
CLASS
  1
MATERIAL
  2
AcDbMaterial
  3
ObjectDBX Classes
 90
     1153
280
     0
281
     0
  0
CLASS
  1
SCALE
  2
AcDbScale
  3
ObjectDBX Classes
 90
     1153
280
     0
281
     0
  0
CLASS
  1
TABLESTYLE
  2
AcDbTableStyle
  3
ObjectDBX Classes
 90
     4095
280
     0
281
     0
  0
CLASS
  1
MLEADERSTYLE
  2
AcDbMLeaderStyle
  3
ACDB_MLEADERSTYLE_CLASS
 90
     4095
280
     0
281
     0
  0
CLASS
  1
SUN
  2
AcDbSun
  3
SCENEOE
 90
     1153
280
     0
281
     0
  0
CLASS
  1
ACDBPLACEHOLDER
  2
AcDbPlaceHolder
  3
ObjectDBX Classes
 90
        0
280
     0
281
     0
  0
CLASS
  1
LAYOUT
  2
AcDbLayout
  3
ObjectDBX Classes
 90
        0
280
     0
281
     0
  0
ENDSEC
  0
SECTION
  2
TABLES
  0
TABLE
  2
VPORT
  5
8
330
0
100
AcDbSymbolTable
 70
     1
  0
VPORT
  5
29
330
8
100
AcDbSymbolTableRecord
100
AcDbViewportTableRecord
  2
*Active
 70
     0
 10
0.0
 20
0.0
 11
1.0
 21
1.0
 12
148.5
 22
105.0
 13
0.0
 23
0.0
 14
10.0
 24
10.0
 15
10.0
 25
10.0
 16
0.0
 26
0.0
 36
1.0
 17
0.0
 27
0.0
 37
0.0
 40
210.0
 41
1.4142857143
 42
50.0
 43
0.0
 44
0.0
 50
0.0
 51
0.0
 71
     0
 72
  2000
 73
     1
 74
     3
 75
     0
 76
     0
 77
     0
 78
     0
281
     0
 65
     1
110
0.0
120
0.0
130
0.0
111
1.0
121
0.0
131
0.0
112
0.0
122
1.0
132
0.0
 79
     0
146
0.0
  0
ENDTAB
  0
TABLE
  2
LTYPE
  5
5
330
0
100
AcDbSymbolTable
 70
     6
  0
LTYPE
  5
14
330
5
100
AcDbSymbolTableRecord
100
AcDbLinetypeTableRecord
  2
ByBlock
 70
     0
  3

 72
    65
 73
     0
 40
0.0
  0
LTYPE
  5
15
330
5
100
AcDbSymbolTableRecord
100
AcDbLinetypeTableRecord
  2
ByLayer
 70
     0
  3

 72
    65
 73
     0
 40
0.0
  0
LTYPE
  5
16
330
5
100
AcDbSymbolTableRecord
100
AcDbLinetypeTableRecord
  2
Continuous
 70
     0
  3
Solid line
 72
    65
 73
     0
 40
0.0
  0
LTYPE
  5
5E
330
5
100
AcDbSymbolTableRecord
100
AcDbLinetypeTableRecord
  2
HIDDEN
 70
     0
  3
Hidden __ __ __ __ __ __ __ __ __ __ __ __ __ __
 72
    65
 73
     2
 40
1.905
 49
1.27
 74
     0
 49
-0.635
 74
     0
  0
LTYPE
  5
5F
330
5
100
AcDbSymbolTableRecord
100
AcDbLinetypeTableRecord
  2
PHANTOM
 70
     0
  3
Phantom ______  __  __  ______  __  __  ______
 72
    65
 73
     6
 40
12.7
 49
6.35
 74
     0
 49
-1.27
 74
     0
 49
1.27
 74
     0
 49
-1.27
 74
     0
 49
1.27
 74
     0
 49
-1.27
 74
     0
  0
LTYPE
  5
60
330
5
100
AcDbSymbolTableRecord
100
AcDbLinetypeTableRecord
  2
CENTER
 70
     0
  3
Center ____ _ ____ _ ____ _ ____ _ ____ _ ____
 72
    65
 73
     4
 40
10.16
 49
6.35
 74
     0
 49
-1.27
 74
     0
 49
1.27
 74
     0
 49
-1.27
 74
     0
  0
LTYPE
  5
61
330
5
100
AcDbSymbolTableRecord
100
AcDbLinetypeTableRecord
  2
CENTERX2
 70
     0
  3
Center (2x) ________  __  ________  __  _____
 72
    65
 73
     4
 40
20.32
 49
12.7
 74
     0
 49
-2.54
 74
     0
 49
2.54
 74
     0
 49
-2.54
 74
     0
  0
LTYPE
  5
62
330
5
100
AcDbSymbolTableRecord
100
AcDbLinetypeTableRecord
  2
DOT2
 70
     0
  3
Dot (.5x) ........................................
 72
    65
 73
     2
 40
0.635
 49
0.0
 74
     0
 49
-0.635
 74
     0
  0
ENDTAB
  0
TABLE
  2
LAYER
  5
2
330
0
100
AcDbSymbolTable
 70
     2
  0
LAYER
  5
10
330
2
100
AcDbSymbolTableRecord
100
AcDbLayerTableRecord
  2
0
 70
     0
 62
     7
  6
Continuous
370
    -3
390
F
  0
LAYER
  5
63
330
2
100
AcDbSymbolTableRecord
100
AcDbLayerTableRecord
  2
FORMAT
 70
     0
 62
     7
  6
Continuous
370
    -3
390
F
  0
ENDTAB
  0
TABLE
  2
STYLE
  5
3
330
0
100
AcDbSymbolTable
 70
     2
  0
STYLE
  5
11
330
3
100
AcDbSymbolTableRecord
100
AcDbTextStyleTableRecord
  2
Standard
 70
     0
 40
0.0
 41
1.0
 50
0.0
 71
     0
 42
3.5277777778
  3
txt
  4
bigfont
  0
STYLE
  5
64
330
3
100
AcDbSymbolTableRecord
100
AcDbTextStyleTableRecord
  2
SLDTEXTSTYLE0
 70
     0
 40
0.0
 41
0.7
 50
0.0
 71
     0
 42
3.5277777778
  3
TXT
  4
bigfont
  0
ENDTAB
  0
TABLE
  2
VIEW
  5
6
330
0
100
AcDbSymbolTable
 70
     0
  0
ENDTAB
  0
TABLE
  2
UCS
  5
7
330
0
100
AcDbSymbolTable
 70
     0
  0
ENDTAB
  0
TABLE
  2
APPID
  5
9
330
0
100
AcDbSymbolTable
 70
     1
  0
APPID
  5
12
330
9
100
AcDbSymbolTableRecord
100
AcDbRegAppTableRecord
  2
ACAD
 70
     0
  0
ENDTAB
  0
TABLE
  2
DIMSTYLE
  5
A
330
0
100
AcDbSymbolTable
 70
     1
100
AcDbDimStyleTable
  0
DIMSTYLE
105
27
330
A
100
AcDbSymbolTableRecord
100
AcDbDimStyleTableRecord
  2
ISO-25
 70
     0
 41
2.5
 42
0.625
 43
3.75
 44
1.25
 73
     0
 74
     0
 77
     1
 78
     8
140
2.5
141
2.5
143
0.0393700787
147
0.625
171
     3
172
     1
178
     0
271
     2
272
     2
274
     3
278
    44
283
     0
284
     8
340
11
  0
ENDTAB
  0
TABLE
  2
BLOCK_RECORD
  5
1
330
0
100
AcDbSymbolTable
 70
     3
  0
BLOCK_RECORD
  5
1F
330
1
100
AcDbSymbolTableRecord
100
AcDbBlockTableRecord
  2
*Model_Space
340
22
  0
BLOCK_RECORD
  5
1B
330
1
100
AcDbSymbolTableRecord
100
AcDbBlockTableRecord
  2
*Paper_Space
340
1E
  0
BLOCK_RECORD
  5
23
330
1
100
AcDbSymbolTableRecord
100
AcDbBlockTableRecord
  2
*Paper_Space0
340
26
  0
BLOCK_RECORD
  5
1DE
330
1
100
AcDbSymbolTableRecord
100
AcDbBlockTableRecord
  2
SW_CENTERMARKSYMBOL_0
340
0
102
{BLKREFS
331
1E9
102
}
  0
BLOCK_RECORD
  5
268
330
1
100
AcDbSymbolTableRecord
100
AcDbBlockTableRecord
  2
SW_CENTERMARKSYMBOL_1
340
0
102
{BLKREFS
331
273
102
}
  0
ENDTAB
  0
ENDSEC
  0
SECTION
  2
BLOCKS
  0
BLOCK
  5
20
330
1F
100
AcDbEntity
  8
0
100
AcDbBlockBegin
  2
*Model_Space
 70
     0
 10
0.0
 20
0.0
 30
0.0
  3
*Model_Space
  1

  0
ENDBLK
  5
21
330
1F
100
AcDbEntity
  8
0
100
AcDbBlockEnd
  0
BLOCK
  5
1C
330
1B
100
AcDbEntity
 67
     1
  8
0
100
AcDbBlockBegin
  2
*Paper_Space
 70
     0
 10
0.0
 20
0.0
 30
0.0
  3
*Paper_Space
  1

  0
ENDBLK
  5
1D
330
1B
100
AcDbEntity
 67
     1
  8
0
100
AcDbBlockEnd
  0
BLOCK
  5
24
330
23
100
AcDbEntity
  8
0
100
AcDbBlockBegin
  2
*Paper_Space0
 70
     0
 10
0.0
 20
0.0
 30
0.0
  3
*Paper_Space0
  1

  0
ENDBLK
  5
25
330
23
100
AcDbEntity
  8
0
100
AcDbBlockEnd
  0
BLOCK
  5
1DF
330
1DE
100
AcDbEntity
  8
0
100
AcDbBlockBegin
  2
SW_CENTERMARKSYMBOL_0
 70
     0
 10
0.0
 20
0.0
 30
0.0
  3
SW_CENTERMARKSYMBOL_0
  1

  0
LINE
  5
1E1
330
1DE
100
AcDbEntity
  8
FORMAT
 62
     0
100
AcDbLine
 10
0.0
 20
0.0
 30
0.0
 11
0.0
 21
2.5
 31
0.0
  0
LINE
  5
1E2
330
1DE
100
AcDbEntity
  8
FORMAT
 62
     0
100
AcDbLine
 10
0.0
 20
0.0
 30
0.0
 11
-2.5
 21
0.0
 31
0.0
  0
LINE
  5
1E3
330
1DE
100
AcDbEntity
  8
FORMAT
 62
     0
100
AcDbLine
 10
0.0
 20
0.0
 30
0.0
 11
0.0
 21
-2.5
 31
0.0
  0
LINE
  5
1E4
330
1DE
100
AcDbEntity
  8
FORMAT
 62
     0
100
AcDbLine
 10
0.0
 20
0.0
 30
0.0
 11
2.5
 21
0.0
 31
0.0
  0
LINE
  5
1E5
330
1DE
100
AcDbEntity
  8
FORMAT
 62
     0
100
AcDbLine
 10
0.0
 20
5.0
 30
0.0
 11
0.0
 21
29.8220724284
 31
0.0
  0
LINE
  5
1E6
330
1DE
100
AcDbEntity
  8
FORMAT
 62
     0
100
AcDbLine
 10
-5.0
 20
0.0
 30
0.0
 11
-10.75
 21
0.0
 31
0.0
  0
LINE
  5
1E7
330
1DE
100
AcDbEntity
  8
FORMAT
 62
     0
100
AcDbLine
 10
0.0
 20
-5.0
 30
0.0
 11
0.0
 21
-24.9379666911
 31
0.0
  0
LINE
  5
1E8
330
1DE
100
AcDbEntity
  8
FORMAT
 62
     0
100
AcDbLine
 10
5.0
 20
0.0
 30
0.0
 11
10.75
 21
0.0
 31
0.0
  0
ENDBLK
  5
1E0
330
1DE
100
AcDbEntity
  8
0
100
AcDbBlockEnd
  0
BLOCK
  5
269
330
268
100
AcDbEntity
  8
0
100
AcDbBlockBegin
  2
SW_CENTERMARKSYMBOL_1
 70
     0
 10
0.0
 20
0.0
 30
0.0
  3
SW_CENTERMARKSYMBOL_1
  1

  0
LINE
  5
26B
330
268
100
AcDbEntity
  8
FORMAT
 62
     0
100
AcDbLine
 10
0.0
 20
0.0
 30
0.0
 11
0.0
 21
2.5
 31
0.0
  0
LINE
  5
26C
330
268
100
AcDbEntity
  8
FORMAT
 62
     0
100
AcDbLine
 10
0.0
 20
0.0
 30
0.0
 11
-2.5
 21
0.0
 31
0.0
  0
LINE
  5
26D
330
268
100
AcDbEntity
  8
FORMAT
 62
     0
100
AcDbLine
 10
0.0
 20
0.0
 30
0.0
 11
0.0
 21
-2.5
 31
0.0
  0
LINE
  5
26E
330
268
100
AcDbEntity
  8
FORMAT
 62
     0
100
AcDbLine
 10
0.0
 20
0.0
 30
0.0
 11
2.5
 21
0.0
 31
0.0
  0
LINE
  5
26F
330
268
100
AcDbEntity
  8
FORMAT
 62
     0
100
AcDbLine
 10
0.0
 20
5.0
 30
0.0
 11
0.0
 21
9.95
 31
0.0
  0
LINE
  5
270
330
268
100
AcDbEntity
  8
FORMAT
 62
     0
100
AcDbLine
 10
-5.0
 20
0.0
 30
0.0
 11
-41.7856494792
 21
0.0
 31
0.0
  0
LINE
  5
271
330
268
100
AcDbEntity
  8
FORMAT
 62
     0
100
AcDbLine
 10
0.0
 20
-5.0
 30
0.0
 11
0.0
 21
-9.95
 31
0.0
  0
LINE
  5
272
330
268
100
AcDbEntity
  8
FORMAT
 62
     0
100
AcDbLine
 10
5.0
 20
0.0
 30
0.0
 11
13.6697552165
 21
0.0
 31
0.0
  0
ENDBLK
  5
26A
330
268
100
AcDbEntity
  8
0
100
AcDbBlockEnd
  0
ENDSEC
  0
SECTION
  2
ENTITIES
  0
MTEXT
  5
65
330
1F
100
AcDbEntity
  8
FORMAT
100
AcDbMText
 10
119.0506399017
 20
91.3748994401
 30
0.0
 40
2.6458333333
 41
0.0
 71
     1
 72
     1
  1
エースボール　アングル型　BH-3107
  7
SLDTEXTSTYLE0
 73
     1
 44
1.0
  0
LINE
  5
66
330
1F
100
AcDbEntity
  8
0
  6
Continuous
 62
     7
370
    25
100
AcDbLine
 10
98.4340662327
 20
58.3646810236
 30
0.0
 11
95.6340662327
 21
58.3646810236
 31
0.0
  0
LINE
  5
67
330
1F
100
AcDbEntity
  8
0
  6
Continuous
 62
     7
370
    25
100
AcDbLine
 10
95.6340662327
 20
42.3646810236
 30
0.0
 11
98.4340662327
 21
42.3646810236
 31
0.0
  0
LINE
  5
68
330
1F
100
AcDbEntity
  8
0
  6
Continuous
 62
     7
370
    25
100
AcDbLine
 10
95.6340662327
 20
58.3646810236
 30
0.0
 11
95.4340662327
 21
58.1646810236
 31
0.0
  0
LINE
  5
69
330
1F
100
AcDbEntity
  8
0
  6
Continuous
 62
     7
370
    25
100
AcDbLine
 10
95.4340662327
 20
42.5646810236
 30
0.0
 11
95.6340662327
 21
42.3646810236
 31
0.0
  0
LINE
  5
6A
330
1F
100
AcDbEntity
  8
0
  6
Continuous
 62
     7
370
    25
100
AcDbLine
 10
92.4340662327
 20
53.8646810236
 30
0.0
 11
88.4340662327
 21
53.1146810236
 31
0.0
  0
LINE
  5
6B
330
1F
100
AcDbEntity
  8
0
  6
Continuous
 62
     7
370
    25
100
AcDbLine
 10
88.4340662327
 20
47.6146810236
 30
0.0
 11
92.4340662327
 21
46.8646810236
 31
0.0
  0
LINE
  5
6C
330
1F
100
AcDbEntity
  8
0
  6
Continuous
 62
     7
370
    25
100
AcDbLine
 10
95.4340662327
 20
53.8646810236
 30
0.0
 11
92.4340662327
 21
53.8646810236
 31
0.0
  0
LINE
  5
6D
330
1F
100
AcDbEntity
  8
0
  6
Continuous
 62
     7
370
    25
100
AcDbLine
 10
92.4340662327
 20
46.8646810236
 30
0.0
 11
95.4340662327
 21
46.8646810236
 31
0.0
  0
LINE
  5
6E
330
1F
100
AcDbEntity
  8
0
  6
Continuous
 62
     7
370
    25
100
AcDbLine
 10
84.4340662327
 20
53.8646810236
 30
0.0
 11
80.4340662327
 21
53.1146810236
 31
0.0
  0
LINE
  5
6F
330
1F
100
AcDbEntity
  8
0
  6
Continuous
 62
     7
370
    25
100
AcDbLine
 10
80.4340662327
 20
47.6146810236
 30
0.0
 11
84.4340662327
 21
46.8646810236
 31
0.0
  0
LINE
  5
70
330
1F
100
AcDbEntity
  8
0
  6
Continuous
 62
     7
370
    25
100
AcDbLine
 10
76.4340662327
 20
53.8646810236
 30
0.0
 11
72.8419219652
 21
53.1911539734
 31
0.0
  0
LINE
  5
71
330
1F
100
AcDbEntity
  8
0
  6
Continuous
 62
     7
370
    25
100
AcDbLine
 10
72.8419219652
 20
47.5382080737
 30
0.0
 11
76.4340662327
 21
46.8646810236
 31
0.0
  0
LINE
  5
72
330
1F
100
AcDbEntity
  8
0
  6
Continuous
 62
     7
370
    25
100
AcDbLine
 10
80.4340662327
 20
53.8646810236
 30
0.0
 11
76.4340662327
 21
53.1146810236
 31
0.0
  0
LINE
  5
73
330
1F
100
AcDbEntity
  8
0
  6
Continuous
 62
     7
370
    25
100
AcDbLine
 10
76.4340662327
 20
47.6146810236
 30
0.0
 11
80.4340662327
 21
46.8646810236
 31
0.0
  0
LINE
  5
74
330
1F
100
AcDbEntity
  8
0
  6
Continuous
 62
     7
370
    25
100
AcDbLine
 10
88.4340662327
 20
53.8646810236
 30
0.0
 11
84.4340662327
 21
53.1146810236
 31
0.0
  0
LINE
  5
75
330
1F
100
AcDbEntity
  8
0
  6
Continuous
 62
     7
370
    25
100
AcDbLine
 10
84.4340662327
 20
47.6146810236
 30
0.0
 11
88.4340662327
 21
46.8646810236
 31
0.0
  0
ARC
  5
76
330
1F
100
AcDbEntity
  8
0
  6
Continuous
 62
     7
370
    25
100
AcDbCircle
 10
72.9340662327
 20
52.6997178799
 30
0.0
 40
0.5000000000000026
100
AcDbArc
 50
100.6196552762
 51
180.0
  0
ARC
  5
77
330
1F
100
AcDbEntity
  8
0
  6
Continuous
 62
     7
370
    25
100
AcDbCircle
 10
72.9340662327
 20
48.0296441672
 30
0.0
 40
0.5
100
AcDbArc
 50
180.0
 51
259.3803447238
  0
LINE
  5
78
330
1F
100
AcDbEntity
  8
0
  6
Continuous
 62
     7
370
    25
100
AcDbLine
 10
116.9340662327
 20
60.8646810236
 30
0.0
 11
117.3840662327
 21
68.8646810236
 31
0.0
  0
LINE
  5
79
330
1F
100
AcDbEntity
  8
0
  6
Continuous
 62
     7
370
    25
100
AcDbLine
 10
117.3840662327
 20
68.8646810236
 30
0.0
 11
115.4340662327
 21
76.8646810235
 31
0.0
  0
LINE
  5
7A
330
1F
100
AcDbEntity
  8
0
  6
Continuous
 62
     7
370
    25
100
AcDbLine
 10
102.8634096069
 20
62.1207988149
 30
0.0
 11
102.9340662327
 21
60.8646810236
 31
0.0
  0
LINE
  5
7B
330
1F
100
AcDbEntity
  8
0
  6
Continuous
 62
     7
370
    25
100
AcDbLine
 10
104.4340662327
 20
76.8646810235
 30
0.0
 11
104.1808346982
 21
75.8257824204
 31
0.0
  0
LINE
  5
7C
330
1F
100
AcDbEntity
  8
0
  6
Continuous
 62
     7
370
    25
100
AcDbLine
 10
121.0751974856
 20
40.6270767165
 30
0.0
 11
121.9340662327
 21
42.1146810236
 31
0.0
  0
LINE
  5
7D
330
1F
100
AcDbEntity
  8
0
  6
Continuous
 62
     7
370
    25
100
AcDbLine
 10
121.9340662327
 20
58.6146810236
 30
0.0
 11
121.0751974856
 21
60.1022853306
 31
0.0
  0
SPLINE
  5
7E
330
1F
100
AcDbEntity
  8
0
  6
Continuous
 62
     7
370
    25
100
AcDbSpline
210
0.0
220
0.0
230
1.0
 70
     8
 71
     3
 72
    12
 73
     8
 74
     0
 42
0.00000001
 43
0.00000001
 40
0.0
 40
0.0
 40
0.0
 40
0.0
 40
0.0370023628023338
 40
0.2883711579961521
 40
0.5470920830936643
 40
0.8090897488626814
 40
1.0
 40
1.0
 40
1.0
 40
1.0
 10
104.0456457757011
 20
59.86500244753655
 30
0.0
 10
104.0465265733361
 20
59.85534680256775
 30
0.0
 10
104.0533909088736
 20
59.78009729659086
 30
0.0
 10
104.0303969117707
 20
59.63612502387127
 30
0.0
 10
103.9699426323377
 20
59.44331048822326
 30
0.0
 10
103.879766540435
 20
59.27704033950973
 30
0.0
 10
103.7973480848429
 20
59.19127966757004
 30
0.0
 10
103.7626069653613
 20
59.1551297333195
 30
0.0
  0
SPLINE
  5
7F
330
1F
100
AcDbEntity
  8
0
  6
Continuous
 62
     7
370
    25
100
AcDbSpline
210
0.0
220
0.0
230
1.0
 70
     8
 71
     3
 72
    12
 73
     8
 74
     0
 42
0.00000001
 43
0.00000001
 40
0.0
 40
0.0
 40
0.0
 40
0.0
 40
0.0899624017094516
 40
0.3826187422397868
 40
0.649552090096948
 40
0.8953908886718093
 40
1.0
 40
1.0
 40
1.0
 40
1.0
 10
116.1195160711726
 20
59.17037670443414
 30
0.0
 10
116.1026064015897
 20
59.18594419871695
 30
0.0
 10
116.0306879513866
 20
59.25215424835027
 30
0.0
 10
115.9423636550007
 20
59.39623316207947
 30
0.0
 10
115.8666119484635
 20
59.58711801357202
 30
0.0
 10
115.8341533656127
 20
59.74339887015379
 30
0.0
 10
115.8364768050663
 20
59.83288949191166
 30
0.0
 10
115.837170354463
 20
59.85960254726101
 30
0.0
  0
LINE
  5
80
330
1F
100
AcDbEntity
  8
0
  6
Continuous
 62
     7
370
    25
100
AcDbLine
 10
115.8340662327
 20
59.8601502035
 30
0.0
 11
115.8340662327
 21
60.8646810236
 31
0.0
  0
LINE
  5
81
330
1F
100
AcDbEntity
  8
0
  6
Continuous
 62
     7
370
    25
100
AcDbLine
 10
104.0340662327
 20
60.8646810236
 30
0.0
 11
104.0340662327
 21
59.8646810236
 31
0.0
  0
LINE
  5
82
330
1F
100
AcDbEntity
  8
0
  6
Continuous
 62
     7
370
    25
100
AcDbLine
 10
104.8347537327
 20
38.3646810236
 30
0.0
 11
105.1517866058
 21
28.219629083
 31
0.0
  0
LINE
  5
83
330
1F
100
AcDbEntity
  8
0
  6
Continuous
 62
     7
370
    25
100
AcDbLine
 10
114.7163458595
 20
28.219629083
 30
0.0
 11
115.0333787327
 21
38.3646810236
 31
0.0
  0
LINE
  5
84
330
1F
100
AcDbEntity
  8
0
  6
Continuous
 62
     7
370
    25
100
AcDbLine
 10
105.1517866058
 20
28.219629083
 30
0.0
 11
105.9340662327
 21
26.8646810236
 31
0.0
  0
LINE
  5
85
330
1F
100
AcDbEntity
  8
0
  6
Continuous
 62
     7
370
    25
100
AcDbLine
 10
113.9340662327
 20
26.8646810236
 30
0.0
 11
114.7163458595
 21
28.219629083
 31
0.0
  0
LINE
  5
86
330
1F
100
AcDbEntity
  8
0
  6
Continuous
 62
     7
370
    25
100
AcDbLine
 10
103.7638993253
 20
59.1594187528
 30
0.0
 11
103.2195350529
 21
60.1022853306
 31
0.0
  0
LINE
  5
87
330
1F
100
AcDbEntity
  8
0
  6
Continuous
 62
     7
370
    25
100
AcDbLine
 10
118.4340662327
 20
38.3646810236
 30
0.0
 11
119.6716705397
 21
39.0792122034
 31
0.0
  0
LINE
  5
88
330
1F
100
AcDbEntity
  8
0
  6
Continuous
 62
     7
370
    25
100
AcDbLine
 10
116.6485974125
 20
60.1022853306
 30
0.0
 11
116.10423314
 21
59.1594187528
 31
0.0
  0
LINE
  5
89
330
1F
100
AcDbEntity
  8
0
  6
Continuous
 62
     7
370
    25
100
AcDbLine
 10
99.1485974125
 20
60.1022853306
 30
0.0
 11
98.4340662327
 21
58.8646810236
 31
0.0
  0
LINE
  5
8A
330
1F
100
AcDbEntity
  8
0
  6
Continuous
 62
     7
370
    25
100
AcDbLine
 10
100.1964619257
 20
39.0792122034
 30
0.0
 11
101.4340662327
 21
38.3646810236
 31
0.0
  0
LINE
  5
8B
330
1F
100
AcDbEntity
  8
0
  6
Continuous
 62
     7
370
    25
100
AcDbLine
 10
98.4340662327
 20
41.8646810236
 30
0.0
 11
99.1485974125
 21
40.6270767165
 31
0.0
  0
LINE
  5
8C
330
1F
100
AcDbEntity
  8
0
  6
Continuous
 62
     7
370
    25
100
AcDbLine
 10
119.6716705397
 20
39.0766518221
 30
0.0
 11
119.6716705397
 21
40.6270767165
 31
0.0
  0
LINE
  5
8D
330
1F
100
AcDbEntity
  8
0
  6
Continuous
 62
     7
370
    25
100
AcDbLine
 10
119.6716705397
 20
40.6270767165
 30
0.0
 11
121.077765541
 21
40.6270767165
 31
0.0
  0
LINE
  5
8E
330
1F
100
AcDbEntity
  8
0
  6
Continuous
 62
     7
370
    25
100
AcDbLine
 10
103.2221031083
 20
60.1022853306
 30
0.0
 11
99.1460370312
 21
60.1022853306
 31
0.0
  0
LINE
  5
8F
330
1F
100
AcDbEntity
  8
0
  6
Continuous
 62
     7
370
    25
100
AcDbLine
 10
121.077765541
 20
60.1022853306
 30
0.0
 11
116.646029357
 21
60.1022853306
 31
0.0
  0
LINE
  5
90
330
1F
100
AcDbEntity
  8
0
  6
Continuous
 62
     7
370
    25
100
AcDbLine
 10
100.1964619257
 20
40.6270767165
 30
0.0
 11
100.1964619257
 21
39.0766518221
 31
0.0
  0
LINE
  5
91
330
1F
100
AcDbEntity
  8
0
  6
Continuous
 62
     7
370
    25
100
AcDbLine
 10
99.1460370312
 20
40.6270767165
 30
0.0
 11
100.1964619257
 21
40.6270767165
 31
0.0
  0
LINE
  5
92
330
1F
100
AcDbEntity
  8
0
  6
Continuous
 62
     7
370
    25
100
AcDbLine
 10
95.6340662327
 20
43.7407370144
 30
0.0
 11
95.6340662327
 21
42.3646810236
 31
0.0
  0
LINE
  5
93
330
1F
100
AcDbEntity
  8
0
  6
Continuous
 62
     7
370
    25
100
AcDbLine
 10
95.6340662327
 20
58.3646810236
 30
0.0
 11
95.6340662327
 21
43.7407370144
 31
0.0
  0
LINE
  5
94
330
1F
100
AcDbEntity
  8
0
  6
Continuous
 62
     7
370
    25
100
AcDbLine
 10
95.4340662327
 20
43.9063356147
 30
0.0
 11
95.4340662327
 21
58.1646810236
 31
0.0
  0
LINE
  5
95
330
1F
100
AcDbEntity
  8
0
  6
Continuous
 62
     7
370
    25
100
AcDbLine
 10
95.4340662327
 20
42.5646810236
 30
0.0
 11
95.4340662327
 21
43.9063356147
 31
0.0
  0
LINE
  5
96
330
1F
100
AcDbEntity
  8
0
  6
Continuous
 62
     7
370
    25
100
AcDbLine
 10
92.4340662327
 20
47.4667055196
 30
0.0
 11
92.4340662327
 21
46.8646810236
 31
0.0
  0
LINE
  5
97
330
1F
100
AcDbEntity
  8
0
  6
Continuous
 62
     7
370
    25
100
AcDbLine
 10
92.4340662327
 20
53.8646810236
 30
0.0
 11
92.4340662327
 21
47.4667055196
 31
0.0
  0
LINE
  5
98
330
1F
100
AcDbEntity
  8
0
  6
Continuous
 62
     7
370
    25
100
AcDbLine
 10
84.4340662327
 20
47.4667055196
 30
0.0
 11
84.4340662327
 21
46.8646810236
 31
0.0
  0
LINE
  5
99
330
1F
100
AcDbEntity
  8
0
  6
Continuous
 62
     7
370
    25
100
AcDbLine
 10
84.4340662327
 20
53.8646810236
 30
0.0
 11
84.4340662327
 21
47.4667055196
 31
0.0
  0
LINE
  5
9A
330
1F
100
AcDbEntity
  8
0
  6
Continuous
 62
     7
370
    25
100
AcDbLine
 10
76.4340662327
 20
47.4667055196
 30
0.0
 11
76.4340662327
 21
46.8646810236
 31
0.0
  0
LINE
  5
9B
330
1F
100
AcDbEntity
  8
0
  6
Continuous
 62
     7
370
    25
100
AcDbLine
 10
76.4340662327
 20
53.8646810236
 30
0.0
 11
76.4340662327
 21
47.4667055196
 31
0.0
  0
LINE
  5
9C
330
1F
100
AcDbEntity
  8
0
  6
Continuous
 62
     7
370
    25
100
AcDbLine
 10
80.4340662327
 20
47.4667055196
 30
0.0
 11
80.4340662327
 21
46.8646810236
 31
0.0
  0
LINE
  5
9D
330
1F
100
AcDbEntity
  8
0
  6
Continuous
 62
     7
370
    25
100
AcDbLine
 10
80.4340662327
 20
53.8646810236
 30
0.0
 11
80.4340662327
 21
47.4667055196
 31
0.0
  0
LINE
  5
9E
330
1F
100
AcDbEntity
  8
0
  6
Continuous
 62
     7
370
    25
100
AcDbLine
 10
88.4340662327
 20
47.4667055196
 30
0.0
 11
88.4340662327
 21
46.8646810236
 31
0.0
  0
LINE
  5
9F
330
1F
100
AcDbEntity
  8
0
  6
Continuous
 62
     7
370
    25
100
AcDbLine
 10
88.4340662327
 20
53.8646810236
 30
0.0
 11
88.4340662327
 21
47.4667055196
 31
0.0
  0
LINE
  5
A0
330
1F
100
AcDbEntity
  8
0
  6
Continuous
 62
     7
370
    25
100
AcDbLine
 10
72.4340662327
 20
48.4312868491
 30
0.0
 11
72.4340662327
 21
52.6997178799
 31
0.0
  0
LINE
  5
A1
330
1F
100
AcDbEntity
  8
0
  6
Continuous
 62
     7
370
    25
100
AcDbLine
 10
72.4340662327
 20
48.0296441672
 30
0.0
 11
72.4340662327
 21
48.4312868491
 31
0.0
  0
SPLINE
  5
A2
330
1F
100
AcDbEntity
  8
0
  6
Continuous
 62
     7
370
    25
100
AcDbSpline
210
0.0
220
0.0
230
1.0
 70
     8
 71
     3
 72
    15
 73
    11
 74
     0
 42
0.00000001
 43
0.00000001
 40
0.0
 40
0.0
 40
0.0
 40
0.0
 40
0.0090459071881971
 40
0.1032433785236875
 40
0.1542564497735248
 40
0.313316902671511
 40
0.5243720399414434
 40
0.6678060008509189
 40
0.9918332554187028
 40
1.0
 40
1.0
 40
1.0
 40
1.0
 10
115.1731515653455
 20
77.46468102355591
 30
0.0
 10
115.1731458733788
 20
77.46636212214034
 30
0.0
 10
115.173080909428
 20
77.48554895369585
 30
0.0
 10
115.1710852229921
 20
77.51424323321585
 30
0.0
 10
115.1632682267757
 20
77.56491927318775
 30
0.0
 10
115.1460984030207
 20
77.62279557276467
 30
0.0
 10
115.1195145064532
 20
77.66766108749937
 30
0.0
 10
115.0816852079645
 20
77.70502347075387
 30
0.0
 10
115.0534044279543
 20
77.71456948302345
 30
0.0
 10
115.033573280423
 20
77.71467834721012
 30
0.0
 10
115.0330857462802
 20
77.71468102355591
 30
0.0
  0
LINE
  5
A3
330
1F
100
AcDbEntity
  8
0
  6
Continuous
 62
     7
370
    25
100
AcDbLine
 10
115.1731515653
 20
77.4646810236
 30
0.0
 11
104.6949809
 21
77.4646810236
 31
0.0
  0
SPLINE
  5
A4
330
1F
100
AcDbEntity
  8
0
  6
Continuous
 62
     7
370
    25
100
AcDbSpline
210
0.0
220
0.0
230
1.0
 70
     8
 71
     3
 72
    15
 73
    11
 74
     0
 42
0.00000001
 43
0.00000001
 40
0.0
 40
0.0
 40
0.0
 40
0.0
 40
0.0081667445812973
 40
0.3321939991490813
 40
0.4756279600585592
 40
0.6866830973284899
 40
0.845743550226481
 40
0.8967566214763184
 40
0.9909540928118029
 40
1.0
 40
1.0
 40
1.0
 40
1.0
 10
104.8350467190946
 20
77.71468102355591
 30
0.0
 10
104.8345591849517
 20
77.71467834721012
 30
0.0
 10
104.8147280374204
 20
77.71456948302345
 30
0.0
 10
104.7864472574102
 20
77.70502347075389
 30
0.0
 10
104.7486179589216
 20
77.66766108749935
 30
0.0
 10
104.722034062354
 20
77.62279557276467
 30
0.0
 10
104.7048642385991
 20
77.56491927318775
 30
0.0
 10
104.6970472423826
 20
77.51424323321585
 30
0.0
 10
104.6950515559467
 20
77.48554895369583
 30
0.0
 10
104.6949865919959
 20
77.46636212214034
 30
0.0
 10
104.6949809000293
 20
77.46468102355591
 30
0.0
  0
LINE
  5
A5
330
1F
100
AcDbEntity
  8
0
  6
Continuous
 62
     7
370
    25
100
AcDbLine
 10
104.8350467191
 20
77.7146810236
 30
0.0
 11
115.0330857463
 21
77.7146810236
 31
0.0
  0
LINE
  5
A6
330
1F
100
AcDbEntity
  8
0
  6
Continuous
 62
     7
370
    25
100
AcDbLine
 10
115.1731515653
 20
76.8646810236
 30
0.0
 11
115.1731515653
 21
77.4646810236
 31
0.0
  0
LINE
  5
A7
330
1F
100
AcDbEntity
  8
0
  6
Continuous
 62
     7
370
    25
100
AcDbLine
 10
104.6949809
 20
77.4646810236
 30
0.0
 11
104.6949809
 21
76.8646810236
 31
0.0
  0
LINE
  5
A8
330
1F
100
AcDbEntity
  8
0
  6
Continuous
 62
     7
370
    25
100
AcDbLine
 10
104.6949809
 20
76.8646810236
 30
0.0
 11
115.1731515653
 21
76.8646810236
 31
0.0
  0
SPLINE
  5
A9
330
1F
100
AcDbEntity
  8
0
  6
Continuous
 62
     7
370
    25
100
AcDbSpline
210
0.0
220
0.0
230
1.0
 70
     8
 71
     3
 72
    15
 73
    11
 74
     0
 42
0.00000001
 43
0.00000001
 40
0.0
 40
0.0
 40
0.0
 40
0.0
 40
0.0089557228015919
 40
0.0999003359608153
 40
0.1531632460581696
 40
0.3125636920784855
 40
0.5249666935695051
 40
0.6689893599351772
 40
0.991915253381045
 40
1.0
 40
1.0
 40
1.0
 40
1.0
 10
104.4568406576357
 20
77.46468102355591
 30
0.0
 10
104.4568564132143
 20
77.46636214912883
 30
0.0
 10
104.4570321653709
 20
77.48511496375326
 30
0.0
 10
104.4624611813904
 20
77.51387719286075
 30
0.0
 10
104.4839966650977
 20
77.56476426632906
 30
0.0
 10
104.5317020933625
 20
77.62289991646173
 30
0.0
 10
104.6040930383544
 20
77.66760778964513
 30
0.0
 10
104.7060121503721
 20
77.70488961310689
 30
0.0
 10
104.7813672418272
 20
77.71456876794448
 30
0.0
 10
104.8337668875505
 20
77.71467834714623
 30
0.0
 10
104.8350467190946
 20
77.71468102355591
 30
0.0
  0
LINE
  5
AA
330
1F
100
AcDbEntity
  8
0
  6
Continuous
 62
     7
370
    25
100
AcDbLine
 10
104.4568406576
 20
77.4646810236
 30
0.0
 11
104.6949809
 21
77.4646810236
 31
0.0
  0
SPLINE
  5
AB
330
1F
100
AcDbEntity
  8
0
  6
Continuous
 62
     7
370
    25
100
AcDbSpline
210
0.0
220
0.0
230
1.0
 70
     8
 71
     3
 72
    15
 73
    11
 74
     0
 42
0.00000001
 43
0.00000001
 40
0.0
 40
0.0
 40
0.0
 40
0.0
 40
0.0080847466189581
 40
0.3310106400648237
 40
0.4750333064304937
 40
0.6874363079215094
 40
0.8468367539418249
 40
0.9000996640391792
 40
0.9910442771984082
 40
1.0
 40
1.0
 40
1.0
 40
1.0
 10
115.0330857462802
 20
77.71468102355591
 30
0.0
 10
115.0343655778243
 20
77.71467834714623
 30
0.0
 10
115.0867652235475
 20
77.71456876794453
 30
0.0
 10
115.1621203150026
 20
77.70488961310689
 30
0.0
 10
115.2640394270203
 20
77.66760778964513
 30
0.0
 10
115.3364303720122
 20
77.62289991646173
 30
0.0
 10
115.384135800277
 20
77.56476426632908
 30
0.0
 10
115.4056712839843
 20
77.51387719286076
 30
0.0
 10
115.4111003000039
 20
77.48511496375325
 30
0.0
 10
115.4112760521604
 20
77.46636214912883
 30
0.0
 10
115.411291807739
 20
77.46468102355591
 30
0.0
  0
LINE
  5
AC
330
1F
100
AcDbEntity
  8
0
  6
Continuous
 62
     7
370
    25
100
AcDbLine
 10
115.1731515653
 20
77.4646810236
 30
0.0
 11
115.4112918077
 21
77.4646810236
 31
0.0
  0
LINE
  5
AD
330
1F
100
AcDbEntity
  8
0
  6
Continuous
 62
     7
370
    25
100
AcDbLine
 10
115.4112918077
 20
77.4646810236
 30
0.0
 11
115.4112918077
 21
76.8646810236
 31
0.0
  0
LINE
  5
AE
330
1F
100
AcDbEntity
  8
0
  6
Continuous
 62
     7
370
    25
100
AcDbLine
 10
115.4112918077
 20
76.8646810236
 30
0.0
 11
115.1731515653
 21
76.8646810236
 31
0.0
  0
LINE
  5
AF
330
1F
100
AcDbEntity
  8
0
  6
Continuous
 62
     7
370
    25
100
AcDbLine
 10
104.4568406576
 20
76.8646810236
 30
0.0
 11
104.4568406576
 21
77.4646810236
 31
0.0
  0
LINE
  5
B0
330
1F
100
AcDbEntity
  8
0
  6
Continuous
 62
     7
370
    25
100
AcDbLine
 10
104.6949809
 20
76.8646810236
 30
0.0
 11
104.4568406576
 21
76.8646810236
 31
0.0
  0
LINE
  5
B1
330
1F
100
AcDbEntity
  8
0
  6
Continuous
 62
     7
370
    25
100
AcDbLine
 10
115.6840662327
 20
77.4646810236
 30
0.0
 11
115.9340662327
 21
77.4646810236
 31
0.0
  0
LINE
  5
B2
330
1F
100
AcDbEntity
  8
0
  6
Continuous
 62
     7
370
    25
100
AcDbLine
 10
115.6840662327
 20
77.4646810236
 30
0.0
 11
115.6840662327
 21
77.7146810236
 31
0.0
  0
ARC
  5
B3
330
1F
100
AcDbEntity
  8
0
  6
Continuous
 62
     7
370
    25
100
AcDbCircle
 10
115.6840662327
 20
77.4646810236
 30
0.0
 40
0.25
100
AcDbArc
 50
0.0
 51
90.0
  0
LINE
  5
B4
330
1F
100
AcDbEntity
  8
0
  6
Continuous
 62
     7
370
    25
100
AcDbLine
 10
103.9340662327
 20
76.8646810236
 30
0.0
 11
103.9340662327
 21
77.4646810236
 31
0.0
  0
LINE
  5
B5
330
1F
100
AcDbEntity
  8
0
  6
Continuous
 62
     7
370
    25
100
AcDbLine
 10
103.9340662327
 20
77.4646810236
 30
0.0
 11
104.1840662327
 21
77.4646810236
 31
0.0
  0
LINE
  5
B6
330
1F
100
AcDbEntity
  8
0
  6
Continuous
 62
     7
370
    25
100
AcDbLine
 10
104.1840662327
 20
77.4646810236
 30
0.0
 11
104.1840662327
 21
76.8646810236
 31
0.0
  0
LINE
  5
B7
330
1F
100
AcDbEntity
  8
0
  6
Continuous
 62
     7
370
    25
100
AcDbLine
 10
104.1840662327
 20
76.8646810236
 30
0.0
 11
103.9340662327
 21
76.8646810236
 31
0.0
  0
ARC
  5
B8
330
1F
100
AcDbEntity
  8
0
  6
Continuous
 62
     7
370
    25
100
AcDbCircle
 10
104.1840662327
 20
77.4646810236
 30
0.0
 40
0.25
100
AcDbArc
 50
90.0
 51
180.0
  0
LINE
  5
B9
330
1F
100
AcDbEntity
  8
0
  6
Continuous
 62
     7
370
    25
100
AcDbLine
 10
104.1840662327
 20
77.7146810236
 30
0.0
 11
104.1840662327
 21
77.4646810236
 31
0.0
  0
LINE
  5
BA
330
1F
100
AcDbEntity
  8
0
  6
Continuous
 62
     7
370
    25
100
AcDbLine
 10
104.4568406576
 20
77.4646810236
 30
0.0
 11
104.1840662327
 21
77.4646810236
 31
0.0
  0
LINE
  5
BB
330
1F
100
AcDbEntity
  8
0
  6
Continuous
 62
     7
370
    25
100
AcDbLine
 10
104.1840662327
 20
76.8646810236
 30
0.0
 11
104.4568406576
 21
76.8646810236
 31
0.0
  0
LINE
  5
BC
330
1F
100
AcDbEntity
  8
0
  6
Continuous
 62
     7
370
    25
100
AcDbLine
 10
115.6840662327
 20
76.8646810236
 30
0.0
 11
115.6840662327
 21
77.4646810236
 31
0.0
  0
LINE
  5
BD
330
1F
100
AcDbEntity
  8
0
  6
Continuous
 62
     7
370
    25
100
AcDbLine
 10
115.9340662327
 20
77.4646810236
 30
0.0
 11
115.9340662327
 21
76.8646810236
 31
0.0
  0
LINE
  5
BE
330
1F
100
AcDbEntity
  8
0
  6
Continuous
 62
     7
370
    25
100
AcDbLine
 10
115.9340662327
 20
76.8646810236
 30
0.0
 11
115.6840662327
 21
76.8646810236
 31
0.0
  0
LINE
  5
BF
330
1F
100
AcDbEntity
  8
0
  6
Continuous
 62
     7
370
    25
100
AcDbLine
 10
115.6840662327
 20
77.4646810236
 30
0.0
 11
115.4112918077
 21
77.4646810236
 31
0.0
  0
LINE
  5
C0
330
1F
100
AcDbEntity
  8
0
  6
Continuous
 62
     7
370
    25
100
AcDbLine
 10
115.4112918077
 20
76.8646810236
 30
0.0
 11
115.6840662327
 21
76.8646810236
 31
0.0
  0
LINE
  5
C1
330
1F
100
AcDbEntity
  8
0
  6
Continuous
 62
     7
370
    25
100
AcDbLine
 10
104.1840662327
 20
77.7146810236
 30
0.0
 11
104.8350467191
 21
77.7146810236
 31
0.0
  0
LINE
  5
C2
330
1F
100
AcDbEntity
  8
0
  6
Continuous
 62
     7
370
    25
100
AcDbLine
 10
115.0330857463
 20
77.7146810236
 30
0.0
 11
115.6840662327
 21
77.7146810236
 31
0.0
  0
LINE
  5
C3
330
1F
100
AcDbEntity
  8
0
  6
Continuous
 62
     7
370
    25
100
AcDbLine
 10
104.9340662327
 20
77.7146810236
 30
0.0
 11
104.9340662327
 21
77.7246810236
 31
0.0
  0
LINE
  5
C4
330
1F
100
AcDbEntity
  8
0
  6
Continuous
 62
     7
370
    25
100
AcDbLine
 10
114.9340662327
 20
77.7146810236
 30
0.0
 11
114.9340662327
 21
77.7246810236
 31
0.0
  0
LINE
  5
C5
330
1F
100
AcDbEntity
  8
0
  6
Continuous
 62
     7
370
    25
100
AcDbLine
 10
104.9340662327
 20
77.7246810236
 30
0.0
 11
114.9340662327
 21
77.7246810236
 31
0.0
  0
LINE
  5
C6
330
1F
100
AcDbEntity
  8
0
  6
Continuous
 62
     7
370
    25
100
AcDbLine
 10
107.9340662327
 20
60.8646810236
 30
0.0
 11
116.9340662327
 21
60.8646810236
 31
0.0
  0
LINE
  5
C7
330
1F
100
AcDbEntity
  8
0
  6
Continuous
 62
     7
370
    25
100
AcDbLine
 10
107.9340662327
 20
60.9024979474
 30
0.0
 11
107.9340662327
 21
60.8646810236
 31
0.0
  0
SPLINE
  5
C8
330
1F
100
AcDbEntity
  8
0
  6
Continuous
 62
     7
370
    25
100
AcDbSpline
210
0.0
220
0.0
230
1.0
 70
     8
 71
     3
 72
     9
 73
     5
 74
     0
 42
0.00000001
 43
0.00000001
 40
0.0
 40
0.0
 40
0.0
 40
0.0
 40
0.4875141023677128
 40
0.9999999999999999
 40
0.9999999999999999
 40
0.9999999999999999
 40
0.9999999999999999
 10
107.7781209822602
 20
60.86468102355598
 30
0.0
 10
107.8044275561827
 20
60.86640836952768
 30
0.0
 10
107.858388198131
 20
60.86995154081916
 30
0.0
 10
107.9084237288258
 20
60.89147002676847
 30
0.0
 10
107.9340662326874
 20
60.9024979473559
 30
0.0
  0
SPLINE
  5
C9
330
1F
100
AcDbEntity
  8
0
  6
Continuous
 62
     7
370
    25
100
AcDbSpline
210
0.0
220
0.0
230
1.0
 70
     8
 71
     3
 72
    17
 73
    13
 74
     0
 42
0.00000001
 43
0.00000001
 40
0.0
 40
0.0
 40
0.0
 40
0.0
 40
0.3241697628029873
 40
0.5422758463620719
 40
0.689509052693928
 40
0.7894036290694505
 40
0.8577090008137825
 40
0.9049823971474138
 40
0.9551712229700868
 40
0.9753097783197817
 40
0.9919572060138848
 40
1.0
 40
1.0
 40
1.0
 40
1.0
 10
105.4595193486052
 20
68.86468102355354
 30
0.0
 10
105.6022347086224
 20
67.95206752094788
 30
0.0
 10
105.8409710175644
 20
66.42543451468651
 30
0.0
 10
106.220558212016
 20
64.49866161240556
 30
0.0
 10
106.5296924203631
 20
63.21102614147279
 30
0.0
 10
106.7858059485632
 20
62.35187417475105
 30
0.0
 10
107.0001169514582
 20
61.77840628637364
 30
0.0
 10
107.2033511724861
 20
61.35687413234368
 30
0.0
 10
107.3878964370287
 20
61.07638158954825
 30
0.0
 10
107.5739675233968
 20
60.92083292096759
 30
0.0
 10
107.6891781226527
 20
60.87022232177009
 30
0.0
 10
107.7562669281256
 20
60.86604256996545
 30
0.0
 10
107.7781209822602
 20
60.86468102355598
 30
0.0
  0
LINE
  5
CA
330
1F
100
AcDbEntity
  8
0
  6
Continuous
 62
     7
370
    25
100
AcDbLine
 10
105.4595193486
 20
68.8646810236
 30
0.0
 11
117.3840662327
 21
68.8646810235
 31
0.0
  0
SPLINE
  5
CB
330
1F
100
AcDbEntity
  8
0
  6
Continuous
 62
     7
370
    25
100
AcDbSpline
210
0.0
220
0.0
230
1.0
 70
     8
 71
     3
 72
     9
 73
     5
 74
     0
 42
0.00000001
 43
0.00000001
 40
0.0
 40
0.0
 40
0.0
 40
0.0
 40
0.4978401817595073
 40
1.0
 40
1.0
 40
1.0
 40
1.0
 10
106.219730104367
 20
69.85942460152283
 30
0.0
 10
106.0834081959963
 20
69.70291341883024
 30
0.0
 10
105.8095815476754
 20
69.38853304451123
 30
0.0
 10
105.5765422965788
 20
69.03980049648496
 30
0.0
 10
105.4595193486052
 20
68.86468102355354
 30
0.0
  0
LINE
  5
CC
330
1F
100
AcDbEntity
  8
0
  6
Continuous
 62
     7
370
    25
100
AcDbLine
 10
104.7102640583
 20
76.8646810235
 30
0.0
 11
102.9821253944
 21
69.8594246015
 31
0.0
  0
LINE
  5
CD
330
1F
100
AcDbEntity
  8
0
  6
Continuous
 62
     7
370
    25
100
AcDbLine
 10
115.1731515653
 20
76.8646810235
 30
0.0
 11
104.7102640583
 21
76.8646810235
 31
0.0
  0
SPLINE
  5
CE
330
1F
100
AcDbEntity
  8
0
  6
Continuous
 62
     7
370
    25
100
AcDbSpline
210
0.0
220
0.0
230
1.0
 70
     8
 71
     3
 72
    14
 73
    10
 74
     0
 42
0.00000001
 43
0.00000001
 40
0.0
 40
0.0
 40
0.0
 40
0.0
 40
0.1576095309202822
 40
0.3152382602707094
 40
0.4726926441579498
 40
0.6301650083177254
 40
0.7907313191165901
 40
0.9513050385928076
 40
1.0
 40
1.0
 40
1.0
 40
1.0
 10
103.4340662326874
 20
60.86468102355592
 30
0.0
 10
103.3674952179053
 20
61.07818281203332
 30
0.0
 10
103.2343450793204
 20
61.50521239565883
 30
0.0
 10
102.9057781175697
 20
62.09045947451514
 30
0.0
 10
102.4923884768377
 20
62.61261401533756
 30
0.0
 10
101.996713557893
 20
63.06159214275743
 30
0.0
 10
101.4304238526085
 20
63.42087387456381
 30
0.0
 10
100.9541731962155
 20
63.625440053665
 30
0.0
 10
100.6739786280227
 20
63.70623460201629
 30
0.0
 10
100.6087798432497
 20
63.72503477506307
 30
0.0
  0
LINE
  5
CF
330
1F
100
AcDbEntity
  8
0
  6
Continuous
 62
     7
370
    25
100
AcDbLine
 10
100.6087798432
 20
63.7250347751
 30
0.0
 11
94.8290229934
 21
65.2936562155
 31
0.0
  0
SPLINE
  5
D0
330
1F
100
AcDbEntity
  8
0
  6
Continuous
 62
     7
370
    25
100
AcDbSpline
210
0.0
220
0.0
230
1.0
 70
     8
 71
     3
 72
    11
 73
     7
 74
     0
 42
0.00000001
 43
0.00000001
 40
0.0
 40
0.0
 40
0.0
 40
0.0
 40
0.2488466353289361
 40
0.4976946020535204
 40
0.7488461225871278
 40
1.0
 40
1.0
 40
1.0
 40
1.0
 10
87.75862937115072
 20
66.61685671653146
 30
0.0
 10
88.35306542028698
 20
66.54733234003781
 30
0.0
 10
89.54194069895037
 20
66.40828321507665
 30
0.0
 10
91.31666536965942
 20
66.10795447695136
 30
0.0
 10
93.0832460114018
 20
65.74604485869622
 30
0.0
 10
94.24709551242147
 20
65.44445290163168
 30
0.0
 10
94.82902299339445
 20
65.29365621554595
 30
0.0
  0
LINE
  5
D1
330
1F
100
AcDbEntity
  8
0
  6
Continuous
 62
     7
370
    25
100
AcDbLine
 10
87.7586293712
 20
66.6168567165
 30
0.0
 11
87.7586293712
 21
69.8594246015
 31
0.0
  0
LINE
  5
D2
330
1F
100
AcDbEntity
  8
0
  6
Continuous
 62
     7
370
    25
100
AcDbLine
 10
87.7586293712
 20
69.8594246015
 30
0.0
 11
106.2197301044
 21
69.8594246015
 31
0.0
  0
LINE
  5
D3
330
1F
100
AcDbEntity
  8
0
  6
Continuous
 62
     7
370
    25
100
AcDbLine
 10
107.7781209823
 20
60.8646810236
 30
0.0
 11
103.4340662327
 21
60.8646810236
 31
0.0
  0
LINE
  5
D4
330
1F
100
AcDbEntity
  8
0
  6
Continuous
 62
     7
370
    25
100
AcDbLine
 10
107.9340662327
 20
60.9024979474
 30
0.0
 11
107.9272668748
 21
60.8646810236
 31
0.0
  0
LINE
  5
D5
330
1F
100
AcDbEntity
  8
0
  6
Continuous
 62
     7
370
    25
100
AcDbLine
 10
107.9272668748
 20
60.8646810236
 30
0.0
 11
107.7781209823
 21
60.8646810236
 31
0.0
  0
LINE
  5
D6
330
1F
100
AcDbEntity
  8
0
  6
Continuous
 62
     7
370
    25
100
AcDbLine
 10
107.9340662327
 20
60.8646810236
 30
0.0
 11
107.9272668748
 21
60.8646810236
 31
0.0
  0
LINE
  5
D7
330
1F
100
AcDbEntity
  8
0
  6
Continuous
 62
     7
370
    25
100
AcDbLine
 10
69.9340662327
 20
78.8646810236
 30
0.0
 11
87.7586293712
 21
78.8646810236
 31
0.0
  0
LINE
  5
D8
330
1F
100
AcDbEntity
  8
0
  6
Continuous
 62
     7
370
    25
100
AcDbLine
 10
87.7586293712
 20
78.8646810236
 30
0.0
 11
87.7586293712
 21
69.8594246015
 31
0.0
  0
LINE
  5
D9
330
1F
100
AcDbEntity
  8
0
  6
Continuous
 62
     7
370
    25
100
AcDbLine
 10
83.0423983749
 20
66.8646810236
 30
0.0
 11
74.9340662327
 21
66.8646810236
 31
0.0
  0
ARC
  5
DA
330
1F
100
AcDbEntity
  8
0
  6
Continuous
 62
     7
370
    25
100
AcDbCircle
 10
74.9340662327
 20
71.8646810236
 30
0.0
 40
5.0
100
AcDbArc
 50
180.0
 51
270.0
  0
LINE
  5
DB
330
1F
100
AcDbEntity
  8
0
  6
Continuous
 62
     7
370
    25
100
AcDbLine
 10
69.9340662327
 20
71.8646810236
 30
0.0
 11
69.9340662327
 21
78.8646810236
 31
0.0
  0
ARC
  5
DC
330
1F
100
AcDbEntity
  8
0
  6
Continuous
 62
     7
370
    25
100
AcDbCircle
 10
83.0423983749
 20
21.8645517694
 30
0.0
 40
45.00012925418374
100
AcDbArc
 50
83.9840777705
 51
90.0
  0
LINE
  5
DD
330
1F
100
AcDbEntity
  8
0
  6
Continuous
 62
     7
370
    25
100
AcDbLine
 10
87.7586293712
 20
78.8646810236
 30
0.0
 11
89.9340662327
 21
78.8646810236
 31
0.0
  0
LINE
  5
DE
330
1F
100
AcDbEntity
  8
0
  6
Continuous
 62
     7
370
    25
100
AcDbLine
 10
89.9340662327
 20
78.8646810236
 30
0.0
 11
89.9340662327
 21
76.8836365469
 31
0.0
  0
ARC
  5
DF
330
1F
100
AcDbEntity
  8
0
  6
Continuous
 62
     7
370
    25
100
AcDbCircle
 10
95.9340662327
 20
76.8836365469
 30
0.0
 40
6.000000000000004
100
AcDbArc
 50
180.0
 51
275.5801667845
  0
ARC
  5
E0
330
1F
100
AcDbEntity
  8
0
  6
Continuous
 62
     7
370
    25
100
AcDbCircle
 10
95.5451126684
 20
80.8646810236
 30
0.0
 40
10.00000000000848
100
AcDbArc
 50
275.5801667845
 51
336.4218215217
  0
LINE
  5
E1
330
1F
100
AcDbEntity
  8
0
  6
Continuous
 62
     7
370
    25
100
AcDbLine
 10
103.4340662327
 20
60.8646810236
 30
0.0
 11
102.9340662327
 21
60.8646810236
 31
0.0
  0
LINE
  5
E2
330
1F
100
AcDbEntity
  8
0
  6
Continuous
 62
     7
370
    25
100
AcDbLine
 10
104.6949809
 20
76.8646810235
 30
0.0
 11
104.7102640583
 21
76.8646810235
 31
0.0
  0
LINE
  5
E3
330
1F
100
AcDbEntity
  8
0
  6
Continuous
 62
     7
370
    25
100
AcDbLine
 10
102.5728503005
 20
38.3646810236
 30
0.0
 11
109.9340662327
 21
38.3646810236
 31
0.0
  0
SPLINE
  5
E4
330
1F
100
AcDbEntity
  8
0
  6
Continuous
 62
     7
370
    25
100
AcDbSpline
210
0.0
220
0.0
230
1.0
 70
     8
 71
     3
 72
    10
 73
     6
 74
     0
 42
0.00000001
 43
0.00000001
 40
0.0
 40
0.0
 40
0.0
 40
0.0
 40
0.5
 40
0.5
 40
1.0
 40
1.0
 40
1.0
 40
1.0
 10
104.8822513772782
 20
39.04240242881564
 30
0.0
 10
104.5035022298869
 20
38.83359250414937
 30
0.0
 10
104.1222969534756
 20
38.66305836440212
 30
0.0
 10
103.3530663322878
 20
38.4282725593832
 30
0.0
 10
102.9649986274895
 20
38.36468102355591
 30
0.0
 10
102.5728503005196
 20
38.36468102355591
 30
0.0
  0
SPLINE
  5
E5
330
1F
100
AcDbEntity
  8
0
  6
Continuous
 62
     7
370
    25
100
AcDbSpline
210
0.0
220
0.0
230
1.0
 70
     8
 71
     3
 72
    10
 73
     6
 74
     0
 42
0.00000001
 43
0.00000001
 40
0.0
 40
0.0
 40
0.0
 40
0.0
 40
0.5
 40
0.5
 40
1.0
 40
1.0
 40
1.0
 40
1.0
 10
104.8822513772782
 20
39.0424024288161
 30
0.0
 10
104.9251891863774
 20
39.06607466872767
 30
0.0
 10
104.9886297762696
 20
39.07916865866293
 30
0.0
 10
105.1411189217784
 20
39.07925552612437
 30
0.0
 10
105.2293483109817
 20
39.06608573636501
 30
0.0
 10
105.3152640791704
 20
39.0424024288161
 30
0.0
  0
SPLINE
  5
E6
330
1F
100
AcDbEntity
  8
0
  6
Continuous
 62
     7
370
    25
100
AcDbSpline
210
0.0
220
0.0
230
1.0
 70
     8
 71
     3
 72
    10
 73
     6
 74
     0
 42
0.00000001
 43
0.00000001
 40
0.0
 40
0.0
 40
0.0
 40
0.0
 40
0.5
 40
0.5
 40
1.0
 40
1.0
 40
1.0
 40
1.0
 10
105.3152640791704
 20
39.04240242881607
 30
0.0
 10
106.0659427786662
 20
38.83547237528337
 30
0.0
 10
106.8302237228888
 20
38.66366676490968
 30
0.0
 10
108.3847984569764
 20
38.42671625837831
 30
0.0
 10
109.1603734244925
 20
38.36468102355591
 30
0.0
 10
109.9340662326874
 20
38.36468102355591
 30
0.0
  0
LINE
  5
E7
330
1F
100
AcDbEntity
  8
0
  6
Continuous
 62
     7
370
    25
100
AcDbLine
 10
103.9340662327
 20
57.7258969557
 30
0.0
 11
103.9340662327
 21
54.3646810236
 31
0.0
  0
SPLINE
  5
E8
330
1F
100
AcDbEntity
  8
0
  6
Continuous
 62
     7
370
    25
100
AcDbSpline
210
0.0
220
0.0
230
1.0
 70
     8
 71
     3
 72
     8
 73
     4
 74
     0
 42
0.00000001
 43
0.00000001
 40
0.0
 40
0.0
 40
0.0
 40
0.0
 40
1.0
 40
1.0
 40
1.0
 40
1.0
 10
103.4178301557082
 20
54.36468102355592
 30
0.0
 10
103.3669314387857
 20
54.57172606198491
 30
0.0
 10
103.3129973025349
 20
54.77796539166155
 30
0.0
 10
103.2563448274272
 20
54.98348317707293
 30
0.0
  0
SPLINE
  5
E9
330
1F
100
AcDbEntity
  8
0
  6
Continuous
 62
     7
370
    25
100
AcDbSpline
210
0.0
220
0.0
230
1.0
 70
     8
 71
     3
 72
    10
 73
     6
 74
     0
 42
0.00000001
 43
0.00000001
 40
0.0
 40
0.0
 40
0.0
 40
0.0
 40
0.5
 40
0.5
 40
1.0
 40
1.0
 40
1.0
 40
1.0
 10
103.2563448274272
 20
55.41649587896514
 30
0.0
 10
103.2326694330028
 20
55.37355234806392
 30
0.0
 10
103.2195783231182
 20
55.31010990343979
 30
0.0
 10
103.2194920018299
 20
55.15763106632082
 30
0.0
 10
103.2326609357737
 20
55.06940106421356
 30
0.0
 10
103.2563448274272
 20
54.98348317707293
 30
0.0
  0
SPLINE
  5
EA
330
1F
100
AcDbEntity
  8
0
  6
Continuous
 62
     7
370
    25
100
AcDbSpline
210
0.0
220
0.0
230
1.0
 70
     8
 71
     3
 72
    12
 73
     8
 74
     0
 42
0.00000001
 43
0.00000001
 40
0.0
 40
0.0
 40
0.0
 40
0.0
 40
0.2500000000000001
 40
0.2500000000000001
 40
0.5000000000000002
 40
0.5000000000000002
 40
1.0
 40
1.0
 40
1.0
 40
1.0
 10
103.9340662326874
 20
57.72589695572365
 30
0.0
 10
103.9340662326874
 20
57.53015469284414
 30
0.0
 10
103.9182232965984
 20
57.33348808365357
 30
0.0
 10
103.8567204363607
 20
56.94421985632528
 30
0.0
 10
103.8111167953171
 20
56.75081582337237
 30
0.0
 10
103.6346657778278
 20
56.17388677211562
 30
0.0
 10
103.464268410576
 20
55.7936373389126
 30
0.0
 10
103.2563448274272
 20
55.41649587896514
 30
0.0
  0
SPLINE
  5
EB
330
1F
100
AcDbEntity
  8
0
  6
Continuous
 62
     7
370
    25
100
AcDbSpline
210
0.0
220
0.0
230
1.0
 70
     8
 71
     3
 72
    10
 73
     6
 74
     0
 42
0.00000001
 43
0.00000001
 40
0.0
 40
0.0
 40
0.0
 40
0.0
 40
0.5
 40
0.5
 40
1.0
 40
1.0
 40
1.0
 40
1.0
 10
114.5528683862044
 20
39.0424024288161
 30
0.0
 10
114.6387500287108
 20
39.06607632937206
 30
0.0
 10
114.7261592346763
 20
39.0791688865512
 30
0.0
 10
114.8788017197512
 20
39.07925530053348
 30
0.0
 10
114.9429247048336
 20
39.06608490893485
 30
0.0
 10
114.9858810880966
 20
39.0424024288161
 30
0.0
  0
SPLINE
  5
EC
330
1F
100
AcDbEntity
  8
0
  6
Continuous
 62
     7
370
    25
100
AcDbSpline
210
0.0
220
0.0
230
1.0
 70
     8
 71
     3
 72
    12
 73
     8
 74
     0
 42
0.00000001
 43
0.00000001
 40
0.0
 40
0.0
 40
0.0
 40
0.0
 40
0.2499999999999998
 40
0.2499999999999998
 40
0.4999999999999996
 40
0.4999999999999996
 40
1.0
 40
1.0
 40
1.0
 40
1.0
 10
117.2952821648551
 20
38.36468102355591
 30
0.0
 10
117.1002786848493
 20
38.36468102355591
 30
0.0
 10
116.9037440258249
 20
38.38042735357787
 30
0.0
 10
116.5143243382193
 20
38.4418723781633
 30
0.0
 10
116.3208396451591
 20
38.48746113741702
 30
0.0
 10
115.7436560464035
 20
38.66391213967363
 30
0.0
 10
115.3632202646205
 20
38.83436984163712
 30
0.0
 10
114.9858810880966
 20
39.04240242881596
 30
0.0
  0
SPLINE
  5
ED
330
1F
100
AcDbEntity
  8
0
  6
Continuous
 62
     7
370
    25
100
AcDbSpline
210
0.0
220
0.0
230
1.0
 70
     8
 71
     3
 72
    10
 73
     6
 74
     0
 42
0.00000001
 43
0.00000001
 40
0.0
 40
0.0
 40
0.0
 40
0.0
 40
0.5
 40
0.5
 40
1.0
 40
1.0
 40
1.0
 40
1.0
 10
109.9340662326874
 20
38.36468102355591
 30
0.0
 10
110.7096461692943
 20
38.36468102355592
 30
0.0
 10
111.4833363880207
 20
38.42696538553443
 30
0.0
 10
113.0273709303536
 20
38.66181350354145
 30
0.0
 10
113.8006796065085
 20
38.83505611067266
 30
0.0
 10
114.5528683862044
 20
39.0424024288161
 30
0.0
  0
LINE
  5
EE
330
1F
100
AcDbEntity
  8
0
  6
Continuous
 62
     7
370
    25
100
AcDbLine
 10
109.9340662327
 20
38.3646810236
 30
0.0
 11
117.2952821649
 21
38.3646810236
 31
0.0
  0
LINE
  5
EF
330
1F
100
AcDbEntity
  8
0
  6
Continuous
 62
     7
370
    25
100
AcDbLine
 10
105.3152640792
 20
42.3982844837
 30
0.0
 11
105.3152640792
 21
39.0424024288
 31
0.0
  0
SPLINE
  5
F0
330
1F
100
AcDbEntity
  8
0
  6
Continuous
 62
     7
370
    25
100
AcDbSpline
210
0.0
220
0.0
230
1.0
 70
     8
 71
     3
 72
     8
 73
     4
 74
     0
 42
0.00000001
 43
0.00000001
 40
0.0
 40
0.0
 40
0.0
 40
0.0
 40
1.0
 40
1.0
 40
1.0
 40
1.0
 10
105.3152640791703
 20
42.39828448370092
 30
0.0
 10
105.5204499017136
 20
42.45484545082514
 30
0.0
 10
105.7266731024209
 20
42.50878552223897
 30
0.0
 10
105.9340662326874
 20
42.55976981198194
 30
0.0
  0
SPLINE
  5
F1
330
1F
100
AcDbEntity
  8
0
  6
Continuous
 62
     7
370
    25
100
AcDbSpline
210
0.0
220
0.0
230
1.0
 70
     8
 71
     3
 72
     8
 73
     4
 74
     0
 42
0.00000001
 43
0.00000001
 40
0.0
 40
0.0
 40
0.0
 40
0.0
 40
1.0
 40
1.0
 40
1.0
 40
1.0
 10
103.2563448274272
 20
45.74587887003888
 30
0.0
 10
103.3129081968954
 20
45.95107340754864
 30
0.0
 10
103.3668481197167
 20
46.1572970610658
 30
0.0
 10
103.4178301557082
 20
46.36468102355591
 30
0.0
  0
LINE
  5
F2
330
1F
100
AcDbEntity
  8
0
  6
Continuous
 62
     7
370
    25
100
AcDbLine
 10
99.1117876379
 20
45.74587887
 30
0.0
 11
103.2563448274
 21
45.74587887
 31
0.0
  0
SPLINE
  5
F3
330
1F
100
AcDbEntity
  8
0
  6
Continuous
 62
     7
370
    25
100
AcDbSpline
210
0.0
220
0.0
230
1.0
 70
     8
 71
     3
 72
    10
 73
     6
 74
     0
 42
0.00000001
 43
0.00000001
 40
0.0
 40
0.0
 40
0.0
 40
0.0
 40
0.5
 40
0.5
 40
1.0
 40
1.0
 40
1.0
 40
1.0
 10
99.11178763794756
 20
45.7458788700389
 30
0.0
 10
98.90371896171635
 20
46.50068814308819
 30
0.0
 10
98.7333199556918
 20
47.26143453032009
 30
0.0
 10
98.49815997599296
 20
48.79957690794335
 30
0.0
 10
98.43406623268737
 20
49.57707806046817
 30
0.0
 10
98.43406623268737
 20
50.36468102355592
 30
0.0
  0
SPLINE
  5
F4
330
1F
100
AcDbEntity
  8
0
  6
Continuous
 62
     7
370
    25
100
AcDbSpline
210
0.0
220
0.0
230
1.0
 70
     8
 71
     3
 72
    12
 73
     8
 74
     0
 42
0.00000001
 43
0.00000001
 40
0.0
 40
0.0
 40
0.0
 40
0.0
 40
0.2500000000000001
 40
0.2500000000000001
 40
0.5000000000000001
 40
0.5000000000000001
 40
1.0
 40
1.0
 40
1.0
 40
1.0
 10
98.43406623268737
 20
50.36468102355592
 30
0.0
 10
98.43406623268737
 20
50.75899910422775
 30
0.0
 10
98.45006503766844
 20
51.15265814817819
 30
0.0
 10
98.51183517598284
 20
51.93219414772353
 30
0.0
 10
98.55757730028444
 20
52.31914733584895
 30
0.0
 10
98.73424744763128
 20
53.47253389870296
 30
0.0
 10
98.90450251311157
 20
54.23151638790799
 30
0.0
 10
99.11178763794756
 20
54.98348317707293
 30
0.0
  0
LINE
  5
F5
330
1F
100
AcDbEntity
  8
0
  6
Continuous
 62
     7
370
    25
100
AcDbLine
 10
103.2563448274
 20
54.9834831771
 30
0.0
 11
99.1117876379
 21
54.9834831771
 31
0.0
  0
SPLINE
  5
F6
330
1F
100
AcDbEntity
  8
0
  6
Continuous
 62
     7
370
    25
100
AcDbSpline
210
0.0
220
0.0
230
1.0
 70
     8
 71
     3
 72
     8
 73
     4
 74
     0
 42
0.00000001
 43
0.00000001
 40
0.0
 40
0.0
 40
0.0
 40
0.0
 40
1.0
 40
1.0
 40
1.0
 40
1.0
 10
116.4503023096666
 20
54.36468102355598
 30
0.0
 10
116.5011985429216
 20
54.57171595895974
 30
0.0
 10
116.5551324978853
 20
54.77795572402474
 30
0.0
 10
116.6117876379476
 20
54.98348317707293
 30
0.0
  0
LINE
  5
F7
330
1F
100
AcDbEntity
  8
0
  6
Continuous
 62
     7
370
    25
100
AcDbLine
 10
121.1120072601
 20
54.9834831771
 30
0.0
 11
116.6117876379
 21
54.9834831771
 31
0.0
  0
SPLINE
  5
F8
330
1F
100
AcDbEntity
  8
0
  6
Continuous
 62
     7
370
    25
100
AcDbSpline
210
0.0
220
0.0
230
1.0
 70
     8
 71
     3
 72
    14
 73
    10
 74
     0
 42
0.00000001
 43
0.00000001
 40
0.0
 40
0.0
 40
0.0
 40
0.0
 40
0.25
 40
0.25
 40
0.5
 40
0.5
 40
0.75
 40
0.75
 40
1.0
 40
1.0
 40
1.0
 40
1.0
 10
121.1120072601298
 20
45.74587887003887
 30
0.0
 10
121.3199576208356
 20
46.50025893068885
 30
0.0
 10
121.4921794295244
 20
47.26970009815435
 30
0.0
 10
121.7268145522753
 20
48.81021145909551
 30
0.0
 10
121.789758610903
 20
49.58506583910253
 30
0.0
 10
121.7896986981715
 20
51.14542679398809
 30
0.0
 10
121.7250840318794
 20
51.93588298677311
 30
0.0
 10
121.4885246924782
 20
53.47816264958158
 30
0.0
 10
121.3181795523988
 20
54.23555340278276
 30
0.0
 10
121.1120072601298
 20
54.98348317707293
 30
0.0
  0
LINE
  5
F9
330
1F
100
AcDbEntity
  8
0
  6
Continuous
 62
     7
370
    25
100
AcDbLine
 10
116.6117876379
 20
45.74587887
 30
0.0
 11
121.1120072601
 21
45.74587887
 31
0.0
  0
SPLINE
  5
FA
330
1F
100
AcDbEntity
  8
0
  6
Continuous
 62
     7
370
    25
100
AcDbSpline
210
0.0
220
0.0
230
1.0
 70
     8
 71
     3
 72
     8
 73
     4
 74
     0
 42
0.00000001
 43
0.00000001
 40
0.0
 40
0.0
 40
0.0
 40
0.0
 40
1.0
 40
1.0
 40
1.0
 40
1.0
 10
116.6117876379475
 20
45.74587887003889
 30
0.0
 10
116.5552257945106
 20
45.9510678715757
 30
0.0
 10
116.5012857772542
 20
46.15729123764039
 30
0.0
 10
116.4503023096666
 20
46.36468102355585
 30
0.0
  0
SPLINE
  5
FB
330
1F
100
AcDbEntity
  8
0
  6
Continuous
 62
     7
370
    25
100
AcDbSpline
210
0.0
220
0.0
230
1.0
 70
     8
 71
     3
 72
     8
 73
     4
 74
     0
 42
0.00000001
 43
0.00000001
 40
0.0
 40
0.0
 40
0.0
 40
0.0
 40
1.0
 40
1.0
 40
1.0
 40
1.0
 10
113.9340662326874
 20
42.55976981198193
 30
0.0
 10
114.1410952960228
 20
42.50887502228111
 30
0.0
 10
114.3473353132921
 20
42.45494117291967
 30
0.0
 10
114.5528683862044
 20
42.39828448370091
 30
0.0
  0
LINE
  5
FC
330
1F
100
AcDbEntity
  8
0
  6
Continuous
 62
     7
370
    25
100
AcDbLine
 10
114.5528683862
 20
39.0424024288
 30
0.0
 11
114.5528683862
 21
42.3982844837
 31
0.0
  0
ARC
  5
FD
330
1F
100
AcDbEntity
  8
0
  6
Continuous
 62
     7
370
    25
100
AcDbCircle
 10
111.4847975884
 20
49.7877620302
 30
0.0
 40
0.8889999999999969
100
AcDbArc
 50
45.0
 51
315.0
  0
LINE
  5
FE
330
1F
100
AcDbEntity
  8
0
  6
Continuous
 62
     7
370
    25
100
AcDbLine
 10
112.1134155169
 20
50.4163799587
 30
0.0
 11
112.5800259025
 21
50.8829903443
 31
0.0
  0
ARC
  5
FF
330
1F
100
AcDbEntity
  8
0
  6
Continuous
 62
     7
370
    25
100
AcDbCircle
 10
111.4847975884
 20
49.7877620302
 30
0.0
 40
1.548886735692394
100
AcDbArc
 50
45.0
 51
315.0
  0
LINE
  5
100
330
1F
100
AcDbEntity
  8
0
  6
Continuous
 62
     7
370
    25
100
AcDbLine
 10
112.5800259025
 20
48.6925337161
 30
0.0
 11
112.1134155169
 21
49.1591441018
 31
0.0
  0
ARC
  5
101
330
1F
100
AcDbEntity
  8
0
  6
Continuous
 62
     7
370
    25
100
AcDbCircle
 10
114.8269421848
 20
49.7877620302
 30
0.0
 40
0.8889999999999768
100
AcDbArc
 50
45.0
 51
159.0751675724
  0
LINE
  5
102
330
1F
100
AcDbEntity
  8
0
  6
Continuous
 62
     7
370
    25
100
AcDbLine
 10
115.4555601132
 20
50.4163799587
 30
0.0
 11
115.9221704989
 21
50.8829903443
 31
0.0
  0
ARC
  5
103
330
1F
100
AcDbEntity
  8
0
  6
Continuous
 62
     7
370
    25
100
AcDbCircle
 10
114.8269421848
 20
49.7877620302
 30
0.0
 40
1.548886735692369
100
AcDbArc
 50
45.0
 51
315.0
  0
LINE
  5
104
330
1F
100
AcDbEntity
  8
0
  6
Continuous
 62
     7
370
    25
100
AcDbLine
 10
115.9221704989
 20
48.6925337161
 30
0.0
 11
115.4555601132
 21
49.1591441018
 31
0.0
  0
ARC
  5
105
330
1F
100
AcDbEntity
  8
0
  6
Continuous
 62
     7
370
    25
100
AcDbCircle
 10
114.8269421848
 20
49.7877620302
 30
0.0
 40
0.8890000000000272
100
AcDbArc
 50
200.9248324276
 51
315.0
  0
LINE
  5
106
330
1F
100
AcDbEntity
  8
0
  6
Continuous
 62
     7
370
    25
100
AcDbLine
 10
113.996571936
 20
49.4702620302
 30
0.0
 11
115.9221704989
 21
49.4702620302
 31
0.0
  0
LINE
  5
107
330
1F
100
AcDbEntity
  8
0
  6
Continuous
 62
     7
370
    25
100
AcDbLine
 10
115.9221704989
 20
49.4702620302
 30
0.0
 11
115.9221704989
 21
50.1052620302
 31
0.0
  0
LINE
  5
108
330
1F
100
AcDbEntity
  8
0
  6
Continuous
 62
     7
370
    25
100
AcDbLine
 10
115.9221704989
 20
50.1052620302
 30
0.0
 11
113.996571936
 21
50.1052620302
 31
0.0
  0
LINE
  5
109
330
1F
100
AcDbEntity
  8
0
  6
Continuous
 62
     7
370
    25
100
AcDbLine
 10
109.0323073187
 20
48.942308006
 30
0.0
 11
108.9906569994
 21
48.9185030761
 31
0.0
  0
ELLIPSE
  5
10A
330
1F
100
AcDbEntity
  8
0
  6
Continuous
 62
     7
370
    25
100
AcDbEllipse
 10
108.6418138199
 20
49.4731855473
 30
0.0
 11
0.678412947925267
 21
6.110667527536863E-13
 31
0.0
210
0.0
220
0.0
230
1.0
 40
0.9533039403
 41
3.470145824140268
 42
5.252469180536304
  0
LINE
  5
10B
330
1F
100
AcDbEntity
  8
0
  6
Continuous
 62
     7
370
    25
100
AcDbLine
 10
107.9996890529
 20
49.2645014324
 30
0.0
 11
106.7400348479
 21
52.786945829
 31
0.0
  0
ELLIPSE
  5
10C
330
1F
100
AcDbEntity
  8
0
  6
Continuous
 62
     7
370
    25
100
AcDbEllipse
 10
106.14905229
 20
52.524606593
 30
0.0
 11
0.6519124952381503
 21
6.110667527536862E-13
 31
0.0
210
0.0
220
0.0
230
1.0
 40
0.9533023292
 41
0.4357905044354821
 42
2.70580011636152
  0
LINE
  5
10D
330
1F
100
AcDbEntity
  8
0
  6
Continuous
 62
     7
370
    25
100
AcDbLine
 10
105.5580702915
 20
52.7869469743
 30
0.0
 11
104.2987054899
 21
49.2653235725
 31
0.0
  0
ELLIPSE
  5
10E
330
1F
100
AcDbEntity
  8
0
  6
Continuous
 62
     7
370
    25
100
AcDbEllipse
 10
103.6565843058
 20
49.4740064062
 30
0.0
 11
-0.6784085062757725
 21
3.268496584496461E-13
 31
0.0
210
0.0
220
0.0
230
1.0
 40
0.9533122623
 41
1.047193771187957
 42
2.813042320199948
  0
LINE
  5
10F
330
1F
100
AcDbEntity
  8
0
  6
Continuous
 62
     7
370
    25
100
AcDbLine
 10
103.3173778319
 20
48.913918561
 30
0.0
 11
103.2657972613
 21
48.942308006
 31
0.0
  0
LINE
  5
110
330
1F
100
AcDbEntity
  8
0
  6
Continuous
 62
     7
370
    25
100
AcDbLine
 10
103.2657972613
 20
48.942308006
 30
0.0
 11
104.0620659209
 21
47.4241359045
 31
0.0
  0
ELLIPSE
  5
111
330
1F
100
AcDbEntity
  8
0
  6
Continuous
 62
     7
370
    25
100
AcDbEllipse
 10
104.1379147943
 20
47.4602894195
 30
0.0
 11
0.08480161849065837
 21
-2.131628207280301E-14
 31
0.0
210
0.0
220
0.0
230
1.0
 40
0.9533039403
 41
3.605240262590865
 42
5.462183310215417
  0
ELLIPSE
  5
112
330
1F
100
AcDbEntity
  8
0
  6
Continuous
 62
     7
370
    25
100
AcDbEllipse
 10
106.14905229
 20
45.401440799
 30
0.0
 11
2.866293551216202
 21
-1.492139745096210E-12
 31
0.0
210
0.0
220
0.0
230
1.0
 40
0.9533046568
 41
0.8210016221243804
 42
2.320591031466442
  0
ELLIPSE
  5
113
330
1F
100
AcDbEntity
  8
0
  6
Continuous
 62
     7
370
    25
100
AcDbEllipse
 10
108.1601897858
 20
47.4602894195
 30
0.0
 11
0.08480161849061574
 21
-7.105427357601002E-15
 31
0.0
210
0.0
220
0.0
230
1.0
 40
0.9533039403
 41
3.962594650556468
 42
5.819537698177224
  0
LINE
  5
114
330
1F
100
AcDbEntity
  8
0
  6
Continuous
 62
     7
370
    25
100
AcDbLine
 10
108.2360386592
 20
47.4241359045
 30
0.0
 11
109.0323073187
 21
48.942308006
 31
0.0
  0
LINE
  5
115
330
1F
100
AcDbEntity
  8
0
  6
Continuous
 62
     7
370
    25
100
AcDbLine
 10
116.4503023097
 20
46.3646810236
 30
0.0
 11
113.9340662327
 21
46.3646810236
 31
0.0
  0
LINE
  5
116
330
1F
100
AcDbEntity
  8
0
  6
Continuous
 62
     7
370
    25
100
AcDbLine
 10
105.9340662327
 20
42.559769812
 30
0.0
 11
105.9340662327
 21
46.3646810236
 31
0.0
  0
LINE
  5
117
330
1F
100
AcDbEntity
  8
0
  6
Continuous
 62
     7
370
    25
100
AcDbLine
 10
113.9340662327
 20
42.559769812
 30
0.0
 11
113.9340662327
 21
46.3646810236
 31
0.0
  0
LINE
  5
118
330
1F
100
AcDbEntity
  8
0
  6
Continuous
 62
     7
370
    25
100
AcDbLine
 10
105.9340662327
 20
46.3646810236
 30
0.0
 11
103.4178301557
 21
46.3646810236
 31
0.0
  0
LINE
  5
119
330
1F
100
AcDbEntity
  8
0
  6
Continuous
 62
     7
370
    25
100
AcDbLine
 10
116.4503023097
 20
54.3646810236
 30
0.0
 11
103.4178301557
 21
54.3646810236
 31
0.0
  0
SPLINE
  5
11A
330
1F
100
AcDbEntity
  8
0
  6
Continuous
 62
     7
370
    25
100
AcDbSpline
210
0.0
220
0.0
230
1.0
 70
     8
 71
     3
 72
    10
 73
     6
 74
     0
 42
0.00000001
 43
0.00000001
 40
0.0
 40
0.0
 40
0.0
 40
0.0
 40
0.5
 40
0.5
 40
1.0
 40
1.0
 40
1.0
 40
1.0
 10
104.8822513772782
 20
42.39828448370091
 30
0.0
 10
104.9251949081794
 20
42.37460908927653
 30
0.0
 10
104.9886373528035
 20
42.36151797939189
 30
0.0
 10
105.1411161899225
 20
42.36143165810361
 30
0.0
 10
105.2293461920297
 20
42.37460059204744
 30
0.0
 10
105.3152640791704
 20
42.39828448370091
 30
0.0
  0
LINE
  5
11B
330
1F
100
AcDbEntity
  8
0
  6
Continuous
 62
     7
370
    25
100
AcDbLine
 10
104.8822513773
 20
39.0424024288
 30
0.0
 11
104.8822513773
 21
42.3982844837
 31
0.0
  0
SPLINE
  5
11C
330
1F
100
AcDbEntity
  8
0
  6
Continuous
 62
     7
370
    25
100
AcDbSpline
210
0.0
220
0.0
230
1.0
 70
     8
 71
     3
 72
     8
 73
     4
 74
     0
 42
0.00000001
 43
0.00000001
 40
0.0
 40
0.0
 40
0.0
 40
0.0
 40
1.0
 40
1.0
 40
1.0
 40
1.0
 10
102.6446900480707
 20
43.07530483892718
 30
0.0
 10
102.9537071907125
 20
43.17630994675731
 30
0.0
 10
103.2690249470305
 20
43.27296673582324
 30
0.0
 10
103.5915042738735
 20
43.36468102355592
 30
0.0
  0
SPLINE
  5
11D
330
1F
100
AcDbEntity
  8
0
  6
Continuous
 62
     7
370
    25
100
AcDbSpline
210
0.0
220
0.0
230
1.0
 70
     8
 71
     3
 72
    12
 73
     8
 74
     0
 42
0.00000001
 43
0.00000001
 40
0.0
 40
0.0
 40
0.0
 40
0.0
 40
0.2500000000000002
 40
0.2500000000000002
 40
0.5000000000000004
 40
0.5000000000000004
 40
1.0
 40
1.0
 40
1.0
 40
1.0
 10
102.6446900480655
 20
43.07530483892105
 30
0.0
 10
102.8347162233687
 20
43.07159635306462
 30
0.0
 10
103.0249312860545
 20
43.05301385022695
 30
0.0
 10
103.4018680451869
 20
42.9881468132608
 30
0.0
 10
103.5891908364464
 20
42.94188126001053
 30
0.0
 10
104.1481007927605
 20
42.76615672970357
 30
0.0
 10
104.5166364508708
 20
42.59985332092682
 30
0.0
 10
104.8822513772782
 20
42.39828448370091
 30
0.0
  0
SPLINE
  5
11E
330
1F
100
AcDbEntity
  8
0
  6
Continuous
 62
     7
370
    25
100
AcDbSpline
210
0.0
220
0.0
230
1.0
 70
     8
 71
     3
 72
    10
 73
     6
 74
     0
 42
0.00000001
 43
0.00000001
 40
0.0
 40
0.0
 40
0.0
 40
0.0
 40
0.5
 40
0.5
 40
1.0
 40
1.0
 40
1.0
 40
1.0
 10
114.5528683862044
 20
42.39828448370089
 30
0.0
 10
114.6387554480069
 20
42.37460908927648
 30
0.0
 10
114.7261626569871
 20
42.36151797939186
 30
0.0
 10
114.878799099581
 20
42.36143165810363
 30
0.0
 10
114.9429221445268
 20
42.37460059204758
 30
0.0
 10
114.985881088097
 20
42.39828448370113
 30
0.0
  0
LINE
  5
11F
330
1F
100
AcDbEntity
  8
0
  6
Continuous
 62
     7
370
    25
100
AcDbLine
 10
114.9858810881
 20
42.3982844837
 30
0.0
 11
114.9858810881
 21
39.0424024288
 31
0.0
  0
SPLINE
  5
120
330
1F
100
AcDbEntity
  8
0
  6
Continuous
 62
     7
370
    25
100
AcDbSpline
210
0.0
220
0.0
230
1.0
 70
     8
 71
     3
 72
    10
 73
     6
 74
     0
 42
0.00000001
 43
0.00000001
 40
0.0
 40
0.0
 40
0.0
 40
0.0
 40
0.5
 40
0.5
 40
1.0
 40
1.0
 40
1.0
 40
1.0
 10
116.6117876379476
 20
54.98348317707293
 30
0.0
 10
116.635463032372
 20
55.06937023887538
 30
0.0
 10
116.6485541422566
 20
55.15677744785548
 30
0.0
 10
116.6486404635449
 20
55.30941389044921
 30
0.0
 10
116.635471529601
 20
55.3735369353948
 30
0.0
 10
116.6117876379476
 20
55.41649587896512
 30
0.0
  0
LINE
  5
121
330
1F
100
AcDbEntity
  8
0
  6
Continuous
 62
     7
370
    25
100
AcDbLine
 10
116.6117876379
 20
55.416495879
 30
0.0
 11
121.1120072601
 21
55.416495879
 31
0.0
  0
SPLINE
  5
122
330
1F
100
AcDbEntity
  8
0
  6
Continuous
 62
     7
370
    25
100
AcDbSpline
210
0.0
220
0.0
230
1.0
 70
     8
 71
     3
 72
    10
 73
     6
 74
     0
 42
0.00000001
 43
0.00000001
 40
0.0
 40
0.0
 40
0.0
 40
0.0
 40
0.5
 40
0.5
 40
1.0
 40
1.0
 40
1.0
 40
1.0
 10
121.1120072601298
 20
55.41649587896514
 30
0.0
 10
121.0883318657054
 20
55.37355234806392
 30
0.0
 10
121.0752407558207
 20
55.31010990343979
 30
0.0
 10
121.0751544345325
 20
55.15763106632082
 30
0.0
 10
121.0883233684763
 20
55.06940106421355
 30
0.0
 10
121.1120072601298
 20
54.98348317707293
 30
0.0
  0
LINE
  5
123
330
1F
100
AcDbEntity
  8
0
  6
Continuous
 62
     7
370
    25
100
AcDbLine
 10
98.4340662327
 20
50.3646810236
 30
0.0
 11
98.4340662327
 21
57.7258969557
 31
0.0
  0
SPLINE
  5
124
330
1F
100
AcDbEntity
  8
0
  6
Continuous
 62
     7
370
    25
100
AcDbSpline
210
0.0
220
0.0
230
1.0
 70
     8
 71
     3
 72
    10
 73
     6
 74
     0
 42
0.00000001
 43
0.00000001
 40
0.0
 40
0.0
 40
0.0
 40
0.0
 40
0.5
 40
0.5
 40
1.0
 40
1.0
 40
1.0
 40
1.0
 10
99.11178763794709
 20
55.41649587896512
 30
0.0
 10
98.90297771328083
 20
55.7952450263564
 30
0.0
 10
98.73244357353359
 20
56.17645030276771
 30
0.0
 10
98.49765776851467
 20
56.94568092395549
 30
0.0
 10
98.43406623268737
 20
57.33374862875381
 30
0.0
 10
98.43406623268737
 20
57.72589695572365
 30
0.0
  0
SPLINE
  5
125
330
1F
100
AcDbEntity
  8
0
  6
Continuous
 62
     7
370
    25
100
AcDbSpline
210
0.0
220
0.0
230
1.0
 70
     8
 71
     3
 72
    10
 73
     6
 74
     0
 42
0.00000001
 43
0.00000001
 40
0.0
 40
0.0
 40
0.0
 40
0.0
 40
0.5
 40
0.5
 40
1.0
 40
1.0
 40
1.0
 40
1.0
 10
99.11178763794756
 20
55.41649587896514
 30
0.0
 10
99.13545987785913
 20
55.37355806986591
 30
0.0
 10
99.14855386779438
 20
55.31011747997371
 30
0.0
 10
99.14864073525582
 20
55.15762833446487
 30
0.0
 10
99.13547094549648
 20
55.06939894526155
 30
0.0
 10
99.11178763794756
 20
54.98348317707293
 30
0.0
  0
LINE
  5
126
330
1F
100
AcDbEntity
  8
0
  6
Continuous
 62
     7
370
    25
100
AcDbLine
 10
99.1117876379
 20
55.416495879
 30
0.0
 11
103.2563448274
 21
55.416495879
 31
0.0
  0
SPLINE
  5
127
330
1F
100
AcDbEntity
  8
0
  6
Continuous
 62
     7
370
    25
100
AcDbSpline
210
0.0
220
0.0
230
1.0
 70
     8
 71
     3
 72
     8
 73
     4
 74
     0
 42
0.00000001
 43
0.00000001
 40
0.0
 40
0.0
 40
0.0
 40
0.0
 40
1.0
 40
1.0
 40
1.0
 40
1.0
 10
116.0554497241835
 20
43.95455949023067
 30
0.0
 10
116.0143344485423
 20
44.09058988472022
 30
0.0
 10
115.9738454656744
 20
44.22729394935766
 30
0.0
 10
115.9340662326874
 20
44.36468102355591
 30
0.0
  0
LINE
  5
128
330
1F
100
AcDbEntity
  8
0
  6
Continuous
 62
     7
370
    25
100
AcDbLine
 10
115.9340662327
 20
46.3646810236
 30
0.0
 11
115.9340662327
 21
44.3646810236
 31
0.0
  0
SPLINE
  5
129
330
1F
100
AcDbEntity
  8
0
  6
Continuous
 62
     7
370
    25
100
AcDbSpline
210
0.0
220
0.0
230
1.0
 70
     8
 71
     3
 72
    10
 73
     6
 74
     0
 42
0.00000001
 43
0.00000001
 40
0.0
 40
0.0
 40
0.0
 40
0.0
 40
0.5
 40
0.5
 40
1.0
 40
1.0
 40
1.0
 40
1.0
 10
116.6117876379443
 20
45.31286616814669
 30
0.0
 10
116.6354630323686
 20
45.35580969904785
 30
0.0
 10
116.6485541422566
 20
45.41925214367163
 30
0.0
 10
116.6486404635449
 20
45.57173098079073
 30
0.0
 10
116.6354715296011
 20
45.65996098289815
 30
0.0
 10
116.6117876379476
 20
45.7458788700389
 30
0.0
  0
SPLINE
  5
12A
330
1F
100
AcDbEntity
  8
0
  6
Continuous
 62
     7
370
    25
100
AcDbSpline
210
0.0
220
0.0
230
1.0
 70
     8
 71
     3
 72
     8
 73
     4
 74
     0
 42
0.00000001
 43
0.00000001
 40
0.0
 40
0.0
 40
0.0
 40
0.0
 40
1.0
 40
1.0
 40
1.0
 40
1.0
 10
116.0554497241835
 20
43.95455949023067
 30
0.0
 10
116.1710823342126
 20
44.41311042228843
 30
0.0
 10
116.364971739033
 20
44.86518001804668
 30
0.0
 10
116.6117876379474
 20
45.31286616814644
 30
0.0
  0
LINE
  5
12B
330
1F
100
AcDbEntity
  8
0
  6
Continuous
 62
     7
370
    25
100
AcDbLine
 10
103.9340662327
 20
46.3646810236
 30
0.0
 11
103.9340662327
 21
44.3646810236
 31
0.0
  0
SPLINE
  5
12C
330
1F
100
AcDbEntity
  8
0
  6
Continuous
 62
     7
370
    25
100
AcDbSpline
210
0.0
220
0.0
230
1.0
 70
     8
 71
     3
 72
     8
 73
     4
 74
     0
 42
0.00000001
 43
0.00000001
 40
0.0
 40
0.0
 40
0.0
 40
0.0
 40
1.0
 40
1.0
 40
1.0
 40
1.0
 10
103.9340662326874
 20
44.36468102355591
 30
0.0
 10
103.8942875744972
 20
44.2272959345558
 30
0.0
 10
103.853798611669
 20
44.09059185274404
 30
0.0
 10
103.8126827411912
 20
43.95455949023066
 30
0.0
  0
SPLINE
  5
12D
330
1F
100
AcDbEntity
  8
0
  6
Continuous
 62
     7
370
    25
100
AcDbSpline
210
0.0
220
0.0
230
1.0
 70
     8
 71
     3
 72
     8
 73
     4
 74
     0
 42
0.00000001
 43
0.00000001
 40
0.0
 40
0.0
 40
0.0
 40
0.0
 40
1.0
 40
1.0
 40
1.0
 40
1.0
 10
103.2563448274272
 20
45.31286616814669
 30
0.0
 10
103.5035186083111
 20
44.86453087509536
 30
0.0
 10
103.6972402766151
 20
44.41235638435177
 30
0.0
 10
103.8126827411912
 20
43.95455949023066
 30
0.0
  0
SPLINE
  5
12E
330
1F
100
AcDbEntity
  8
0
  6
Continuous
 62
     7
370
    25
100
AcDbSpline
210
0.0
220
0.0
230
1.0
 70
     8
 71
     3
 72
    10
 73
     6
 74
     0
 42
0.00000001
 43
0.00000001
 40
0.0
 40
0.0
 40
0.0
 40
0.0
 40
0.5
 40
0.5
 40
1.0
 40
1.0
 40
1.0
 40
1.0
 10
103.2563448274271
 20
45.74587887003891
 30
0.0
 10
103.2326694330027
 20
45.65999180823646
 30
0.0
 10
103.2195783231182
 20
45.57258459925632
 30
0.0
 10
103.2194920018299
 20
45.41994815666258
 30
0.0
 10
103.2326609357737
 20
45.355825111717
 30
0.0
 10
103.2563448274272
 20
45.31286616814669
 30
0.0
  0
SPLINE
  5
12F
330
1F
100
AcDbEntity
  8
0
  6
Continuous
 62
     7
370
    25
100
AcDbSpline
210
0.0
220
0.0
230
1.0
 70
     8
 71
     3
 72
     8
 73
     4
 74
     0
 42
0.00000001
 43
0.00000001
 40
0.0
 40
0.0
 40
0.0
 40
0.0
 40
1.0
 40
1.0
 40
1.0
 40
1.0
 10
116.2766281915012
 20
43.36468102355592
 30
0.0
 10
116.5991075183505
 20
43.27296673582146
 30
0.0
 10
116.9144252746745
 20
43.17630994675356
 30
0.0
 10
117.223442417322
 20
43.0753048389213
 30
0.0
  0
SPLINE
  5
130
330
1F
100
AcDbEntity
  8
0
  6
Continuous
 62
     7
370
    25
100
AcDbSpline
210
0.0
220
0.0
230
1.0
 70
     8
 71
     3
 72
    10
 73
     6
 74
     0
 42
0.00000001
 43
0.00000001
 40
0.0
 40
0.0
 40
0.0
 40
0.0
 40
0.5
 40
0.5
 40
1.0
 40
1.0
 40
1.0
 40
1.0
 10
114.9858810880969
 20
42.39828448370107
 30
0.0
 10
115.3523990349374
 20
42.60035116925199
 30
0.0
 10
115.7214792604032
 20
42.76674394152263
 30
0.0
 10
116.4667316086306
 20
43.00079091539269
 30
0.0
 10
116.8429443805784
 20
43.06787916935151
 30
0.0
 10
117.223442417322
 20
43.0753048389213
 30
0.0
  0
LINE
  5
131
330
1F
100
AcDbEntity
  8
0
  6
Continuous
 62
     7
370
    25
100
AcDbLine
 10
98.4340662327
 20
50.3646810236
 30
0.0
 11
98.4340662327
 21
43.0034650914
 31
0.0
  0
SPLINE
  5
132
330
1F
100
AcDbEntity
  8
0
  6
Continuous
 62
     7
370
    25
100
AcDbSpline
210
0.0
220
0.0
230
1.0
 70
     8
 71
     3
 72
    10
 73
     6
 74
     0
 42
0.00000001
 43
0.00000001
 40
0.0
 40
0.0
 40
0.0
 40
0.0
 40
0.5
 40
0.5
 40
1.0
 40
1.0
 40
1.0
 40
1.0
 10
99.11178763794756
 20
45.7458788700389
 30
0.0
 10
99.13546153850352
 20
45.65999722753244
 30
0.0
 10
99.14855409568266
 20
45.57258802156701
 30
0.0
 10
99.14864050966493
 20
45.41994553649209
 30
0.0
 10
99.13547011806631
 20
45.35582255140972
 30
0.0
 10
99.11178763794756
 20
45.31286616814669
 30
0.0
  0
SPLINE
  5
133
330
1F
100
AcDbEntity
  8
0
  6
Continuous
 62
     7
370
    25
100
AcDbSpline
210
0.0
220
0.0
230
1.0
 70
     8
 71
     3
 72
    12
 73
     8
 74
     0
 42
0.00000001
 43
0.00000001
 40
0.0
 40
0.0
 40
0.0
 40
0.0
 40
0.2499999999999999
 40
0.2499999999999999
 40
0.4999999999999998
 40
0.4999999999999998
 40
1.0
 40
1.0
 40
1.0
 40
1.0
 10
98.43406623268737
 20
43.00346509138818
 30
0.0
 10
98.43406623268737
 20
43.19846857139397
 30
0.0
 10
98.44981256270934
 20
43.39500323041839
 30
0.0
 10
98.51125758729476
 20
43.78442291802394
 30
0.0
 10
98.55684634654848
 20
43.9779076110842
 30
0.0
 10
98.73329734880508
 20
44.5550912098398
 30
0.0
 10
98.90375505076857
 20
44.93552699162276
 30
0.0
 10
99.11178763794743
 20
45.31286616814671
 30
0.0
  0
LINE
  5
134
330
1F
100
AcDbEntity
  8
0
  6
Continuous
 62
     7
370
    25
100
AcDbLine
 10
115.9340662327
 20
57.7258969557
 30
0.0
 11
115.9340662327
 21
54.3646810236
 31
0.0
  0
SPLINE
  5
135
330
1F
100
AcDbEntity
  8
0
  6
Continuous
 62
     7
370
    25
100
AcDbSpline
210
0.0
220
0.0
230
1.0
 70
     8
 71
     3
 72
    10
 73
     6
 74
     0
 42
0.00000001
 43
0.00000001
 40
0.0
 40
0.0
 40
0.0
 40
0.0
 40
0.5
 40
0.5
 40
1.0
 40
1.0
 40
1.0
 40
1.0
 10
116.6117876379476
 20
55.41649587896512
 30
0.0
 10
116.4033668851301
 20
55.79453912836728
 30
0.0
 10
116.2329030498527
 20
56.17530863316313
 30
0.0
 10
115.9979206149143
 20
56.94445715872067
 30
0.0
 10
115.9340662326874
 20
57.33288388689592
 30
0.0
 10
115.9340662326874
 20
57.72589695572365
 30
0.0
  0
SPLINE
  5
136
330
1F
100
AcDbEntity
  8
0
  6
Continuous
 62
     7
370
    25
100
AcDbSpline
210
0.0
220
0.0
230
1.0
 70
     8
 71
     3
 72
    10
 73
     6
 74
     0
 42
0.00000001
 43
0.00000001
 40
0.0
 40
0.0
 40
0.0
 40
0.0
 40
0.5
 40
0.5
 40
1.0
 40
1.0
 40
1.0
 40
1.0
 10
121.1120072601296
 20
45.74587887003891
 30
0.0
 10
121.0883318657053
 20
45.65999180823645
 30
0.0
 10
121.0752407558207
 20
45.57258459925631
 30
0.0
 10
121.0751544345325
 20
45.41994815666258
 30
0.0
 10
121.0883233684763
 20
45.355825111717
 30
0.0
 10
121.1120072601298
 20
45.31286616814669
 30
0.0
  0
SPLINE
  5
137
330
1F
100
AcDbEntity
  8
0
  6
Continuous
 62
     7
370
    25
100
AcDbSpline
210
0.0
220
0.0
230
1.0
 70
     8
 71
     3
 72
    16
 73
    12
 74
     0
 42
0.00000001
 43
0.00000001
 40
0.0
 40
0.0
 40
0.0
 40
0.0
 40
0.2500000000000001
 40
0.2500000000000001
 40
0.5000000000000001
 40
0.5000000000000001
 40
0.6250000000000001
 40
0.6250000000000001
 40
0.7500000000000002
 40
0.7500000000000002
 40
1.0
 40
1.0
 40
1.0
 40
1.0
 10
121.1120072601298
 20
60.03529803248215
 30
0.0
 10
121.3200227082355
 20
59.65798994360566
 30
0.0
 10
121.4902290132085
 20
59.27796621323145
 30
0.0
 10
121.7251650447761
 20
58.51034289782076
 30
0.0
 10
121.7892371764397
 20
58.12269608103196
 30
0.0
 10
121.7899701253608
 20
57.53437552914411
 30
0.0
 10
121.7743106452778
 20
57.33730233658846
 30
0.0
 10
121.7130355186408
 20
56.94724535903436
 30
0.0
 10
121.6674792461417
 20
56.75345245844633
 30
0.0
 10
121.4909932133854
 20
56.1753714736829
 30
0.0
 10
121.3203367598997
 20
55.79437360934808
 30
0.0
 10
121.1120072601298
 20
55.41649587896514
 30
0.0
  0
SPLINE
  5
138
330
1F
100
AcDbEntity
  8
0
  6
Continuous
 62
     7
370
    25
100
AcDbSpline
210
0.0
220
0.0
230
1.0
 70
     8
 71
     3
 72
    10
 73
     6
 74
     0
 42
0.00000001
 43
0.00000001
 40
0.0
 40
0.0
 40
0.0
 40
0.0
 40
0.1601790552921226
 40
0.7197651707803578
 40
1.0
 40
1.0
 40
1.0
 40
1.0
 10
121.0777778270129
 20
60.0975763112319
 30
0.0
 10
121.0770150369196
 20
60.09896853925827
 30
0.0
 10
121.0735874368459
 20
60.10522452098659
 30
0.0
 10
121.0880949016442
 20
60.07871725625868
 30
0.0
 10
121.106024454762
 20
60.04616140111352
 30
0.0
 10
121.1120072601298
 20
60.03529803248215
 30
0.0
  0
SPLINE
  5
139
330
1F
100
AcDbEntity
  8
0
  6
Continuous
 62
     7
370
    25
100
AcDbSpline
210
0.0
220
0.0
230
1.0
 70
     8
 71
     3
 72
     9
 73
     5
 74
     0
 42
0.00000001
 43
0.00000001
 40
0.0
 40
0.0
 40
0.0
 40
0.0
 40
0.5797912171256352
 40
1.0
 40
1.0
 40
1.0
 40
1.0
 10
121.1120072601298
 20
40.69406401462968
 30
0.0
 10
121.0996486567833
 20
40.67159036638855
 30
0.0
 10
121.0783330469889
 20
40.63282874396773
 30
0.0
 10
121.0779421044861
 20
40.63209433920952
 30
0.0
 10
121.0777778270129
 20
40.63178573587994
 30
0.0
  0
SPLINE
  5
13A
330
1F
100
AcDbEntity
  8
0
  6
Continuous
 62
     7
370
    25
100
AcDbSpline
210
0.0
220
0.0
230
1.0
 70
     8
 71
     3
 72
    16
 73
    12
 74
     0
 42
0.00000001
 43
0.00000001
 40
0.0
 40
0.0
 40
0.0
 40
0.0
 40
0.2500000000000001
 40
0.2500000000000001
 40
0.5000000000000002
 40
0.5000000000000002
 40
0.6250000000000001
 40
0.6250000000000001
 40
0.7500000000000001
 40
0.7500000000000001
 40
1.0
 40
1.0
 40
1.0
 40
1.0
 10
121.1120072601298
 20
45.31286616814669
 30
0.0
 10
121.3200227082355
 20
44.93555807927019
 30
0.0
 10
121.4902290132085
 20
44.55553434889599
 30
0.0
 10
121.7251650447761
 20
43.78791103348529
 30
0.0
 10
121.7892371764397
 20
43.4002642166965
 30
0.0
 10
121.7899701253608
 20
42.81194366480865
 30
0.0
 10
121.7743106452778
 20
42.614870472253
 30
0.0
 10
121.7130355186408
 20
42.2248134946989
 30
0.0
 10
121.6674792461417
 20
42.03102059411086
 30
0.0
 10
121.4909932133854
 20
41.45293960934744
 30
0.0
 10
121.3203367598997
 20
41.07194174501262
 30
0.0
 10
121.1120072601298
 20
40.69406401462968
 30
0.0
  0
LINE
  5
13B
330
1F
100
AcDbEntity
  8
0
  6
Continuous
 62
     7
370
    25
100
AcDbLine
 10
121.9340662327
 20
58.6146810236
 30
0.0
 11
121.9340662327
 21
42.1146810236
 31
0.0
  0
LINE
  5
13C
330
1F
100
AcDbEntity
  8
0
  6
Continuous
 62
     7
370
    25
100
AcDbLine
 10
105.8803052262
 20
49.7902491671
 30
0.0
 11
106.487653585
 21
49.7902491671
 31
0.0
  0
LINE
  5
13D
330
1F
100
AcDbEntity
  8
0
  6
Continuous
 62
     7
370
    25
100
AcDbLine
 10
106.5675148233
 20
49.8982808958
 30
0.0
 11
106.2638406457
 21
50.708863513
 31
0.0
  0
ELLIPSE
  5
13E
330
1F
100
AcDbEntity
  8
0
  6
Continuous
 62
     7
370
    25
100
AcDbEllipse
 10
106.487653585
 20
49.8710908841
 30
0.0
 11
-0.08480161849067258
 21
-4.973799150320701E-14
 31
0.0
210
0.0
220
0.0
230
1.0
 40
0.9533039403
 41
1.570796326794337
 42
3.48461659214925
  0
LINE
  5
13F
330
1F
100
AcDbEntity
  8
0
  6
Continuous
 62
     7
370
    25
100
AcDbLine
 10
106.104118169
 20
50.708863513
 30
0.0
 11
105.8004439879
 21
49.8982808961
 31
0.0
  0
ELLIPSE
  5
140
330
1F
100
AcDbEntity
  8
0
  6
Continuous
 62
     7
370
    25
100
AcDbEllipse
 10
106.1839794074
 20
50.6816735012
 30
0.0
 11
0.08480161849065837
 21
0.0
 31
0.0
210
0.0
220
0.0
230
1.0
 40
0.9533039403
 41
0.3430239404205541
 42
2.798568713169156
  0
ELLIPSE
  5
141
330
1F
100
AcDbEntity
  8
0
  6
Continuous
 62
     7
370
    25
100
AcDbEllipse
 10
105.8803052262
 20
49.8710908841
 30
0.0
 11
0.08480161849065837
 21
-7.105427357601002E-15
 31
0.0
210
0.0
220
0.0
230
1.0
 40
0.9533039403
 41
2.798568711308354
 42
4.712388980384782
  0
LINE
  5
142
330
1F
100
AcDbEntity
  8
0
  6
Continuous
 62
     7
370
    25
100
AcDbLine
 10
121.1120072601
 20
45.3128661681
 30
0.0
 11
116.6117876379
 21
45.3128661681
 31
0.0
  0
LINE
  5
143
330
1F
100
AcDbEntity
  8
0
  6
Continuous
 62
     7
370
    25
100
AcDbLine
 10
103.2563448274
 20
45.3128661681
 30
0.0
 11
99.1117876379
 21
45.3128661681
 31
0.0
  0
SPLINE
  5
144
330
1F
100
AcDbEntity
  8
0
  6
Continuous
 62
     7
370
    25
100
AcDbSpline
210
0.0
220
0.0
230
1.0
 70
     8
 71
     3
 72
    12
 73
     8
 74
     0
 42
0.00000001
 43
0.00000001
 40
0.0
 40
0.0
 40
0.0
 40
0.0
 40
0.2499999999999999
 40
0.2499999999999999
 40
0.4999999999999998
 40
0.4999999999999998
 40
1.0
 40
1.0
 40
1.0
 40
1.0
 10
115.9340662326874
 20
57.72589695572365
 30
0.0
 10
115.9340662326874
 20
57.92163921860316
 30
0.0
 10
115.9499091687763
 20
58.11830582779372
 30
0.0
 10
116.011412029014
 20
58.50757405512201
 30
0.0
 10
116.0570156700577
 20
58.70097808807493
 30
0.0
 10
116.2334666875469
 20
59.27790713933168
 30
0.0
 10
116.4038640547988
 20
59.65815657253469
 30
0.0
 10
116.6117876379476
 20
60.03529803248215
 30
0.0
  0
LINE
  5
145
330
1F
100
AcDbEntity
  8
0
  6
Continuous
 62
     7
370
    25
100
AcDbLine
 10
121.1120072601
 20
60.0352980325
 30
0.0
 11
116.6117876379
 21
60.0352980325
 31
0.0
  0
ELLIPSE
  5
146
330
1F
100
AcDbEntity
  8
0
  6
Continuous
 62
     7
370
    25
100
AcDbEllipse
 10
109.9340662327
 20
40.5497264473
 30
0.0
 11
8.5
 21
0.0
 31
0.0
210
0.0
220
0.0
230
1.0
 40
0.5773502692
 41
2.374833212873086
 42
2.53069227991306
  0
LINE
  5
147
330
1F
100
AcDbEntity
  8
0
  6
Continuous
 62
     7
370
    25
100
AcDbLine
 10
102.6446900481
 20
43.0753048389
 30
0.0
 11
100.2634492238
 21
40.6940640146
 31
0.0
  0
LINE
  5
148
330
1F
100
AcDbEntity
  8
0
  6
Continuous
 62
     7
370
    25
100
AcDbLine
 10
99.1117876379
 20
40.6940640146
 30
0.0
 11
100.2634492238
 21
40.6940640146
 31
0.0
  0
SPLINE
  5
149
330
1F
100
AcDbEntity
  8
0
  6
Continuous
 62
     7
370
    25
100
AcDbSpline
210
0.0
220
0.0
230
1.0
 70
     8
 71
     3
 72
    10
 73
     6
 74
     0
 42
0.00000001
 43
0.00000001
 40
0.0
 40
0.0
 40
0.0
 40
0.0
 40
0.5
 40
0.5
 40
1.0
 40
1.0
 40
1.0
 40
1.0
 10
99.11178763794709
 20
40.69406401462965
 30
0.0
 10
98.90297771328083
 20
41.07281316202094
 30
0.0
 10
98.73244357353359
 20
41.45401843843224
 30
0.0
 10
98.49765776851467
 20
42.22324905962002
 30
0.0
 10
98.43406623268737
 20
42.61131676441835
 30
0.0
 10
98.43406623268737
 20
43.00346509138818
 30
0.0
  0
ELLIPSE
  5
14A
330
1F
100
AcDbEntity
  8
0
  6
Continuous
 62
     7
370
    25
100
AcDbEllipse
 10
109.9340662327
 20
40.5497264473
 30
0.0
 11
8.5
 21
0.0
 31
0.0
210
0.0
220
0.0
230
1.0
 40
0.5773502692
 41
0.6109003736767328
 42
0.7667594407167088
  0
LINE
  5
14B
330
1F
100
AcDbEntity
  8
0
  6
Continuous
 62
     7
370
    25
100
AcDbLine
 10
119.6046832416
 20
40.6940640146
 30
0.0
 11
121.1120072601
 21
40.6940640146
 31
0.0
  0
LINE
  5
14C
330
1F
100
AcDbEntity
  8
0
  6
Continuous
 62
     7
370
    25
100
AcDbLine
 10
119.6046832416
 20
40.6940640146
 30
0.0
 11
117.2234424173
 21
43.0753048389
 31
0.0
  0
SPLINE
  5
14D
330
1F
100
AcDbEntity
  8
0
  6
Continuous
 62
     7
370
    25
100
AcDbSpline
210
0.0
220
0.0
230
1.0
 70
     8
 71
     3
 72
    12
 73
     8
 74
     0
 42
0.00000001
 43
0.00000001
 40
0.0
 40
0.0
 40
0.0
 40
0.0
 40
0.2499999999999996
 40
0.2499999999999996
 40
0.4999999999999993
 40
0.4999999999999993
 40
1.0
 40
1.0
 40
1.0
 40
1.0
 10
102.5728503005196
 20
38.36468102355591
 30
0.0
 10
102.3778468205139
 20
38.36468102355591
 30
0.0
 10
102.1813121614894
 20
38.38042735357787
 30
0.0
 10
101.7918924738839
 20
38.4418723781633
 30
0.0
 10
101.5984077808236
 20
38.48746113741702
 30
0.0
 10
101.021224182068
 20
38.66391213967362
 30
0.0
 10
100.6407884002851
 20
38.83436984163711
 30
0.0
 10
100.2634492237611
 20
39.04240242881596
 30
0.0
  0
LINE
  5
14E
330
1F
100
AcDbEntity
  8
0
  6
Continuous
 62
     7
370
    25
100
AcDbLine
 10
100.2634492238
 20
40.6940640146
 30
0.0
 11
100.2634492238
 21
39.0424024288
 31
0.0
  0
SPLINE
  5
14F
330
1F
100
AcDbEntity
  8
0
  6
Continuous
 62
     7
370
    25
100
AcDbSpline
210
0.0
220
0.0
230
1.0
 70
     8
 71
     3
 72
    12
 73
     8
 74
     0
 42
0.00000001
 43
0.00000001
 40
0.0
 40
0.0
 40
0.0
 40
0.0
 40
0.2499999999999999
 40
0.2499999999999999
 40
0.5
 40
0.5
 40
1.0
 40
1.0
 40
1.0
 40
1.0
 10
98.43406623268737
 20
57.72589695572365
 30
0.0
 10
98.43406623268737
 20
57.92090043572944
 30
0.0
 10
98.44981256270934
 20
58.11743509475385
 30
0.0
 10
98.51125758729476
 20
58.5068547823594
 30
0.0
 10
98.55684634654848
 20
58.70033947541966
 30
0.0
 10
98.73329734880508
 20
59.27752307417526
 30
0.0
 10
98.90375505076858
 20
59.65795885595823
 30
0.0
 10
99.11178763794743
 20
60.03529803248216
 30
0.0
  0
LINE
  5
150
330
1F
100
AcDbEntity
  8
0
  6
Continuous
 62
     7
370
    25
100
AcDbLine
 10
103.2563448274
 20
60.0352980325
 30
0.0
 11
99.1117876379
 21
60.0352980325
 31
0.0
  0
SPLINE
  5
151
330
1F
100
AcDbEntity
  8
0
  6
Continuous
 62
     7
370
    25
100
AcDbSpline
210
0.0
220
0.0
230
1.0
 70
     8
 71
     3
 72
    10
 73
     6
 74
     0
 42
0.00000001
 43
0.00000001
 40
0.0
 40
0.0
 40
0.0
 40
0.0
 40
0.5
 40
0.5
 40
1.0
 40
1.0
 40
1.0
 40
1.0
 10
103.2563448274272
 20
60.03529803248217
 30
0.0
 10
103.4647655802446
 20
59.65725478308001
 30
0.0
 10
103.635229415522
 20
59.27648527828416
 30
0.0
 10
103.8702118504604
 20
58.50733675272662
 30
0.0
 10
103.9340662326874
 20
58.11891002455138
 30
0.0
 10
103.9340662326874
 20
57.72589695572365
 30
0.0
  0
LINE
  5
152
330
1F
100
AcDbEntity
  8
0
  6
Continuous
 62
     7
370
    25
100
AcDbLine
 10
119.6046832416
 20
39.0424024288
 30
0.0
 11
119.6046832416
 21
40.6940640146
 31
0.0
  0
SPLINE
  5
153
330
1F
100
AcDbEntity
  8
0
  6
Continuous
 62
     7
370
    25
100
AcDbSpline
210
0.0
220
0.0
230
1.0
 70
     8
 71
     3
 72
    10
 73
     6
 74
     0
 42
0.00000001
 43
0.00000001
 40
0.0
 40
0.0
 40
0.0
 40
0.0
 40
0.5
 40
0.5
 40
1.0
 40
1.0
 40
1.0
 40
1.0
 10
119.6046832416136
 20
39.04240242881564
 30
0.0
 10
119.2259340942223
 20
38.83359250414938
 30
0.0
 10
118.844728817811
 20
38.66305836440212
 30
0.0
 10
118.0754981966233
 20
38.4282725593832
 30
0.0
 10
117.6874304918249
 20
38.36468102355591
 30
0.0
 10
117.2952821648551
 20
38.36468102355591
 30
0.0
  0
LINE
  5
154
330
1F
100
AcDbEntity
  8
0
  6
Continuous
 62
     7
370
    25
100
AcDbLine
 10
115.9340662327
 20
44.3646810236
 30
0.0
 11
113.9340662327
 21
46.3646810236
 31
0.0
  0
LINE
  5
155
330
1F
100
AcDbEntity
  8
0
  6
Continuous
 62
     7
370
    25
100
AcDbLine
 10
113.9340662327
 20
43.3646810236
 30
0.0
 11
116.8966873053
 21
43.3646810236
 31
0.0
  0
LINE
  5
156
330
1F
100
AcDbEntity
  8
0
  6
Continuous
 62
     7
370
    25
100
AcDbLine
 10
105.9340662327
 20
46.3646810236
 30
0.0
 11
103.9340662327
 21
44.3646810236
 31
0.0
  0
LINE
  5
157
330
1F
100
AcDbEntity
  8
0
  6
Continuous
 62
     7
370
    25
100
AcDbLine
 10
102.97144516
 20
43.3646810236
 30
0.0
 11
105.9340662327
 21
43.3646810236
 31
0.0
  0
LINE
  5
158
330
1F
100
AcDbEntity
  8
0
  6
Continuous
 62
     7
370
    25
100
AcDbLine
 10
103.9340662327
 20
58.2991355018
 30
0.0
 11
103.9340662327
 21
57.7258969557
 31
0.0
  0
SPLINE
  5
159
330
1F
100
AcDbEntity
  8
0
  6
Continuous
 62
     7
370
    25
100
AcDbSpline
210
0.0
220
0.0
230
1.0
 70
     8
 71
     3
 72
    32
 73
    28
 74
     0
 42
0.00000001
 43
0.00000001
 40
0.0
 40
0.0
 40
0.0
 40
0.0
 40
0.0625000000000001
 40
0.0625000000000001
 40
0.1250000000000001
 40
0.1250000000000001
 40
0.1875000000000002
 40
0.1875000000000002
 40
0.2500000000000003
 40
0.2500000000000003
 40
0.3750000000000003
 40
0.3750000000000003
 40
0.4375000000000003
 40
0.4375000000000003
 40
0.5000000000000002
 40
0.5000000000000002
 40
0.5625000000000002
 40
0.5625000000000002
 40
0.6250000000000001
 40
0.6250000000000001
 40
0.7500000000000001
 40
0.7500000000000001
 40
0.8750000000000002
 40
0.8750000000000002
 40
0.9375000000000001
 40
0.9375000000000001
 40
1.0
 40
1.0
 40
1.0
 40
1.0
 10
115.9340662326789
 20
58.29913550177657
 30
0.0
 10
115.777209896762
 20
58.20417852388087
 30
0.0
 10
115.6042114626064
 20
58.10142534925569
 30
0.0
 10
115.2275068759806
 20
57.88471414760743
 30
0.0
 10
115.0246540955239
 20
57.77129543711741
 30
0.0
 10
114.5986728327213
 20
57.54320530041924
 30
0.0
 10
114.3744948724333
 20
57.42789841796739
 30
0.0
 10
113.9031437788569
 20
57.19957531559261
 30
0.0
 10
113.6544582634918
 20
57.08592529945886
 30
0.0
 10
112.8838857788001
 20
56.76286126822482
 30
0.0
 10
112.338248368718
 20
56.56996274406131
 30
0.0
 10
111.4554686202216
 20
56.35836881878761
 30
0.0
 10
111.1568295203488
 20
56.30272643266987
 30
0.0
 10
110.550327919633
 20
56.22705836330603
 30
0.0
 10
110.2401806809671
 20
56.20708511752972
 30
0.0
 10
109.6200951922833
 20
56.20741888378296
 30
0.0
 10
109.3135241548153
 20
56.22741784910575
 30
0.0
 10
108.7068694075071
 20
56.30345663530222
 30
0.0
 10
108.4044963428818
 20
56.36010973543377
 30
0.0
 10
107.5278600401288
 20
56.57088828547961
 30
0.0
 10
106.9798059081519
 20
56.76443411605136
 30
0.0
 10
105.9493086409086
 20
57.19705340932716
 30
0.0
 10
105.4817486056292
 20
57.42953005401758
 30
0.0
 10
104.8435350020012
 20
57.77126805493663
 30
0.0
 10
104.6403252638114
 20
57.88488557036501
 30
0.0
 10
104.263988337417
 20
58.10138796272125
 30
0.0
 10
104.0910097289255
 20
58.20412575916564
 30
0.0
 10
103.9340662326874
 20
58.29913550178172
 30
0.0
  0
LINE
  5
15A
330
1F
100
AcDbEntity
  8
0
  6
Continuous
 62
     7
370
    25
100
AcDbLine
 10
115.9340662327
 20
58.2991355018
 30
0.0
 11
115.9340662327
 21
57.7258969557
 31
0.0
  0
SPLINE
  5
15B
330
1F
100
AcDbEntity
  8
0
  6
Continuous
 62
     7
370
    25
100
AcDbSpline
210
0.0
220
0.0
230
1.0
 70
     8
 71
     3
 72
    12
 73
     8
 74
     0
 42
0.00000001
 43
0.00000001
 40
0.0
 40
0.0
 40
0.0
 40
0.0
 40
0.0821702722852733
 40
0.3096910266324744
 40
0.5425035358993254
 40
0.7710675087793063
 40
1.0
 40
1.0
 40
1.0
 40
1.0
 10
116.1075054287491
 20
59.1578905126463
 30
0.0
 10
116.1086374449826
 20
59.16166027496623
 30
0.0
 10
116.1129038939036
 20
59.17586810865775
 30
0.0
 10
116.0804485511392
 20
59.06851169898462
 30
0.0
 10
116.0244839627377
 20
58.86257348559648
 30
0.0
 10
115.9562745649547
 20
58.57927812846199
 30
0.0
 10
115.9414729843875
 20
58.39256651007847
 30
0.0
 10
115.9340662326874
 20
58.29913550177459
 30
0.0
  0
SPLINE
  5
15C
330
1F
100
AcDbEntity
  8
0
  6
Continuous
 62
     7
370
    25
100
AcDbSpline
210
0.0
220
0.0
230
1.0
 70
     8
 71
     3
 72
    11
 73
     7
 74
     0
 42
0.00000001
 43
0.00000001
 40
0.0
 40
0.0
 40
0.0
 40
0.0
 40
0.3176359095498447
 40
0.6359589517114197
 40
0.865688155476128
 40
1.0
 40
1.0
 40
1.0
 40
1.0
 10
103.9340662326874
 20
58.29913550178163
 30
0.0
 10
103.9204274775705
 20
58.4304001264498
 30
0.0
 10
103.8931204630109
 20
58.69321333676684
 30
0.0
 10
103.8051157859687
 20
59.0048579437649
 30
0.0
 10
103.7605554068117
 20
59.15860445834668
 30
0.0
 10
103.76090415561
 20
59.15709098281188
 30
0.0
 10
103.7610328254251
 20
59.1565325905875
 30
0.0
  0
LINE
  5
15D
330
1F
100
AcDbEntity
  8
0
  6
Continuous
 62
     7
370
    25
100
AcDbLine
 10
104.0340662327
 20
59.8646810236
 30
0.0
 11
104.0347178498
 21
59.8641276154
 31
0.0
  0
LINE
  5
15E
330
1F
100
AcDbEntity
  8
0
  6
Continuous
 62
     7
370
    25
100
AcDbLine
 10
105.1517866058
 20
28.219629083
 30
0.0
 11
114.7163458595
 21
28.219629083
 31
0.0
  0
LINE
  5
15F
330
1F
100
AcDbEntity
  8
0
  6
Continuous
 62
     7
370
    25
100
AcDbLine
 10
113.9340662327
 20
26.8646810236
 30
0.0
 11
105.9340662327
 21
26.8646810236
 31
0.0
  0
SPLINE
  5
160
330
1F
100
AcDbEntity
  8
0
  6
Continuous
 62
     7
370
    25
100
AcDbSpline
210
0.0
220
0.0
230
1.0
 70
     8
 71
     3
 72
    10
 73
     6
 74
     0
 42
0.00000001
 43
0.00000001
 40
0.0
 40
0.0
 40
0.0
 40
0.0
 40
0.1601790552921523
 40
0.7197651707804853
 40
1.0
 40
1.0
 40
1.0
 40
1.0
 10
103.2221153943103
 20
60.0975763112319
 30
0.0
 10
103.221352604217
 20
60.09896853925827
 30
0.0
 10
103.2179250041433
 20
60.1052245209866
 30
0.0
 10
103.2324324689416
 20
60.07871725625868
 30
0.0
 10
103.2503620220594
 20
60.04616140111353
 30
0.0
 10
103.2563448274272
 20
60.03529803248217
 30
0.0
  0
SPLINE
  5
161
330
1F
100
AcDbEntity
  8
0
  6
Continuous
 62
     7
370
    25
100
AcDbSpline
210
0.0
220
0.0
230
1.0
 70
     8
 71
     3
 72
     9
 73
     5
 74
     0
 42
0.00000001
 43
0.00000001
 40
0.0
 40
0.0
 40
0.0
 40
0.0
 40
0.5789479223911438
 40
1.0
 40
1.0
 40
1.0
 40
1.0
 10
119.6046832416136
 20
39.0424024288161
 30
0.0
 10
119.6271246088062
 20
39.05474331913052
 30
0.0
 10
119.6658869332308
 20
39.07605938200442
 30
0.0
 10
119.6666528360899
 20
39.07646755591882
 30
0.0
 10
119.6669753210799
 20
39.07663941839349
 30
0.0
  0
LINE
  5
162
330
1F
100
AcDbEntity
  8
0
  6
Continuous
 62
     7
370
    25
100
AcDbLine
 10
117.2952821649
 20
38.3646810236
 30
0.0
 11
118.4340662327
 21
38.3646810236
 31
0.0
  0
SPLINE
  5
163
330
1F
100
AcDbEntity
  8
0
  6
Continuous
 62
     7
370
    25
100
AcDbSpline
210
0.0
220
0.0
230
1.0
 70
     8
 71
     3
 72
     9
 73
     5
 74
     0
 42
0.00000001
 43
0.00000001
 40
0.0
 40
0.0
 40
0.0
 40
0.0
 40
0.5797912171256431
 40
1.0
 40
1.0
 40
1.0
 40
1.0
 10
116.6117876379476
 20
60.03529803248215
 30
0.0
 10
116.624146241294
 20
60.05777168072328
 30
0.0
 10
116.6454618510884
 20
60.09653330314411
 30
0.0
 10
116.6458527935912
 20
60.09726770790232
 30
0.0
 10
116.6460170710645
 20
60.0975763112319
 30
0.0
  0
SPLINE
  5
164
330
1F
100
AcDbEntity
  8
0
  6
Continuous
 62
     7
370
    25
100
AcDbSpline
210
0.0
220
0.0
230
1.0
 70
     8
 71
     3
 72
    10
 73
     6
 74
     0
 42
0.00000001
 43
0.00000001
 40
0.0
 40
0.0
 40
0.0
 40
0.0
 40
0.1593935212994522
 40
0.7189934545690309
 40
1.0
 40
1.0
 40
1.0
 40
1.0
 10
99.14602462752502
 20
60.09759011194861
 30
0.0
 10
99.14678615452246
 20
60.09898003077522
 30
0.0
 10
99.15022125603838
 20
60.10524968672217
 30
0.0
 10
99.13572663357189
 20
60.07876574489836
 30
0.0
 10
99.11778526307918
 20
60.0461883408515
 30
0.0
 10
99.11178763794756
 20
60.03529803248215
 30
0.0
  0
LINE
  5
165
330
1F
100
AcDbEntity
  8
0
  6
Continuous
 62
     7
370
    25
100
AcDbLine
 10
98.4340662327
 20
58.8646810236
 30
0.0
 11
98.4340662327
 21
57.7258969557
 31
0.0
  0
SPLINE
  5
166
330
1F
100
AcDbEntity
  8
0
  6
Continuous
 62
     7
370
    25
100
AcDbSpline
210
0.0
220
0.0
230
1.0
 70
     8
 71
     3
 72
    10
 73
     6
 74
     0
 42
0.00000001
 43
0.00000001
 40
0.0
 40
0.0
 40
0.0
 40
0.0
 40
0.1593935213061672
 40
0.7189934545756304
 40
1.0
 40
1.0
 40
1.0
 40
1.0
 10
100.2011571442948
 20
39.07663941839349
 30
0.0
 10
100.1997672254682
 20
39.07740094539095
 30
0.0
 10
100.1934975695214
 20
39.08083604690681
 30
0.0
 10
100.2199815113453
 20
39.06634142444021
 30
0.0
 10
100.252558915392
 20
39.0484000539476
 30
0.0
 10
100.2634492237611
 20
39.0424024288161
 30
0.0
  0
LINE
  5
167
330
1F
100
AcDbEntity
  8
0
  6
Continuous
 62
     7
370
    25
100
AcDbLine
 10
101.4340662327
 20
38.3646810236
 30
0.0
 11
102.5728503005
 21
38.3646810236
 31
0.0
  0
SPLINE
  5
168
330
1F
100
AcDbEntity
  8
0
  6
Continuous
 62
     7
370
    25
100
AcDbSpline
210
0.0
220
0.0
230
1.0
 70
     8
 71
     3
 72
     9
 73
     5
 74
     0
 42
0.00000001
 43
0.00000001
 40
0.0
 40
0.0
 40
0.0
 40
0.0
 40
0.5789479223839474
 40
0.9999999999999999
 40
0.9999999999999999
 40
0.9999999999999999
 40
0.9999999999999999
 10
99.11178763794756
 20
40.69406401462967
 30
0.0
 10
99.12412852826182
 20
40.67162264743731
 30
0.0
 10
99.14544459113574
 20
40.63286032301276
 30
0.0
 10
99.14585276505026
 20
40.63209442015339
 30
0.0
 10
99.14602462752501
 20
40.63177193516321
 30
0.0
  0
LINE
  5
169
330
1F
100
AcDbEntity
  8
0
  6
Continuous
 62
     7
370
    25
100
AcDbLine
 10
98.4340662327
 20
43.0034650914
 30
0.0
 11
98.4340662327
 21
41.8646810236
 31
0.0
  0
LINE
  5
16A
330
1F
100
AcDbEntity
  8
0
  6
Continuous
 62
     7
370
    25
100
AcDbLine
 10
119.6716705397
 20
40.6270767165
 30
0.0
 11
119.6046832416
 21
40.6940640146
 31
0.0
  0
LINE
  5
16B
330
1F
100
AcDbEntity
  8
0
  6
Continuous
 62
     7
370
    25
100
AcDbLine
 10
100.2634492238
 20
40.6940640146
 30
0.0
 11
100.1964619257
 21
40.6270767165
 31
0.0
  0
LINE
  5
16C
330
1F
100
AcDbEntity
  8
0
  6
Continuous
 62
     7
370
    25
100
AcDbLine
 10
72.8419219652
 20
53.1911539734
 30
0.0
 11
72.8419219652
 21
47.5382080737
 31
0.0
  0
SPLINE
  5
16D
330
1F
100
AcDbEntity
  8
0
  6
Continuous
 62
     7
370
    25
100
AcDbSpline
210
0.0
220
0.0
230
1.0
 70
     8
 71
     3
 72
    31
 73
    27
 74
     0
 42
0.00000001
 43
0.00000001
 40
0.0
 40
0.0
 40
0.0
 40
0.0
 40
0.0092737653996951
 40
0.0517144596247427
 40
0.0941824173065717
 40
0.1321043486213233
 40
0.1702164293201508
 40
0.2082076224059433
 40
0.2154703797268085
 40
0.2764858280235262
 40
0.337500499002567
 40
0.3848206517675878
 40
0.432045612493251
 40
0.4692145573111627
 40
0.5063445842924543
 40
0.5434323391516529
 40
0.580569397065742
 40
0.6303323407052992
 40
0.680187458063838
 40
0.7334670291010744
 40
0.7867378767966134
 40
0.8315821187683284
 40
0.876391400564418
 40
0.919067149873825
 40
0.9617077296850156
 40
1.0
 40
1.0
 40
1.0
 40
1.0
 10
104.0347178497656
 20
59.86412761540673
 30
0.0
 10
104.0354626613849
 20
59.86349654017343
 30
0.0
 10
104.039616047712
 20
59.85997739630187
 30
0.0
 10
104.1098975606729
 20
59.80005173961855
 30
0.0
 10
104.3012168811851
 20
59.63966145865799
 30
0.0
 10
104.5761382942896
 20
59.41336671760007
 30
0.0
 10
104.9085553944395
 20
59.14799695646182
 30
0.0
 10
105.195618547205
 20
58.9279181792964
 30
0.0
 10
105.5915659536611
 20
58.63411920955398
 30
0.0
 10
106.1271852009365
 20
58.25369683062139
 30
0.0
 10
106.9429386876197
 20
57.75567235066162
 30
0.0
 10
107.7844978453267
 20
57.34355467134111
 30
0.0
 10
108.5679049153017
 20
57.06655551006657
 30
0.0
 10
109.3408897599685
 20
56.91513836669489
 30
0.0
 10
110.0714800739543
 20
56.87698889540852
 30
0.0
 10
110.7962025272946
 20
56.95632078652827
 30
0.0
 10
111.5695721468403
 20
57.1488239943352
 30
0.0
 10
112.3599669691124
 20
57.46598346356857
 30
0.0
 10
113.1567715156236
 20
57.89126200115523
 30
0.0
 10
113.8841386234784
 20
58.35372271256704
 30
0.0
 10
114.4983444541002
 20
58.79413608346456
 30
0.0
 10
114.9918027007352
 20
59.1725952818953
 30
0.0
 10
115.3668709403868
 20
59.47436612094696
 30
0.0
 10
115.6370601882348
 20
59.69795591037882
 30
0.0
 10
115.8055204095126
 20
59.84044803127178
 30
0.0
 10
115.8209347833613
 20
59.85346683627637
 30
0.0
 10
115.8282278833723
 20
59.85962650567683
 30
0.0
  0
LINE
  5
16E
330
1F
100
AcDbEntity
  8
FORMAT
100
AcDbLine
 10
105.6348718624
 20
27.3829008743
 30
0.0
 11
105.3073162327
 21
37.8646810236
 31
0.0
  0
LINE
  5
16F
330
1F
100
AcDbEntity
  8
FORMAT
100
AcDbLine
 10
114.233260603
 20
27.3829008743
 30
0.0
 11
114.5608162327
 21
37.8646810236
 31
0.0
  0
LINE
  5
170
330
1F
100
AcDbEntity
  8
FORMAT
100
AcDbLine
 10
115.0177537327
 20
37.8646810236
 30
0.0
 11
104.8503787327
 21
37.8646810236
 31
0.0
  0
LINE
  5
171
330
1F
100
AcDbEntity
  8
FORMAT
  6
CENTERX2
370
    18
100
AcDbLine
 10
124.1253456313
 20
50.3646810236
 30
0.0
 11
70.4340662327
 21
50.3646810236
 31
0.0
  0
LINE
  5
172
330
1F
100
AcDbEntity
  8
FORMAT
  6
CENTERX2
370
    18
100
AcDbLine
 10
109.9340662327
 20
24.974882127
 30
0.0
 11
109.9340662327
 21
80.186753452
 31
0.0
  0
ARC
  5
173
330
1F
100
AcDbEntity
  8
0
  6
Continuous
 62
     7
370
    25
100
AcDbCircle
 10
155.9035625598
 20
77.4646810236
 30
0.0
 40
0.25
100
AcDbArc
 50
90.0
 51
180.0
  0
ARC
  5
174
330
1F
100
AcDbEntity
  8
0
  6
Continuous
 62
     7
370
    25
100
AcDbCircle
 10
166.4035625598
 20
77.4646810236
 30
0.0
 40
0.25
100
AcDbArc
 50
0.0
 51
90.0
  0
LINE
  5
175
330
1F
100
AcDbEntity
  8
0
  6
Continuous
 62
     7
370
    25
100
AcDbLine
 10
166.6535625598
 20
76.8646810236
 30
0.0
 11
166.6535625598
 21
77.4646810236
 31
0.0
  0
LINE
  5
176
330
1F
100
AcDbEntity
  8
0
  6
Continuous
 62
     7
370
    25
100
AcDbLine
 10
155.6535625598
 20
77.4646810236
 30
0.0
 11
155.6535625598
 21
76.8646810236
 31
0.0
  0
LINE
  5
177
330
1F
100
AcDbEntity
  8
0
  6
Continuous
 62
     7
370
    25
100
AcDbLine
 10
153.7035625598
 20
68.8646810236
 30
0.0
 11
154.1535625598
 21
60.8646810236
 31
0.0
  0
LINE
  5
178
330
1F
100
AcDbEntity
  8
0
  6
Continuous
 62
     7
370
    25
100
AcDbLine
 10
168.1535625598
 20
60.8646810236
 30
0.0
 11
168.6035625598
 21
68.8646810236
 31
0.0
  0
LINE
  5
179
330
1F
100
AcDbEntity
  8
0
  6
Continuous
 62
     7
370
    25
100
AcDbLine
 10
168.6035625598
 20
68.8646810236
 30
0.0
 11
166.6535625597
 21
76.8646810235
 31
0.0
  0
LINE
  5
17A
330
1F
100
AcDbEntity
  8
0
  6
Continuous
 62
     7
370
    25
100
AcDbLine
 10
155.6535625598
 20
76.8646810235
 30
0.0
 11
153.7035625598
 21
68.8646810236
 31
0.0
  0
SPLINE
  5
17B
330
1F
100
AcDbEntity
  8
0
  6
Continuous
 62
     7
370
    25
100
AcDbSpline
210
0.0
220
0.0
230
1.0
 70
     8
 71
     3
 72
     9
 73
     5
 74
     0
 42
0.00000001
 43
0.00000001
 40
0.0
 40
0.0
 40
0.0
 40
0.0
 40
0.770768195654469
 40
1.0
 40
1.0
 40
1.0
 40
1.0
 10
167.0663114693965
 20
56.76590842514833
 30
0.0
 10
167.059525549225
 20
56.79946189223807
 30
0.0
 10
167.0507214493544
 20
56.84299439303263
 30
0.0
 10
167.0542612118732
 20
56.88696809906485
 30
0.0
 10
167.0550726380224
 20
56.89704827104237
 30
0.0
  0
SPLINE
  5
17C
330
1F
100
AcDbEntity
  8
0
  6
Continuous
 62
     7
370
    25
100
AcDbSpline
210
0.0
220
0.0
230
1.0
 70
     8
 71
     3
 72
     9
 73
     5
 74
     0
 42
0.00000001
 43
0.00000001
 40
0.0
 40
0.0
 40
0.0
 40
0.0
 40
0.5441454781312028
 40
1.0
 40
1.0
 40
1.0
 40
1.0
 10
155.2514507738487
 20
56.90394384282281
 30
0.0
 10
155.2528294521432
 20
56.87900991856415
 30
0.0
 10
155.2553631096851
 20
56.83318775287367
 30
0.0
 10
155.2472617660312
 20
56.78806739260874
 30
0.0
 10
155.2435687318933
 20
56.76749907235362
 30
0.0
  0
LINE
  5
17D
330
1F
100
AcDbEntity
  8
0
  6
Continuous
 62
     7
370
    25
100
AcDbLine
 10
167.0535625598
 20
56.8979072767
 30
0.0
 11
167.0535625598
 21
60.8646810236
 31
0.0
  0
LINE
  5
17E
330
1F
100
AcDbEntity
  8
0
  6
Continuous
 62
     7
370
    25
100
AcDbLine
 10
155.2535625598
 20
60.8646810236
 30
0.0
 11
155.2535625598
 21
56.9032096875
 31
0.0
  0
LINE
  5
17F
330
1F
100
AcDbEntity
  8
0
  6
Continuous
 62
     7
370
    25
100
AcDbLine
 10
156.0542500598
 20
38.3646810236
 30
0.0
 11
156.3712829329
 21
28.219629083
 31
0.0
  0
LINE
  5
180
330
1F
100
AcDbEntity
  8
0
  6
Continuous
 62
     7
370
    25
100
AcDbLine
 10
165.9358421866
 20
28.219629083
 30
0.0
 11
166.2528750598
 21
38.3646810236
 31
0.0
  0
LINE
  5
181
330
1F
100
AcDbEntity
  8
0
  6
Continuous
 62
     7
370
    25
100
AcDbLine
 10
156.3712829329
 20
28.219629083
 30
0.0
 11
157.1535625598
 21
26.8646810236
 31
0.0
  0
LINE
  5
182
330
1F
100
AcDbEntity
  8
0
  6
Continuous
 62
     7
370
    25
100
AcDbLine
 10
165.1535625598
 20
26.8646810236
 30
0.0
 11
165.9358421866
 21
28.219629083
 31
0.0
  0
LINE
  5
183
330
1F
100
AcDbEntity
  8
0
  6
Continuous
 62
     7
370
    25
100
AcDbLine
 10
162.4035625598
 20
77.4646810236
 30
0.0
 11
162.4035625598
 21
77.7146810236
 31
0.0
  0
LINE
  5
184
330
1F
100
AcDbEntity
  8
0
  6
Continuous
 62
     7
370
    25
100
AcDbLine
 10
162.4035625598
 20
77.4646810236
 30
0.0
 11
159.9035625598
 21
77.4646810236
 31
0.0
  0
LINE
  5
185
330
1F
100
AcDbEntity
  8
0
  6
Continuous
 62
     7
370
    25
100
AcDbLine
 10
159.9035625598
 20
77.7146810236
 30
0.0
 11
159.9035625598
 21
77.4646810236
 31
0.0
  0
LINE
  5
186
330
1F
100
AcDbEntity
  8
0
  6
Continuous
 62
     7
370
    25
100
AcDbLine
 10
159.9035625598
 20
77.7146810236
 30
0.0
 11
162.4035625598
 21
77.7146810236
 31
0.0
  0
LINE
  5
187
330
1F
100
AcDbEntity
  8
0
  6
Continuous
 62
     7
370
    25
100
AcDbLine
 10
162.4035625598
 20
76.8646810236
 30
0.0
 11
162.4035625598
 21
77.4646810236
 31
0.0
  0
LINE
  5
188
330
1F
100
AcDbEntity
  8
0
  6
Continuous
 62
     7
370
    25
100
AcDbLine
 10
162.4035625598
 20
77.4646810236
 30
0.0
 11
162.6535625598
 21
77.4646810236
 31
0.0
  0
LINE
  5
189
330
1F
100
AcDbEntity
  8
0
  6
Continuous
 62
     7
370
    25
100
AcDbLine
 10
162.6535625598
 20
77.4646810236
 30
0.0
 11
162.6535625598
 21
76.8646810236
 31
0.0
  0
LINE
  5
18A
330
1F
100
AcDbEntity
  8
0
  6
Continuous
 62
     7
370
    25
100
AcDbLine
 10
162.6535625598
 20
76.8646810236
 30
0.0
 11
162.4035625598
 21
76.8646810236
 31
0.0
  0
LINE
  5
18B
330
1F
100
AcDbEntity
  8
0
  6
Continuous
 62
     7
370
    25
100
AcDbLine
 10
159.6535625598
 20
77.4646810236
 30
0.0
 11
159.9035625598
 21
77.4646810236
 31
0.0
  0
ARC
  5
18C
330
1F
100
AcDbEntity
  8
0
  6
Continuous
 62
     7
370
    25
100
AcDbCircle
 10
159.9035625598
 20
77.4646810236
 30
0.0
 40
0.25
100
AcDbArc
 50
90.0
 51
180.0
  0
LINE
  5
18D
330
1F
100
AcDbEntity
  8
0
  6
Continuous
 62
     7
370
    25
100
AcDbLine
 10
159.9035625598
 20
77.4646810236
 30
0.0
 11
159.9035625598
 21
76.8646810236
 31
0.0
  0
LINE
  5
18E
330
1F
100
AcDbEntity
  8
0
  6
Continuous
 62
     7
370
    25
100
AcDbLine
 10
159.9035625598
 20
76.8646810236
 30
0.0
 11
162.4035625598
 21
76.8646810236
 31
0.0
  0
ARC
  5
18F
330
1F
100
AcDbEntity
  8
0
  6
Continuous
 62
     7
370
    25
100
AcDbCircle
 10
162.4035625598
 20
77.4646810236
 30
0.0
 40
0.25
100
AcDbArc
 50
0.0
 51
90.0
  0
LINE
  5
190
330
1F
100
AcDbEntity
  8
0
  6
Continuous
 62
     7
370
    25
100
AcDbLine
 10
159.6535625598
 20
76.8646810236
 30
0.0
 11
159.6535625598
 21
77.4646810236
 31
0.0
  0
LINE
  5
191
330
1F
100
AcDbEntity
  8
0
  6
Continuous
 62
     7
370
    25
100
AcDbLine
 10
159.9035625598
 20
76.8646810236
 30
0.0
 11
159.6535625598
 21
76.8646810236
 31
0.0
  0
SPLINE
  5
192
330
1F
100
AcDbEntity
  8
0
  6
Continuous
 62
     7
370
    25
100
AcDbSpline
210
0.0
220
0.0
230
1.0
 70
     8
 71
     3
 72
    15
 73
    11
 74
     0
 42
0.00000001
 43
0.00000001
 40
0.0
 40
0.0
 40
0.0
 40
0.0
 40
0.0090459071881971
 40
0.1032433785236875
 40
0.1542564497735248
 40
0.313316902671511
 40
0.5243720399414434
 40
0.6678060008509189
 40
0.9918332554187028
 40
1.0
 40
1.0
 40
1.0
 40
1.0
 10
159.4796495162784
 20
77.46468102355591
 30
0.0
 10
159.4796671620028
 20
77.46636212214034
 30
0.0
 10
159.4798685574154
 20
77.48554895369585
 30
0.0
 10
159.4860581780816
 20
77.51424323321585
 30
0.0
 10
159.5102601099258
 20
77.56491927318775
 30
0.0
 10
159.5632791019274
 20
77.62279557276467
 30
0.0
 10
159.644649989124
 20
77.66766108749937
 30
0.0
 10
159.7592290611465
 20
77.70502347075387
 30
0.0
 10
159.8436542388656
 20
77.71456948302345
 30
0.0
 10
159.9021250968177
 20
77.71467834721012
 30
0.0
 10
159.9035625597567
 20
77.71468102355591
 30
0.0
  0
LINE
  5
193
330
1F
100
AcDbEntity
  8
0
  6
Continuous
 62
     7
370
    25
100
AcDbLine
 10
159.4796495163
 20
77.4646810236
 30
0.0
 11
159.6535625598
 21
77.4646810236
 31
0.0
  0
LINE
  5
194
330
1F
100
AcDbEntity
  8
0
  6
Continuous
 62
     7
370
    25
100
AcDbLine
 10
162.6535625598
 20
77.4646810236
 30
0.0
 11
162.8274756032
 21
77.4646810236
 31
0.0
  0
SPLINE
  5
195
330
1F
100
AcDbEntity
  8
0
  6
Continuous
 62
     7
370
    25
100
AcDbSpline
210
0.0
220
0.0
230
1.0
 70
     8
 71
     3
 72
    15
 73
    11
 74
     0
 42
0.00000001
 43
0.00000001
 40
0.0
 40
0.0
 40
0.0
 40
0.0
 40
0.0081667445812695
 40
0.3321939991490077
 40
0.4756279600585576
 40
0.68668309732849
 40
0.8457435502264807
 40
0.8967566214763126
 40
0.9909540928118029
 40
1.0
 40
1.0
 40
1.0
 40
1.0
 10
162.4035625597567
 20
77.71468102355591
 30
0.0
 10
162.4050000226957
 20
77.71467834721012
 30
0.0
 10
162.4634708806474
 20
77.7145694830234
 30
0.0
 10
162.5478960583669
 20
77.70502347075389
 30
0.0
 10
162.6624751303893
 20
77.66766108749935
 30
0.0
 10
162.7438460175859
 20
77.62279557276467
 30
0.0
 10
162.7968650095876
 20
77.56491927318775
 30
0.0
 10
162.8210669414317
 20
77.51424323321585
 30
0.0
 10
162.8272565620979
 20
77.48554895369583
 30
0.0
 10
162.8274579575104
 20
77.46636212214034
 30
0.0
 10
162.8274756032349
 20
77.46468102355591
 30
0.0
  0
LINE
  5
196
330
1F
100
AcDbEntity
  8
0
  6
Continuous
 62
     7
370
    25
100
AcDbLine
 10
159.4796495163
 20
76.8646810236
 30
0.0
 11
159.4796495163
 21
77.4646810236
 31
0.0
  0
LINE
  5
197
330
1F
100
AcDbEntity
  8
0
  6
Continuous
 62
     7
370
    25
100
AcDbLine
 10
159.6535625598
 20
76.8646810236
 30
0.0
 11
159.4796495163
 21
76.8646810236
 31
0.0
  0
LINE
  5
198
330
1F
100
AcDbEntity
  8
0
  6
Continuous
 62
     7
370
    25
100
AcDbLine
 10
162.8274756032
 20
77.4646810236
 30
0.0
 11
162.8274756032
 21
76.8646810236
 31
0.0
  0
LINE
  5
199
330
1F
100
AcDbEntity
  8
0
  6
Continuous
 62
     7
370
    25
100
AcDbLine
 10
162.8274756032
 20
76.8646810236
 30
0.0
 11
162.6535625598
 21
76.8646810236
 31
0.0
  0
LINE
  5
19A
330
1F
100
AcDbEntity
  8
0
  6
Continuous
 62
     7
370
    25
100
AcDbLine
 10
155.9035625598
 20
77.7146810236
 30
0.0
 11
159.9035625598
 21
77.7146810236
 31
0.0
  0
LINE
  5
19B
330
1F
100
AcDbEntity
  8
0
  6
Continuous
 62
     7
370
    25
100
AcDbLine
 10
162.4035625598
 20
77.7146810236
 30
0.0
 11
166.4035625598
 21
77.7146810236
 31
0.0
  0
LINE
  5
19C
330
1F
100
AcDbEntity
  8
0
  6
Continuous
 62
     7
370
    25
100
AcDbLine
 10
162.8274756032
 20
76.8646810236
 30
0.0
 11
166.6535625598
 21
76.8646810236
 31
0.0
  0
LINE
  5
19D
330
1F
100
AcDbEntity
  8
0
  6
Continuous
 62
     7
370
    25
100
AcDbLine
 10
155.6535625598
 20
76.8646810236
 30
0.0
 11
159.4796495163
 21
76.8646810236
 31
0.0
  0
LINE
  5
19E
330
1F
100
AcDbEntity
  8
0
  6
Continuous
 62
     7
370
    25
100
AcDbLine
 10
160.5535625598
 20
77.7246810236
 30
0.0
 11
161.7535625598
 21
77.7246810236
 31
0.0
  0
LINE
  5
19F
330
1F
100
AcDbEntity
  8
0
  6
Continuous
 62
     7
370
    25
100
AcDbLine
 10
161.7535625598
 20
77.7146810236
 30
0.0
 11
161.7535625598
 21
77.7246810236
 31
0.0
  0
LINE
  5
1A0
330
1F
100
AcDbEntity
  8
0
  6
Continuous
 62
     7
370
    25
100
AcDbLine
 10
160.5535625598
 20
77.7146810236
 30
0.0
 11
160.5535625598
 21
77.7246810236
 31
0.0
  0
LINE
  5
1A1
330
1F
100
AcDbEntity
  8
0
  6
Continuous
 62
     7
370
    25
100
AcDbLine
 10
154.1535625598
 20
60.8646810236
 30
0.0
 11
168.1535625598
 21
60.8646810236
 31
0.0
  0
LINE
  5
1A2
330
1F
100
AcDbEntity
  8
0
  6
Continuous
 62
     7
370
    25
100
AcDbLine
 10
153.7035625598
 20
68.8646810235
 30
0.0
 11
168.6035625598
 21
68.8646810235
 31
0.0
  0
LINE
  5
1A3
330
1F
100
AcDbEntity
  8
0
  6
Continuous
 62
     7
370
    25
100
AcDbLine
 10
157.6535625598
 20
78.8646810236
 30
0.0
 11
157.6535625598
 21
77.7146810236
 31
0.0
  0
LINE
  5
1A4
330
1F
100
AcDbEntity
  8
0
  6
Continuous
 62
     7
370
    25
100
AcDbLine
 10
157.6535625598
 20
78.8646810236
 30
0.0
 11
157.8818632957
 21
78.8646810236
 31
0.0
  0
LINE
  5
1A5
330
1F
100
AcDbEntity
  8
0
  6
Continuous
 62
     7
370
    25
100
AcDbLine
 10
157.8818632957
 20
78.8646810236
 30
0.0
 11
157.8818632957
 21
77.7146810236
 31
0.0
  0
LINE
  5
1A6
330
1F
100
AcDbEntity
  8
0
  6
Continuous
 62
     7
370
    25
100
AcDbLine
 10
164.4252618238
 20
78.8646810236
 30
0.0
 11
164.4252618238
 21
77.7146810236
 31
0.0
  0
LINE
  5
1A7
330
1F
100
AcDbEntity
  8
0
  6
Continuous
 62
     7
370
    25
100
AcDbLine
 10
164.4252618238
 20
78.8646810236
 30
0.0
 11
164.6535625598
 21
78.8646810236
 31
0.0
  0
LINE
  5
1A8
330
1F
100
AcDbEntity
  8
0
  6
Continuous
 62
     7
370
    25
100
AcDbLine
 10
164.6535625598
 20
77.7146810236
 30
0.0
 11
164.6535625598
 21
78.8646810236
 31
0.0
  0
LINE
  5
1A9
330
1F
100
AcDbEntity
  8
0
  6
Continuous
 62
     7
370
    25
100
AcDbLine
 10
157.8818632957
 20
78.8646810236
 30
0.0
 11
164.4252618238
 21
78.8646810236
 31
0.0
  0
CIRCLE
  5
1AA
330
1F
100
AcDbEntity
  8
0
  6
Continuous
 62
     7
370
    25
100
AcDbCircle
 10
161.1535625598
 20
50.3646810236
 30
0.0
 40
8.25
  0
SPLINE
  5
1AB
330
1F
100
AcDbEntity
  8
0
  6
Continuous
 62
     7
370
    25
100
AcDbSpline
210
0.0
220
0.0
230
1.0
 70
     8
 71
     3
 72
    10
 73
     6
 74
     0
 42
0.00000001
 43
0.00000001
 40
0.0
 40
0.0
 40
0.0
 40
0.0
 40
0.5
 40
0.5
 40
1.0
 40
1.0
 40
1.0
 40
1.0
 10
152.6535625597566
 20
45.74587887003891
 30
0.0
 10
152.6535625597566
 20
45.65999180823645
 30
0.0
 10
152.6763550090865
 20
45.57258459925631
 30
0.0
 10
152.7642977131795
 20
45.41994815666258
 30
0.0
 10
152.8291554868534
 20
45.355825111717
 30
0.0
 10
152.9035625597566
 20
45.31286616814669
 30
0.0
  0
SPLINE
  5
1AC
330
1F
100
AcDbEntity
  8
0
  6
Continuous
 62
     7
370
    25
100
AcDbSpline
210
0.0
220
0.0
230
1.0
 70
    24
 71
     3
 72
    14
 73
    10
 74
     0
 42
0.00000001
 43
0.00000001
 40
0.0
 40
0.0
 40
0.0
 40
0.0
 40
0.25
 40
0.25
 40
0.5
 40
0.5
 40
0.75
 40
0.75
 40
1.0
 40
1.0
 40
1.0
 40
1.0
 10
152.6535625597566
 20
45.74587887003887
 30
0.0
 10
152.6535625597566
 20
46.50025893068885
 30
0.0
 10
152.6535625597566
 20
47.26970009815435
 30
0.0
 10
152.6535625597566
 20
48.81021145909551
 30
0.0
 10
152.6535625597566
 20
49.58506583910253
 30
0.0
 10
152.6535625597566
 20
51.14542679398809
 30
0.0
 10
152.6535625597566
 20
51.93588298677311
 30
0.0
 10
152.6535625597566
 20
53.47816264958158
 30
0.0
 10
152.6535625597566
 20
54.23555340278276
 30
0.0
 10
152.6535625597566
 20
54.98348317707293
 30
0.0
  0
SPLINE
  5
1AD
330
1F
100
AcDbEntity
  8
0
  6
Continuous
 62
     7
370
    25
100
AcDbSpline
210
0.0
220
0.0
230
1.0
 70
     8
 71
     3
 72
    10
 73
     6
 74
     0
 42
0.00000001
 43
0.00000001
 40
0.0
 40
0.0
 40
0.0
 40
0.0
 40
0.5
 40
0.5
 40
1.0
 40
1.0
 40
1.0
 40
1.0
 10
152.9035625597566
 20
55.41649587896514
 30
0.0
 10
152.8291821823793
 20
55.37355234806392
 30
0.0
 10
152.7648815435936
 20
55.31010990343979
 30
0.0
 10
152.6766658588106
 20
55.15763106632082
 30
0.0
 10
152.6535625597566
 20
55.06940106421355
 30
0.0
 10
152.6535625597566
 20
54.98348317707293
 30
0.0
  0
SPLINE
  5
1AE
330
1F
100
AcDbEntity
  8
0
  6
Continuous
 62
     7
370
    25
100
AcDbSpline
210
0.0
220
0.0
230
1.0
 70
    24
 71
     3
 72
    16
 73
    12
 74
     0
 42
0.00000001
 43
0.00000001
 40
0.0
 40
0.0
 40
0.0
 40
0.0
 40
0.2500000000000001
 40
0.2500000000000001
 40
0.5000000000000001
 40
0.5000000000000001
 40
0.6250000000000001
 40
0.6250000000000001
 40
0.7500000000000002
 40
0.7500000000000002
 40
1.0
 40
1.0
 40
1.0
 40
1.0
 10
160.9035625597567
 20
60.03529803248215
 30
0.0
 10
160.2500457797159
 20
59.65798994360566
 30
0.0
 10
159.5918253706259
 20
59.27796621323145
 30
0.0
 10
158.2622627872601
 20
58.51034289782076
 30
0.0
 10
157.5908388051895
 20
58.12269608103196
 30
0.0
 10
156.5718377181828
 20
57.53437552914411
 30
0.0
 10
156.2304969358666
 20
57.33730233658846
 30
0.0
 10
155.5548984328962
 20
56.94724535903436
 30
0.0
 10
155.2192392829315
 20
56.75345245844633
 30
0.0
 10
154.2179736464319
 20
56.1753714736829
 30
0.0
 10
153.5580659878287
 20
55.79437360934808
 30
0.0
 10
152.9035625597566
 20
55.41649587896514
 30
0.0
  0
SPLINE
  5
1AF
330
1F
100
AcDbEntity
  8
0
  6
Continuous
 62
     7
370
    25
100
AcDbSpline
210
0.0
220
0.0
230
1.0
 70
     8
 71
     3
 72
    10
 73
     6
 74
     0
 42
0.00000001
 43
0.00000001
 40
0.0
 40
0.0
 40
0.0
 40
0.0
 40
0.5
 40
0.5
 40
1.0
 40
1.0
 40
1.0
 40
1.0
 10
161.4035625597567
 20
60.03529803248215
 30
0.0
 10
161.3291821823793
 20
60.07824156338338
 30
0.0
 10
161.2420890942638
 20
60.10220632773936
 30
0.0
 10
161.0659307053878
 20
60.10236393321414
 30
0.0
 10
160.9779696326599
 20
60.07825697605247
 30
0.0
 10
160.9035625597567
 20
60.03529803248216
 30
0.0
  0
SPLINE
  5
1B0
330
1F
100
AcDbEntity
  8
0
  6
Continuous
 62
     7
370
    25
100
AcDbSpline
210
0.0
220
0.0
230
1.0
 70
    24
 71
     3
 72
    16
 73
    12
 74
     0
 42
0.00000001
 43
0.00000001
 40
0.0
 40
0.0
 40
0.0
 40
0.0
 40
0.2499999999999997
 40
0.2499999999999997
 40
0.4999999999999993
 40
0.4999999999999993
 40
0.6249999999999993
 40
0.6249999999999993
 40
0.7499999999999996
 40
0.7499999999999996
 40
1.0
 40
1.0
 40
1.0
 40
1.0
 10
169.4035625597567
 20
55.41649587896514
 30
0.0
 10
168.7500457797158
 20
55.79380396784164
 30
0.0
 10
168.0918253706259
 20
56.17382769821585
 30
0.0
 10
166.7622627872601
 20
56.94145101362653
 30
0.0
 10
166.0908388051895
 20
57.32909783041534
 30
0.0
 10
165.0718377181828
 20
57.91741838230319
 30
0.0
 10
164.7304969358666
 20
58.11449157485883
 30
0.0
 10
164.0548984328962
 20
58.50454855241293
 30
0.0
 10
163.7192392829316
 20
58.69834145300097
 30
0.0
 10
162.7179736464319
 20
59.2764224377644
 30
0.0
 10
162.0580659878287
 20
59.65742030209923
 30
0.0
 10
161.4035625597567
 20
60.03529803248215
 30
0.0
  0
SPLINE
  5
1B1
330
1F
100
AcDbEntity
  8
0
  6
Continuous
 62
     7
370
    25
100
AcDbSpline
210
0.0
220
0.0
230
1.0
 70
     8
 71
     3
 72
    10
 73
     6
 74
     0
 42
0.00000001
 43
0.00000001
 40
0.0
 40
0.0
 40
0.0
 40
0.0
 40
0.5
 40
0.5
 40
1.0
 40
1.0
 40
1.0
 40
1.0
 10
169.6535625597567
 20
54.98348317707293
 30
0.0
 10
169.6535625597567
 20
55.06937023887539
 30
0.0
 10
169.6307701104269
 20
55.15677744785549
 30
0.0
 10
169.5428274063338
 20
55.30941389044924
 30
0.0
 10
169.4779696326599
 20
55.37353693539483
 30
0.0
 10
169.4035625597567
 20
55.41649587896514
 30
0.0
  0
SPLINE
  5
1B2
330
1F
100
AcDbEntity
  8
0
  6
Continuous
 62
     7
370
    25
100
AcDbSpline
210
0.0
220
0.0
230
1.0
 70
    24
 71
     3
 72
    14
 73
    10
 74
     0
 42
0.00000001
 43
0.00000001
 40
0.0
 40
0.0
 40
0.0
 40
0.0
 40
0.25
 40
0.25
 40
0.5
 40
0.5
 40
0.75
 40
0.75
 40
1.0
 40
1.0
 40
1.0
 40
1.0
 10
169.6535625597567
 20
45.74587887003886
 30
0.0
 10
169.6535625597567
 20
46.50025893068884
 30
0.0
 10
169.6535625597567
 20
47.26970009815434
 30
0.0
 10
169.6535625597567
 20
48.8102114590955
 30
0.0
 10
169.6535625597567
 20
49.58506583910252
 30
0.0
 10
169.6535625597567
 20
51.14542679398808
 30
0.0
 10
169.6535625597567
 20
51.93588298677311
 30
0.0
 10
169.6535625597567
 20
53.47816264958158
 30
0.0
 10
169.6535625597567
 20
54.23555340278276
 30
0.0
 10
169.6535625597567
 20
54.98348317707293
 30
0.0
  0
SPLINE
  5
1B3
330
1F
100
AcDbEntity
  8
0
  6
Continuous
 62
     7
370
    25
100
AcDbSpline
210
0.0
220
0.0
230
1.0
 70
     8
 71
     3
 72
    10
 73
     6
 74
     0
 42
0.00000001
 43
0.00000001
 40
0.0
 40
0.0
 40
0.0
 40
0.0
 40
0.5
 40
0.5
 40
1.0
 40
1.0
 40
1.0
 40
1.0
 10
169.4035625597567
 20
45.31286616814669
 30
0.0
 10
169.4779429371338
 20
45.35580969904782
 30
0.0
 10
169.5422435759193
 20
45.41925214367149
 30
0.0
 10
169.6304592607026
 20
45.57173098079061
 30
0.0
 10
169.6535625597567
 20
45.6599609828981
 30
0.0
 10
169.6535625597567
 20
45.74587887003889
 30
0.0
  0
SPLINE
  5
1B4
330
1F
100
AcDbEntity
  8
0
  6
Continuous
 62
     7
370
    25
100
AcDbSpline
210
0.0
220
0.0
230
1.0
 70
    24
 71
     3
 72
    16
 73
    12
 74
     0
 42
0.00000001
 43
0.00000001
 40
0.0
 40
0.0
 40
0.0
 40
0.0
 40
0.2500000000000002
 40
0.2500000000000002
 40
0.5000000000000004
 40
0.5000000000000004
 40
0.6250000000000003
 40
0.6250000000000003
 40
0.7500000000000002
 40
0.7500000000000002
 40
1.0
 40
1.0
 40
1.0
 40
1.0
 10
161.4035625597567
 20
40.69406401462968
 30
0.0
 10
162.0570793397974
 20
41.07137210350615
 30
0.0
 10
162.7152997488873
 20
41.45139583388033
 30
0.0
 10
164.044862332253
 20
42.21901914929096
 30
0.0
 10
164.7162863143235
 20
42.60666596607973
 30
0.0
 10
165.7352874013301
 20
43.19498651796752
 30
0.0
 10
166.0766281836463
 20
43.39205971052316
 30
0.0
 10
166.7522266866167
 20
43.78211668807723
 30
0.0
 10
167.0878858365813
 20
43.97590958866525
 30
0.0
 10
168.089151473081
 20
44.55399057342864
 30
0.0
 10
168.749059131684
 20
44.93498843776343
 30
0.0
 10
169.4035625597561
 20
45.31286616814634
 30
0.0
  0
SPLINE
  5
1B5
330
1F
100
AcDbEntity
  8
0
  6
Continuous
 62
     7
370
    25
100
AcDbSpline
210
0.0
220
0.0
230
1.0
 70
     8
 71
     3
 72
    10
 73
     6
 74
     0
 42
0.00000001
 43
0.00000001
 40
0.0
 40
0.0
 40
0.0
 40
0.0
 40
0.5
 40
0.5
 40
1.0
 40
1.0
 40
1.0
 40
1.0
 10
160.9035625597567
 20
40.69406401462968
 30
0.0
 10
160.977942937134
 20
40.65112048372846
 30
0.0
 10
161.0650360252496
 20
40.62715571937247
 30
0.0
 10
161.2411944141255
 20
40.62699811389768
 30
0.0
 10
161.3291554868534
 20
40.65110507105938
 30
0.0
 10
161.4035625597567
 20
40.69406401462968
 30
0.0
  0
SPLINE
  5
1B6
330
1F
100
AcDbEntity
  8
0
  6
Continuous
 62
     7
370
    25
100
AcDbSpline
210
0.0
220
0.0
230
1.0
 70
    24
 71
     3
 72
    16
 73
    12
 74
     0
 42
0.00000001
 43
0.00000001
 40
0.0
 40
0.0
 40
0.0
 40
0.0
 40
0.2500000000000001
 40
0.2500000000000001
 40
0.5000000000000002
 40
0.5000000000000002
 40
0.6250000000000001
 40
0.6250000000000001
 40
0.7500000000000001
 40
0.7500000000000001
 40
1.0
 40
1.0
 40
1.0
 40
1.0
 10
152.9035625597566
 20
45.31286616814669
 30
0.0
 10
153.5570793397974
 20
44.93555807927019
 30
0.0
 10
154.2152997488874
 20
44.55553434889599
 30
0.0
 10
155.5448623322532
 20
43.78791103348529
 30
0.0
 10
156.2162863143238
 20
43.4002642166965
 30
0.0
 10
157.2352874013305
 20
42.81194366480865
 30
0.0
 10
157.5766281836467
 20
42.614870472253
 30
0.0
 10
158.2522266866171
 20
42.2248134946989
 30
0.0
 10
158.5878858365818
 20
42.03102059411086
 30
0.0
 10
159.5891514730814
 20
41.45293960934744
 30
0.0
 10
160.2490591316846
 20
41.07194174501262
 30
0.0
 10
160.9035625597567
 20
40.69406401462968
 30
0.0
  0
SPLINE
  5
1B7
330
1F
100
AcDbEntity
  8
0
  6
Continuous
 62
     7
370
    25
100
AcDbSpline
210
0.0
220
0.0
230
1.0
 70
     8
 71
     3
 72
    10
 73
     6
 74
     0
 42
0.00000001
 43
0.00000001
 40
0.0
 40
0.0
 40
0.0
 40
0.0
 40
0.5
 40
0.5
 40
1.0
 40
1.0
 40
1.0
 40
1.0
 10
160.9035625597567
 20
39.0424024288161
 30
0.0
 10
160.9779373137467
 20
39.06607603330723
 30
0.0
 10
161.0650310453126
 20
39.07916880910045
 30
0.0
 10
161.2411968738571
 20
39.0792553772014
 30
0.0
 10
161.3291578977474
 20
39.06608555307812
 30
0.0
 10
161.4035625597567
 20
39.0424024288161
 30
0.0
  0
SPLINE
  5
1B8
330
1F
100
AcDbEntity
  8
0
  6
Continuous
 62
     7
370
    25
100
AcDbSpline
210
0.0
220
0.0
230
1.0
 70
     8
 71
     3
 72
    12
 73
     8
 74
     0
 42
0.00000001
 43
0.00000001
 40
0.0
 40
0.0
 40
0.0
 40
0.0
 40
0.2500000000000002
 40
0.2500000000000002
 40
0.5000000000000001
 40
0.5000000000000001
 40
1.0
 40
1.0
 40
1.0
 40
1.0
 10
165.4035625597567
 20
38.36468102355591
 30
0.0
 10
165.0658066247339
 20
38.3646810235559
 30
0.0
 10
164.7253986098554
 20
38.38042735357787
 30
0.0
 10
164.050903925455
 20
38.4418723781633
 30
0.0
 10
163.7157786065877
 20
38.48746113741703
 30
0.0
 10
162.7160672882476
 20
38.66391213967363
 30
0.0
 10
162.0571331851823
 20
38.83436984163711
 30
0.0
 10
161.4035625597566
 20
39.04240242881596
 30
0.0
  0
LINE
  5
1B9
330
1F
100
AcDbEntity
  8
0
  6
Continuous
 62
     7
370
    25
100
AcDbLine
 10
156.9035625598
 20
38.3646810236
 30
0.0
 11
165.4035625598
 21
38.3646810236
 31
0.0
  0
SPLINE
  5
1BA
330
1F
100
AcDbEntity
  8
0
  6
Continuous
 62
     7
370
    25
100
AcDbSpline
210
0.0
220
0.0
230
1.0
 70
     8
 71
     3
 72
    10
 73
     6
 74
     0
 42
0.00000001
 43
0.00000001
 40
0.0
 40
0.0
 40
0.0
 40
0.0
 40
0.5
 40
0.5
 40
1.0
 40
1.0
 40
1.0
 40
1.0
 10
160.9035625597567
 20
39.04240242881564
 30
0.0
 10
160.2475497931516
 20
38.83359250414938
 30
0.0
 10
159.5872828862939
 20
38.66305836440212
 30
0.0
 10
158.2549363676589
 20
38.4282725593832
 30
0.0
 10
157.5827833861715
 20
38.36468102355591
 30
0.0
 10
156.9035625597567
 20
38.36468102355591
 30
0.0
  0
LINE
  5
1BB
330
1F
100
AcDbEntity
  8
0
  6
Continuous
 62
     7
370
    25
100
AcDbLine
 10
161.4035625598
 20
40.6940640146
 30
0.0
 11
161.4035625598
 21
39.0424024288
 31
0.0
  0
LINE
  5
1BC
330
1F
100
AcDbEntity
  8
0
  6
Continuous
 62
     7
370
    25
100
AcDbLine
 10
160.9035625598
 20
39.0424024288
 30
0.0
 11
160.9035625598
 21
40.6940640146
 31
0.0
  0
SPLINE
  5
1BD
330
1F
100
AcDbEntity
  8
0
  6
Continuous
 62
     7
370
    25
100
AcDbSpline
210
0.0
220
0.0
230
1.0
 70
     8
 71
     3
 72
    12
 73
     8
 74
     0
 42
0.00000001
 43
0.00000001
 40
0.0
 40
0.0
 40
0.0
 40
0.0
 40
0.2499999999999999
 40
0.2499999999999999
 40
0.4999999999999998
 40
0.4999999999999998
 40
1.0
 40
1.0
 40
1.0
 40
1.0
 10
165.527992652509
 20
43.07530483892105
 30
0.0
 10
165.8571276429022
 20
43.07159635306462
 30
0.0
 10
166.1865897958389
 20
43.05301385022695
 30
0.0
 10
166.8394634138966
 20
42.9881468132608
 30
0.0
 10
167.1639160057736
 20
42.94188126001053
 30
0.0
 10
168.1319764469658
 20
42.76615672970357
 30
0.0
 10
168.7702989312137
 20
42.59985332092681
 30
0.0
 10
169.4035625597567
 20
42.39828448370091
 30
0.0
  0
LINE
  5
1BE
330
1F
100
AcDbEntity
  8
0
  6
Continuous
 62
     7
370
    25
100
AcDbLine
 10
169.4035625598
 20
39.0424024288
 30
0.0
 11
169.4035625598
 21
42.3982844837
 31
0.0
  0
SPLINE
  5
1BF
330
1F
100
AcDbEntity
  8
0
  6
Continuous
 62
     7
370
    25
100
AcDbSpline
210
0.0
220
0.0
230
1.0
 70
     8
 71
     3
 72
    10
 73
     6
 74
     0
 42
0.00000001
 43
0.00000001
 40
0.0
 40
0.0
 40
0.0
 40
0.0
 40
0.5
 40
0.5
 40
1.0
 40
1.0
 40
1.0
 40
1.0
 10
169.4035625597567
 20
39.04240242881564
 30
0.0
 10
168.7475497931516
 20
38.83359250414938
 30
0.0
 10
168.0872828862939
 20
38.66305836440213
 30
0.0
 10
166.7549363676589
 20
38.4282725593832
 30
0.0
 10
166.0827833861715
 20
38.36468102355591
 30
0.0
 10
165.4035625597567
 20
38.36468102355591
 30
0.0
  0
SPLINE
  5
1C0
330
1F
100
AcDbEntity
  8
0
  6
Continuous
 62
     7
370
    25
100
AcDbSpline
210
0.0
220
0.0
230
1.0
 70
     8
 71
     3
 72
    12
 73
     8
 74
     0
 42
0.00000001
 43
0.00000001
 40
0.0
 40
0.0
 40
0.0
 40
0.0
 40
0.2499999999999998
 40
0.2499999999999998
 40
0.4999999999999996
 40
0.4999999999999996
 40
1.0
 40
1.0
 40
1.0
 40
1.0
 10
156.9035625597567
 20
38.36468102355591
 30
0.0
 10
156.5658066247339
 20
38.36468102355591
 30
0.0
 10
156.2253986098554
 20
38.38042735357787
 30
0.0
 10
155.5509039254549
 20
38.4418723781633
 30
0.0
 10
155.2157786065877
 20
38.48746113741702
 30
0.0
 10
154.2160672882476
 20
38.66391213967363
 30
0.0
 10
153.5571331851823
 20
38.83436984163712
 30
0.0
 10
152.9035625597566
 20
39.04240242881596
 30
0.0
  0
LINE
  5
1C1
330
1F
100
AcDbEntity
  8
0
  6
Continuous
 62
     7
370
    25
100
AcDbLine
 10
152.9035625598
 20
42.3982844837
 30
0.0
 11
152.9035625598
 21
39.0424024288
 31
0.0
  0
SPLINE
  5
1C2
330
1F
100
AcDbEntity
  8
0
  6
Continuous
 62
     7
370
    25
100
AcDbSpline
210
0.0
220
0.0
230
1.0
 70
     8
 71
     3
 72
    10
 73
     6
 74
     0
 42
0.00000001
 43
0.00000001
 40
0.0
 40
0.0
 40
0.0
 40
0.0
 40
0.5
 40
0.5
 40
1.0
 40
1.0
 40
1.0
 40
1.0
 10
152.9035625597571
 20
42.39828448370107
 30
0.0
 10
153.5383902655708
 20
42.60035116925199
 30
0.0
 10
154.1776559681466
 20
42.76674394152263
 30
0.0
 10
155.4684708997364
 20
43.00079091539269
 30
0.0
 10
156.1200905352063
 20
43.06787916935151
 30
0.0
 10
156.7791324670264
 20
43.0753048389213
 30
0.0
  0
SPLINE
  5
1C3
330
1F
100
AcDbEntity
  8
0
  6
Continuous
 62
     7
370
    25
100
AcDbSpline
210
0.0
220
0.0
230
1.0
 70
     8
 71
     3
 72
    10
 73
     6
 74
     0
 42
0.00000001
 43
0.00000001
 40
0.0
 40
0.0
 40
0.0
 40
0.0
 40
0.5
 40
0.5
 40
1.0
 40
1.0
 40
1.0
 40
1.0
 10
169.4035625597567
 20
39.0424024288161
 30
0.0
 10
169.4779330266823
 20
39.06607466872767
 30
0.0
 10
169.5422386229701
 20
39.07916865866293
 30
0.0
 10
169.6304614107759
 20
39.07925552612437
 30
0.0
 10
169.6535625597567
 20
39.06608573636501
 30
0.0
 10
169.6535625597567
 20
39.0424024288161
 30
0.0
  0
LINE
  5
1C4
330
1F
100
AcDbEntity
  8
0
  6
Continuous
 62
     7
370
    25
100
AcDbLine
 10
165.4035625598
 20
38.3646810236
 30
0.0
 11
169.6535625598
 21
38.3646810236
 31
0.0
  0
SPLINE
  5
1C5
330
1F
100
AcDbEntity
  8
0
  6
Continuous
 62
     7
370
    25
100
AcDbSpline
210
0.0
220
0.0
230
1.0
 70
    24
 71
     3
 72
    10
 73
     6
 74
     0
 42
0.00000001
 43
0.00000001
 40
0.0
 40
0.0
 40
0.0
 40
0.0
 40
0.5
 40
0.5
 40
1.0
 40
1.0
 40
1.0
 40
1.0
 10
169.6535625597567
 20
38.36468102355591
 30
0.0
 10
169.6535625597567
 20
38.36468102355592
 30
0.0
 10
169.6535625597567
 20
38.42696538553443
 30
0.0
 10
169.6535625597567
 20
38.66181350354145
 30
0.0
 10
169.6535625597567
 20
38.83505611067266
 30
0.0
 10
169.6535625597567
 20
39.0424024288161
 30
0.0
  0
SPLINE
  5
1C6
330
1F
100
AcDbEntity
  8
0
  6
Continuous
 62
     7
370
    25
100
AcDbSpline
210
0.0
220
0.0
230
1.0
 70
     8
 71
     3
 72
    10
 73
     6
 74
     0
 42
0.00000001
 43
0.00000001
 40
0.0
 40
0.0
 40
0.0
 40
0.0
 40
0.5
 40
0.5
 40
1.0
 40
1.0
 40
1.0
 40
1.0
 10
152.6535625597566
 20
39.0424024288161
 30
0.0
 10
152.6535625597566
 20
39.06607632937206
 30
0.0
 10
152.6763531314041
 20
39.0791688865512
 30
0.0
 10
152.7642991287029
 20
39.07925530053348
 30
0.0
 10
152.8291599214357
 20
39.06608490893485
 30
0.0
 10
152.9035625597566
 20
39.0424024288161
 30
0.0
  0
LINE
  5
1C7
330
1F
100
AcDbEntity
  8
0
  6
Continuous
 62
     7
370
    25
100
AcDbLine
 10
152.6535625598
 20
38.3646810236
 30
0.0
 11
156.9035625598
 21
38.3646810236
 31
0.0
  0
SPLINE
  5
1C8
330
1F
100
AcDbEntity
  8
0
  6
Continuous
 62
     7
370
    25
100
AcDbSpline
210
0.0
220
0.0
230
1.0
 70
    24
 71
     3
 72
    10
 73
     6
 74
     0
 42
0.00000001
 43
0.00000001
 40
0.0
 40
0.0
 40
0.0
 40
0.0
 40
0.5
 40
0.5
 40
1.0
 40
1.0
 40
1.0
 40
1.0
 10
152.6535625597566
 20
38.36468102355591
 30
0.0
 10
152.6535625597566
 20
38.36468102355592
 30
0.0
 10
152.6535625597566
 20
38.42696538553443
 30
0.0
 10
152.6535625597566
 20
38.66181350354145
 30
0.0
 10
152.6535625597566
 20
38.83505611067266
 30
0.0
 10
152.6535625597566
 20
39.0424024288161
 30
0.0
  0
SPLINE
  5
1C9
330
1F
100
AcDbEntity
  8
0
  6
Continuous
 62
     7
370
    25
100
AcDbSpline
210
0.0
220
0.0
230
1.0
 70
     8
 71
     3
 72
     8
 73
     4
 74
     0
 42
0.00000001
 43
0.00000001
 40
0.0
 40
0.0
 40
0.0
 40
0.0
 40
1.0
 40
1.0
 40
1.0
 40
1.0
 10
152.6535625597566
 20
42.55976981198193
 30
0.0
 10
153.1753687110585
 20
42.83235994765128
 30
0.0
 10
153.6990221799147
 20
43.10151244877268
 30
0.0
 10
154.2253593294811
 20
43.36468102355592
 30
0.0
  0
SPLINE
  5
1CA
330
1F
100
AcDbEntity
  8
0
  6
Continuous
 62
     7
370
    25
100
AcDbSpline
210
0.0
220
0.0
230
1.0
 70
     8
 71
     3
 72
    10
 73
     6
 74
     0
 42
0.00000001
 43
0.00000001
 40
0.0
 40
0.0
 40
0.0
 40
0.0
 40
0.5
 40
0.5
 40
1.0
 40
1.0
 40
1.0
 40
1.0
 10
152.6535625597566
 20
42.39828448370089
 30
0.0
 10
152.6535625597566
 20
42.37460908927648
 30
0.0
 10
152.6763550090865
 20
42.36151797939186
 30
0.0
 10
152.7642977131798
 20
42.36143165810363
 30
0.0
 10
152.8291554868539
 20
42.37460059204758
 30
0.0
 10
152.9035625597573
 20
42.39828448370113
 30
0.0
  0
SPLINE
  5
1CB
330
1F
100
AcDbEntity
  8
0
  6
Continuous
 62
     7
370
    25
100
AcDbSpline
210
0.0
220
0.0
230
1.0
 70
    24
 71
     3
 72
     8
 73
     4
 74
     0
 42
0.00000001
 43
0.00000001
 40
0.0
 40
0.0
 40
0.0
 40
0.0
 40
1.0
 40
1.0
 40
1.0
 40
1.0
 10
152.6535625597566
 20
42.55976981198193
 30
0.0
 10
152.6535625597566
 20
42.50887502228111
 30
0.0
 10
152.6535625597566
 20
42.45494117291967
 30
0.0
 10
152.6535625597566
 20
42.39828448370091
 30
0.0
  0
SPLINE
  5
1CC
330
1F
100
AcDbEntity
  8
0
  6
Continuous
 62
     7
370
    25
100
AcDbSpline
210
0.0
220
0.0
230
1.0
 70
     8
 71
     3
 72
     8
 73
     4
 74
     0
 42
0.00000001
 43
0.00000001
 40
0.0
 40
0.0
 40
0.0
 40
0.0
 40
1.0
 40
1.0
 40
1.0
 40
1.0
 10
168.0817657900322
 20
43.36468102355591
 30
0.0
 10
168.6081866512414
 20
43.10147059295131
 30
0.0
 10
169.1317311079551
 20
42.83237316456461
 30
0.0
 10
169.6535625597567
 20
42.55976981198195
 30
0.0
  0
SPLINE
  5
1CD
330
1F
100
AcDbEntity
  8
0
  6
Continuous
 62
     7
370
    25
100
AcDbSpline
210
0.0
220
0.0
230
1.0
 70
     8
 71
     3
 72
    10
 73
     6
 74
     0
 42
0.00000001
 43
0.00000001
 40
0.0
 40
0.0
 40
0.0
 40
0.0
 40
0.5
 40
0.5
 40
1.0
 40
1.0
 40
1.0
 40
1.0
 10
169.4035625597567
 20
42.39828448370091
 30
0.0
 10
169.477942937134
 20
42.37460908927653
 30
0.0
 10
169.5422435759198
 20
42.36151797939189
 30
0.0
 10
169.6304592607027
 20
42.36143165810361
 30
0.0
 10
169.6535625597567
 20
42.37460059204744
 30
0.0
 10
169.6535625597567
 20
42.39828448370091
 30
0.0
  0
SPLINE
  5
1CE
330
1F
100
AcDbEntity
  8
0
  6
Continuous
 62
     7
370
    25
100
AcDbSpline
210
0.0
220
0.0
230
1.0
 70
    24
 71
     3
 72
     8
 73
     4
 74
     0
 42
0.00000001
 43
0.00000001
 40
0.0
 40
0.0
 40
0.0
 40
0.0
 40
1.0
 40
1.0
 40
1.0
 40
1.0
 10
169.6535625597567
 20
42.55976981198193
 30
0.0
 10
169.6535625597567
 20
42.50887502228111
 30
0.0
 10
169.6535625597567
 20
42.45494117291967
 30
0.0
 10
169.6535625597567
 20
42.39828448370091
 30
0.0
  0
LINE
  5
1CF
330
1F
100
AcDbEntity
  8
0
  6
Continuous
 62
     7
370
    25
100
AcDbLine
 10
166.0292069068
 20
43.3646810236
 30
0.0
 11
168.6535625598
 21
43.3646810236
 31
0.0
  0
LINE
  5
1D0
330
1F
100
AcDbEntity
  8
0
  6
Continuous
 62
     7
370
    25
100
AcDbLine
 10
168.6535625598
 20
44.8798534663
 30
0.0
 11
168.6535625598
 21
43.3646810236
 31
0.0
  0
LINE
  5
1D1
330
1F
100
AcDbEntity
  8
0
  6
Continuous
 62
     7
370
    25
100
AcDbLine
 10
153.6535625598
 20
43.3646810236
 30
0.0
 11
153.6535625598
 21
44.8798534663
 31
0.0
  0
LINE
  5
1D2
330
1F
100
AcDbEntity
  8
0
  6
Continuous
 62
     7
370
    25
100
AcDbLine
 10
153.6535625598
 20
43.3646810236
 30
0.0
 11
156.2779182127
 21
43.3646810236
 31
0.0
  0
LINE
  5
1D3
330
1F
100
AcDbEntity
  8
0
  6
Continuous
 62
     7
370
    25
100
AcDbLine
 10
161.1535625598
 20
28.219629083
 30
0.0
 11
165.9358421866
 21
28.219629083
 31
0.0
  0
LINE
  5
1D4
330
1F
100
AcDbEntity
  8
0
  6
Continuous
 62
     7
370
    25
100
AcDbLine
 10
156.3712829329
 20
28.219629083
 30
0.0
 11
161.1535625598
 21
28.219629083
 31
0.0
  0
LINE
  5
1D5
330
1F
100
AcDbEntity
  8
0
  6
Continuous
 62
     7
370
    25
100
AcDbLine
 10
152.6535625598
 20
39.0424024288
 30
0.0
 11
152.6535625598
 21
42.3982844837
 31
0.0
  0
LINE
  5
1D6
330
1F
100
AcDbEntity
  8
0
  6
Continuous
 62
     7
370
    25
100
AcDbLine
 10
169.6535625598
 20
42.3982844837
 30
0.0
 11
169.6535625598
 21
39.0424024288
 31
0.0
  0
LINE
  5
1D7
330
1F
100
AcDbEntity
  8
0
  6
Continuous
 62
     7
370
    25
100
AcDbLine
 10
165.1535625598
 20
26.8646810236
 30
0.0
 11
157.1535625598
 21
26.8646810236
 31
0.0
  0
LINE
  5
1D8
330
1F
100
AcDbEntity
  8
0
  6
Continuous
 62
     7
370
    25
100
AcDbLine
 10
152.6535625598
 20
42.559769812
 30
0.0
 11
152.6535625598
 21
45.7196531504
 31
0.0
  0
LINE
  5
1D9
330
1F
100
AcDbEntity
  8
0
  6
Continuous
 62
     7
370
    25
100
AcDbLine
 10
169.6535625598
 20
42.559769812
 30
0.0
 11
169.6535625598
 21
45.7196531504
 31
0.0
  0
LINE
  5
1DA
330
1F
100
AcDbEntity
  8
0
  6
Continuous
 62
     7
370
    25
100
AcDbLine
 10
159.4796495163
 20
77.4646810236
 30
0.0
 11
155.6535625598
 21
77.4646810236
 31
0.0
  0
LINE
  5
1DB
330
1F
100
AcDbEntity
  8
0
  6
Continuous
 62
     7
370
    25
100
AcDbLine
 10
166.6535625598
 20
77.4646810236
 30
0.0
 11
162.8274756032
 21
77.4646810236
 31
0.0
  0
SPLINE
  5
1DC
330
1F
100
AcDbEntity
  8
0
  6
Continuous
 62
     7
370
    25
100
AcDbSpline
210
0.0
220
0.0
230
1.0
 70
     8
 71
     3
 72
    19
 73
    15
 74
     0
 42
0.00000001
 43
0.00000001
 40
0.0
 40
0.0
 40
0.0
 40
0.0
 40
0.0167571800685447
 40
0.0954753196582118
 40
0.1742981041575476
 40
0.2799191200071992
 40
0.3857357730342649
 40
0.4988207717382652
 40
0.6118872552953651
 40
0.7070684090946151
 40
0.8021753605056264
 40
0.8927539248858412
 40
0.9832578425941179
 40
1.0
 40
1.0
 40
1.0
 40
1.0
 10
155.2612024972276
 20
56.90408025568448
 30
0.0
 10
155.2586797115814
 20
56.90094899991631
 30
0.0
 10
155.2443059467224
 20
56.8831084298338
 30
0.0
 10
155.3077513322779
 20
56.96217147817152
 30
0.0
 10
155.4628545424901
 20
57.14665299782934
 30
0.0
 10
155.7511530322549
 20
57.46663313127515
 30
0.0
 10
156.1835866671523
 20
57.89108104527326
 30
0.0
 10
156.7380195037091
 20
58.35374572545057
 30
0.0
 10
157.3809150366946
 20
58.79422569360875
 30
0.0
 10
158.0803519665918
 20
59.17228663330553
 30
0.0
 10
158.8023522854029
 20
59.47551016174336
 30
0.0
 10
159.5800716749767
 20
59.69390928029792
 30
0.0
 10
160.168120147669
 20
59.81530903999403
 30
0.0
 10
160.4977103261849
 20
59.82860886734528
 30
0.0
 10
160.5491625648078
 20
59.83068509999762
 30
0.0
  0
SPLINE
  5
1DD
330
1F
100
AcDbEntity
  8
0
  6
Continuous
 62
     7
370
    25
100
AcDbSpline
210
0.0
220
0.0
230
1.0
 70
     8
 71
     3
 72
    20
 73
    16
 74
     0
 42
0.00000001
 43
0.00000001
 40
0.0
 40
0.0
 40
0.0
 40
0.0
 40
0.0313498105000569
 40
0.0973832684065269
 40
0.197382923212977
 40
0.2974948277933162
 40
0.4180656846772402
 40
0.5387329709020784
 40
0.6171137837911173
 40
0.6956760206883755
 40
0.7739417658298178
 40
0.8504657139317153
 40
0.9268889665303276
 40
0.9967461671977904
 40
1.0
 40
1.0
 40
1.0
 40
1.0
 10
161.7657597696977
 20
59.82618337582295
 30
0.0
 10
161.8616316809293
 20
59.82096334398995
 30
0.0
 10
162.1594427335383
 20
59.80474813397834
 30
0.0
 10
162.7423286797459
 20
59.69037526582461
 30
0.0
 10
163.4915696180976
 20
59.4811052796957
 30
0.0
 10
164.3120488383563
 20
59.13677264729142
 30
0.0
 10
165.0791307460094
 20
58.70122160476966
 30
0.0
 10
165.6861561542606
 20
58.25982141203885
 30
0.0
 10
166.1313879417911
 20
57.87744237565072
 30
0.0
 10
166.4531794102092
 20
57.56870645932023
 30
0.0
 10
166.7128774365565
 20
57.29471478033985
 30
0.0
 10
166.9079711233881
 20
57.07166070113385
 30
0.0
 10
167.0190464820021
 20
56.93722835409616
 30
0.0
 10
167.0630295520822
 20
56.88332477084879
 30
0.0
 10
167.0521063061381
 20
56.89665604426792
 30
0.0
 10
167.0516201631543
 20
56.89724935737933
 30
0.0
  0
INSERT
  5
1E9
330
1F
100
AcDbEntity
  8
FORMAT
100
AcDbBlockReference
  2
SW_CENTERMARKSYMBOL_0
 10
161.1535625598
 20
50.3646810236
 30
0.0
  0
ARC
  5
1EA
330
1F
100
AcDbEntity
  8
FORMAT
100
AcDbCircle
 10
161.1535625598
 20
50.3646810236
 30
0.0
 40
6.999999999999998
100
AcDbArc
 50
75.0
 51
345.0
  0
LINE
  5
1EB
330
1F
100
AcDbEntity
  8
FORMAT
100
AcDbLine
 10
156.8543681894
 20
27.3829008743
 30
0.0
 11
156.5268125598
 21
37.8646810236
 31
0.0
  0
LINE
  5
1EC
330
1F
100
AcDbEntity
  8
FORMAT
100
AcDbLine
 10
165.4527569301
 20
27.3829008743
 30
0.0
 11
165.7803125598
 21
37.8646810236
 31
0.0
  0
LINE
  5
1ED
330
1F
100
AcDbEntity
  8
FORMAT
100
AcDbLine
 10
166.2372500598
 20
37.8646810236
 30
0.0
 11
156.0698750598
 21
37.8646810236
 31
0.0
  0
LINE
  5
1EE
330
1F
100
AcDbEntity
  8
0
  6
Continuous
 62
     7
370
    25
100
AcDbLine
 10
95.6340662327
 20
114.9583281327
 30
0.0
 11
95.4340662327
 21
114.7583281327
 31
0.0
  0
LINE
  5
1EF
330
1F
100
AcDbEntity
  8
0
  6
Continuous
 62
     7
370
    25
100
AcDbLine
 10
95.4340662327
 20
99.1583281327
 30
0.0
 11
95.6340662327
 21
98.9583281327
 31
0.0
  0
LINE
  5
1F0
330
1F
100
AcDbEntity
  8
0
  6
Continuous
 62
     7
370
    25
100
AcDbLine
 10
98.4340662327
 20
114.9583281327
 30
0.0
 11
95.6340662327
 21
114.9583281327
 31
0.0
  0
LINE
  5
1F1
330
1F
100
AcDbEntity
  8
0
  6
Continuous
 62
     7
370
    25
100
AcDbLine
 10
95.6340662327
 20
98.9583281327
 30
0.0
 11
98.4340662327
 21
98.9583281327
 31
0.0
  0
LINE
  5
1F2
330
1F
100
AcDbEntity
  8
0
  6
Continuous
 62
     7
370
    25
100
AcDbLine
 10
121.7897286654
 20
98.4583281327
 30
0.0
 11
121.9340662327
 21
98.7083281327
 31
0.0
  0
LINE
  5
1F3
330
1F
100
AcDbEntity
  8
0
  6
Continuous
 62
     7
370
    25
100
AcDbLine
 10
121.9340662327
 20
115.2083281327
 30
0.0
 11
121.7897286654
 21
115.4583281327
 31
0.0
  0
LINE
  5
1F4
330
1F
100
AcDbEntity
  8
0
  6
Continuous
 62
     7
370
    25
100
AcDbLine
 10
95.6340662327
 20
114.9583281327
 30
0.0
 11
95.6340662327
 21
110.9371882308
 31
0.0
  0
LINE
  5
1F5
330
1F
100
AcDbEntity
  8
0
  6
Continuous
 62
     7
370
    25
100
AcDbLine
 10
95.6340662327
 20
102.9794680346
 30
0.0
 11
95.6340662327
 21
98.9583281327
 31
0.0
  0
LINE
  5
1F6
330
1F
100
AcDbEntity
  8
0
  6
Continuous
 62
     7
370
    25
100
AcDbLine
 10
95.4340662327
 20
99.1583281327
 30
0.0
 11
95.4340662327
 21
103.0035655169
 31
0.0
  0
LINE
  5
1F7
330
1F
100
AcDbEntity
  8
0
  6
Continuous
 62
     7
370
    25
100
AcDbLine
 10
95.4340662327
 20
110.9130907485
 30
0.0
 11
95.4340662327
 21
114.7583281327
 31
0.0
  0
SPLINE
  5
1F8
330
1F
100
AcDbEntity
  8
0
  6
Continuous
 62
     7
370
    25
100
AcDbSpline
210
0.0
220
0.0
230
1.0
 70
     8
 71
     3
 72
    15
 73
    11
 74
     0
 42
0.00000001
 43
0.00000001
 40
0.0
 40
0.0
 40
0.0
 40
0.0
 40
0.0081667445812695
 40
0.3321939991490077
 40
0.4756279600585576
 40
0.68668309732849
 40
0.8457435502264807
 40
0.8967566214763126
 40
0.9909540928118029
 40
1.0
 40
1.0
 40
1.0
 40
1.0
 10
115.0330857462802
 20
108.20832813268
 30
0.0
 10
115.033573280423
 20
108.209765595619
 30
0.0
 10
115.0534044279551
 20
108.2682364535708
 30
0.0
 10
115.0816852079644
 20
108.3526616312902
 30
0.0
 10
115.1195145064532
 20
108.4672407033127
 30
0.0
 10
115.1460984030207
 20
108.5486115905093
 30
0.0
 10
115.1632682267757
 20
108.6016305825109
 30
0.0
 10
115.1710852229921
 20
108.6258325143551
 30
0.0
 10
115.173080909428
 20
108.6320221350213
 30
0.0
 10
115.1731458733788
 20
108.6322235304338
 30
0.0
 10
115.1731515653455
 20
108.6322411761583
 30
0.0
  0
ARC
  5
1F9
330
1F
100
AcDbEntity
  8
0
  6
Continuous
 62
     7
370
    25
100
AcDbCircle
 10
109.9340662327
 20
106.9583281327
 30
0.0
 40
5.249999999999991
100
AcDbArc
 50
13.774146998
 51
166.225853002
  0
SPLINE
  5
1FA
330
1F
100
AcDbEntity
  8
0
  6
Continuous
 62
     7
370
    25
100
AcDbSpline
210
0.0
220
0.0
230
1.0
 70
     8
 71
     3
 72
    15
 73
    11
 74
     0
 42
0.00000001
 43
0.00000001
 40
0.0
 40
0.0
 40
0.0
 40
0.0
 40
0.0090459071881971
 40
0.1032433785236816
 40
0.1542564497735189
 40
0.3133169026715104
 40
0.5243720399414397
 40
0.6678060008509895
 40
0.9918332554187292
 40
1.0
 40
1.0
 40
1.0
 40
1.0
 10
104.6949809000293
 20
108.6322411761583
 30
0.0
 10
104.6949865919959
 20
108.6322235304338
 30
0.0
 10
104.6950515559467
 20
108.6320221350213
 30
0.0
 10
104.6970472423826
 20
108.6258325143551
 30
0.0
 10
104.7048642385991
 20
108.6016305825109
 30
0.0
 10
104.722034062354
 20
108.5486115905093
 30
0.0
 10
104.7486179589215
 20
108.4672407033127
 30
0.0
 10
104.7864472574104
 20
108.3526616312902
 30
0.0
 10
104.8147280374196
 20
108.2682364535708
 30
0.0
 10
104.8345591849517
 20
108.209765595619
 30
0.0
 10
104.8350467190946
 20
108.20832813268
 30
0.0
  0
ARC
  5
1FB
330
1F
100
AcDbEntity
  8
0
  6
Continuous
 62
     7
370
    25
100
AcDbCircle
 10
109.9340662327
 20
106.9583281327
 30
0.0
 40
5.499999999999993
100
AcDbArc
 50
17.7189318734
 51
162.2810681266
  0
SPLINE
  5
1FC
330
1F
100
AcDbEntity
  8
0
  6
Continuous
 62
     7
370
    25
100
AcDbSpline
210
0.0
220
0.0
230
1.0
 70
     8
 71
     3
 72
    15
 73
    11
 74
     0
 42
0.00000001
 43
0.00000001
 40
0.0
 40
0.0
 40
0.0
 40
0.0
 40
0.0090459071881971
 40
0.1032433785236875
 40
0.1542564497735248
 40
0.313316902671511
 40
0.5243720399414434
 40
0.6678060008509189
 40
0.9918332554187028
 40
1.0
 40
1.0
 40
1.0
 40
1.0
 10
115.1731515653455
 20
105.2844150892018
 30
0.0
 10
115.1731458733788
 20
105.2844327349262
 30
0.0
 10
115.173080909428
 20
105.2846341303388
 30
0.0
 10
115.1710852229921
 20
105.290823751005
 30
0.0
 10
115.1632682267757
 20
105.3150256828491
 30
0.0
 10
115.1460984030207
 20
105.3680446748508
 30
0.0
 10
115.1195145064532
 20
105.4494155620474
 30
0.0
 10
115.0816852079645
 20
105.5639946340699
 30
0.0
 10
115.0534044279543
 20
105.648419811789
 30
0.0
 10
115.033573280423
 20
105.706890669741
 30
0.0
 10
115.0330857462802
 20
105.70832813268
 30
0.0
  0
ARC
  5
1FD
330
1F
100
AcDbEntity
  8
0
  6
Continuous
 62
     7
370
    25
100
AcDbCircle
 10
109.9340662327
 20
106.9583281327
 30
0.0
 40
5.499999999999997
100
AcDbArc
 50
197.7189318734
 51
342.2810681266
  0
SPLINE
  5
1FE
330
1F
100
AcDbEntity
  8
0
  6
Continuous
 62
     7
370
    25
100
AcDbSpline
210
0.0
220
0.0
230
1.0
 70
     8
 71
     3
 72
    15
 73
    11
 74
     0
 42
0.00000001
 43
0.00000001
 40
0.0
 40
0.0
 40
0.0
 40
0.0
 40
0.0081667445812973
 40
0.3321939991490813
 40
0.4756279600585592
 40
0.6866830973284899
 40
0.845743550226481
 40
0.8967566214763184
 40
0.9909540928118029
 40
1.0
 40
1.0
 40
1.0
 40
1.0
 10
104.8350467190946
 20
105.70832813268
 30
0.0
 10
104.8345591849517
 20
105.706890669741
 30
0.0
 10
104.8147280374204
 20
105.648419811789
 30
0.0
 10
104.7864472574102
 20
105.5639946340698
 30
0.0
 10
104.7486179589216
 20
105.4494155620474
 30
0.0
 10
104.722034062354
 20
105.3680446748508
 30
0.0
 10
104.7048642385991
 20
105.3150256828491
 30
0.0
 10
104.6970472423826
 20
105.290823751005
 30
0.0
 10
104.6950515559467
 20
105.2846341303388
 30
0.0
 10
104.6949865919959
 20
105.2844327349262
 30
0.0
 10
104.6949809000293
 20
105.2844150892018
 30
0.0
  0
ARC
  5
1FF
330
1F
100
AcDbEntity
  8
0
  6
Continuous
 62
     7
370
    25
100
AcDbCircle
 10
109.9340662327
 20
106.9583281327
 30
0.0
 40
5.249999999999995
100
AcDbArc
 50
193.774146998
 51
346.225853002
  0
SPLINE
  5
200
330
1F
100
AcDbEntity
  8
0
  6
Continuous
 62
     7
370
    25
100
AcDbSpline
210
0.0
220
0.0
230
1.0
 70
     8
 71
     3
 72
    15
 73
    11
 74
     0
 42
0.00000001
 43
0.00000001
 40
0.0
 40
0.0
 40
0.0
 40
0.0
 40
0.0080847466189581
 40
0.3310106400648237
 40
0.4750333064304937
 40
0.6874363079215094
 40
0.8468367539418249
 40
0.9000996640391792
 40
0.9910442771984082
 40
1.0
 40
1.0
 40
1.0
 40
1.0
 10
115.0330857462802
 20
105.70832813268
 30
0.0
 10
115.0343655778243
 20
105.7075121966917
 30
0.0
 10
115.0867652235475
 20
105.6741056464972
 30
0.0
 10
115.1621203150026
 20
105.6252920817634
 30
0.0
 10
115.2640394270203
 20
105.5579216094951
 30
0.0
 10
115.3364303720122
 20
105.5093375691516
 30
0.0
 10
115.384135800277
 20
105.4768887076931
 30
0.0
 10
115.4056712839843
 20
105.4621776666268
 30
0.0
 10
115.4111003000039
 20
105.4584592157087
 30
0.0
 10
115.4112760521604
 20
105.4583389170432
 30
0.0
 10
115.411291807739
 20
105.45832813268
 30
0.0
  0
ARC
  5
201
330
1F
100
AcDbEntity
  8
0
  6
Continuous
 62
     7
370
    25
100
AcDbCircle
 10
115.4112918077
 20
105.2083281327
 30
0.0
 40
0.2500000000000034
100
AcDbArc
 50
90.0
 51
162.2810681266
  0
ARC
  5
202
330
1F
100
AcDbEntity
  8
0
  6
Continuous
 62
     7
370
    25
100
AcDbCircle
 10
104.4568406576
 20
108.7083281327
 30
0.0
 40
0.2500000000000034
100
AcDbArc
 50
270.0
 51
342.2810681266
  0
SPLINE
  5
203
330
1F
100
AcDbEntity
  8
0
  6
Continuous
 62
     7
370
    25
100
AcDbSpline
210
0.0
220
0.0
230
1.0
 70
     8
 71
     3
 72
    15
 73
    11
 74
     0
 42
0.00000001
 43
0.00000001
 40
0.0
 40
0.0
 40
0.0
 40
0.0
 40
0.0080847466189819
 40
0.3310106400647582
 40
0.4750333064304994
 40
0.6874363079215138
 40
0.8468367539418308
 40
0.9000996640391851
 40
0.9910442771984082
 40
1.0
 40
1.0
 40
1.0
 40
1.0
 10
104.8350467190946
 20
108.20832813268
 30
0.0
 10
104.8337668875504
 20
108.2091440686683
 30
0.0
 10
104.7813672418267
 20
108.2425506188619
 30
0.0
 10
104.7060121503722
 20
108.2913641835968
 30
0.0
 10
104.6040930383544
 20
108.358734655865
 30
0.0
 10
104.5317020933625
 20
108.4073186962084
 30
0.0
 10
104.4839966650977
 20
108.439767557667
 30
0.0
 10
104.4624611813904
 20
108.4544785987332
 30
0.0
 10
104.4570321653709
 20
108.4581970496514
 30
0.0
 10
104.4568564132143
 20
108.4583173483169
 30
0.0
 10
104.4568406576357
 20
108.45832813268
 30
0.0
  0
ARC
  5
204
330
1F
100
AcDbEntity
  8
0
  6
Continuous
 62
     7
370
    25
100
AcDbCircle
 10
115.4112918077
 20
108.7083281327
 30
0.0
 40
0.2500000000000034
100
AcDbArc
 50
197.7189318734
 51
270.0
  0
SPLINE
  5
205
330
1F
100
AcDbEntity
  8
0
  6
Continuous
 62
     7
370
    25
100
AcDbSpline
210
0.0
220
0.0
230
1.0
 70
     8
 71
     3
 72
    15
 73
    11
 74
     0
 42
0.00000001
 43
0.00000001
 40
0.0
 40
0.0
 40
0.0
 40
0.0
 40
0.0089557228015919
 40
0.0999003359608146
 40
0.1531632460581687
 40
0.3125636920784842
 40
0.5249666935695019
 40
0.668989359935245
 40
0.9919152533810159
 40
1.0
 40
1.0
 40
1.0
 40
1.0
 10
115.411291807739
 20
108.45832813268
 30
0.0
 10
115.4112760521604
 20
108.4583173483169
 30
0.0
 10
115.4111003000039
 20
108.4581970496514
 30
0.0
 10
115.4056712839843
 20
108.4544785987332
 30
0.0
 10
115.384135800277
 20
108.439767557667
 30
0.0
 10
115.3364303720122
 20
108.4073186962084
 30
0.0
 10
115.2640394270203
 20
108.358734655865
 30
0.0
 10
115.1621203150025
 20
108.2913641835968
 30
0.0
 10
115.086765223548
 20
108.242550618862
 30
0.0
 10
115.0343655778243
 20
108.2091440686683
 30
0.0
 10
115.0330857462802
 20
108.20832813268
 30
0.0
  0
SPLINE
  5
206
330
1F
100
AcDbEntity
  8
0
  6
Continuous
 62
     7
370
    25
100
AcDbSpline
210
0.0
220
0.0
230
1.0
 70
     8
 71
     3
 72
    15
 73
    11
 74
     0
 42
0.00000001
 43
0.00000001
 40
0.0
 40
0.0
 40
0.0
 40
0.0
 40
0.0089557228015919
 40
0.0999003359608153
 40
0.1531632460581696
 40
0.3125636920784855
 40
0.5249666935695051
 40
0.6689893599351772
 40
0.991915253381045
 40
1.0
 40
1.0
 40
1.0
 40
1.0
 10
104.4568406576357
 20
105.45832813268
 30
0.0
 10
104.4568564132143
 20
105.4583389170432
 30
0.0
 10
104.4570321653709
 20
105.4584592157087
 30
0.0
 10
104.4624611813904
 20
105.4621776666268
 30
0.0
 10
104.4839966650977
 20
105.4768887076931
 30
0.0
 10
104.5317020933625
 20
105.5093375691516
 30
0.0
 10
104.6040930383544
 20
105.5579216094951
 30
0.0
 10
104.7060121503721
 20
105.6252920817634
 30
0.0
 10
104.7813672418272
 20
105.6741056464973
 30
0.0
 10
104.8337668875505
 20
105.7075121966918
 30
0.0
 10
104.8350467190946
 20
105.70832813268
 30
0.0
  0
ARC
  5
207
330
1F
100
AcDbEntity
  8
0
  6
Continuous
 62
     7
370
    25
100
AcDbCircle
 10
104.4568406576
 20
105.2083281327
 30
0.0
 40
0.2500000000000034
100
AcDbArc
 50
17.7189318734
 51
90.0
  0
LINE
  5
208
330
1F
100
AcDbEntity
  8
0
  6
Continuous
 62
     7
370
    25
100
AcDbLine
 10
114.9340662327
 20
107.5583281327
 30
0.0
 11
104.9340662327
 21
107.5583281327
 31
0.0
  0
LINE
  5
209
330
1F
100
AcDbEntity
  8
0
  6
Continuous
 62
     7
370
    25
100
AcDbLine
 10
104.9340662327
 20
106.3583281327
 30
0.0
 11
114.9340662327
 21
106.3583281327
 31
0.0
  0
LINE
  5
20A
330
1F
100
AcDbEntity
  8
0
  6
Continuous
 62
     7
370
    25
100
AcDbLine
 10
104.9340662327
 20
107.5583281327
 30
0.0
 11
104.9340662327
 21
106.3583281327
 31
0.0
  0
LINE
  5
20B
330
1F
100
AcDbEntity
  8
0
  6
Continuous
 62
     7
370
    25
100
AcDbLine
 10
114.9340662327
 20
106.3583281327
 30
0.0
 11
114.9340662327
 21
107.5583281327
 31
0.0
  0
LINE
  5
20C
330
1F
100
AcDbEntity
  8
0
  6
Continuous
 62
     7
370
    25
100
AcDbLine
 10
115.6840662327
 20
108.2083281327
 30
0.0
 11
115.0330857463
 21
108.2083281327
 31
0.0
  0
LINE
  5
20D
330
1F
100
AcDbEntity
  8
0
  6
Continuous
 62
     7
370
    25
100
AcDbLine
 10
115.6840662327
 20
105.7083281327
 30
0.0
 11
115.6840662327
 21
108.2083281327
 31
0.0
  0
LINE
  5
20E
330
1F
100
AcDbEntity
  8
0
  6
Continuous
 62
     7
370
    25
100
AcDbLine
 10
115.0330857463
 20
105.7083281327
 30
0.0
 11
115.6840662327
 21
105.7083281327
 31
0.0
  0
LINE
  5
20F
330
1F
100
AcDbEntity
  8
0
  6
Continuous
 62
     7
370
    25
100
AcDbLine
 10
104.1840662327
 20
105.7083281327
 30
0.0
 11
104.8350467191
 21
105.7083281327
 31
0.0
  0
LINE
  5
210
330
1F
100
AcDbEntity
  8
0
  6
Continuous
 62
     7
370
    25
100
AcDbLine
 10
104.1840662327
 20
108.2083281327
 30
0.0
 11
104.1840662327
 21
105.7083281327
 31
0.0
  0
LINE
  5
211
330
1F
100
AcDbEntity
  8
0
  6
Continuous
 62
     7
370
    25
100
AcDbLine
 10
104.8350467191
 20
108.2083281327
 30
0.0
 11
104.1840662327
 21
108.2083281327
 31
0.0
  0
LINE
  5
212
330
1F
100
AcDbEntity
  8
0
  6
Continuous
 62
     7
370
    25
100
AcDbLine
 10
115.6840662327
 20
108.2083281327
 30
0.0
 11
115.6840662327
 21
108.4583281327
 31
0.0
  0
LINE
  5
213
330
1F
100
AcDbEntity
  8
0
  6
Continuous
 62
     7
370
    25
100
AcDbLine
 10
115.4112918077
 20
108.4583281327
 30
0.0
 11
115.6840662327
 21
108.4583281327
 31
0.0
  0
ARC
  5
214
330
1F
100
AcDbEntity
  8
0
  6
Continuous
 62
     7
370
    25
100
AcDbCircle
 10
115.6840662327
 20
108.2083281327
 30
0.0
 40
0.25
100
AcDbArc
 50
0.0
 51
90.0
  0
LINE
  5
215
330
1F
100
AcDbEntity
  8
0
  6
Continuous
 62
     7
370
    25
100
AcDbLine
 10
115.9340662327
 20
108.2083281327
 30
0.0
 11
115.6840662327
 21
108.2083281327
 31
0.0
  0
LINE
  5
216
330
1F
100
AcDbEntity
  8
0
  6
Continuous
 62
     7
370
    25
100
AcDbLine
 10
104.1840662327
 20
108.4583281327
 30
0.0
 11
104.1840662327
 21
108.2083281327
 31
0.0
  0
LINE
  5
217
330
1F
100
AcDbEntity
  8
0
  6
Continuous
 62
     7
370
    25
100
AcDbLine
 10
104.1840662327
 20
108.2083281327
 30
0.0
 11
103.9340662327
 21
108.2083281327
 31
0.0
  0
ARC
  5
218
330
1F
100
AcDbEntity
  8
0
  6
Continuous
 62
     7
370
    25
100
AcDbCircle
 10
104.1840662327
 20
108.2083281327
 30
0.0
 40
0.25
100
AcDbArc
 50
90.0
 51
180.0
  0
LINE
  5
219
330
1F
100
AcDbEntity
  8
0
  6
Continuous
 62
     7
370
    25
100
AcDbLine
 10
104.1840662327
 20
108.4583281327
 30
0.0
 11
104.4568406576
 21
108.4583281327
 31
0.0
  0
LINE
  5
21A
330
1F
100
AcDbEntity
  8
0
  6
Continuous
 62
     7
370
    25
100
AcDbLine
 10
115.9340662327
 20
108.2083281327
 30
0.0
 11
115.9340662327
 21
105.7083281327
 31
0.0
  0
LINE
  5
21B
330
1F
100
AcDbEntity
  8
0
  6
Continuous
 62
     7
370
    25
100
AcDbLine
 10
115.6840662327
 20
105.7083281327
 30
0.0
 11
115.9340662327
 21
105.7083281327
 31
0.0
  0
LINE
  5
21C
330
1F
100
AcDbEntity
  8
0
  6
Continuous
 62
     7
370
    25
100
AcDbLine
 10
103.9340662327
 20
105.7083281327
 30
0.0
 11
104.1840662327
 21
105.7083281327
 31
0.0
  0
LINE
  5
21D
330
1F
100
AcDbEntity
  8
0
  6
Continuous
 62
     7
370
    25
100
AcDbLine
 10
103.9340662327
 20
105.7083281327
 30
0.0
 11
103.9340662327
 21
108.2083281327
 31
0.0
  0
ARC
  5
21E
330
1F
100
AcDbEntity
  8
0
  6
Continuous
 62
     7
370
    25
100
AcDbCircle
 10
115.6840662327
 20
105.7083281327
 30
0.0
 40
0.25
100
AcDbArc
 50
270.0
 51
0.0
  0
LINE
  5
21F
330
1F
100
AcDbEntity
  8
0
  6
Continuous
 62
     7
370
    25
100
AcDbLine
 10
115.6840662327
 20
105.4583281327
 30
0.0
 11
115.6840662327
 21
105.7083281327
 31
0.0
  0
LINE
  5
220
330
1F
100
AcDbEntity
  8
0
  6
Continuous
 62
     7
370
    25
100
AcDbLine
 10
104.4568406576
 20
105.4583281327
 30
0.0
 11
104.1840662327
 21
105.4583281327
 31
0.0
  0
LINE
  5
221
330
1F
100
AcDbEntity
  8
0
  6
Continuous
 62
     7
370
    25
100
AcDbLine
 10
104.1840662327
 20
105.7083281327
 30
0.0
 11
104.1840662327
 21
105.4583281327
 31
0.0
  0
ARC
  5
222
330
1F
100
AcDbEntity
  8
0
  6
Continuous
 62
     7
370
    25
100
AcDbCircle
 10
104.1840662327
 20
105.7083281327
 30
0.0
 40
0.25
100
AcDbArc
 50
180.0
 51
270.0
  0
LINE
  5
223
330
1F
100
AcDbEntity
  8
0
  6
Continuous
 62
     7
370
    25
100
AcDbLine
 10
115.6840662327
 20
105.4583281327
 30
0.0
 11
115.4112918077
 21
105.4583281327
 31
0.0
  0
LINE
  5
224
330
1F
100
AcDbEntity
  8
0
  6
Continuous
 62
     7
370
    25
100
AcDbLine
 10
89.9340662327
 20
103.6866288686
 30
0.0
 11
89.9340662327
 21
110.2300273967
 31
0.0
  0
LINE
  5
225
330
1F
100
AcDbEntity
  8
0
  6
Continuous
 62
     7
370
    25
100
AcDbLine
 10
87.7586293712
 20
103.4583281327
 30
0.0
 11
89.9340662327
 21
103.6866288686
 31
0.0
  0
LINE
  5
226
330
1F
100
AcDbEntity
  8
0
  6
Continuous
 62
     7
370
    25
100
AcDbLine
 10
69.9340662327
 20
103.4583281327
 30
0.0
 11
87.7586293712
 21
103.4583281327
 31
0.0
  0
LINE
  5
227
330
1F
100
AcDbEntity
  8
0
  6
Continuous
 62
     7
370
    25
100
AcDbLine
 10
89.9340662327
 20
110.2300273967
 30
0.0
 11
87.7586293712
 21
110.4583281327
 31
0.0
  0
LINE
  5
228
330
1F
100
AcDbEntity
  8
0
  6
Continuous
 62
     7
370
    25
100
AcDbLine
 10
69.9340662327
 20
110.4583281327
 30
0.0
 11
69.9340662327
 21
103.4583281327
 31
0.0
  0
LINE
  5
229
330
1F
100
AcDbEntity
  8
0
  6
Continuous
 62
     7
370
    25
100
AcDbLine
 10
87.7586293712
 20
110.4583281327
 30
0.0
 11
69.9340662327
 21
110.4583281327
 31
0.0
  0
LINE
  5
22A
330
1F
100
AcDbEntity
  8
0
  6
Continuous
 62
     7
370
    25
100
AcDbLine
 10
104.7102640583
 20
108.6793426135
 30
0.0
 11
104.5818550197
 21
108.4952009801
 31
0.0
  0
LINE
  5
22B
330
1F
100
AcDbEntity
  8
0
  6
Continuous
 62
     7
370
    25
100
AcDbLine
 10
104.5914223604
 20
105.4131104653
 30
0.0
 11
104.7102640583
 21
105.2373136519
 31
0.0
  0
LINE
  5
22C
330
1F
100
AcDbEntity
  8
0
  6
Continuous
 62
     7
370
    25
100
AcDbLine
 10
96.5174965791
 20
109.5391307682
 30
0.0
 11
96.5174965791
 21
104.3775254971
 31
0.0
  0
LINE
  5
22D
330
1F
100
AcDbEntity
  8
0
  6
Continuous
 62
     7
370
    25
100
AcDbLine
 10
104.7102640583
 20
105.2373136519
 30
0.0
 11
96.5174965791
 21
104.3775254971
 31
0.0
  0
LINE
  5
22E
330
1F
100
AcDbEntity
  8
0
  6
Continuous
 62
     7
370
    25
100
AcDbLine
 10
96.5174965791
 20
109.5391307682
 30
0.0
 11
104.7102640583
 21
108.6793426135
 31
0.0
  0
LINE
  5
22F
330
1F
100
AcDbEntity
  8
0
  6
Continuous
 62
     7
370
    25
100
AcDbLine
 10
96.5174965791
 20
104.3775254971
 30
0.0
 11
89.9340662327
 21
103.6866288686
 31
0.0
  0
LINE
  5
230
330
1F
100
AcDbEntity
  8
0
  6
Continuous
 62
     7
370
    25
100
AcDbLine
 10
89.9340662327
 20
110.2300273967
 30
0.0
 11
96.5174965791
 21
109.5391307682
 31
0.0
  0
ARC
  5
231
330
1F
100
AcDbEntity
  8
0
  6
Continuous
 62
     7
370
    25
100
AcDbCircle
 10
109.9340662327
 20
106.9583281327
 30
0.0
 40
7.450000000000667
100
AcDbArc
 50
233.0863788866
 51
126.9136211134
  0
ARC
  5
232
330
1F
100
AcDbEntity
  8
0
  6
Continuous
 62
     7
370
    25
100
AcDbCircle
 10
109.9340662327
 20
106.9583281327
 30
0.0
 40
7.207531252870791
100
AcDbArc
 50
195.3041237151
 51
238.9797515565
  0
ARC
  5
233
330
1F
100
AcDbEntity
  8
0
  6
Continuous
 62
     7
370
    25
100
AcDbCircle
 10
109.9340662327
 20
106.9583281327
 30
0.0
 40
7.207531252872426
100
AcDbArc
 50
121.0202484435
 51
164.6958762849
  0
ARC
  5
234
330
1F
100
AcDbEntity
  8
0
  6
Continuous
 62
     7
370
    25
100
AcDbCircle
 10
87.7586293712
 20
175.4583281327
 30
0.0
 40
65.00000000000004
100
AcDbArc
 50
270.0
 51
286.5000949923
  0
ARC
  5
235
330
1F
100
AcDbEntity
  8
0
  6
Continuous
 62
     7
370
    25
100
AcDbCircle
 10
87.7586293712
 20
38.4583281327
 30
0.0
 40
65.00000000000001
100
AcDbArc
 50
73.4999050077
 51
90.0
  0
SPLINE
  5
236
330
1F
100
AcDbEntity
  8
0
  6
Continuous
 62
     7
370
    25
100
AcDbSpline
210
0.0
220
0.0
230
1.0
 70
    24
 71
     3
 72
    10
 73
     6
 74
     0
 42
0.00000001
 43
0.00000001
 40
0.0
 40
0.0
 40
0.0
 40
0.0
 40
0.3696337818966975
 40
0.7423132455438426
 40
1.0
 40
1.0
 40
1.0
 40
1.0
 10
121.1120072601298
 20
98.45832813268004
 30
0.0
 10
121.2532098153004
 20
98.45832813268004
 30
0.0
 10
121.5367783962618
 20
98.45832813268004
 30
0.0
 10
121.755911853845
 20
98.45832813268004
 30
0.0
 10
121.7783027736638
 20
98.45832813268004
 30
0.0
 10
121.7874559346227
 20
98.45832813268004
 30
0.0
  0
SPLINE
  5
237
330
1F
100
AcDbEntity
  8
0
  6
Continuous
 62
     7
370
    25
100
AcDbSpline
210
0.0
220
0.0
230
1.0
 70
     8
 71
     3
 72
    10
 73
     6
 74
     0
 42
0.00000001
 43
0.00000001
 40
0.0
 40
0.0
 40
0.0
 40
0.0
 40
0.5
 40
0.5
 40
1.0
 40
1.0
 40
1.0
 40
1.0
 10
121.1120072601298
 20
98.70832813268004
 30
0.0
 10
121.0883318657054
 20
98.6339477553027
 30
0.0
 10
121.0752407558207
 20
98.56964711651693
 30
0.0
 10
121.0751544345325
 20
98.481431431734
 30
0.0
 10
121.0883233684763
 20
98.45832813268004
 30
0.0
 10
121.1120072601298
 20
98.45832813268004
 30
0.0
  0
SPLINE
  5
238
330
1F
100
AcDbEntity
  8
0
  6
Continuous
 62
     7
370
    25
100
AcDbSpline
210
0.0
220
0.0
230
1.0
 70
     8
 71
     3
 72
    16
 73
    12
 74
     0
 42
0.00000001
 43
0.00000001
 40
0.0
 40
0.0
 40
0.0
 40
0.0
 40
0.2500000000000001
 40
0.2500000000000001
 40
0.5000000000000001
 40
0.5000000000000001
 40
0.6250000000000001
 40
0.6250000000000001
 40
0.7500000000000002
 40
0.7500000000000002
 40
1.0
 40
1.0
 40
1.0
 40
1.0
 10
121.1120072601298
 20
106.70832813268
 30
0.0
 10
121.3200227082355
 20
106.0548113526392
 30
0.0
 10
121.4902290132085
 20
105.3965909435493
 30
0.0
 10
121.7251650447761
 20
104.0670283601835
 30
0.0
 10
121.7892371764397
 20
103.3956043781129
 30
0.0
 10
121.7899701253608
 20
102.3766032911062
 30
0.0
 10
121.7743106452778
 20
102.03526250879
 30
0.0
 10
121.7130355186408
 20
101.3596640058196
 30
0.0
 10
121.6674792461417
 20
101.0240048558549
 30
0.0
 10
121.4909932133854
 20
100.0227392193552
 30
0.0
 10
121.3203367598997
 20
99.36283156075208
 30
0.0
 10
121.1120072601298
 20
98.70832813268004
 30
0.0
  0
SPLINE
  5
239
330
1F
100
AcDbEntity
  8
0
  6
Continuous
 62
     7
370
    25
100
AcDbSpline
210
0.0
220
0.0
230
1.0
 70
     8
 71
     3
 72
    10
 73
     6
 74
     0
 42
0.00000001
 43
0.00000001
 40
0.0
 40
0.0
 40
0.0
 40
0.0
 40
0.5
 40
0.5
 40
1.0
 40
1.0
 40
1.0
 40
1.0
 10
121.1120072601298
 20
107.20832813268
 30
0.0
 10
121.0883318657054
 20
107.1339477553027
 30
0.0
 10
121.0752407558207
 20
107.0468546671871
 30
0.0
 10
121.0751544345325
 20
106.8706962783111
 30
0.0
 10
121.0883233684763
 20
106.7827352055833
 30
0.0
 10
121.1120072601298
 20
106.70832813268
 30
0.0
  0
SPLINE
  5
23A
330
1F
100
AcDbEntity
  8
0
  6
Continuous
 62
     7
370
    25
100
AcDbSpline
210
0.0
220
0.0
230
1.0
 70
     8
 71
     3
 72
    16
 73
    12
 74
     0
 42
0.00000001
 43
0.00000001
 40
0.0
 40
0.0
 40
0.0
 40
0.0
 40
0.2499999999999997
 40
0.2499999999999997
 40
0.4999999999999993
 40
0.4999999999999993
 40
0.6249999999999993
 40
0.6249999999999993
 40
0.7499999999999996
 40
0.7499999999999996
 40
1.0
 40
1.0
 40
1.0
 40
1.0
 10
121.1120072601298
 20
115.20832813268
 30
0.0
 10
121.3200227082355
 20
114.5548113526392
 30
0.0
 10
121.4902290132085
 20
113.8965909435493
 30
0.0
 10
121.7251650447761
 20
112.5670283601835
 30
0.0
 10
121.7892371764397
 20
111.8956043781129
 30
0.0
 10
121.7899701253608
 20
110.8766032911062
 30
0.0
 10
121.7743106452778
 20
110.53526250879
 30
0.0
 10
121.7130355186408
 20
109.8596640058196
 30
0.0
 10
121.6674792461417
 20
109.5240048558549
 30
0.0
 10
121.4909932133854
 20
108.5227392193552
 30
0.0
 10
121.3203367598997
 20
107.8628315607521
 30
0.0
 10
121.1120072601298
 20
107.20832813268
 30
0.0
  0
SPLINE
  5
23B
330
1F
100
AcDbEntity
  8
0
  6
Continuous
 62
     7
370
    25
100
AcDbSpline
210
0.0
220
0.0
230
1.0
 70
     8
 71
     3
 72
    10
 73
     6
 74
     0
 42
0.00000001
 43
0.00000001
 40
0.0
 40
0.0
 40
0.0
 40
0.0
 40
0.5
 40
0.5
 40
1.0
 40
1.0
 40
1.0
 40
1.0
 10
121.1120072601298
 20
115.45832813268
 30
0.0
 10
121.0883318657054
 20
115.45832813268
 30
0.0
 10
121.0752407558207
 20
115.4355356833502
 30
0.0
 10
121.0751544345325
 20
115.3475929792572
 30
0.0
 10
121.0883233684763
 20
115.2827352055833
 30
0.0
 10
121.1120072601298
 20
115.20832813268
 30
0.0
  0
SPLINE
  5
23C
330
1F
100
AcDbEntity
  8
0
  6
Continuous
 62
     7
370
    25
100
AcDbSpline
210
0.0
220
0.0
230
1.0
 70
    24
 71
     3
 72
    10
 73
     6
 74
     0
 42
0.00000001
 43
0.00000001
 40
0.0
 40
0.0
 40
0.0
 40
0.0
 40
0.2576836639270042
 40
0.6270640248913933
 40
1.0
 40
1.0
 40
1.0
 40
1.0
 10
121.7861145389698
 20
115.45832813268
 30
0.0
 10
121.777511703163
 20
115.45832813268
 30
0.0
 10
121.7565770084125
 20
115.45832813268
 30
0.0
 10
121.5376127161941
 20
115.45832813268
 30
0.0
 10
121.2543280463568
 20
115.45832813268
 30
0.0
 10
121.1120072601298
 20
115.45832813268
 30
0.0
  0
LINE
  5
23D
330
1F
100
AcDbEntity
  8
0
  6
Continuous
 62
     7
370
    25
100
AcDbLine
 10
121.9340662327
 20
115.2083281327
 30
0.0
 11
121.9340662327
 21
98.7083281327
 31
0.0
  0
SPLINE
  5
23E
330
1F
100
AcDbEntity
  8
0
  6
Continuous
 62
     7
370
    25
100
AcDbSpline
210
0.0
220
0.0
230
1.0
 70
     8
 71
     3
 72
    12
 73
     8
 74
     0
 42
0.00000001
 43
0.00000001
 40
0.0
 40
0.0
 40
0.0
 40
0.0
 40
0.0368906795622221
 40
0.2756931227449937
 40
0.5145252250500391
 40
0.7572427422656316
 40
0.9999999999999999
 40
0.9999999999999999
 40
0.9999999999999999
 40
0.9999999999999999
 10
115.9362343259407
 20
111.3668217645256
 30
0.0
 10
115.9367510113709
 20
111.4147315685978
 30
0.0
 10
115.9406123286853
 20
111.772773319292
 30
0.0
 10
115.9911788308986
 20
112.4404246713168
 30
0.0
 10
116.1297280120436
 20
113.3686599794991
 30
0.0
 10
116.3353591751697
 20
114.2931617766162
 30
0.0
 10
116.5196397886744
 20
114.9032560334071
 30
0.0
 10
116.6117876379476
 20
115.20832813268
 30
0.0
  0
LINE
  5
23F
330
1F
100
AcDbEntity
  8
0
  6
Continuous
 62
     7
370
    25
100
AcDbLine
 10
121.1120072601
 20
115.2083281327
 30
0.0
 11
116.6117876379
 21
115.2083281327
 31
0.0
  0
SPLINE
  5
240
330
1F
100
AcDbEntity
  8
0
  6
Continuous
 62
     7
370
    25
100
AcDbSpline
210
0.0
220
0.0
230
1.0
 70
     8
 71
     3
 72
    12
 73
     8
 74
     0
 42
0.00000001
 43
0.00000001
 40
0.0
 40
0.0
 40
0.0
 40
0.0
 40
0.0896194757604246
 40
0.3155772328024781
 40
0.5415609811848052
 40
0.7707646682603534
 40
1.0
 40
1.0
 40
1.0
 40
1.0
 10
98.43739329158971
 20
111.356083357818
 30
0.0
 10
98.4391860211529
 20
111.472797300314
 30
0.0
 10
98.44549876322061
 20
111.8837823310766
 30
0.0
 10
98.50962822111293
 20
112.5877217200964
 30
0.0
 10
98.64981376041825
 20
113.4667767373842
 30
0.0
 10
98.84933535761317
 20
114.3419131024115
 30
0.0
 10
99.02429951875315
 20
114.9195098326699
 30
0.0
 10
99.11178763794756
 20
115.20832813268
 30
0.0
  0
LINE
  5
241
330
1F
100
AcDbEntity
  8
0
  6
Continuous
 62
     7
370
    25
100
AcDbLine
 10
103.2563448274
 20
115.2083281327
 30
0.0
 11
99.1117876379
 21
115.2083281327
 31
0.0
  0
SPLINE
  5
242
330
1F
100
AcDbEntity
  8
0
  6
Continuous
 62
     7
370
    25
100
AcDbSpline
210
0.0
220
0.0
230
1.0
 70
     8
 71
     3
 72
    10
 73
     6
 74
     0
 42
0.00000001
 43
0.00000001
 40
0.0
 40
0.0
 40
0.0
 40
0.0
 40
0.3648733179385557
 40
0.7296744522024446
 40
0.9999999999999999
 40
0.9999999999999999
 40
0.9999999999999999
 40
0.9999999999999999
 10
103.2563448274272
 20
115.2083281326801
 30
0.0
 10
103.3534149530107
 20
114.8840210213713
 30
0.0
 10
103.5475360005856
 20
114.2354709571283
 30
0.0
 10
103.7498938484385
 20
113.3327437365502
 30
0.0
 10
103.8197619275314
 20
112.7525552765842
 30
0.0
 10
103.8494995016057
 20
112.5056127882651
 30
0.0
  0
SPLINE
  5
243
330
1F
100
AcDbEntity
  8
0
  6
Continuous
 62
     7
370
    25
100
AcDbSpline
210
0.0
220
0.0
230
1.0
 70
     8
 71
     3
 72
    10
 73
     6
 74
     0
 42
0.00000001
 43
0.00000001
 40
0.0
 40
0.0
 40
0.0
 40
0.0
 40
0.312600045624558
 40
0.656271887848113
 40
0.9999999999999999
 40
0.9999999999999999
 40
0.9999999999999999
 40
0.9999999999999999
 10
103.8553357667656
 20
101.4075632488185
 30
0.0
 10
103.8170925306135
 20
101.1226781186999
 30
0.0
 10
103.7368047599036
 20
100.5245908670194
 30
0.0
 10
103.531856780957
 20
99.62358673801758
 30
0.0
 10
103.348187156946
 20
99.01343098338893
 30
0.0
 10
103.2563448274272
 20
98.70832813268004
 30
0.0
  0
LINE
  5
244
330
1F
100
AcDbEntity
  8
0
  6
Continuous
 62
     7
370
    25
100
AcDbLine
 10
99.1117876379
 20
98.7083281327
 30
0.0
 11
103.2563448274
 21
98.7083281327
 31
0.0
  0
SPLINE
  5
245
330
1F
100
AcDbEntity
  8
0
  6
Continuous
 62
     7
370
    25
100
AcDbSpline
210
0.0
220
0.0
230
1.0
 70
     8
 71
     3
 72
    11
 73
     7
 74
     0
 42
0.00000001
 43
0.00000001
 40
0.0
 40
0.0
 40
0.0
 40
0.0
 40
0.2569390914849037
 40
0.5138273521557217
 40
0.7751932808436395
 40
1.0
 40
1.0
 40
1.0
 40
1.0
 10
99.11178763794756
 20
98.70832813268004
 30
0.0
 10
99.01402632497017
 20
99.03258205766853
 30
0.0
 10
98.81852303934662
 20
99.68102575979289
 30
0.0
 10
98.60618602805943
 20
100.6755810044808
 30
0.0
 10
98.46718452789136
 20
101.6383604843129
 30
0.0
 10
98.44906075408261
 20
102.2723998299584
 30
0.0
 10
98.44068030292652
 20
102.5655802582335
 30
0.0
  0
LINE
  5
246
330
1F
100
AcDbEntity
  8
0
  6
Continuous
 62
     7
370
    25
100
AcDbLine
 10
116.6117876379
 20
98.7083281327
 30
0.0
 11
121.1120072601
 21
98.7083281327
 31
0.0
  0
SPLINE
  5
247
330
1F
100
AcDbEntity
  8
0
  6
Continuous
 62
     7
370
    25
100
AcDbSpline
210
0.0
220
0.0
230
1.0
 70
     8
 71
     3
 72
    11
 73
     7
 74
     0
 42
0.00000001
 43
0.00000001
 40
0.0
 40
0.0
 40
0.0
 40
0.0
 40
0.25511933153387
 40
0.5101881922606863
 40
0.7697030081154335
 40
1.0
 40
1.0
 40
1.0
 40
1.0
 10
116.6117876379476
 20
98.70832813268
 30
0.0
 10
116.5140334176723
 20
99.0325824578156
 30
0.0
 10
116.3185443160497
 20
99.681026960155
 30
0.0
 10
116.1061003229419
 20
100.6755761692778
 30
0.0
 10
115.9661622464806
 20
101.6476202423482
 30
0.0
 10
115.9479510016734
 20
102.2909720849812
 30
0.0
 10
115.939388539864
 20
102.593459676625
 30
0.0
  0
LINE
  5
248
330
1F
100
AcDbEntity
  8
0
  6
Continuous
 62
     7
370
    25
100
AcDbLine
 10
115.9340662327
 20
102.5421646393
 30
0.0
 11
115.9340662327
 21
99.4583281327
 31
0.0
  0
LINE
  5
249
330
1F
100
AcDbEntity
  8
0
  6
Continuous
 62
     7
370
    25
100
AcDbLine
 10
115.9340662327
 20
99.4583281327
 30
0.0
 11
103.9340662327
 21
99.4583281327
 31
0.0
  0
LINE
  5
24A
330
1F
100
AcDbEntity
  8
0
  6
Continuous
 62
     7
370
    25
100
AcDbLine
 10
103.9340662327
 20
101.4135125287
 30
0.0
 11
103.9340662327
 21
99.4583281327
 31
0.0
  0
LINE
  5
24B
330
1F
100
AcDbEntity
  8
0
  6
Continuous
 62
     7
370
    25
100
AcDbLine
 10
103.9340662327
 20
114.4583281327
 30
0.0
 11
103.9340662327
 21
112.5031437366
 31
0.0
  0
LINE
  5
24C
330
1F
100
AcDbEntity
  8
0
  6
Continuous
 62
     7
370
    25
100
AcDbLine
 10
103.9340662327
 20
114.4583281327
 30
0.0
 11
115.9340662327
 21
114.4583281327
 31
0.0
  0
LINE
  5
24D
330
1F
100
AcDbEntity
  8
0
  6
Continuous
 62
     7
370
    25
100
AcDbLine
 10
115.9340662327
 20
114.4583281327
 30
0.0
 11
115.9340662327
 21
111.374491626
 31
0.0
  0
SPLINE
  5
24E
330
1F
100
AcDbEntity
  8
0
  6
Continuous
 62
     7
370
    25
100
AcDbSpline
210
0.0
220
0.0
230
1.0
 70
     8
 71
     3
 72
     8
 73
     4
 74
     0
 42
0.00000001
 43
0.00000001
 40
0.0
 40
0.0
 40
0.0
 40
0.0
 40
1.0
 40
1.0
 40
1.0
 40
1.0
 10
103.4178301557082
 20
115.4583281326801
 30
0.0
 10
103.591533231928
 20
115.1258167105445
 30
0.0
 10
103.7638354509907
 20
114.7924896106457
 30
0.0
 10
103.9340662326874
 20
114.45832813268
 30
0.0
  0
SPLINE
  5
24F
330
1F
100
AcDbEntity
  8
0
  6
Continuous
 62
     7
370
    25
100
AcDbSpline
210
0.0
220
0.0
230
1.0
 70
     8
 71
     3
 72
    10
 73
     6
 74
     0
 42
0.00000001
 43
0.00000001
 40
0.0
 40
0.0
 40
0.0
 40
0.0
 40
0.5
 40
0.5
 40
1.0
 40
1.0
 40
1.0
 40
1.0
 10
103.2563448274328
 20
115.45832813268
 30
0.0
 10
103.2326694330085
 20
115.45832813268
 30
0.0
 10
103.2195783231182
 20
115.4355356833506
 30
0.0
 10
103.2194920018298
 20
115.3475929792575
 30
0.0
 10
103.2326609357736
 20
115.2827352055835
 30
0.0
 10
103.2563448274272
 20
115.2083281326801
 30
0.0
  0
SPLINE
  5
250
330
1F
100
AcDbEntity
  8
0
  6
Continuous
 62
     7
370
    25
100
AcDbSpline
210
0.0
220
0.0
230
1.0
 70
    24
 71
     3
 72
     8
 73
     4
 74
     0
 42
0.00000001
 43
0.00000001
 40
0.0
 40
0.0
 40
0.0
 40
0.0
 40
1.0
 40
1.0
 40
1.0
 40
1.0
 10
103.4178301557082
 20
115.45832813268
 30
0.0
 10
103.3669314387858
 20
115.45832813268
 30
0.0
 10
103.3129973025352
 20
115.45832813268
 30
0.0
 10
103.2563448274276
 20
115.45832813268
 30
0.0
  0
SPLINE
  5
251
330
1F
100
AcDbEntity
  8
0
  6
Continuous
 62
     7
370
    25
100
AcDbSpline
210
0.0
220
0.0
230
1.0
 70
     8
 71
     3
 72
     8
 73
     4
 74
     0
 42
0.00000001
 43
0.00000001
 40
0.0
 40
0.0
 40
0.0
 40
0.0
 40
1.0
 40
1.0
 40
1.0
 40
1.0
 10
115.9340662326874
 20
114.45832813268
 30
0.0
 10
116.1043438400311
 20
114.7925815289654
 30
0.0
 10
116.2766155886568
 20
115.1258480185343
 30
0.0
 10
116.4503023096664
 20
115.4583281326798
 30
0.0
  0
SPLINE
  5
252
330
1F
100
AcDbEntity
  8
0
  6
Continuous
 62
     7
370
    25
100
AcDbSpline
210
0.0
220
0.0
230
1.0
 70
    24
 71
     3
 72
     8
 73
     4
 74
     0
 42
0.00000001
 43
0.00000001
 40
0.0
 40
0.0
 40
0.0
 40
0.0
 40
1.0
 40
1.0
 40
1.0
 40
1.0
 10
116.450302309666
 20
115.45832813268
 30
0.0
 10
116.5011985429212
 20
115.45832813268
 30
0.0
 10
116.5551324978851
 20
115.45832813268
 30
0.0
 10
116.6117876379476
 20
115.45832813268
 30
0.0
  0
SPLINE
  5
253
330
1F
100
AcDbEntity
  8
0
  6
Continuous
 62
     7
370
    25
100
AcDbSpline
210
0.0
220
0.0
230
1.0
 70
     8
 71
     3
 72
    10
 73
     6
 74
     0
 42
0.00000001
 43
0.00000001
 40
0.0
 40
0.0
 40
0.0
 40
0.0
 40
0.5
 40
0.5
 40
1.0
 40
1.0
 40
1.0
 40
1.0
 10
116.6117876379476
 20
115.20832813268
 30
0.0
 10
116.6354630323719
 20
115.2827085100574
 30
0.0
 10
116.6485541422566
 20
115.3470091488431
 30
0.0
 10
116.6486404635449
 20
115.4352248336261
 30
0.0
 10
116.635471529601
 20
115.45832813268
 30
0.0
 10
116.6117876379476
 20
115.45832813268
 30
0.0
  0
SPLINE
  5
254
330
1F
100
AcDbEntity
  8
0
  6
Continuous
 62
     7
370
    25
100
AcDbSpline
210
0.0
220
0.0
230
1.0
 70
     8
 71
     3
 72
    10
 73
     6
 74
     0
 42
0.00000001
 43
0.00000001
 40
0.0
 40
0.0
 40
0.0
 40
0.0
 40
0.5
 40
0.5
 40
1.0
 40
1.0
 40
1.0
 40
1.0
 10
99.11178763794756
 20
115.45832813268
 30
0.0
 10
99.1354615385035
 20
115.45832813268
 30
0.0
 10
99.14855409568266
 20
115.4355375610326
 30
0.0
 10
99.14864050966493
 20
115.3475915637338
 30
0.0
 10
99.13547011806631
 20
115.282730771001
 30
0.0
 10
99.11178763794756
 20
115.20832813268
 30
0.0
  0
SPLINE
  5
255
330
1F
100
AcDbEntity
  8
0
  6
Continuous
 62
     7
370
    25
100
AcDbSpline
210
0.0
220
0.0
230
1.0
 70
    24
 71
     3
 72
    12
 73
     8
 74
     0
 42
0.00000001
 43
0.00000001
 40
0.0
 40
0.0
 40
0.0
 40
0.0
 40
0.2499999999999999
 40
0.2499999999999999
 40
0.4999999999999998
 40
0.4999999999999998
 40
1.0
 40
1.0
 40
1.0
 40
1.0
 10
98.43406623268737
 20
115.45832813268
 30
0.0
 10
98.43406623268737
 20
115.45832813268
 30
0.0
 10
98.45006503766844
 20
115.45832813268
 30
0.0
 10
98.51183517598284
 20
115.45832813268
 30
0.0
 10
98.55757730028444
 20
115.45832813268
 30
0.0
 10
98.73424744763128
 20
115.45832813268
 30
0.0
 10
98.90450251311157
 20
115.45832813268
 30
0.0
 10
99.11178763794756
 20
115.45832813268
 30
0.0
  0
LINE
  5
256
330
1F
100
AcDbEntity
  8
0
  6
Continuous
 62
     7
370
    25
100
AcDbLine
 10
98.4340662327
 20
115.4583281327
 30
0.0
 11
98.4340662327
 21
111.3409744146
 31
0.0
  0
SPLINE
  5
257
330
1F
100
AcDbEntity
  8
0
  6
Continuous
 62
     7
370
    25
100
AcDbSpline
210
0.0
220
0.0
230
1.0
 70
     8
 71
     3
 72
     8
 73
     4
 74
     0
 42
0.00000001
 43
0.00000001
 40
0.0
 40
0.0
 40
0.0
 40
0.0
 40
1.0
 40
1.0
 40
1.0
 40
1.0
 10
116.4503023096666
 20
98.45832813268002
 30
0.0
 10
116.2765992334468
 20
98.79083955481552
 30
0.0
 10
116.1042970143841
 20
99.12416665471439
 30
0.0
 10
115.9340662326874
 20
99.45832813268004
 30
0.0
  0
SPLINE
  5
258
330
1F
100
AcDbEntity
  8
0
  6
Continuous
 62
     7
370
    25
100
AcDbSpline
210
0.0
220
0.0
230
1.0
 70
     8
 71
     3
 72
    10
 73
     6
 74
     0
 42
0.00000001
 43
0.00000001
 40
0.0
 40
0.0
 40
0.0
 40
0.0
 40
0.5
 40
0.5
 40
1.0
 40
1.0
 40
1.0
 40
1.0
 10
116.6117876379476
 20
98.45832813268004
 30
0.0
 10
116.635463032372
 20
98.45832813268004
 30
0.0
 10
116.6485541422566
 20
98.48112058200982
 30
0.0
 10
116.6486404635449
 20
98.56906328610287
 30
0.0
 10
116.635471529601
 20
98.63392105977672
 30
0.0
 10
116.6117876379476
 20
98.70832813267998
 30
0.0
  0
SPLINE
  5
259
330
1F
100
AcDbEntity
  8
0
  6
Continuous
 62
     7
370
    25
100
AcDbSpline
210
0.0
220
0.0
230
1.0
 70
    24
 71
     3
 72
     8
 73
     4
 74
     0
 42
0.00000001
 43
0.00000001
 40
0.0
 40
0.0
 40
0.0
 40
0.0
 40
1.0
 40
1.0
 40
1.0
 40
1.0
 10
116.4503023096666
 20
98.45832813268004
 30
0.0
 10
116.5011985429216
 20
98.45832813268004
 30
0.0
 10
116.5551324978853
 20
98.45832813268004
 30
0.0
 10
116.6117876379476
 20
98.45832813268004
 30
0.0
  0
SPLINE
  5
25A
330
1F
100
AcDbEntity
  8
0
  6
Continuous
 62
     7
370
    25
100
AcDbSpline
210
0.0
220
0.0
230
1.0
 70
     8
 71
     3
 72
     8
 73
     4
 74
     0
 42
0.00000001
 43
0.00000001
 40
0.0
 40
0.0
 40
0.0
 40
0.0
 40
1.0
 40
1.0
 40
1.0
 40
1.0
 10
103.9340662326874
 20
99.45832813268004
 30
0.0
 10
103.7637886253436
 20
99.12407473639462
 30
0.0
 10
103.5915168767179
 20
98.7908082468256
 30
0.0
 10
103.4178301557082
 20
98.45832813268004
 30
0.0
  0
SPLINE
  5
25B
330
1F
100
AcDbEntity
  8
0
  6
Continuous
 62
     7
370
    25
100
AcDbSpline
210
0.0
220
0.0
230
1.0
 70
    24
 71
     3
 72
     8
 73
     4
 74
     0
 42
0.00000001
 43
0.00000001
 40
0.0
 40
0.0
 40
0.0
 40
0.0
 40
1.0
 40
1.0
 40
1.0
 40
1.0
 10
103.4178301557082
 20
98.45832813268004
 30
0.0
 10
103.3669314387857
 20
98.45832813268004
 30
0.0
 10
103.3129973025349
 20
98.45832813268004
 30
0.0
 10
103.2563448274272
 20
98.45832813268004
 30
0.0
  0
SPLINE
  5
25C
330
1F
100
AcDbEntity
  8
0
  6
Continuous
 62
     7
370
    25
100
AcDbSpline
210
0.0
220
0.0
230
1.0
 70
     8
 71
     3
 72
    10
 73
     6
 74
     0
 42
0.00000001
 43
0.00000001
 40
0.0
 40
0.0
 40
0.0
 40
0.0
 40
0.5
 40
0.5
 40
1.0
 40
1.0
 40
1.0
 40
1.0
 10
103.2563448274272
 20
98.70832813268004
 30
0.0
 10
103.2326694330028
 20
98.6339477553027
 30
0.0
 10
103.2195783231182
 20
98.56964711651693
 30
0.0
 10
103.2194920018299
 20
98.481431431734
 30
0.0
 10
103.2326609357737
 20
98.45832813268004
 30
0.0
 10
103.2563448274272
 20
98.45832813268004
 30
0.0
  0
SPLINE
  5
25D
330
1F
100
AcDbEntity
  8
0
  6
Continuous
 62
     7
370
    25
100
AcDbSpline
210
0.0
220
0.0
230
1.0
 70
     8
 71
     3
 72
    10
 73
     6
 74
     0
 42
0.00000001
 43
0.00000001
 40
0.0
 40
0.0
 40
0.0
 40
0.0
 40
0.5
 40
0.5
 40
1.0
 40
1.0
 40
1.0
 40
1.0
 10
99.11178763794756
 20
98.70832813268004
 30
0.0
 10
99.13545987785913
 20
98.63395766575448
 30
0.0
 10
99.14855386779438
 20
98.56965206946661
 30
0.0
 10
99.14864073525582
 20
98.48142928166077
 30
0.0
 10
99.13547094549648
 20
98.45832813268004
 30
0.0
 10
99.11178763794756
 20
98.45832813268004
 30
0.0
  0
SPLINE
  5
25E
330
1F
100
AcDbEntity
  8
0
  6
Continuous
 62
     7
370
    25
100
AcDbSpline
210
0.0
220
0.0
230
1.0
 70
    24
 71
     3
 72
    12
 73
     8
 74
     0
 42
0.00000001
 43
0.00000001
 40
0.0
 40
0.0
 40
0.0
 40
0.0
 40
0.2500000000000001
 40
0.2500000000000001
 40
0.5000000000000001
 40
0.5000000000000001
 40
1.0
 40
1.0
 40
1.0
 40
1.0
 10
98.43406623268737
 20
98.45832813268004
 30
0.0
 10
98.43406623268737
 20
98.45832813268004
 30
0.0
 10
98.45006503766844
 20
98.45832813268004
 30
0.0
 10
98.51183517598284
 20
98.45832813268004
 30
0.0
 10
98.55757730028444
 20
98.45832813268004
 30
0.0
 10
98.73424744763128
 20
98.45832813268004
 30
0.0
 10
98.90450251311157
 20
98.45832813268004
 30
0.0
 10
99.11178763794756
 20
98.45832813268004
 30
0.0
  0
LINE
  5
25F
330
1F
100
AcDbEntity
  8
0
  6
Continuous
 62
     7
370
    25
100
AcDbLine
 10
98.4340662327
 20
98.4583281327
 30
0.0
 11
98.4340662327
 21
102.5756818508
 31
0.0
  0
LINE
  5
260
330
1F
100
AcDbEntity
  8
0
  6
Continuous
 62
     7
370
    25
100
AcDbLine
 10
116.6117876379
 20
115.4583281327
 30
0.0
 11
121.1120072601
 21
115.4583281327
 31
0.0
  0
LINE
  5
261
330
1F
100
AcDbEntity
  8
0
  6
Continuous
 62
     7
370
    25
100
AcDbLine
 10
99.1117876379
 20
115.4583281327
 30
0.0
 11
103.2563448274
 21
115.4583281327
 31
0.0
  0
LINE
  5
262
330
1F
100
AcDbEntity
  8
0
  6
Continuous
 62
     7
370
    25
100
AcDbLine
 10
121.1120072601
 20
98.4583281327
 30
0.0
 11
116.6117876379
 21
98.4583281327
 31
0.0
  0
LINE
  5
263
330
1F
100
AcDbEntity
  8
0
  6
Continuous
 62
     7
370
    25
100
AcDbLine
 10
103.2563448274
 20
98.4583281327
 30
0.0
 11
99.1117876379
 21
98.4583281327
 31
0.0
  0
LINE
  5
264
330
1F
100
AcDbEntity
  8
0
  6
Continuous
 62
     7
370
    25
100
AcDbLine
 10
116.4503023097
 20
115.4583281327
 30
0.0
 11
103.4178301557
 21
115.4583281327
 31
0.0
  0
LINE
  5
265
330
1F
100
AcDbEntity
  8
0
  6
Continuous
 62
     7
370
    25
100
AcDbLine
 10
116.4503023097
 20
98.4583281327
 30
0.0
 11
103.4178301557
 21
98.4583281327
 31
0.0
  0
LINE
  5
266
330
1F
100
AcDbEntity
  8
0
  6
Continuous
 62
     7
370
    25
100
AcDbLine
 10
121.1120072601
 20
106.7083281327
 30
0.0
 11
117.3798704203
 21
106.7083281327
 31
0.0
  0
LINE
  5
267
330
1F
100
AcDbEntity
  8
0
  6
Continuous
 62
     7
370
    25
100
AcDbLine
 10
117.3798704203
 20
107.2083281327
 30
0.0
 11
121.1120072601
 21
107.2083281327
 31
0.0
  0
INSERT
  5
273
330
1F
100
AcDbEntity
  8
FORMAT
100
AcDbBlockReference
  2
SW_CENTERMARKSYMBOL_1
 10
109.9340662327
 20
106.9583281327
 30
0.0
  0
ENDSEC
  0
SECTION
  2
OBJECTS
  0
DICTIONARY
  5
C
330
0
100
AcDbDictionary
281
     1
  3
ACAD_GROUP
350
D
  3
ACAD_LAYOUT
350
1A
  3
ACAD_MLINESTYLE
350
17
  3
ACAD_PLOTSETTINGS
350
19
  3
ACAD_PLOTSTYLENAME
350
E
  3
ACAD_SCALELIST
350
47
  3
DWGPROPS
350
274
  0
DICTIONARY
  5
D
102
{ACAD_REACTORS
330
C
102
}
330
C
100
AcDbDictionary
281
     1
  0
DICTIONARY
  5
1A
102
{ACAD_REACTORS
330
C
102
}
330
C
100
AcDbDictionary
281
     1
  3
Layout1
350
1E
  3
Layout2
350
26
  3
Model
350
22
  0
DICTIONARY
  5
17
102
{ACAD_REACTORS
330
C
102
}
330
C
100
AcDbDictionary
281
     1
  3
Standard
350
18
  0
DICTIONARY
  5
19
102
{ACAD_REACTORS
330
C
102
}
330
C
100
AcDbDictionary
281
     1
  0
ACDBDICTIONARYWDFLT
  5
E
102
{ACAD_REACTORS
330
C
102
}
330
C
100
AcDbDictionary
281
     1
  3
Normal
350
F
100
AcDbDictionaryWithDefault
340
F
  0
DICTIONARY
  5
47
102
{ACAD_REACTORS
330
C
102
}
330
C
100
AcDbDictionary
281
     1
  3
A0
350
48
  3
A1
350
49
  3
A2
350
4A
  3
A3
350
4B
  3
A4
350
4C
  3
A5
350
4D
  3
A6
350
4E
  3
A7
350
4F
  3
A8
350
50
  3
A9
350
51
  3
B0
350
52
  3
B1
350
53
  3
B2
350
54
  3
B3
350
55
  3
B4
350
56
  3
B5
350
57
  3
B6
350
58
  0
XRECORD
  5
274
102
{ACAD_REACTORS
330
C
102
}
330
C
100
AcDbXrecord
280
     1
  1
DWGPROPS COOKIE
  2

  3

  4

  6

  7

  8
user28
  9

300
=
301
=
302
=
303
=
304
=
305
=
306
=
307
=
308
=
309
=
 40
0.0
 41
2460336.269741829
 42
2460336.269742523
  1

 90
        0
  0
LAYOUT
  5
1E
102
{ACAD_REACTORS
330
1A
102
}
330
1A
100
AcDbPlotSettings
  1

  2
none_device
  4

  6

 40
0.0
 41
0.0
 42
0.0
 43
0.0
 44
0.0
 45
0.0
 46
0.0
 47
0.0
 48
0.0
 49
0.0
140
0.0
141
0.0
142
1.0
143
1.0
 70
   688
 72
     1
 73
     0
 74
     5
  7

 75
    16
147
1.0
148
0.0
149
0.0
100
AcDbLayout
  1
Layout1
 70
     1
 71
     1
 10
0.0
 20
0.0
 11
420.0
 21
297.0
 12
0.0
 22
0.0
 32
0.0
 14
1.0000000000E+20
 24
1.0000000000E+20
 34
1.0000000000E+20
 15
-1.0000000000E+20
 25
-1.0000000000E+20
 35
-1.0000000000E+20
146
0.0
 13
0.0
 23
0.0
 33
0.0
 16
1.0
 26
0.0
 36
0.0
 17
0.0
 27
1.0
 37
0.0
 76
     0
330
1B
  0
LAYOUT
  5
26
102
{ACAD_REACTORS
330
1A
102
}
330
1A
100
AcDbPlotSettings
  1

  2
none_device
  4

  6

 40
0.0
 41
0.0
 42
0.0
 43
0.0
 44
0.0
 45
0.0
 46
0.0
 47
0.0
 48
0.0
 49
0.0
140
0.0
141
0.0
142
1.0
143
1.0
 70
   688
 72
     1
 73
     0
 74
     5
  7

 75
    16
147
1.0
148
0.0
149
0.0
100
AcDbLayout
  1
Layout2
 70
     1
 71
     2
 10
0.0
 20
0.0
 11
0.0
 21
0.0
 12
0.0
 22
0.0
 32
0.0
 14
0.0
 24
0.0
 34
0.0
 15
0.0
 25
0.0
 35
0.0
146
0.0
 13
0.0
 23
0.0
 33
0.0
 16
1.0
 26
0.0
 36
0.0
 17
0.0
 27
1.0
 37
0.0
 76
     0
330
23
  0
LAYOUT
  5
22
102
{ACAD_REACTORS
330
1A
102
}
330
1A
100
AcDbPlotSettings
  1

  2
none_device
  4
Letter_(8.50_x_11.00_Inches)
  6

 40
6.35
 41
6.35
 42
6.35000508
 43
6.35000508
 44
215.9
 45
279.4
 46
0.0
 47
0.0
 48
0.0
 49
0.0
140
0.0
141
0.0
142
1.0
143
1.0
 70
  1712
 72
     1
 73
     0
 74
     0
  7

 75
     0
147
1.0
148
0.0
149
0.0
100
AcDbLayout
  1
Model
 70
     1
 71
     0
 10
0.0
 20
0.0
 11
297.0
 21
210.0
 12
0.0
 22
0.0
 32
0.0
 14
0.0
 24
0.0
 34
0.0
 15
297.0
 25
210.0
 35
0.0
146
0.0
 13
0.0
 23
0.0
 33
0.0
 16
1.0
 26
0.0
 36
0.0
 17
0.0
 27
1.0
 37
0.0
 76
     0
330
1F
331
29
  0
MLINESTYLE
  5
18
102
{ACAD_REACTORS
330
17
102
}
330
17
100
AcDbMlineStyle
  2
Standard
 70
     0
  3

 62
   256
 51
90.0
 52
90.0
 71
     2
 49
0.5
 62
   256
  6
BYLAYER
 49
-0.5
 62
   256
  6
BYLAYER
  0
ACDBPLACEHOLDER
  5
F
102
{ACAD_REACTORS
330
E
102
}
330
E
  0
SCALE
  5
48
102
{ACAD_REACTORS
330
47
102
}
330
47
100
AcDbScale
 70
     0
300
1:1
140
1.0
141
1.0
290
     1
  0
SCALE
  5
49
102
{ACAD_REACTORS
330
47
102
}
330
47
100
AcDbScale
 70
     0
300
1:2
140
1.0
141
2.0
290
     0
  0
SCALE
  5
4A
102
{ACAD_REACTORS
330
47
102
}
330
47
100
AcDbScale
 70
     0
300
1:4
140
1.0
141
4.0
290
     0
  0
SCALE
  5
4B
102
{ACAD_REACTORS
330
47
102
}
330
47
100
AcDbScale
 70
     0
300
1:5
140
1.0
141
5.0
290
     0
  0
SCALE
  5
4C
102
{ACAD_REACTORS
330
47
102
}
330
47
100
AcDbScale
 70
     0
300
1:8
140
1.0
141
8.0
290
     0
  0
SCALE
  5
4D
102
{ACAD_REACTORS
330
47
102
}
330
47
100
AcDbScale
 70
     0
300
1:10
140
1.0
141
10.0
290
     0
  0
SCALE
  5
4E
102
{ACAD_REACTORS
330
47
102
}
330
47
100
AcDbScale
 70
     0
300
1:16
140
1.0
141
16.0
290
     0
  0
SCALE
  5
4F
102
{ACAD_REACTORS
330
47
102
}
330
47
100
AcDbScale
 70
     0
300
1:20
140
1.0
141
20.0
290
     0
  0
SCALE
  5
50
102
{ACAD_REACTORS
330
47
102
}
330
47
100
AcDbScale
 70
     0
300
1:30
140
1.0
141
30.0
290
     0
  0
SCALE
  5
51
102
{ACAD_REACTORS
330
47
102
}
330
47
100
AcDbScale
 70
     0
300
1:40
140
1.0
141
40.0
290
     0
  0
SCALE
  5
52
102
{ACAD_REACTORS
330
47
102
}
330
47
100
AcDbScale
 70
     0
300
1:50
140
1.0
141
50.0
290
     0
  0
SCALE
  5
53
102
{ACAD_REACTORS
330
47
102
}
330
47
100
AcDbScale
 70
     0
300
1:100
140
1.0
141
100.0
290
     0
  0
SCALE
  5
54
102
{ACAD_REACTORS
330
47
102
}
330
47
100
AcDbScale
 70
     0
300
2:1
140
2.0
141
1.0
290
     0
  0
SCALE
  5
55
102
{ACAD_REACTORS
330
47
102
}
330
47
100
AcDbScale
 70
     0
300
4:1
140
4.0
141
1.0
290
     0
  0
SCALE
  5
56
102
{ACAD_REACTORS
330
47
102
}
330
47
100
AcDbScale
 70
     0
300
8:1
140
8.0
141
1.0
290
     0
  0
SCALE
  5
57
102
{ACAD_REACTORS
330
47
102
}
330
47
100
AcDbScale
 70
     0
300
10:1
140
10.0
141
1.0
290
     0
  0
SCALE
  5
58
102
{ACAD_REACTORS
330
47
102
}
330
47
100
AcDbScale
 70
     0
300
100:1
140
100.0
141
1.0
290
     0
  0
ENDSEC
  0
EOF
