  0
SECTION
  2
HEADER
  9
$ACADVER
  1
AC1015
  9
$ACADMAINTVER
 70
     6
  9
$DWGCODEPAGE
  3
DOS932
  9
$INSBASE
 10
0.0
 20
0.0
 30
0.0
  9
$EXTMIN
 10
0.0
 20
0.0
 30
0.0
  9
$EXTMAX
 10
431.8
 20
279.4
 30
0.0
  9
$LIMMIN
 10
0.0
 20
0.0
  9
$LIMMAX
 10
431.8
 20
279.4
  9
$ORTHOMODE
 70
     0
  9
$REGENMODE
 70
     1
  9
$FILLMODE
 70
     1
  9
$QTEXTMODE
 70
     0
  9
$MIRRTEXT
 70
     1
  9
$LTSCALE
 40
1.0
  9
$ATTMODE
 70
     1
  9
$TEXTSIZE
 40
3.5
  9
$TRACEWID
 40
1.0
  9
$TEXTSTYLE
  7
Standard
  9
$CLAYER
  8
0
  9
$CELTYPE
  6
ByLayer
  9
$CECOLOR
 62
   256
  9
$CELTSCALE
 40
1.0
  9
$DISPSILH
 70
     0
  9
$DIMSCALE
 40
1.0
  9
$DIMASZ
 40
3.302
  9
$DIMEXO
 40
1.0
  9
$DIMDLI
 40
3.75
  9
$DIMRND
 40
0.0
  9
$DIMDLE
 40
0.0
  9
$DIMEXE
 40
1.0
  9
$DIMTP
 40
0.0
  9
$DIMTM
 40
0.0
  9
$DIMTXT
 40
3.5
  9
$DIMCEN
 40
2.5
  9
$DIMTSZ
 40
0.0
  9
$DIMTOL
 70
     0
  9
$DIMLIM
 70
     0
  9
$DIMTIH
 70
     1
  9
$DIMTOH
 70
     1
  9
$DIMSE1
 70
     0
  9
$DIMSE2
 70
     0
  9
$DIMTAD
 70
     1
  9
$DIMZIN
 70
     1
  9
$DIMBLK
  1

  9
$DIMASO
 70
     1
  9
$DIMSHO
 70
     1
  9
$DIMPOST
  1

  9
$DIMAPOST
  1

  9
$DIMALT
 70
     0
  9
$DIMALTD
 70
     3
  9
$DIMALTF
 40
0.0393700787
  9
$DIMLFAC
 40
1.0
  9
$DIMTOFL
 70
     1
  9
$DIMTVP
 40
0.0
  9
$DIMTIX
 70
     0
  9
$DIMSOXD
 70
     0
  9
$DIMSAH
 70
     0
  9
$DIMBLK1
  1

  9
$DIMBLK2
  1

  9
$DIMSTYLE
  2
ISO-25
  9
$DIMCLRD
 70
     0
  9
$DIMCLRE
 70
     0
  9
$DIMCLRT
 70
     0
  9
$DIMTFAC
 40
1.0
  9
$DIMGAP
 40
1.524
  9
$DIMJUST
 70
     0
  9
$DIMSD1
 70
     0
  9
$DIMSD2
 70
     0
  9
$DIMTOLJ
 70
     0
  9
$DIMTZIN
 70
     1
  9
$DIMALTZ
 70
     0
  9
$DIMALTTZ
 70
     0
  9
$DIMUPT
 70
     0
  9
$DIMDEC
 70
     2
  9
$DIMTDEC
 70
     2
  9
$DIMALTU
 70
     2
  9
$DIMALTTD
 70
     3
  9
$DIMTXSTY
  7
Standard
  9
$DIMAUNIT
 70
     0
  9
$DIMADEC
 70
     2
  9
$DIMALTRND
 40
0.0
  9
$DIMAZIN
 70
     0
  9
$DIMDSEP
 70
    44
  9
$DIMATFIT
 70
     3
  9
$DIMFRAC
 70
     0
  9
$DIMLDRBLK
  1

  9
$DIMLUNIT
 70
     2
  9
$DIMLWD
 70
    -2
  9
$DIMLWE
 70
    -2
  9
$DIMTMOVE
 70
     0
  9
$LUNITS
 70
     2
  9
$LUPREC
 70
     2
  9
$SKETCHINC
 40
1.0
  9
$FILLETRAD
 40
10.0
  9
$AUNITS
 70
     0
  9
$AUPREC
 70
     2
  9
$MENU
  1
.
  9
$ELEVATION
 40
0.0
  9
$PELEVATION
 40
0.0
  9
$THICKNESS
 40
0.0
  9
$LIMCHECK
 70
     0
  9
$CHAMFERA
 40
0.0
  9
$CHAMFERB
 40
0.0
  9
$CHAMFERC
 40
0.0
  9
$CHAMFERD
 40
0.0
  9
$SKPOLY
 70
     0
  9
$TDCREATE
 40
2459828.73531294
  9
$TDUCREATE
 40
2459828.36031294
  9
$TDUPDATE
 40
2459828.735313657
  9
$TDUUPDATE
 40
2459828.360313657
  9
$TDINDWG
 40
0.0000000116
  9
$TDUSRTIMER
 40
0.0000000116
  9
$USRTIMER
 70
     1
  9
$ANGBASE
 50
0.0
  9
$ANGDIR
 70
     0
  9
$PDMODE
 70
     0
  9
$PDSIZE
 40
-1.0
  9
$PLINEWID
 40
0.0
  9
$SPLFRAME
 70
     0
  9
$SPLINETYPE
 70
     6
  9
$SPLINESEGS
 70
     8
  9
$HANDSEED
  5
265
  9
$SURFTAB1
 70
     6
  9
$SURFTAB2
 70
     6
  9
$SURFTYPE
 70
     6
  9
$SURFU
 70
     6
  9
$SURFV
 70
     6
  9
$UCSBASE
  2

  9
$UCSNAME
  2

  9
$UCSORG
 10
0.0
 20
0.0
 30
0.0
  9
$UCSXDIR
 10
1.0
 20
0.0
 30
0.0
  9
$UCSYDIR
 10
0.0
 20
1.0
 30
0.0
  9
$UCSORTHOREF
  2

  9
$UCSORTHOVIEW
 70
     0
  9
$UCSORGTOP
 10
0.0
 20
0.0
 30
0.0
  9
$UCSORGBOTTOM
 10
0.0
 20
0.0
 30
0.0
  9
$UCSORGLEFT
 10
0.0
 20
0.0
 30
0.0
  9
$UCSORGRIGHT
 10
0.0
 20
0.0
 30
0.0
  9
$UCSORGFRONT
 10
0.0
 20
0.0
 30
0.0
  9
$UCSORGBACK
 10
0.0
 20
0.0
 30
0.0
  9
$PUCSBASE
  2

  9
$PUCSNAME
  2

  9
$PUCSORG
 10
0.0
 20
0.0
 30
0.0
  9
$PUCSXDIR
 10
1.0
 20
0.0
 30
0.0
  9
$PUCSYDIR
 10
0.0
 20
1.0
 30
0.0
  9
$PUCSORTHOREF
  2

  9
$PUCSORTHOVIEW
 70
     0
  9
$PUCSORGTOP
 10
0.0
 20
0.0
 30
0.0
  9
$PUCSORGBOTTOM
 10
0.0
 20
0.0
 30
0.0
  9
$PUCSORGLEFT
 10
0.0
 20
0.0
 30
0.0
  9
$PUCSORGRIGHT
 10
0.0
 20
0.0
 30
0.0
  9
$PUCSORGFRONT
 10
0.0
 20
0.0
 30
0.0
  9
$PUCSORGBACK
 10
0.0
 20
0.0
 30
0.0
  9
$USERI1
 70
     0
  9
$USERI2
 70
     0
  9
$USERI3
 70
     0
  9
$USERI4
 70
     0
  9
$USERI5
 70
     0
  9
$USERR1
 40
0.0
  9
$USERR2
 40
0.0
  9
$USERR3
 40
0.0
  9
$USERR4
 40
0.0
  9
$USERR5
 40
0.0
  9
$WORLDVIEW
 70
     1
  9
$SHADEDGE
 70
     3
  9
$SHADEDIF
 70
    70
  9
$TILEMODE
 70
     1
  9
$MAXACTVP
 70
    64
  9
$PINSBASE
 10
0.0
 20
0.0
 30
0.0
  9
$PLIMCHECK
 70
     0
  9
$PEXTMIN
 10
1.0000000000E+20
 20
1.0000000000E+20
 30
1.0000000000E+20
  9
$PEXTMAX
 10
-1.0000000000E+20
 20
-1.0000000000E+20
 30
-1.0000000000E+20
  9
$PLIMMIN
 10
0.0
 20
0.0
  9
$PLIMMAX
 10
420.0
 20
297.0
  9
$UNITMODE
 70
     0
  9
$VISRETAIN
 70
     1
  9
$PLINEGEN
 70
     0
  9
$PSLTSCALE
 70
     1
  9
$TREEDEPTH
 70
  3020
  9
$CMLSTYLE
  2
Standard
  9
$CMLJUST
 70
     0
  9
$CMLSCALE
 40
20.0
  9
$PROXYGRAPHICS
 70
     1
  9
$MEASUREMENT
 70
     1
  9
$CELWEIGHT
370
    -1
  9
$ENDCAPS
280
     0
  9
$JOINSTYLE
280
     0
  9
$LWDISPLAY
290
     1
  9
$INSUNITS
 70
     4
  9
$HYPERLINKBASE
  1

  9
$STYLESHEET
  1

  9
$XEDIT
290
     1
  9
$CEPSNTYPE
380
     0
  9
$PSTYLEMODE
290
     1
  9
$FINGERPRINTGUID
  2
{519BC859-F43D-43FA-BC8F-D8A02E5798F0}
  9
$VERSIONGUID
  2
{FAEB1C32-E019-11D5-929B-00C0DF256EC4}
  9
$EXTNAMES
290
     1
  9
$PSVPSCALE
 40
0.0
  9
$OLESTARTUP
290
     0
  0
ENDSEC
  0
SECTION
  2
CLASSES
  0
CLASS
  1
ACDBDICTIONARYWDFLT
  2
AcDbDictionaryWithDefault
  3
ObjectDBX Classes
 90
        0
280
     0
281
     0
  0
CLASS
  1
VISUALSTYLE
  2
AcDbVisualStyle
  3
ObjectDBX Classes
 90
     4095
280
     0
281
     0
  0
CLASS
  1
MATERIAL
  2
AcDbMaterial
  3
ObjectDBX Classes
 90
     1153
280
     0
281
     0
  0
CLASS
  1
SCALE
  2
AcDbScale
  3
ObjectDBX Classes
 90
     1153
280
     0
281
     0
  0
CLASS
  1
TABLESTYLE
  2
AcDbTableStyle
  3
ObjectDBX Classes
 90
     4095
280
     0
281
     0
  0
CLASS
  1
MLEADERSTYLE
  2
AcDbMLeaderStyle
  3
ACDB_MLEADERSTYLE_CLASS
 90
     4095
280
     0
281
     0
  0
CLASS
  1
SUN
  2
AcDbSun
  3
SCENEOE
 90
     1153
280
     0
281
     0
  0
CLASS
  1
ACDBPLACEHOLDER
  2
AcDbPlaceHolder
  3
ObjectDBX Classes
 90
        0
280
     0
281
     0
  0
CLASS
  1
LAYOUT
  2
AcDbLayout
  3
ObjectDBX Classes
 90
        0
280
     0
281
     0
  0
ENDSEC
  0
SECTION
  2
TABLES
  0
TABLE
  2
VPORT
  5
8
330
0
100
AcDbSymbolTable
 70
     1
  0
VPORT
  5
29
330
8
100
AcDbSymbolTableRecord
100
AcDbViewportTableRecord
  2
*Active
 70
     0
 10
0.0
 20
0.0
 11
1.0
 21
1.0
 12
215.9
 22
139.7
 13
0.0
 23
0.0
 14
10.0
 24
10.0
 15
10.0
 25
10.0
 16
0.0
 26
0.0
 36
1.0
 17
0.0
 27
0.0
 37
0.0
 40
279.4
 41
1.5454545455
 42
50.0
 43
0.0
 44
0.0
 50
0.0
 51
0.0
 71
     0
 72
  2000
 73
     1
 74
     3
 75
     0
 76
     0
 77
     0
 78
     0
281
     0
 65
     1
110
0.0
120
0.0
130
0.0
111
1.0
121
0.0
131
0.0
112
0.0
122
1.0
132
0.0
 79
     0
146
0.0
  0
ENDTAB
  0
TABLE
  2
LTYPE
  5
5
330
0
100
AcDbSymbolTable
 70
     6
  0
LTYPE
  5
14
330
5
100
AcDbSymbolTableRecord
100
AcDbLinetypeTableRecord
  2
ByBlock
 70
     0
  3

 72
    65
 73
     0
 40
0.0
  0
LTYPE
  5
15
330
5
100
AcDbSymbolTableRecord
100
AcDbLinetypeTableRecord
  2
ByLayer
 70
     0
  3

 72
    65
 73
     0
 40
0.0
  0
LTYPE
  5
16
330
5
100
AcDbSymbolTableRecord
100
AcDbLinetypeTableRecord
  2
Continuous
 70
     0
  3
Solid line
 72
    65
 73
     0
 40
0.0
  0
LTYPE
  5
6E
330
5
100
AcDbSymbolTableRecord
100
AcDbLinetypeTableRecord
  2
HIDDEN
 70
     0
  3
Hidden __ __ __ __ __ __ __ __ __ __ __ __ __ __
 72
    65
 73
     2
 40
1.905
 49
1.27
 74
     0
 49
-0.635
 74
     0
  0
LTYPE
  5
6F
330
5
100
AcDbSymbolTableRecord
100
AcDbLinetypeTableRecord
  2
PHANTOM
 70
     0
  3
Phantom ______  __  __  ______  __  __  ______
 72
    65
 73
     6
 40
12.7
 49
6.35
 74
     0
 49
-1.27
 74
     0
 49
1.27
 74
     0
 49
-1.27
 74
     0
 49
1.27
 74
     0
 49
-1.27
 74
     0
  0
LTYPE
  5
70
330
5
100
AcDbSymbolTableRecord
100
AcDbLinetypeTableRecord
  2
CENTER
 70
     0
  3
Center ____ _ ____ _ ____ _ ____ _ ____ _ ____
 72
    65
 73
     4
 40
10.16
 49
6.35
 74
     0
 49
-1.27
 74
     0
 49
1.27
 74
     0
 49
-1.27
 74
     0
  0
LTYPE
  5
71
330
5
100
AcDbSymbolTableRecord
100
AcDbLinetypeTableRecord
  2
CENTERX2
 70
     0
  3
Center (2x) ________  __  ________  __  _____
 72
    65
 73
     4
 40
20.32
 49
12.7
 74
     0
 49
-2.54
 74
     0
 49
2.54
 74
     0
 49
-2.54
 74
     0
  0
LTYPE
  5
72
330
5
100
AcDbSymbolTableRecord
100
AcDbLinetypeTableRecord
  2
DOT2
 70
     0
  3
Dot (.5x) ........................................
 72
    65
 73
     2
 40
0.635
 49
0.0
 74
     0
 49
-0.635
 74
     0
  0
ENDTAB
  0
TABLE
  2
LAYER
  5
2
330
0
100
AcDbSymbolTable
 70
     1
  0
LAYER
  5
10
330
2
100
AcDbSymbolTableRecord
100
AcDbLayerTableRecord
  2
0
 70
     0
 62
     7
  6
Continuous
370
    -3
390
F
  0
ENDTAB
  0
TABLE
  2
STYLE
  5
3
330
0
100
AcDbSymbolTable
 70
     2
  0
STYLE
  5
11
330
3
100
AcDbSymbolTableRecord
100
AcDbTextStyleTableRecord
  2
Standard
 70
     0
 40
0.0
 41
1.0
 50
0.0
 71
     0
 42
3.5
  3
txt
  4
bigfont
  0
STYLE
  5
73
330
3
100
AcDbSymbolTableRecord
100
AcDbTextStyleTableRecord
  2
SLDTEXTSTYLE0
 70
     0
 40
0.0
 41
0.7
 50
0.0
 71
     0
 42
3.5
  3
TXT
  4
bigfont
  0
ENDTAB
  0
TABLE
  2
VIEW
  5
6
330
0
100
AcDbSymbolTable
 70
     0
  0
ENDTAB
  0
TABLE
  2
UCS
  5
7
330
0
100
AcDbSymbolTable
 70
     0
  0
ENDTAB
  0
TABLE
  2
APPID
  5
9
330
0
100
AcDbSymbolTable
 70
     1
  0
APPID
  5
12
330
9
100
AcDbSymbolTableRecord
100
AcDbRegAppTableRecord
  2
ACAD
 70
     0
  0
ENDTAB
  0
TABLE
  2
DIMSTYLE
  5
A
330
0
100
AcDbSymbolTable
 70
     1
100
AcDbDimStyleTable
  0
DIMSTYLE
105
27
330
A
100
AcDbSymbolTableRecord
100
AcDbDimStyleTableRecord
  2
ISO-25
 70
     0
 41
2.5
 42
0.625
 43
3.75
 44
1.25
 73
     0
 74
     0
 77
     1
 78
     8
140
2.5
141
2.5
143
0.0393700787
147
0.625
171
     3
172
     1
178
     0
271
     2
272
     2
274
     3
278
    44
283
     0
284
     8
340
11
  0
ENDTAB
  0
TABLE
  2
BLOCK_RECORD
  5
1
330
0
100
AcDbSymbolTable
 70
     3
  0
BLOCK_RECORD
  5
1F
330
1
100
AcDbSymbolTableRecord
100
AcDbBlockTableRecord
  2
*Model_Space
340
22
  0
BLOCK_RECORD
  5
1B
330
1
100
AcDbSymbolTableRecord
100
AcDbBlockTableRecord
  2
*Paper_Space
340
1E
  0
BLOCK_RECORD
  5
23
330
1
100
AcDbSymbolTableRecord
100
AcDbBlockTableRecord
  2
*Paper_Space0
340
26
  0
BLOCK_RECORD
  5
186
330
1
100
AcDbSymbolTableRecord
100
AcDbBlockTableRecord
  2
SW_CENTERMARKSYMBOL_0
340
0
102
{BLKREFS
331
191
102
}
  0
BLOCK_RECORD
  5
256
330
1
100
AcDbSymbolTableRecord
100
AcDbBlockTableRecord
  2
SW_CENTERMARKSYMBOL_1
340
0
102
{BLKREFS
331
261
102
}
  0
ENDTAB
  0
ENDSEC
  0
SECTION
  2
BLOCKS
  0
BLOCK
  5
20
330
1F
100
AcDbEntity
  8
0
100
AcDbBlockBegin
  2
*Model_Space
 70
     0
 10
0.0
 20
0.0
 30
0.0
  3
*Model_Space
  1

  0
ENDBLK
  5
21
330
1F
100
AcDbEntity
  8
0
100
AcDbBlockEnd
  0
BLOCK
  5
1C
330
1B
100
AcDbEntity
 67
     1
  8
0
100
AcDbBlockBegin
  2
*Paper_Space
 70
     0
 10
0.0
 20
0.0
 30
0.0
  3
*Paper_Space
  1

  0
ENDBLK
  5
1D
330
1B
100
AcDbEntity
 67
     1
  8
0
100
AcDbBlockEnd
  0
BLOCK
  5
24
330
23
100
AcDbEntity
  8
0
100
AcDbBlockBegin
  2
*Paper_Space0
 70
     0
 10
0.0
 20
0.0
 30
0.0
  3
*Paper_Space0
  1

  0
ENDBLK
  5
25
330
23
100
AcDbEntity
  8
0
100
AcDbBlockEnd
  0
BLOCK
  5
187
330
186
100
AcDbEntity
  8
0
100
AcDbBlockBegin
  2
SW_CENTERMARKSYMBOL_0
 70
     0
 10
0.0
 20
0.0
 30
0.0
  3
SW_CENTERMARKSYMBOL_0
  1

  0
LINE
  5
189
330
186
100
AcDbEntity
  8
0
  6
Continuous
 62
     0
370
    18
100
AcDbLine
 10
0.0
 20
0.0
 30
0.0
 11
0.0
 21
2.5
 31
0.0
  0
LINE
  5
18A
330
186
100
AcDbEntity
  8
0
  6
Continuous
 62
     0
370
    18
100
AcDbLine
 10
0.0
 20
0.0
 30
0.0
 11
-2.5
 21
0.0
 31
0.0
  0
LINE
  5
18B
330
186
100
AcDbEntity
  8
0
  6
Continuous
 62
     0
370
    18
100
AcDbLine
 10
0.0
 20
0.0
 30
0.0
 11
0.0
 21
-2.5
 31
0.0
  0
LINE
  5
18C
330
186
100
AcDbEntity
  8
0
  6
Continuous
 62
     0
370
    18
100
AcDbLine
 10
0.0
 20
0.0
 30
0.0
 11
2.5
 21
0.0
 31
0.0
  0
LINE
  5
18D
330
186
100
AcDbEntity
  8
0
  6
Continuous
 62
     0
370
    18
100
AcDbLine
 10
0.0
 20
5.0
 30
0.0
 11
0.0
 21
30.9132143593
 31
0.0
  0
LINE
  5
18E
330
186
100
AcDbEntity
  8
0
  6
Continuous
 62
     0
370
    18
100
AcDbLine
 10
-5.0
 20
0.0
 30
0.0
 11
-12.5
 21
0.0
 31
0.0
  0
LINE
  5
18F
330
186
100
AcDbEntity
  8
0
  6
Continuous
 62
     0
370
    18
100
AcDbLine
 10
0.0
 20
-5.0
 30
0.0
 11
0.0
 21
-12.5
 31
0.0
  0
LINE
  5
190
330
186
100
AcDbEntity
  8
0
  6
Continuous
 62
     0
370
    18
100
AcDbLine
 10
5.0
 20
0.0
 30
0.0
 11
12.5
 21
0.0
 31
0.0
  0
ENDBLK
  5
188
330
186
100
AcDbEntity
  8
0
100
AcDbBlockEnd
  0
BLOCK
  5
257
330
256
100
AcDbEntity
  8
0
100
AcDbBlockBegin
  2
SW_CENTERMARKSYMBOL_1
 70
     0
 10
0.0
 20
0.0
 30
0.0
  3
SW_CENTERMARKSYMBOL_1
  1

  0
LINE
  5
259
330
256
100
AcDbEntity
  8
0
  6
Continuous
 62
     0
370
    18
100
AcDbLine
 10
0.0
 20
0.0
 30
0.0
 11
0.0
 21
2.5
 31
0.0
  0
LINE
  5
25A
330
256
100
AcDbEntity
  8
0
  6
Continuous
 62
     0
370
    18
100
AcDbLine
 10
0.0
 20
0.0
 30
0.0
 11
-2.5
 21
0.0
 31
0.0
  0
LINE
  5
25B
330
256
100
AcDbEntity
  8
0
  6
Continuous
 62
     0
370
    18
100
AcDbLine
 10
0.0
 20
0.0
 30
0.0
 11
0.0
 21
-2.5
 31
0.0
  0
LINE
  5
25C
330
256
100
AcDbEntity
  8
0
  6
Continuous
 62
     0
370
    18
100
AcDbLine
 10
0.0
 20
0.0
 30
0.0
 11
2.5
 21
0.0
 31
0.0
  0
LINE
  5
25D
330
256
100
AcDbEntity
  8
0
  6
Continuous
 62
     0
370
    18
100
AcDbLine
 10
0.0
 20
5.0
 30
0.0
 11
0.0
 21
9.7075312529
 31
0.0
  0
LINE
  5
25E
330
256
100
AcDbEntity
  8
0
  6
Continuous
 62
     0
370
    18
100
AcDbLine
 10
-5.0
 20
0.0
 30
0.0
 11
-21.6584101224
 21
0.0
 31
0.0
  0
LINE
  5
25F
330
256
100
AcDbEntity
  8
0
  6
Continuous
 62
     0
370
    18
100
AcDbLine
 10
0.0
 20
-5.0
 30
0.0
 11
0.0
 21
-9.7075312529
 31
0.0
  0
LINE
  5
260
330
256
100
AcDbEntity
  8
0
  6
Continuous
 62
     0
370
    18
100
AcDbLine
 10
5.0
 20
0.0
 30
0.0
 11
41.34302853
 21
0.0
 31
0.0
  0
ENDBLK
  5
258
330
256
100
AcDbEntity
  8
0
100
AcDbBlockEnd
  0
ENDSEC
  0
SECTION
  2
ENTITIES
  0
MTEXT
  5
74
330
1F
100
AcDbEntity
  8
0
  6
Continuous
 62
     7
370
     0
100
AcDbMText
 10
145.5200935881
 20
109.8882779237
 30
0.0
 40
3.5
 41
0.0
 71
     1
 72
     1
  1
エースボール　BH-1210
  7
SLDTEXTSTYLE0
 73
     1
 44
1.0
  0
LINE
  5
75
330
1F
100
AcDbEntity
  8
0
  6
Continuous
 62
     7
370
    25
100
AcDbLine
 10
101.3805427715
 20
88.3161824776
 30
0.0
 11
99.4305428244
 21
80.3161830289
 31
0.0
  0
LINE
  5
76
330
1F
100
AcDbEntity
  8
0
  6
Continuous
 62
     7
370
    25
100
AcDbLine
 10
99.4305428244
 20
80.3161830289
 30
0.0
 11
99.8805425256
 21
72.3161826489
 31
0.0
  0
LINE
  5
77
330
1F
100
AcDbEntity
  8
0
  6
Continuous
 62
     7
370
    25
100
AcDbLine
 10
113.8805429577
 20
72.3161826489
 30
0.0
 11
113.9511991419
 21
73.5723002462
 31
0.0
  0
LINE
  5
78
330
1F
100
AcDbEntity
  8
0
  6
Continuous
 62
     7
370
    25
100
AcDbLine
 10
112.6345195003
 20
87.2742262317
 30
0.0
 11
112.3805427119
 21
88.3161824776
 31
0.0
  0
LINE
  5
79
330
1F
100
AcDbEntity
  8
0
  6
Continuous
 62
     7
370
    25
100
AcDbLine
 10
119.6805424183
 20
53.8161824105
 30
0.0
 11
119.8805430099
 21
54.0161830021
 31
0.0
  0
LINE
  5
7A
330
1F
100
AcDbEntity
  8
0
  6
Continuous
 62
     7
370
    25
100
AcDbLine
 10
119.8805430099
 20
69.6161825789
 30
0.0
 11
119.6805424183
 21
69.8161831705
 31
0.0
  0
LINE
  5
7B
330
1F
100
AcDbEntity
  8
0
  6
Continuous
 62
     7
370
    25
100
AcDbLine
 10
116.8805425182
 20
53.8161824105
 30
0.0
 11
119.6805424183
 21
53.8161824105
 31
0.0
  0
LINE
  5
7C
330
1F
100
AcDbEntity
  8
0
  6
Continuous
 62
     7
370
    25
100
AcDbLine
 10
119.6805424183
 20
69.8161831705
 30
0.0
 11
116.8805425182
 21
69.8161831705
 31
0.0
  0
LINE
  5
7D
330
1F
100
AcDbEntity
  8
0
  6
Continuous
 62
     7
370
    25
100
AcDbLine
 10
133.3805424288
 20
56.5661828613
 30
0.0
 11
137.880542235
 21
57.3161829842
 31
0.0
  0
LINE
  5
7E
330
1F
100
AcDbEntity
  8
0
  6
Continuous
 62
     7
370
    25
100
AcDbLine
 10
137.880542235
 20
66.3161825968
 30
0.0
 11
133.3805424288
 21
67.0661827197
 31
0.0
  0
LINE
  5
7F
330
1F
100
AcDbEntity
  8
0
  6
Continuous
 62
     7
370
    25
100
AcDbLine
 10
142.380543904
 20
56.5661828613
 30
0.0
 11
146.4005419179
 21
57.2361828407
 31
0.0
  0
LINE
  5
80
330
1F
100
AcDbEntity
  8
0
  6
Continuous
 62
     7
370
    25
100
AcDbLine
 10
146.4005419179
 20
66.3961827403
 30
0.0
 11
142.380543904
 21
67.0661827197
 31
0.0
  0
LINE
  5
81
330
1F
100
AcDbEntity
  8
0
  6
Continuous
 62
     7
370
    25
100
AcDbLine
 10
137.880542235
 20
56.5661828613
 30
0.0
 11
142.380543904
 21
57.3161829842
 31
0.0
  0
LINE
  5
82
330
1F
100
AcDbEntity
  8
0
  6
Continuous
 62
     7
370
    25
100
AcDbLine
 10
142.380543904
 20
66.3161825968
 30
0.0
 11
137.880542235
 21
67.0661827197
 31
0.0
  0
LINE
  5
83
330
1F
100
AcDbEntity
  8
0
  6
Continuous
 62
     7
370
    25
100
AcDbLine
 10
128.8805426225
 20
56.5661828613
 30
0.0
 11
133.3805424288
 21
57.3161829842
 31
0.0
  0
LINE
  5
84
330
1F
100
AcDbEntity
  8
0
  6
Continuous
 62
     7
370
    25
100
AcDbLine
 10
133.3805424288
 20
66.3161825968
 30
0.0
 11
128.8805426225
 21
67.0661827197
 31
0.0
  0
LINE
  5
85
330
1F
100
AcDbEntity
  8
0
  6
Continuous
 62
     7
370
    25
100
AcDbLine
 10
119.8805430099
 20
56.5661828613
 30
0.0
 11
124.3805428162
 21
56.5661828613
 31
0.0
  0
LINE
  5
86
330
1F
100
AcDbEntity
  8
0
  6
Continuous
 62
     7
370
    25
100
AcDbLine
 10
124.3805428162
 20
67.0661827197
 30
0.0
 11
119.8805430099
 21
67.0661827197
 31
0.0
  0
LINE
  5
87
330
1F
100
AcDbEntity
  8
0
  6
Continuous
 62
     7
370
    25
100
AcDbLine
 10
124.3805428162
 20
56.5661828613
 30
0.0
 11
128.8805426225
 21
57.3161829842
 31
0.0
  0
LINE
  5
88
330
1F
100
AcDbEntity
  8
0
  6
Continuous
 62
     7
370
    25
100
AcDbLine
 10
128.8805426225
 20
66.3161825968
 30
0.0
 11
124.3805428162
 21
67.0661827197
 31
0.0
  0
LINE
  5
89
330
1F
100
AcDbEntity
  8
0
  6
Continuous
 62
     7
370
    25
100
AcDbLine
 10
146.4005419179
 20
57.2361828407
 30
0.0
 11
146.8805418476
 21
57.7161827704
 31
0.0
  0
LINE
  5
8A
330
1F
100
AcDbEntity
  8
0
  6
Continuous
 62
     7
370
    25
100
AcDbLine
 10
146.8805418476
 20
65.9161828106
 30
0.0
 11
146.4005419179
 21
66.3961827403
 31
0.0
  0
LINE
  5
8B
330
1F
100
AcDbEntity
  8
0
  6
Continuous
 62
     7
370
    25
100
AcDbLine
 10
97.3805430472
 20
51.816183014
 30
0.0
 11
98.9985763222
 21
51.816183014
 31
0.0
  0
LINE
  5
8C
330
1F
100
AcDbEntity
  8
0
  6
Continuous
 62
     7
370
    25
100
AcDbLine
 10
98.9985763222
 20
71.816182567
 30
0.0
 11
97.3805430472
 21
71.816182567
 31
0.0
  0
ARC
  5
8D
330
1F
100
AcDbEntity
  8
0
  6
Continuous
 62
     7
370
    25
100
AcDbCircle
 10
97.8805427417
 20
52.8161827905
 30
0.0
 40
1.5
100
AcDbArc
 50
318.1896851042
 51
0.0
  0
ARC
  5
8E
330
1F
100
AcDbEntity
  8
0
  6
Continuous
 62
     7
370
    25
100
AcDbCircle
 10
97.8805427417
 20
70.8161827905
 30
0.0
 40
1.5
100
AcDbArc
 50
0.0
 51
41.8103148958
  0
ARC
  5
8F
330
1F
100
AcDbEntity
  8
0
  6
Continuous
 62
     7
370
    25
100
AcDbCircle
 10
115.8805427417
 20
70.8161827905
 30
0.0
 40
1.499999999999994
100
AcDbArc
 50
138.1896851042
 51
180.0
  0
ARC
  5
90
330
1F
100
AcDbEntity
  8
0
  6
Continuous
 62
     7
370
    25
100
AcDbCircle
 10
115.8805427417
 20
52.8161827905
 30
0.0
 40
1.499999999999998
100
AcDbArc
 50
180.0
 51
221.8103148958
  0
LINE
  5
91
330
1F
100
AcDbEntity
  8
0
  6
Continuous
 62
     7
370
    25
100
AcDbLine
 10
116.6305429428
 20
51.816183014
 30
0.0
 11
116.8805425182
 21
52.0661825893
 31
0.0
  0
LINE
  5
92
330
1F
100
AcDbEntity
  8
0
  6
Continuous
 62
     7
370
    25
100
AcDbLine
 10
116.8805425182
 20
71.5661829917
 30
0.0
 11
116.6305429428
 21
71.816182567
 31
0.0
  0
LINE
  5
93
330
1F
100
AcDbEntity
  8
0
  6
Continuous
 62
     7
370
    25
100
AcDbLine
 10
97.3805430472
 20
71.816182567
 30
0.0
 11
96.8805429652
 21
71.316182485
 31
0.0
  0
LINE
  5
94
330
1F
100
AcDbEntity
  8
0
  6
Continuous
 62
     7
370
    25
100
AcDbLine
 10
96.8805429652
 20
52.316183096
 30
0.0
 11
97.3805430472
 21
51.816183014
 31
0.0
  0
LINE
  5
95
330
1F
100
AcDbEntity
  8
0
  6
Continuous
 62
     7
370
    25
100
AcDbLine
 10
116.6305429428
 20
71.816182567
 30
0.0
 11
114.7625091612
 21
71.816182567
 31
0.0
  0
LINE
  5
96
330
1F
100
AcDbEntity
  8
0
  6
Continuous
 62
     7
370
    25
100
AcDbLine
 10
114.7625091612
 20
51.816183014
 30
0.0
 11
116.6305429428
 21
51.816183014
 31
0.0
  0
ARC
  5
97
330
1F
100
AcDbEntity
  8
0
  6
Continuous
 62
     7
370
    25
100
AcDbCircle
 10
113.8805427417
 20
52.8161827905
 30
0.0
 40
0.5
100
AcDbArc
 50
0.0
 51
90.0
  0
ARC
  5
98
330
1F
100
AcDbEntity
  8
0
  6
Continuous
 62
     7
370
    25
100
AcDbCircle
 10
99.8805427417
 20
52.8161827905
 30
0.0
 40
0.5
100
AcDbArc
 50
90.0
 51
180.0
  0
ARC
  5
99
330
1F
100
AcDbEntity
  8
0
  6
Continuous
 62
     7
370
    25
100
AcDbCircle
 10
99.8805427417
 20
70.8161827905
 30
0.0
 40
0.5
100
AcDbArc
 50
180.0
 51
270.0
  0
ARC
  5
9A
330
1F
100
AcDbEntity
  8
0
  6
Continuous
 62
     7
370
    25
100
AcDbCircle
 10
113.8805427417
 20
70.8161827905
 30
0.0
 40
0.5
100
AcDbArc
 50
270.0
 51
0.0
  0
LINE
  5
9B
330
1F
100
AcDbEntity
  8
0
  6
Continuous
 62
     7
370
    25
100
AcDbLine
 10
96.8805429652
 20
68.5605121424
 30
0.0
 11
89.0446686312
 21
68.3156408949
 31
0.0
  0
LINE
  5
9C
330
1F
100
AcDbEntity
  8
0
  6
Continuous
 62
     7
370
    25
100
AcDbLine
 10
89.0446686312
 20
55.3167246861
 30
0.0
 11
96.8805429652
 21
55.0718534386
 31
0.0
  0
LINE
  5
9D
330
1F
100
AcDbEntity
  8
0
  6
Continuous
 62
     7
370
    25
100
AcDbLine
 10
100.4805429034
 20
70.3161832524
 30
0.0
 11
99.8805425256
 21
70.3161832524
 31
0.0
  0
LINE
  5
9E
330
1F
100
AcDbEntity
  8
0
  6
Continuous
 62
     7
370
    25
100
AcDbLine
 10
113.8805429577
 20
70.3161832524
 30
0.0
 11
113.2628637492
 21
70.3161832524
 31
0.0
  0
LINE
  5
9F
330
1F
100
AcDbEntity
  8
0
  6
Continuous
 62
     7
370
    25
100
AcDbLine
 10
99.8805425256
 20
53.3161823286
 30
0.0
 11
113.8805429577
 21
53.3161823286
 31
0.0
  0
LINE
  5
A0
330
1F
100
AcDbEntity
  8
0
  6
Continuous
 62
     7
370
    25
100
AcDbLine
 10
89.0446686312
 20
68.3156408949
 30
0.0
 11
86.8805431887
 21
67.0661827197
 31
0.0
  0
LINE
  5
A1
330
1F
100
AcDbEntity
  8
0
  6
Continuous
 62
     7
370
    25
100
AcDbLine
 10
86.8805431887
 20
56.5661828613
 30
0.0
 11
89.0446686312
 21
55.3167246861
 31
0.0
  0
SPLINE
  5
A2
330
1F
100
AcDbEntity
  8
0
  6
Continuous
 62
     7
370
    25
100
AcDbSpline
210
0.0
220
0.0
230
1.0
 70
     8
 71
     3
 72
    14
 73
    10
 74
     0
 42
0.000000001
 43
0.00000001
 40
0.0
 40
0.0
 40
0.0
 40
0.0
 40
0.0218925567044549
 40
0.1995265698952237
 40
0.3777123680513973
 40
0.5663665278760555
 40
0.769532402781882
 40
0.9412882251936303
 40
1.0
 40
1.0
 40
1.0
 40
1.0
 10
113.2624940141698
 20
70.31805241683986
 30
0.0
 10
113.2569976720183
 20
70.3177450755243
 30
0.0
 10
113.2069045599494
 20
70.31494399754558
 30
0.0
 10
113.1126556725098
 20
70.34054323977962
 30
0.0
 10
112.9895261332503
 20
70.40116819252812
 30
0.0
 10
112.8827776061956
 20
70.50076048578381
 30
0.0
 10
112.8125350335828
 20
70.62516956868522
 30
0.0
 10
112.781593973827
 20
70.73217538301091
 30
0.0
 10
112.7832717908931
 20
70.79018110647931
 30
0.0
 10
112.7836992159149
 20
70.80495810339715
 30
0.0
  0
SPLINE
  5
A3
330
1F
100
AcDbEntity
  8
0
  6
Continuous
 62
     7
370
    25
100
AcDbSpline
210
0.0
220
0.0
230
1.0
 70
     8
 71
     3
 72
    14
 73
    10
 74
     0
 42
0.000000001
 43
0.00000001
 40
0.0
 40
0.0
 40
0.0
 40
0.0
 40
0.1261757386517774
 40
0.3043767501909392
 40
0.4873839947522152
 40
0.6669946339429397
 40
0.8215104119778422
 40
0.9578705999709165
 40
0.9999999999999999
 40
0.9999999999999999
 40
0.9999999999999999
 40
0.9999999999999999
 10
100.9777993090114
 20
70.81616377661493
 30
0.0
 10
100.9769728887244
 20
70.78305046899476
 30
0.0
 10
100.9749792953133
 20
70.70317044555127
 30
0.0
 10
100.9289737482983
 20
70.58146235573908
 30
0.0
 10
100.8463104744053
 20
70.465173753423
 30
0.0
 10
100.7380348221428
 20
70.38049327869177
 30
0.0
 10
100.6237367017811
 20
70.33351725444537
 30
0.0
 10
100.5372407968739
 20
70.31525417100127
 30
0.0
 10
100.4905949812847
 20
70.31761902978701
 30
0.0
 10
100.4795850380918
 20
70.31817721406486
 30
0.0
  0
LINE
  5
A4
330
1F
100
AcDbEntity
  8
0
  6
Continuous
 62
     7
370
    25
100
AcDbLine
 10
112.7805429637
 20
70.8049124686
 30
0.0
 11
112.7805429637
 21
72.3161826489
 31
0.0
  0
LINE
  5
A5
330
1F
100
AcDbEntity
  8
0
  6
Continuous
 62
     7
370
    25
100
AcDbLine
 10
100.9805425197
 20
72.3161826489
 30
0.0
 11
100.9805425197
 21
70.8161824031
 31
0.0
  0
LINE
  5
A6
330
1F
100
AcDbEntity
  8
0
  6
Continuous
 62
     7
370
    25
100
AcDbLine
 10
101.6414574474
 20
88.916183321
 30
0.0
 11
101.6414574474
 21
88.3161824776
 31
0.0
  0
LINE
  5
A7
330
1F
100
AcDbEntity
  8
0
  6
Continuous
 62
     7
370
    25
100
AcDbLine
 10
112.119628036
 20
88.916183321
 30
0.0
 11
101.6414574474
 21
88.916183321
 31
0.0
  0
LINE
  5
A8
330
1F
100
AcDbEntity
  8
0
  6
Continuous
 62
     7
370
    25
100
AcDbLine
 10
112.119628036
 20
88.3161824776
 30
0.0
 11
112.119628036
 21
88.916183321
 31
0.0
  0
LINE
  5
A9
330
1F
100
AcDbEntity
  8
0
  6
Continuous
 62
     7
370
    25
100
AcDbLine
 10
101.6414574474
 20
88.3161824776
 30
0.0
 11
112.119628036
 21
88.3161824776
 31
0.0
  0
SPLINE
  5
AA
330
1F
100
AcDbEntity
  8
0
  6
Continuous
 62
     7
370
    25
100
AcDbSpline
210
0.0
220
0.0
230
1.0
 70
     8
 71
     3
 72
    15
 73
    11
 74
     0
 42
0.000000001
 43
0.00000001
 40
0.0
 40
0.0
 40
0.0
 40
0.0
 40
0.0081668554937291
 40
0.3321941846999776
 40
0.4756279332062201
 40
0.6866839627273442
 40
0.8457444903091523
 40
0.8967583891412989
 40
0.9909563331444947
 40
1.0
 40
1.0
 40
1.0
 40
1.0
 10
101.7815232403239
 20
89.16618196497228
 30
0.0
 10
101.7810356766428
 20
89.166179565113
 30
0.0
 10
101.7612035858641
 20
89.16608194868044
 30
0.0
 10
101.7329243923462
 20
89.15652268010952
 30
0.0
 10
101.6950942240637
 20
89.11916484016865
 30
0.0
 10
101.668511211259
 20
89.07429674448683
 30
0.0
 10
101.6513402156182
 20
89.01642117760845
 30
0.0
 10
101.6435239928826
 20
88.96574446887001
 30
0.0
 10
101.6415289070938
 20
88.93705048473615
 30
0.0
 10
101.6414632028756
 20
88.91786400148291
 30
0.0
 10
101.6414574473759
 20
88.91618332097795
 30
0.0
  0
LINE
  5
AB
330
1F
100
AcDbEntity
  8
0
  6
Continuous
 62
     7
370
    25
100
AcDbLine
 10
101.7815232403
 20
89.166181965
 30
0.0
 11
111.979562243
 21
89.166181965
 31
0.0
  0
SPLINE
  5
AC
330
1F
100
AcDbEntity
  8
0
  6
Continuous
 62
     7
370
    25
100
AcDbSpline
210
0.0
220
0.0
230
1.0
 70
     8
 71
     3
 72
    15
 73
    11
 74
     0
 42
0.000000001
 43
0.00000001
 40
0.0
 40
0.0
 40
0.0
 40
0.0
 40
0.0090436668555053
 40
0.1032416108587011
 40
0.1542555096908477
 40
0.3133160372726557
 40
0.5243720667937798
 40
0.6678058153000223
 40
0.9918331445062708
 40
0.9999999999999999
 40
0.9999999999999999
 40
0.9999999999999999
 40
0.9999999999999999
 10
112.1196280359885
 20
88.91618332097795
 30
0.0
 10
112.1196222804888
 20
88.91786400148291
 30
0.0
 10
112.1195565762706
 20
88.93705048473615
 30
0.0
 10
112.1175614904818
 20
88.96574446887003
 30
0.0
 10
112.1097452677462
 20
89.01642117760845
 30
0.0
 10
112.0925742721054
 20
89.07429674448683
 30
0.0
 10
112.0659912593007
 20
89.11916484016865
 30
0.0
 10
112.0281610910182
 20
89.15652268010952
 30
0.0
 10
111.9998818975003
 20
89.1660819486804
 30
0.0
 10
111.9800498067216
 20
89.166179565113
 30
0.0
 10
111.9795622430405
 20
89.16618196497228
 30
0.0
  0
LINE
  5
AD
330
1F
100
AcDbEntity
  8
0
  6
Continuous
 62
     7
370
    25
100
AcDbLine
 10
101.4033173337
 20
88.916183321
 30
0.0
 11
101.6414574474
 21
88.916183321
 31
0.0
  0
SPLINE
  5
AE
330
1F
100
AcDbEntity
  8
0
  6
Continuous
 62
     7
370
    25
100
AcDbSpline
210
0.0
220
0.0
230
1.0
 70
     8
 71
     3
 72
    15
 73
    11
 74
     0
 42
0.000000001
 43
0.00000001
 40
0.0
 40
0.0
 40
0.0
 40
0.0
 40
0.0089534934608068
 40
0.0998985020501141
 40
0.1531621750630547
 40
0.3125626131158444
 40
0.524966528186016
 40
0.6689889196484162
 40
0.9919154833883785
 40
0.9999999999999999
 40
0.9999999999999999
 40
0.9999999999999999
 40
0.9999999999999999
 10
101.4033173337242
 20
88.91618332097795
 30
0.0
 10
101.4033329973956
 20
88.9178640287913
 30
0.0
 10
101.4035077646322
 20
88.93661650721461
 30
0.0
 10
101.4089384362326
 20
88.96537826786772
 30
0.0
 10
101.4304721262855
 20
89.01626630173193
 30
0.0
 10
101.4781791725781
 20
89.07440105094595
 30
0.0
 10
101.550568980748
 20
89.11911154731303
 30
0.0
 10
101.6524886463144
 20
89.15638885822005
 30
0.0
 10
101.7278447658314
 20
89.1660812189799
 30
0.0
 10
101.7802434698916
 20
89.16617956304593
 30
0.0
 10
101.7815232403239
 20
89.16618196497228
 30
0.0
  0
LINE
  5
AF
330
1F
100
AcDbEntity
  8
0
  6
Continuous
 62
     7
370
    25
100
AcDbLine
 10
112.119628036
 20
88.916183321
 30
0.0
 11
112.3577681496
 21
88.916183321
 31
0.0
  0
SPLINE
  5
B0
330
1F
100
AcDbEntity
  8
0
  6
Continuous
 62
     7
370
    25
100
AcDbSpline
210
0.0
220
0.0
230
1.0
 70
     8
 71
     3
 72
    15
 73
    11
 74
     0
 42
0.000000001
 43
0.00000001
 40
0.0
 40
0.0
 40
0.0
 40
0.0
 40
0.0080845166116213
 40
0.3310110803515837
 40
0.4750334718139839
 40
0.6874373868841556
 40
0.8468378249369453
 40
0.9001014979498858
 40
0.9910465065391931
 40
0.9999999999999999
 40
0.9999999999999999
 40
0.9999999999999999
 40
0.9999999999999999
 10
111.9795622430405
 20
89.16618196497228
 30
0.0
 10
111.9808420134728
 20
89.16617956304594
 30
0.0
 10
112.033240717533
 20
89.16608121898
 30
0.0
 10
112.10859683705
 20
89.15638885822003
 30
0.0
 10
112.2105165026164
 20
89.11911154731304
 30
0.0
 10
112.2829063107863
 20
89.07440105094595
 30
0.0
 10
112.3306133570789
 20
89.01626630173192
 30
0.0
 10
112.3521470471318
 20
88.96537826786772
 30
0.0
 10
112.3575777187322
 20
88.93661650721465
 30
0.0
 10
112.3577524859688
 20
88.9178640287913
 30
0.0
 10
112.3577681496402
 20
88.91618332097795
 30
0.0
  0
LINE
  5
B1
330
1F
100
AcDbEntity
  8
0
  6
Continuous
 62
     7
370
    25
100
AcDbLine
 10
101.4033173337
 20
88.3161824776
 30
0.0
 11
101.4033173337
 21
88.916183321
 31
0.0
  0
LINE
  5
B2
330
1F
100
AcDbEntity
  8
0
  6
Continuous
 62
     7
370
    25
100
AcDbLine
 10
101.6414574474
 20
88.3161824776
 30
0.0
 11
101.4033173337
 21
88.3161824776
 31
0.0
  0
LINE
  5
B3
330
1F
100
AcDbEntity
  8
0
  6
Continuous
 62
     7
370
    25
100
AcDbLine
 10
112.3577681496
 20
88.916183321
 30
0.0
 11
112.3577681496
 21
88.3161824776
 31
0.0
  0
LINE
  5
B4
330
1F
100
AcDbEntity
  8
0
  6
Continuous
 62
     7
370
    25
100
AcDbLine
 10
112.3577681496
 20
88.3161824776
 30
0.0
 11
112.119628036
 21
88.3161824776
 31
0.0
  0
LINE
  5
B5
330
1F
100
AcDbEntity
  8
0
  6
Continuous
 62
     7
370
    25
100
AcDbLine
 10
101.1305427305
 20
88.916183321
 30
0.0
 11
101.1305427305
 21
88.3161824776
 31
0.0
  0
LINE
  5
B6
330
1F
100
AcDbEntity
  8
0
  6
Continuous
 62
     7
370
    25
100
AcDbLine
 10
101.4033173337
 20
88.916183321
 30
0.0
 11
101.1305427305
 21
88.916183321
 31
0.0
  0
LINE
  5
B7
330
1F
100
AcDbEntity
  8
0
  6
Continuous
 62
     7
370
    25
100
AcDbLine
 10
101.4033173337
 20
88.3161824776
 30
0.0
 11
101.1305427305
 21
88.3161824776
 31
0.0
  0
LINE
  5
B8
330
1F
100
AcDbEntity
  8
0
  6
Continuous
 62
     7
370
    25
100
AcDbLine
 10
100.8805426895
 20
88.916183321
 30
0.0
 11
101.1305427305
 21
88.916183321
 31
0.0
  0
ARC
  5
B9
330
1F
100
AcDbEntity
  8
0
  6
Continuous
 62
     7
370
    25
100
AcDbCircle
 10
101.1305427417
 20
88.9161827905
 30
0.0
 40
0.25
100
AcDbArc
 50
90.0
 51
180.0
  0
LINE
  5
BA
330
1F
100
AcDbEntity
  8
0
  6
Continuous
 62
     7
370
    25
100
AcDbLine
 10
101.1305427305
 20
89.166181965
 30
0.0
 11
101.1305427305
 21
88.916183321
 31
0.0
  0
LINE
  5
BB
330
1F
100
AcDbEntity
  8
0
  6
Continuous
 62
     7
370
    25
100
AcDbLine
 10
100.8805426895
 20
88.3161824776
 30
0.0
 11
100.8805426895
 21
88.916183321
 31
0.0
  0
LINE
  5
BC
330
1F
100
AcDbEntity
  8
0
  6
Continuous
 62
     7
370
    25
100
AcDbLine
 10
101.1305427305
 20
88.3161824776
 30
0.0
 11
100.8805426895
 21
88.3161824776
 31
0.0
  0
LINE
  5
BD
330
1F
100
AcDbEntity
  8
0
  6
Continuous
 62
     7
370
    25
100
AcDbLine
 10
101.1305427305
 20
89.166181965
 30
0.0
 11
101.7815232403
 21
89.166181965
 31
0.0
  0
LINE
  5
BE
330
1F
100
AcDbEntity
  8
0
  6
Continuous
 62
     7
370
    25
100
AcDbLine
 10
112.6305427529
 20
88.916183321
 30
0.0
 11
112.6305427529
 21
89.166181965
 31
0.0
  0
LINE
  5
BF
330
1F
100
AcDbEntity
  8
0
  6
Continuous
 62
     7
370
    25
100
AcDbLine
 10
112.6305427529
 20
88.916183321
 30
0.0
 11
112.3577681496
 21
88.916183321
 31
0.0
  0
LINE
  5
C0
330
1F
100
AcDbEntity
  8
0
  6
Continuous
 62
     7
370
    25
100
AcDbLine
 10
111.979562243
 20
89.166181965
 30
0.0
 11
112.6305427529
 21
89.166181965
 31
0.0
  0
LINE
  5
C1
330
1F
100
AcDbEntity
  8
0
  6
Continuous
 62
     7
370
    25
100
AcDbLine
 10
112.6305427529
 20
88.3161824776
 30
0.0
 11
112.6305427529
 21
88.916183321
 31
0.0
  0
LINE
  5
C2
330
1F
100
AcDbEntity
  8
0
  6
Continuous
 62
     7
370
    25
100
AcDbLine
 10
112.6305427529
 20
88.916183321
 30
0.0
 11
112.8805427938
 21
88.916183321
 31
0.0
  0
LINE
  5
C3
330
1F
100
AcDbEntity
  8
0
  6
Continuous
 62
     7
370
    25
100
AcDbLine
 10
112.8805427938
 20
88.916183321
 30
0.0
 11
112.8805427938
 21
88.3161824776
 31
0.0
  0
LINE
  5
C4
330
1F
100
AcDbEntity
  8
0
  6
Continuous
 62
     7
370
    25
100
AcDbLine
 10
112.8805427938
 20
88.3161824776
 30
0.0
 11
112.6305427529
 21
88.3161824776
 31
0.0
  0
ARC
  5
C5
330
1F
100
AcDbEntity
  8
0
  6
Continuous
 62
     7
370
    25
100
AcDbCircle
 10
112.6305427417
 20
88.9161827905
 30
0.0
 40
0.25
100
AcDbArc
 50
0.0
 51
90.0
  0
LINE
  5
C6
330
1F
100
AcDbEntity
  8
0
  6
Continuous
 62
     7
370
    25
100
AcDbLine
 10
112.6305427529
 20
88.3161824776
 30
0.0
 11
112.3577681496
 21
88.3161824776
 31
0.0
  0
LINE
  5
C7
330
1F
100
AcDbEntity
  8
0
  6
Continuous
 62
     7
370
    25
100
AcDbLine
 10
101.8805428534
 20
89.1761825068
 30
0.0
 11
111.8805426299
 21
89.1761825068
 31
0.0
  0
LINE
  5
C8
330
1F
100
AcDbEntity
  8
0
  6
Continuous
 62
     7
370
    25
100
AcDbLine
 10
101.8805428534
 20
89.166181965
 30
0.0
 11
101.8805428534
 21
89.1761825068
 31
0.0
  0
LINE
  5
C9
330
1F
100
AcDbEntity
  8
0
  6
Continuous
 62
     7
370
    25
100
AcDbLine
 10
111.8805426299
 20
89.166181965
 30
0.0
 11
111.8805426299
 21
89.1761825068
 31
0.0
  0
LINE
  5
CA
330
1F
100
AcDbEntity
  8
0
  6
Continuous
 62
     7
370
    25
100
AcDbLine
 10
99.4305428244
 20
80.3161830289
 30
0.0
 11
111.355089502
 21
80.3161830289
 31
0.0
  0
LINE
  5
CB
330
1F
100
AcDbEntity
  8
0
  6
Continuous
 62
     7
370
    25
100
AcDbLine
 10
112.1043450325
 20
88.3161824776
 30
0.0
 11
101.6414574474
 21
88.3161824776
 31
0.0
  0
LINE
  5
CC
330
1F
100
AcDbEntity
  8
0
  6
Continuous
 62
     7
370
    25
100
AcDbLine
 10
113.8324834533
 20
81.3109268082
 30
0.0
 11
112.1043450325
 21
88.3161824776
 31
0.0
  0
SPLINE
  5
CD
330
1F
100
AcDbEntity
  8
0
  6
Continuous
 62
     7
370
    25
100
AcDbSpline
210
0.0
220
0.0
230
1.0
 70
     8
 71
     3
 72
     9
 73
     5
 74
     0
 42
0.000000001
 43
0.00000001
 40
0.0
 40
0.0
 40
0.0
 40
0.0
 40
0.4983244219185156
 40
1.0
 40
1.0
 40
1.0
 40
1.0
 10
111.3550895020029
 20
80.3161830289152
 30
0.0
 10
111.2389791273512
 20
80.48997490862747
 30
0.0
 10
111.0059775533873
 20
80.83872739208631
 30
0.0
 10
110.7322175379977
 20
81.15317574765841
 30
0.0
 10
110.5948788240215
 20
81.31092680821683
 30
0.0
  0
LINE
  5
CE
330
1F
100
AcDbEntity
  8
0
  6
Continuous
 62
     7
370
    25
100
AcDbLine
 10
108.8805428367
 20
72.3161826489
 30
0.0
 11
108.8805428367
 21
72.3539999334
 31
0.0
  0
LINE
  5
CF
330
1F
100
AcDbEntity
  8
0
  6
Continuous
 62
     7
370
    25
100
AcDbLine
 10
99.8805425256
 20
72.3161826489
 30
0.0
 11
108.8805428367
 21
72.3161826489
 31
0.0
  0
SPLINE
  5
D0
330
1F
100
AcDbEntity
  8
0
  6
Continuous
 62
     7
370
    25
100
AcDbSpline
210
0.0
220
0.0
230
1.0
 70
     8
 71
     3
 72
    17
 73
    13
 74
     0
 42
0.000000001
 43
0.00000001
 40
0.0
 40
0.0
 40
0.0
 40
0.0
 40
0.015561846449589
 40
0.0359292690912283
 40
0.0739045690777559
 40
0.1292602803021116
 40
0.184993852391363
 40
0.2407361090911398
 40
0.4593513138619285
 40
0.6784168665902561
 40
0.8975060046930645
 40
1.0
 40
1.0
 40
1.0
 40
1.0
 10
109.0364879123529
 20
72.31618264893558
 30
0.0
 10
109.078880361076
 20
72.32137552450155
 30
0.0
 10
109.1767562591925
 20
72.33336486163908
 30
0.0
 10
109.3502228329065
 20
72.4517039900807
 30
0.0
 10
109.5499719930251
 20
72.70181664250774
 30
0.0
 10
109.7521583078095
 20
73.07272127256194
 30
0.0
 10
109.9271750849203
 20
73.51254150992845
 30
0.0
 10
110.2176328406635
 20
74.40395913914065
 30
0.0
 10
110.5777273039205
 20
75.76220528822103
 30
0.0
 10
110.9280889290127
 20
77.60046528426133
 30
0.0
 10
111.1718188910231
 20
79.12164647769335
 30
0.0
 10
111.3107953491951
 20
80.02747888671023
 30
0.0
 10
111.3550895020029
 20
80.3161830289152
 30
0.0
  0
SPLINE
  5
D1
330
1F
100
AcDbEntity
  8
0
  6
Continuous
 62
     7
370
    25
100
AcDbSpline
210
0.0
220
0.0
230
1.0
 70
     8
 71
     3
 72
     9
 73
     5
 74
     0
 42
0.000000001
 43
0.00000001
 40
0.0
 40
0.0
 40
0.0
 40
0.0
 40
0.5124863176752154
 40
1.0
 40
1.0
 40
1.0
 40
1.0
 10
108.8805428366771
 20
72.35399993340042
 30
0.0
 10
108.9061853653981
 20
72.34297214458184
 30
0.0
 10
108.9562209035902
 20
72.32145393338624
 30
0.0
 10
109.0101814215448
 20
72.3179102453427
 30
0.0
 10
109.0364879123529
 20
72.31618264893558
 30
0.0
  0
LINE
  5
D2
330
1F
100
AcDbEntity
  8
0
  6
Continuous
 62
     7
370
    25
100
AcDbLine
 10
110.594878824
 20
81.3109268082
 30
0.0
 11
129.0559795811
 21
81.3109268082
 31
0.0
  0
LINE
  5
D3
330
1F
100
AcDbEntity
  8
0
  6
Continuous
 62
     7
370
    25
100
AcDbLine
 10
129.0559795811
 20
81.3109268082
 30
0.0
 11
129.0559795811
 21
78.068357764
 31
0.0
  0
SPLINE
  5
D4
330
1F
100
AcDbEntity
  8
0
  6
Continuous
 62
     7
370
    25
100
AcDbSpline
210
0.0
220
0.0
230
1.0
 70
     8
 71
     3
 72
    11
 73
     7
 74
     0
 42
0.000000001
 43
0.00000001
 40
0.0
 40
0.0
 40
0.0
 40
0.0
 40
0.248860712681952
 40
0.4977192115733558
 40
0.7488602656597823
 40
1.0
 40
1.0
 40
1.0
 40
1.0
 10
121.9855862795969
 20
76.74515793303517
 30
0.0
 10
122.5621791689072
 20
76.89463697006109
 30
0.0
 10
123.7153598183298
 20
77.19359371439207
 30
0.0
 10
125.4762741068265
 20
77.55539747322617
 30
0.0
 10
127.2562526608329
 20
77.85767253265499
 30
0.0
 10
128.4560716585509
 20
77.99812947655852
 30
0.0
 10
129.0559795811435
 20
78.06835776398447
 30
0.0
  0
LWPOLYLINE
  5
D5
330
1F
100
AcDbEntity
  8
0
  6
Continuous
 62
     7
370
    25
100
AcDbPolyline
 90
        4
 70
   128
 43
0.0
 10
121.9855862796
 20
76.745157933
 10
120.0503147334
 20
76.2199273912
 10
118.1231512814
 20
75.6968966333
 10
116.2058291152
 20
75.1765369085
  0
SPLINE
  5
D6
330
1F
100
AcDbEntity
  8
0
  6
Continuous
 62
     7
370
    25
100
AcDbSpline
210
0.0
220
0.0
230
1.0
 70
     8
 71
     3
 72
    13
 73
     9
 74
     0
 42
0.000000001
 43
0.00000001
 40
0.0
 40
0.0
 40
0.0
 40
0.0
 40
0.1610294667108458
 40
0.3266881201944549
 40
0.4877296242753278
 40
0.6535536689976723
 40
0.823760217438079
 40
1.0
 40
1.0
 40
1.0
 40
1.0
 10
116.2058291151782
 20
75.17653690854577
 30
0.0
 10
115.9919590165736
 20
75.10713976449513
 30
0.0
 10
115.5580705990928
 20
74.96635048536604
 30
0.0
 10
114.9667495593367
 20
74.62022642480586
 30
0.0
 10
114.4328185978906
 20
74.18101909618653
 30
0.0
 10
113.9791348447605
 20
73.64741748952771
 30
0.0
 10
113.6046809005291
 20
73.02359117288427
 30
0.0
 10
113.4561179402879
 20
72.55470730304015
 30
0.0
 10
113.3805428757926
 20
72.31618264893558
 30
0.0
  0
LINE
  5
D7
330
1F
100
AcDbEntity
  8
0
  6
Continuous
 62
     7
370
    25
100
AcDbLine
 10
113.3805428758
 20
72.3161826489
 30
0.0
 11
109.0364879124
 21
72.3161826489
 31
0.0
  0
LINE
  5
D8
330
1F
100
AcDbEntity
  8
0
  6
Continuous
 62
     7
370
    25
100
AcDbLine
 10
108.88734219
 20
72.3161826489
 30
0.0
 11
108.8805428367
 21
72.3539999334
 31
0.0
  0
LINE
  5
D9
330
1F
100
AcDbEntity
  8
0
  6
Continuous
 62
     7
370
    25
100
AcDbLine
 10
108.8805428367
 20
72.3161826489
 30
0.0
 11
108.88734219
 21
72.3161826489
 31
0.0
  0
LINE
  5
DA
330
1F
100
AcDbEntity
  8
0
  6
Continuous
 62
     7
370
    25
100
AcDbLine
 10
109.0364879124
 20
72.3161826489
 30
0.0
 11
108.88734219
 21
72.3161826489
 31
0.0
  0
LINE
  5
DB
330
1F
100
AcDbEntity
  8
0
  6
Continuous
 62
     7
370
    25
100
AcDbLine
 10
129.0559795811
 20
81.3109268082
 30
0.0
 11
129.0559795811
 21
90.3161828054
 31
0.0
  0
LINE
  5
DC
330
1F
100
AcDbEntity
  8
0
  6
Continuous
 62
     7
370
    25
100
AcDbLine
 10
129.0559795811
 20
90.3161828054
 30
0.0
 11
146.8805418476
 21
90.3161828054
 31
0.0
  0
LINE
  5
DD
330
1F
100
AcDbEntity
  8
0
  6
Continuous
 62
     7
370
    25
100
AcDbLine
 10
146.8805418476
 20
90.3161828054
 30
0.0
 11
146.8805418476
 21
83.3161835207
 31
0.0
  0
ARC
  5
DE
330
1F
100
AcDbEntity
  8
0
  6
Continuous
 62
     7
370
    25
100
AcDbCircle
 10
141.8805427417
 20
83.3161827905
 30
0.0
 40
5.0
100
AcDbArc
 50
270.0
 51
0.0
  0
LINE
  5
DF
330
1F
100
AcDbEntity
  8
0
  6
Continuous
 62
     7
370
    25
100
AcDbLine
 10
141.8805428907
 20
78.3161827011
 30
0.0
 11
133.7722101375
 21
78.3161827011
 31
0.0
  0
ARC
  5
E0
330
1F
100
AcDbEntity
  8
0
  6
Continuous
 62
     7
370
    25
100
AcDbCircle
 10
133.7722105994
 20
33.3160535363
 30
0.0
 40
45.00012925418375
100
AcDbArc
 50
90.0
 51
96.0159222295
  0
ARC
  5
E1
330
1F
100
AcDbEntity
  8
0
  6
Continuous
 62
     7
370
    25
100
AcDbCircle
 10
121.2694963059
 20
92.3161827905
 30
0.0
 40
10.00000000000846
100
AcDbArc
 50
203.5781784783
 51
264.4198332155
  0
ARC
  5
E2
330
1F
100
AcDbEntity
  8
0
  6
Continuous
 62
     7
370
    25
100
AcDbCircle
 10
120.8805427417
 20
88.3351383139
 30
0.0
 40
6.000000000000004
100
AcDbArc
 50
264.4198332155
 51
0.0
  0
LINE
  5
E3
330
1F
100
AcDbEntity
  8
0
  6
Continuous
 62
     7
370
    25
100
AcDbLine
 10
126.8805422946
 20
90.3161828054
 30
0.0
 11
126.8805422946
 21
88.3351386173
 31
0.0
  0
LINE
  5
E4
330
1F
100
AcDbEntity
  8
0
  6
Continuous
 62
     7
370
    25
100
AcDbLine
 10
126.8805422946
 20
90.3161828054
 30
0.0
 11
129.0559795811
 21
90.3161828054
 31
0.0
  0
LINE
  5
E5
330
1F
100
AcDbEntity
  8
0
  6
Continuous
 62
     7
370
    25
100
AcDbLine
 10
113.8805429577
 20
72.3161826489
 30
0.0
 11
113.3805428758
 21
72.3161826489
 31
0.0
  0
LINE
  5
E6
330
1F
100
AcDbEntity
  8
0
  6
Continuous
 62
     7
370
    25
100
AcDbLine
 10
112.1043450325
 20
88.3161824776
 30
0.0
 11
112.119628036
 21
88.3161824776
 31
0.0
  0
LINE
  5
E7
330
1F
100
AcDbEntity
  8
0
  6
Continuous
 62
     7
370
    25
100
AcDbLine
 10
119.6805424183
 20
62.857253465
 30
0.0
 11
119.6805424183
 21
69.8161831705
 31
0.0
  0
LINE
  5
E8
330
1F
100
AcDbEntity
  8
0
  6
Continuous
 62
     7
370
    25
100
AcDbLine
 10
119.6805424183
 20
53.8161824105
 30
0.0
 11
119.6805424183
 21
62.857253465
 31
0.0
  0
LINE
  5
E9
330
1F
100
AcDbEntity
  8
0
  6
Continuous
 62
     7
370
    25
100
AcDbLine
 10
119.8805430099
 20
62.8312267244
 30
0.0
 11
119.8805430099
 21
54.0161830021
 31
0.0
  0
LINE
  5
EA
330
1F
100
AcDbEntity
  8
0
  6
Continuous
 62
     7
370
    25
100
AcDbLine
 10
119.8805430099
 20
69.6161825789
 30
0.0
 11
119.8805430099
 21
62.8312267244
 31
0.0
  0
LINE
  5
EB
330
1F
100
AcDbEntity
  8
0
  6
Continuous
 62
     7
370
    25
100
AcDbLine
 10
133.3805424288
 20
62.4993854316
 30
0.0
 11
133.3805424288
 21
67.0661827197
 31
0.0
  0
LINE
  5
EC
330
1F
100
AcDbEntity
  8
0
  6
Continuous
 62
     7
370
    25
100
AcDbLine
 10
133.3805424288
 20
56.5661828613
 30
0.0
 11
133.3805424288
 21
62.4993854316
 31
0.0
  0
LINE
  5
ED
330
1F
100
AcDbEntity
  8
0
  6
Continuous
 62
     7
370
    25
100
AcDbLine
 10
142.380543904
 20
62.4993854316
 30
0.0
 11
142.380543904
 21
67.0661827197
 31
0.0
  0
LINE
  5
EE
330
1F
100
AcDbEntity
  8
0
  6
Continuous
 62
     7
370
    25
100
AcDbLine
 10
142.380543904
 20
56.5661828613
 30
0.0
 11
142.380543904
 21
62.4993854316
 31
0.0
  0
LINE
  5
EF
330
1F
100
AcDbEntity
  8
0
  6
Continuous
 62
     7
370
    25
100
AcDbLine
 10
146.4005419179
 20
57.2361828407
 30
0.0
 11
146.4005419179
 21
66.3961827403
 31
0.0
  0
LINE
  5
F0
330
1F
100
AcDbEntity
  8
0
  6
Continuous
 62
     7
370
    25
100
AcDbLine
 10
137.880542235
 20
62.4993854316
 30
0.0
 11
137.880542235
 21
67.0661827197
 31
0.0
  0
LINE
  5
F1
330
1F
100
AcDbEntity
  8
0
  6
Continuous
 62
     7
370
    25
100
AcDbLine
 10
137.880542235
 20
56.5661828613
 30
0.0
 11
137.880542235
 21
62.4993854316
 31
0.0
  0
LINE
  5
F2
330
1F
100
AcDbEntity
  8
0
  6
Continuous
 62
     7
370
    25
100
AcDbLine
 10
128.8805426225
 20
62.4993854316
 30
0.0
 11
128.8805426225
 21
67.0661827197
 31
0.0
  0
LINE
  5
F3
330
1F
100
AcDbEntity
  8
0
  6
Continuous
 62
     7
370
    25
100
AcDbLine
 10
128.8805426225
 20
56.5661828613
 30
0.0
 11
128.8805426225
 21
62.4993854316
 31
0.0
  0
LINE
  5
F4
330
1F
100
AcDbEntity
  8
0
  6
Continuous
 62
     7
370
    25
100
AcDbLine
 10
124.3805428162
 20
62.4993854316
 30
0.0
 11
124.3805428162
 21
67.0661827197
 31
0.0
  0
LINE
  5
F5
330
1F
100
AcDbEntity
  8
0
  6
Continuous
 62
     7
370
    25
100
AcDbLine
 10
124.3805428162
 20
56.5661828613
 30
0.0
 11
124.3805428162
 21
62.4993854316
 31
0.0
  0
LINE
  5
F6
330
1F
100
AcDbEntity
  8
0
  6
Continuous
 62
     7
370
    25
100
AcDbLine
 10
146.8805418476
 20
62.3497315563
 30
0.0
 11
146.8805418476
 21
57.7161827704
 31
0.0
  0
LINE
  5
F7
330
1F
100
AcDbEntity
  8
0
  6
Continuous
 62
     7
370
    25
100
AcDbLine
 10
146.8805418476
 20
65.9161828106
 30
0.0
 11
146.8805418476
 21
62.3497315563
 31
0.0
  0
LINE
  5
F8
330
1F
100
AcDbEntity
  8
0
  6
Continuous
 62
     7
370
    25
100
AcDbLine
 10
98.9985763222
 20
61.8161827905
 30
0.0
 11
98.9985763222
 21
51.816183014
 31
0.0
  0
LINE
  5
F9
330
1F
100
AcDbEntity
  8
0
  6
Continuous
 62
     7
370
    25
100
AcDbLine
 10
98.9985763222
 20
71.816182567
 30
0.0
 11
98.9985763222
 21
61.8161827905
 31
0.0
  0
LINE
  5
FA
330
1F
100
AcDbEntity
  8
0
  6
Continuous
 62
     7
370
    25
100
AcDbLine
 10
97.3805430472
 20
61.8161827905
 30
0.0
 11
97.3805430472
 21
51.816183014
 31
0.0
  0
LINE
  5
FB
330
1F
100
AcDbEntity
  8
0
  6
Continuous
 62
     7
370
    25
100
AcDbLine
 10
97.3805430472
 20
71.816182567
 30
0.0
 11
97.3805430472
 21
61.8161827905
 31
0.0
  0
LINE
  5
FC
330
1F
100
AcDbEntity
  8
0
  6
Continuous
 62
     7
370
    25
100
AcDbLine
 10
99.3805429093
 20
70.8161824031
 30
0.0
 11
99.3805429093
 21
67.3161827607
 31
0.0
  0
SPLINE
  5
FD
330
1F
100
AcDbEntity
  8
0
  6
Continuous
 62
     7
370
    25
100
AcDbSpline
210
0.0
220
0.0
230
1.0
 70
     8
 71
     3
 72
     8
 73
     4
 74
     0
 42
0.000000001
 43
0.00000001
 40
0.0
 40
0.0
 40
0.0
 40
0.0
 40
1.0
 40
1.0
 40
1.0
 40
1.0
 10
99.28334161702827
 20
67.2158726419925
 30
0.0
 10
99.35117803460435
 20
67.24723558300329
 30
0.0
 10
99.3805427416822
 20
67.28070374365285
 30
0.0
 10
99.3805427416822
 20
67.31618279049661
 30
0.0
  0
SPLINE
  5
FE
330
1F
100
AcDbEntity
  8
0
  6
Continuous
 62
     7
370
    25
100
AcDbSpline
210
0.0
220
0.0
230
1.0
 70
     8
 71
     3
 72
    12
 73
     8
 74
     0
 42
0.000000001
 43
0.00000001
 40
0.0
 40
0.0
 40
0.0
 40
0.0
 40
0.4999999999999992
 40
0.4999999999999992
 40
0.7499999999999996
 40
0.7499999999999996
 40
1.0
 40
1.0
 40
1.0
 40
1.0
 10
99.28334161702827
 20
67.2158726419925
 30
0.0
 10
99.21547185701847
 20
67.18449428571041
 30
0.0
 10
99.13943730576473
 20
67.05078576521187
 30
0.0
 10
99.09279270738773
 20
66.77275965554608
 30
0.0
 10
99.08835371086509
 20
66.66591347154213
 30
0.0
 10
99.10408432465792
 20
66.43903199748638
 30
0.0
 10
99.1239647546003
 20
66.31886302518177
 30
0.0
 10
99.15145667458017
 20
66.19741338037153
 30
0.0
  0
SPLINE
  5
FF
330
1F
100
AcDbEntity
  8
0
  6
Continuous
 62
     7
370
    25
100
AcDbSpline
210
0.0
220
0.0
230
1.0
 70
     8
 71
     3
 72
    12
 73
     8
 74
     0
 42
0.000000001
 43
0.00000001
 40
0.0
 40
0.0
 40
0.0
 40
0.0
 40
0.5000000000000002
 40
0.5000000000000002
 40
0.7500000000000001
 40
0.7500000000000001
 40
1.0
 40
1.0
 40
1.0
 40
1.0
 10
99.3805427416822
 20
61.8161827904966
 30
0.0
 10
99.3805427416822
 20
62.55013981265382
 30
0.0
 10
99.38510013668142
 20
63.28311825701663
 30
0.0
 10
99.35791647230216
 20
64.37994236996305
 30
0.0
 10
99.34246680138496
 20
64.74508995853347
 30
0.0
 10
99.27960319985311
 20
65.47387797239752
 30
0.0
 10
99.2325732766848
 20
65.83906872779583
 30
0.0
 10
99.15145667458016
 20
66.19741338037153
 30
0.0
  0
SPLINE
  5
100
330
1F
100
AcDbEntity
  8
0
  6
Continuous
 62
     7
370
    25
100
AcDbSpline
210
0.0
220
0.0
230
1.0
 70
     8
 71
     3
 72
    12
 73
     8
 74
     0
 42
0.000000001
 43
0.00000001
 40
0.0
 40
0.0
 40
0.0
 40
0.0
 40
0.2499999999999999
 40
0.2499999999999999
 40
0.4999999999999999
 40
0.4999999999999999
 40
1.0
 40
1.0
 40
1.0
 40
1.0
 10
99.15145667458016
 20
57.43495220062171
 30
0.0
 10
99.2325732766848
 20
57.79329685319738
 30
0.0
 10
99.27960319985311
 20
58.15848760859571
 30
0.0
 10
99.34246680138494
 20
58.88727562245975
 30
0.0
 10
99.35791647230215
 20
59.25242321103018
 30
0.0
 10
99.38510013668142
 20
60.34924732397659
 30
0.0
 10
99.3805427416822
 20
61.08222576833941
 30
0.0
 10
99.3805427416822
 20
61.81618279049662
 30
0.0
  0
SPLINE
  5
101
330
1F
100
AcDbEntity
  8
0
  6
Continuous
 62
     7
370
    25
100
AcDbSpline
210
0.0
220
0.0
230
1.0
 70
     8
 71
     3
 72
    14
 73
    10
 74
     0
 42
0.000000001
 43
0.00000001
 40
0.0
 40
0.0
 40
0.0
 40
0.0
 40
0.25
 40
0.25
 40
0.5
 40
0.5
 40
0.75
 40
0.75
 40
1.0
 40
1.0
 40
1.0
 40
1.0
 10
99.15145667458016
 20
57.43495220062171
 30
0.0
 10
99.12393568683508
 20
57.313374144636
 30
0.0
 10
99.10401576499866
 20
57.19284940761087
 30
0.0
 10
99.08834872318062
 20
56.96587314850277
 30
0.0
 10
99.09284055499293
 20
56.85890317093659
 30
0.0
 10
99.1240969002765
 20
56.67343761915686
 30
0.0
 10
99.15046948365827
 20
56.59455235803803
 30
0.0
 10
99.21330603480259
 20
56.47391456686493
 30
0.0
 10
99.24934561366267
 20
56.43221037642232
 30
0.0
 10
99.28334161702827
 20
56.41649293900072
 30
0.0
  0
SPLINE
  5
102
330
1F
100
AcDbEntity
  8
0
  6
Continuous
 62
     7
370
    25
100
AcDbSpline
210
0.0
220
0.0
230
1.0
 70
     8
 71
     3
 72
     8
 73
     4
 74
     0
 42
0.000000001
 43
0.00000001
 40
0.0
 40
0.0
 40
0.0
 40
0.0
 40
1.0
 40
1.0
 40
1.0
 40
1.0
 10
99.3805427416822
 20
56.31618279049662
 30
0.0
 10
99.3805427416822
 20
56.35166183734039
 30
0.0
 10
99.35117803460435
 20
56.38512999798994
 30
0.0
 10
99.28334161702827
 20
56.41649293900073
 30
0.0
  0
LINE
  5
103
330
1F
100
AcDbEntity
  8
0
  6
Continuous
 62
     7
370
    25
100
AcDbLine
 10
99.3805429093
 20
56.3161828203
 30
0.0
 11
99.3805429093
 21
52.8161831779
 31
0.0
  0
LINE
  5
104
330
1F
100
AcDbEntity
  8
0
  6
Continuous
 62
     7
370
    25
100
AcDbLine
 10
114.7625091612
 20
51.816183014
 30
0.0
 11
114.7625091612
 21
71.816182567
 31
0.0
  0
SPLINE
  5
105
330
1F
100
AcDbEntity
  8
0
  6
Continuous
 62
     7
370
    25
100
AcDbSpline
210
0.0
220
0.0
230
1.0
 70
     8
 71
     3
 72
    12
 73
     8
 74
     0
 42
0.000000001
 43
0.00000001
 40
0.0
 40
0.0
 40
0.0
 40
0.0
 40
0.5000000000000001
 40
0.5000000000000001
 40
0.75
 40
0.75
 40
1.0
 40
1.0
 40
1.0
 40
1.0
 10
114.3805427416822
 20
61.81618279049663
 30
0.0
 10
114.3805427416822
 20
61.08222576833941
 30
0.0
 10
114.375985346683
 20
60.3492473239766
 30
0.0
 10
114.4031690110622
 20
59.25242321103019
 30
0.0
 10
114.4186186819794
 20
58.88727562245975
 30
0.0
 10
114.4814822835113
 20
58.15848760859571
 30
0.0
 10
114.5285122066796
 20
57.79329685319738
 30
0.0
 10
114.6096288087842
 20
57.43495220062171
 30
0.0
  0
SPLINE
  5
106
330
1F
100
AcDbEntity
  8
0
  6
Continuous
 62
     7
370
    25
100
AcDbSpline
210
0.0
220
0.0
230
1.0
 70
     8
 71
     3
 72
    12
 73
     8
 74
     0
 42
0.000000001
 43
0.00000001
 40
0.0
 40
0.0
 40
0.0
 40
0.0
 40
0.2500000000000001
 40
0.2500000000000001
 40
0.5000000000000001
 40
0.5000000000000001
 40
1.0
 40
1.0
 40
1.0
 40
1.0
 10
114.6096288087842
 20
66.19741338037153
 30
0.0
 10
114.5285122066796
 20
65.83906872779583
 30
0.0
 10
114.4814822835113
 20
65.47387797239752
 30
0.0
 10
114.4186186819794
 20
64.74508995853348
 30
0.0
 10
114.4031690110622
 20
64.37994236996305
 30
0.0
 10
114.375985346683
 20
63.28311825701663
 30
0.0
 10
114.3805427416822
 20
62.55013981265384
 30
0.0
 10
114.3805427416822
 20
61.81618279049661
 30
0.0
  0
SPLINE
  5
107
330
1F
100
AcDbEntity
  8
0
  6
Continuous
 62
     7
370
    25
100
AcDbSpline
210
0.0
220
0.0
230
1.0
 70
     8
 71
     3
 72
    14
 73
    10
 74
     0
 42
0.000000001
 43
0.00000001
 40
0.0
 40
0.0
 40
0.0
 40
0.0
 40
0.25
 40
0.25
 40
0.5
 40
0.5
 40
0.75
 40
0.75
 40
1.0
 40
1.0
 40
1.0
 40
1.0
 10
114.6096288087842
 20
66.19741338037153
 30
0.0
 10
114.6371497965293
 20
66.31899143635724
 30
0.0
 10
114.6570697183657
 20
66.43951617338237
 30
0.0
 10
114.6727367601838
 20
66.66649243249047
 30
0.0
 10
114.6682449283715
 20
66.77346241005664
 30
0.0
 10
114.6369885830879
 20
66.95892796183638
 30
0.0
 10
114.6106159997061
 20
67.03781322295521
 30
0.0
 10
114.5477794485618
 20
67.1584510141283
 30
0.0
 10
114.5117398697017
 20
67.20015520457092
 30
0.0
 10
114.4777438663361
 20
67.2158726419925
 30
0.0
  0
SPLINE
  5
108
330
1F
100
AcDbEntity
  8
0
  6
Continuous
 62
     7
370
    25
100
AcDbSpline
210
0.0
220
0.0
230
1.0
 70
     8
 71
     3
 72
     8
 73
     4
 74
     0
 42
0.000000001
 43
0.00000001
 40
0.0
 40
0.0
 40
0.0
 40
0.0
 40
1.0
 40
1.0
 40
1.0
 40
1.0
 10
114.3805427416822
 20
67.31618279049661
 30
0.0
 10
114.3805427416822
 20
67.28070374365285
 30
0.0
 10
114.4099074487601
 20
67.24723558300329
 30
0.0
 10
114.4777438663361
 20
67.2158726419925
 30
0.0
  0
LINE
  5
109
330
1F
100
AcDbEntity
  8
0
  6
Continuous
 62
     7
370
    25
100
AcDbLine
 10
114.380542574
 20
67.3161827607
 30
0.0
 11
114.380542574
 21
70.8161824031
 31
0.0
  0
LINE
  5
10A
330
1F
100
AcDbEntity
  8
0
  6
Continuous
 62
     7
370
    25
100
AcDbLine
 10
114.380542574
 20
52.8161831779
 30
0.0
 11
114.380542574
 21
56.3161828203
 31
0.0
  0
SPLINE
  5
10B
330
1F
100
AcDbEntity
  8
0
  6
Continuous
 62
     7
370
    25
100
AcDbSpline
210
0.0
220
0.0
230
1.0
 70
     8
 71
     3
 72
     8
 73
     4
 74
     0
 42
0.000000001
 43
0.00000001
 40
0.0
 40
0.0
 40
0.0
 40
0.0
 40
1.0
 40
1.0
 40
1.0
 40
1.0
 10
114.4777438663361
 20
56.41649293900073
 30
0.0
 10
114.4099074487601
 20
56.38512999798994
 30
0.0
 10
114.3805427416822
 20
56.35166183734039
 30
0.0
 10
114.3805427416822
 20
56.31618279049662
 30
0.0
  0
SPLINE
  5
10C
330
1F
100
AcDbEntity
  8
0
  6
Continuous
 62
     7
370
    25
100
AcDbSpline
210
0.0
220
0.0
230
1.0
 70
     8
 71
     3
 72
    12
 73
     8
 74
     0
 42
0.000000001
 43
0.00000001
 40
0.0
 40
0.0
 40
0.0
 40
0.0
 40
0.5000000000000001
 40
0.5000000000000001
 40
0.75
 40
0.75
 40
1.0
 40
1.0
 40
1.0
 40
1.0
 10
114.4777438663361
 20
56.41649293900073
 30
0.0
 10
114.5456136263459
 20
56.44787129528282
 30
0.0
 10
114.6216481775997
 20
56.58157981578137
 30
0.0
 10
114.6682927759767
 20
56.85960592544715
 30
0.0
 10
114.6727317724993
 20
56.9664521094511
 30
0.0
 10
114.6570011587065
 20
57.19333358350686
 30
0.0
 10
114.6371207287641
 20
57.31350255581147
 30
0.0
 10
114.6096288087842
 20
57.43495220062171
 30
0.0
  0
LINE
  5
10D
330
1F
100
AcDbEntity
  8
0
  6
Continuous
 62
     7
370
    25
100
AcDbLine
 10
116.8805425182
 20
71.5661829917
 30
0.0
 11
116.8805425182
 21
52.0661825893
 31
0.0
  0
LINE
  5
10E
330
1F
100
AcDbEntity
  8
0
  6
Continuous
 62
     7
370
    25
100
AcDbLine
 10
116.6305429428
 20
51.816183014
 30
0.0
 11
116.6305429428
 21
71.816182567
 31
0.0
  0
LINE
  5
10F
330
1F
100
AcDbEntity
  8
0
  6
Continuous
 62
     7
370
    25
100
AcDbLine
 10
96.8805429652
 20
61.8161827905
 30
0.0
 11
96.8805429652
 21
71.316182485
 31
0.0
  0
LINE
  5
110
330
1F
100
AcDbEntity
  8
0
  6
Continuous
 62
     7
370
    25
100
AcDbLine
 10
96.8805429652
 20
52.316183096
 30
0.0
 11
96.8805429652
 21
61.8161827905
 31
0.0
  0
LINE
  5
111
330
1F
100
AcDbEntity
  8
0
  6
Continuous
 62
     7
370
    25
100
AcDbLine
 10
114.380542574
 20
61.8161827905
 30
0.0
 11
113.8805429577
 21
61.8161827905
 31
0.0
  0
SPLINE
  5
112
330
1F
100
AcDbEntity
  8
0
  6
Continuous
 62
     7
370
    25
100
AcDbSpline
210
0.0
220
0.0
230
1.0
 70
     8
 71
     3
 72
    14
 73
    10
 74
     0
 42
0.000000001
 43
0.00000001
 40
0.0
 40
0.0
 40
0.0
 40
0.0
 40
0.25
 40
0.25
 40
0.5
 40
0.5
 40
0.75
 40
0.75
 40
1.0
 40
1.0
 40
1.0
 40
1.0
 10
113.8805427416822
 20
61.81618279049661
 30
0.0
 10
113.8805427416822
 20
62.19269950258359
 30
0.0
 10
113.8801334799626
 20
62.56923556021255
 30
0.0
 10
113.8834448280684
 20
63.32211245906114
 30
0.0
 10
113.8872083135331
 20
63.69845127357648
 30
0.0
 10
113.9129815693128
 20
64.45026641229163
 30
0.0
 10
113.9348996639913
 20
64.82574706994063
 30
0.0
 10
114.0201173271766
 20
65.57475230920932
 30
0.0
 10
114.0834303133275
 20
65.95036022465075
 30
0.0
 10
114.1859908311516
 20
66.31618279049661
 30
0.0
  0
LWPOLYLINE
  5
113
330
1F
100
AcDbEntity
  8
0
  6
Continuous
 62
     7
370
    25
100
AcDbPolyline
 90
        9
 70
   128
 43
0.0
 10
114.6096288353
 20
66.1974133571
 10
114.5751414947
 20
66.2070818825
 10
114.5336282566
 20
66.2187206207
 10
114.4858388357
 20
66.2321186272
 10
114.4326361023
 20
66.2470342239
 10
114.3749797843
 20
66.2631987242
 10
114.3139115661
 20
66.2803192271
 10
114.2505336679
 20
66.2980879305
 10
114.1859906852
 20
66.3161825968
  0
LWPOLYLINE
  5
114
330
1F
100
AcDbEntity
  8
0
  6
Continuous
 62
     7
370
    25
100
AcDbPolyline
 90
        9
 70
   128
 43
0.0
 10
114.6096288353
 20
57.4349522238
 10
114.5751414947
 20
57.4252836985
 10
114.5336282566
 20
57.4136449603
 10
114.4858388357
 20
57.4002469538
 10
114.4326361023
 20
57.3853313571
 10
114.3749797843
 20
57.3691668568
 10
114.3139115661
 20
57.3520463539
 10
114.2505336679
 20
57.3342776505
 10
114.1859906852
 20
57.3161829842
  0
SPLINE
  5
115
330
1F
100
AcDbEntity
  8
0
  6
Continuous
 62
     7
370
    25
100
AcDbSpline
210
0.0
220
0.0
230
1.0
 70
     8
 71
     3
 72
    14
 73
    10
 74
     0
 42
0.000000001
 43
0.00000001
 40
0.0
 40
0.0
 40
0.0
 40
0.0
 40
0.25
 40
0.25
 40
0.5
 40
0.5
 40
0.75
 40
0.75
 40
1.0
 40
1.0
 40
1.0
 40
1.0
 10
114.1859908311516
 20
57.31618279049662
 30
0.0
 10
114.0834303133275
 20
57.68200535634247
 30
0.0
 10
114.0201173271766
 20
58.05761327178392
 30
0.0
 10
113.9348996639913
 20
58.8066185110526
 30
0.0
 10
113.9129815693128
 20
59.18209916870161
 30
0.0
 10
113.8872083135331
 20
59.93391430741676
 30
0.0
 10
113.8834448280684
 20
60.31025312193211
 30
0.0
 10
113.8801334799626
 20
61.06313002078069
 30
0.0
 10
113.8805427416822
 20
61.43966607840965
 30
0.0
 10
113.8805427416822
 20
61.81618279049663
 30
0.0
  0
SPLINE
  5
116
330
1F
100
AcDbEntity
  8
0
  6
Continuous
 62
     7
370
    25
100
AcDbSpline
210
0.0
220
0.0
230
1.0
 70
     8
 71
     3
 72
    14
 73
    10
 74
     0
 42
0.000000001
 43
0.00000001
 40
0.0
 40
0.0
 40
0.0
 40
0.0
 40
0.2500000000000001
 40
0.2500000000000001
 40
0.5
 40
0.5
 40
0.75
 40
0.75
 40
1.0
 40
1.0
 40
1.0
 40
1.0
 10
99.8805427416822
 20
61.81618279049662
 30
0.0
 10
99.8805427416822
 20
61.43966607840964
 30
0.0
 10
99.88095200340184
 20
61.06313002078069
 30
0.0
 10
99.87764065529596
 20
60.31025312193211
 30
0.0
 10
99.8738771698313
 20
59.93391430741676
 30
0.0
 10
99.84810391405158
 20
59.18209916870161
 30
0.0
 10
99.82618581937308
 20
58.8066185110526
 30
0.0
 10
99.7409681561878
 20
58.05761327178392
 30
0.0
 10
99.6776551700369
 20
57.68200535634247
 30
0.0
 10
99.57509465221281
 20
57.31618279049662
 30
0.0
  0
LWPOLYLINE
  5
117
330
1F
100
AcDbEntity
  8
0
  6
Continuous
 62
     7
370
    25
100
AcDbPolyline
 90
        9
 70
   128
 43
0.0
 10
99.5750947982
 20
57.3161829842
 10
99.5105518154
 20
57.3342776505
 10
99.4471739173
 20
57.3520463539
 10
99.3861056991
 20
57.3691668568
 10
99.3284493811
 20
57.3853313571
 10
99.2752466477
 20
57.4002469538
 10
99.2274572268
 20
57.4136449603
 10
99.1859439887
 20
57.4252836985
 10
99.1514566481
 20
57.4349522238
  0
LINE
  5
118
330
1F
100
AcDbEntity
  8
0
  6
Continuous
 62
     7
370
    25
100
AcDbLine
 10
99.8805425256
 20
61.8161827905
 30
0.0
 11
99.3805429093
 21
61.8161827905
 31
0.0
  0
SPLINE
  5
119
330
1F
100
AcDbEntity
  8
0
  6
Continuous
 62
     7
370
    25
100
AcDbSpline
210
0.0
220
0.0
230
1.0
 70
     8
 71
     3
 72
    14
 73
    10
 74
     0
 42
0.000000001
 43
0.00000001
 40
0.0
 40
0.0
 40
0.0
 40
0.0
 40
0.2499999999999999
 40
0.2499999999999999
 40
0.4999999999999998
 40
0.4999999999999998
 40
0.7499999999999999
 40
0.7499999999999999
 40
1.0
 40
1.0
 40
1.0
 40
1.0
 10
99.57509465221281
 20
66.31618279049661
 30
0.0
 10
99.67765517003691
 20
65.95036022465075
 30
0.0
 10
99.7409681561878
 20
65.57475230920932
 30
0.0
 10
99.82618581937308
 20
64.82574706994063
 30
0.0
 10
99.84810391405158
 20
64.45026641229163
 30
0.0
 10
99.8738771698313
 20
63.69845127357647
 30
0.0
 10
99.87764065529596
 20
63.32211245906112
 30
0.0
 10
99.88095200340184
 20
62.56923556021255
 30
0.0
 10
99.8805427416822
 20
62.19269950258358
 30
0.0
 10
99.8805427416822
 20
61.8161827904966
 30
0.0
  0
LWPOLYLINE
  5
11A
330
1F
100
AcDbEntity
  8
0
  6
Continuous
 62
     7
370
    25
100
AcDbPolyline
 90
        9
 70
   128
 43
0.0
 10
99.5750947982
 20
66.3161825968
 10
99.5105518154
 20
66.2980879305
 10
99.4471739173
 20
66.2803192271
 10
99.3861056991
 20
66.2631987242
 10
99.3284493811
 20
66.2470342239
 10
99.2752466477
 20
66.2321186272
 10
99.2274572268
 20
66.2187206207
 10
99.1859439887
 20
66.2070818825
 10
99.1514566481
 20
66.1974133571
  0
SPLINE
  5
11B
330
1F
100
AcDbEntity
  8
0
  6
Continuous
 62
     7
370
    25
100
AcDbSpline
210
0.0
220
0.0
230
1.0
 70
     8
 71
     3
 72
    14
 73
    10
 74
     0
 42
0.000000001
 43
0.00000001
 40
0.0
 40
0.0
 40
0.0
 40
0.0
 40
0.25
 40
0.25
 40
0.5
 40
0.5
 40
0.75
 40
0.75
 40
1.0
 40
1.0
 40
1.0
 40
1.0
 10
114.0101442412208
 20
66.81618279049661
 30
0.0
 10
114.0486197248424
 20
66.81618279049661
 30
0.0
 10
114.0897086463124
 20
66.8053962195134
 30
0.0
 10
114.1689914937529
 20
66.76246443244824
 30
0.0
 10
114.2062743948634
 20
66.73104692414336
 30
0.0
 10
114.2590801541752
 20
66.63973207856715
 30
0.0
 10
114.2710494142688
 20
66.57850159580289
 30
0.0
 10
114.2510476258966
 20
66.44763823514717
 30
0.0
 10
114.2215911703443
 20
66.37967412080958
 30
0.0
 10
114.1859908311516
 20
66.31618279049661
 30
0.0
  0
ARC
  5
11C
330
1F
100
AcDbEntity
  8
0
  6
Continuous
 62
     7
370
    25
100
AcDbCircle
 10
114.0015954975
 20
67.2995525137
 30
0.0
 40
0.4834454273380953
100
AcDbArc
 50
271.0132315313
 51
350.0324555796
  0
SPLINE
  5
11D
330
1F
100
AcDbEntity
  8
0
  6
Continuous
 62
     7
370
    25
100
AcDbSpline
210
0.0
220
0.0
230
1.0
 70
     8
 71
     3
 72
    14
 73
    10
 74
     0
 42
0.000000001
 43
0.00000001
 40
0.0
 40
0.0
 40
0.0
 40
0.0
 40
0.25
 40
0.25
 40
0.5
 40
0.5
 40
0.75
 40
0.75
 40
1.0
 40
1.0
 40
1.0
 40
1.0
 10
99.75094124214364
 20
56.81618279049662
 30
0.0
 10
99.71246575852204
 20
56.81618279049662
 30
0.0
 10
99.67137683705202
 20
56.82696936147984
 30
0.0
 10
99.59209398961146
 20
56.86990114854499
 30
0.0
 10
99.55481108850101
 20
56.90131865684987
 30
0.0
 10
99.50200532918922
 20
56.99263350242608
 30
0.0
 10
99.4900360690956
 20
57.05386398519034
 30
0.0
 10
99.51003785746775
 20
57.18472734584606
 30
0.0
 10
99.53949431302006
 20
57.25269146018365
 30
0.0
 10
99.57509465221281
 20
57.31618279049662
 30
0.0
  0
ARC
  5
11E
330
1F
100
AcDbEntity
  8
0
  6
Continuous
 62
     7
370
    25
100
AcDbCircle
 10
99.7594899859
 20
56.3328130673
 30
0.0
 40
0.4834454273381205
100
AcDbArc
 50
91.0132315313
 51
170.0324555796
  0
ARC
  5
11F
330
1F
100
AcDbEntity
  8
0
  6
Continuous
 62
     7
370
    25
100
AcDbCircle
 10
114.0015954975
 20
56.3328130673
 30
0.0
 40
0.4834454273380953
100
AcDbArc
 50
9.9675444204
 51
88.9867684688
  0
SPLINE
  5
120
330
1F
100
AcDbEntity
  8
0
  6
Continuous
 62
     7
370
    25
100
AcDbSpline
210
0.0
220
0.0
230
1.0
 70
     8
 71
     3
 72
    16
 73
    12
 74
     0
 42
0.000000001
 43
0.00000001
 40
0.0
 40
0.0
 40
0.0
 40
0.0
 40
0.2500000000000008
 40
0.2500000000000008
 40
0.3750000000000017
 40
0.3750000000000017
 40
0.5000000000000026
 40
0.5000000000000026
 40
0.7500000000000012
 40
0.7500000000000012
 40
1.0
 40
1.0
 40
1.0
 40
1.0
 10
114.1859908311516
 20
57.31618279049662
 30
0.0
 10
114.2215447606002
 20
57.25277422951842
 30
0.0
 10
114.2508169018289
 20
57.18550692919761
 30
0.0
 10
114.2660294520498
 20
57.08706761805526
 30
0.0
 10
114.2660901202233
 20
57.05459221169998
 30
0.0
 10
114.255879535746
 20
56.99596700457377
 30
0.0
 10
114.2460962062208
 20
56.97034419302079
 30
0.0
 10
114.2069316576888
 20
56.90213534932534
 30
0.0
 10
114.1690585844156
 20
56.86997259415956
 30
0.0
 10
114.089985611424
 20
56.82708437504368
 30
0.0
 10
114.0485984788332
 20
56.81618279049662
 30
0.0
 10
114.0101442412208
 20
56.81618279049662
 30
0.0
  0
SPLINE
  5
121
330
1F
100
AcDbEntity
  8
0
  6
Continuous
 62
     7
370
    25
100
AcDbSpline
210
0.0
220
0.0
230
1.0
 70
     8
 71
     3
 72
    16
 73
    12
 74
     0
 42
0.000000001
 43
0.00000001
 40
0.0
 40
0.0
 40
0.0
 40
0.0
 40
0.2500000000000011
 40
0.2500000000000011
 40
0.3749999999999992
 40
0.3749999999999992
 40
0.4999999999999974
 40
0.4999999999999974
 40
0.7499999999999987
 40
0.7499999999999987
 40
1.0
 40
1.0
 40
1.0
 40
1.0
 10
99.57509465221281
 20
66.31618279049661
 30
0.0
 10
99.53954072276416
 20
66.37959135147482
 30
0.0
 10
99.51026858153546
 20
66.44685865179562
 30
0.0
 10
99.49505603131459
 20
66.54529796293797
 30
0.0
 10
99.49499536314104
 20
66.57777336929325
 30
0.0
 10
99.50520594761838
 20
66.63639857641945
 30
0.0
 10
99.51498927714361
 20
66.66202138797244
 30
0.0
 10
99.55415382567554
 20
66.73023023166789
 30
0.0
 10
99.5920268989488
 20
66.76239298683366
 30
0.0
 10
99.6710998719404
 20
66.80528120594956
 30
0.0
 10
99.71248700453123
 20
66.81618279049661
 30
0.0
 10
99.75094124214364
 20
66.81618279049661
 30
0.0
  0
ARC
  5
122
330
1F
100
AcDbEntity
  8
0
  6
Continuous
 62
     7
370
    25
100
AcDbCircle
 10
99.7594899859
 20
67.2995525137
 30
0.0
 40
0.4834454273381205
100
AcDbArc
 50
189.9675444204
 51
268.9867684687
  0
LINE
  5
123
330
1F
100
AcDbEntity
  8
0
  6
Continuous
 62
     7
370
    25
100
AcDbLine
 10
99.5750947982
 20
57.3161829842
 30
0.0
 11
114.1859906852
 21
57.3161829842
 31
0.0
  0
LINE
  5
124
330
1F
100
AcDbEntity
  8
0
  6
Continuous
 62
     7
370
    25
100
AcDbLine
 10
114.1859906852
 20
66.3161825968
 30
0.0
 11
99.5750947982
 21
66.3161825968
 31
0.0
  0
LINE
  5
125
330
1F
100
AcDbEntity
  8
0
  6
Continuous
 62
     7
370
    25
100
AcDbLine
 10
99.7509410731
 20
66.8161826787
 30
0.0
 11
114.0101444102
 21
66.8161826787
 31
0.0
  0
LINE
  5
126
330
1F
100
AcDbEntity
  8
0
  6
Continuous
 62
     7
370
    25
100
AcDbLine
 10
114.0101444102
 20
56.8161829023
 30
0.0
 11
99.7509410731
 21
56.8161829023
 31
0.0
  0
ARC
  5
127
330
1F
100
AcDbEntity
  8
0
  6
Continuous
 62
     7
370
    25
100
AcDbCircle
 10
99.8805427417
 20
67.3161827905
 30
0.0
 40
0.5
100
AcDbArc
 50
180.0
 51
270.0
  0
ARC
  5
128
330
1F
100
AcDbEntity
  8
0
  6
Continuous
 62
     7
370
    25
100
AcDbCircle
 10
99.8805427417
 20
56.3161827905
 30
0.0
 40
0.5
100
AcDbArc
 50
90.0
 51
180.0
  0
ARC
  5
129
330
1F
100
AcDbEntity
  8
0
  6
Continuous
 62
     7
370
    25
100
AcDbCircle
 10
113.8805427417
 20
56.3161827905
 30
0.0
 40
0.5
100
AcDbArc
 50
0.0
 51
90.0
  0
ARC
  5
12A
330
1F
100
AcDbEntity
  8
0
  6
Continuous
 62
     7
370
    25
100
AcDbCircle
 10
113.8805427417
 20
67.3161827905
 30
0.0
 40
0.5
100
AcDbArc
 50
270.0
 51
0.0
  0
LINE
  5
12B
330
1F
100
AcDbEntity
  8
0
  6
Continuous
 62
     7
370
    25
100
AcDbLine
 10
113.8805429577
 20
56.8161829023
 30
0.0
 11
113.8805429577
 21
56.6217381155
 31
0.0
  0
LINE
  5
12C
330
1F
100
AcDbEntity
  8
0
  6
Continuous
 62
     7
370
    25
100
AcDbLine
 10
113.8805429577
 20
56.6217381155
 30
0.0
 11
99.8805425256
 21
56.6217381155
 31
0.0
  0
LINE
  5
12D
330
1F
100
AcDbEntity
  8
0
  6
Continuous
 62
     7
370
    25
100
AcDbLine
 10
99.8805425256
 20
56.8161829023
 30
0.0
 11
99.8805425256
 21
56.6217381155
 31
0.0
  0
LWPOLYLINE
  5
12E
330
1F
100
AcDbEntity
  8
0
  6
Continuous
 62
     7
370
    25
100
AcDbPolyline
 90
        9
 70
   128
 43
0.0
 10
113.8805429577
 20
56.6217381155
 10
113.9780878216
 20
56.615867058
 10
114.0718845777
 20
56.5984792655
 10
114.1583280764
 20
56.570242962
 10
114.2340962901
 20
56.5322431384
 10
114.2962774388
 20
56.4859405739
 10
114.34248268
 20
56.4331136292
 10
114.370935516
 20
56.3757935187
 10
114.380542574
 20
56.3161828203
  0
LWPOLYLINE
  5
12F
330
1F
100
AcDbEntity
  8
0
  6
Continuous
 62
     7
370
    25
100
AcDbPolyline
 90
        9
 70
   128
 43
0.0
 10
99.3805429093
 20
56.3161828203
 10
99.3901499673
 20
56.3757935187
 10
99.4186028033
 20
56.4331136292
 10
99.4648080445
 20
56.4859405739
 10
99.5269891932
 20
56.5322431384
 10
99.6027574069
 20
56.570242962
 10
99.6892009057
 20
56.5984792655
 10
99.7829976618
 20
56.615867058
 10
99.8805425256
 20
56.6217381155
  0
LWPOLYLINE
  5
130
330
1F
100
AcDbEntity
  8
0
  6
Continuous
 62
     7
370
    25
100
AcDbPolyline
 90
        9
 70
   128
 43
0.0
 10
99.8805425256
 20
67.0106274655
 10
99.7829976618
 20
67.016498523
 10
99.6892009057
 20
67.0338863155
 10
99.6027574069
 20
67.062122619
 10
99.5269891932
 20
67.1001224426
 10
99.4648080445
 20
67.1464250071
 10
99.4186028033
 20
67.1992519518
 10
99.3901499673
 20
67.2565720623
 10
99.3805429093
 20
67.3161827607
  0
LWPOLYLINE
  5
131
330
1F
100
AcDbEntity
  8
0
  6
Continuous
 62
     7
370
    25
100
AcDbPolyline
 90
        9
 70
   128
 43
0.0
 10
114.380542574
 20
67.3161827607
 10
114.370935516
 20
67.2565720623
 10
114.34248268
 20
67.1992519518
 10
114.2962774388
 20
67.1464250071
 10
114.2340962901
 20
67.1001224426
 10
114.1583280764
 20
67.062122619
 10
114.0718845777
 20
67.0338863155
 10
113.9780878216
 20
67.016498523
 10
113.8805429577
 20
67.0106274655
  0
LINE
  5
132
330
1F
100
AcDbEntity
  8
0
  6
Continuous
 62
     7
370
    25
100
AcDbLine
 10
99.8805425256
 20
67.0106274655
 30
0.0
 11
99.8805425256
 21
66.8161826787
 31
0.0
  0
LINE
  5
133
330
1F
100
AcDbEntity
  8
0
  6
Continuous
 62
     7
370
    25
100
AcDbLine
 10
113.8805429577
 20
67.0106274655
 30
0.0
 11
113.8805429577
 21
66.8161826787
 31
0.0
  0
LINE
  5
134
330
1F
100
AcDbEntity
  8
0
  6
Continuous
 62
     7
370
    25
100
AcDbLine
 10
99.8805425256
 20
67.0106274655
 30
0.0
 11
113.8805429577
 21
67.0106274655
 31
0.0
  0
LINE
  5
135
330
1F
100
AcDbEntity
  8
0
  6
Continuous
 62
     7
370
    25
100
AcDbLine
 10
89.0446686312
 20
55.3167246861
 30
0.0
 11
89.0446686312
 21
68.3156408949
 31
0.0
  0
LINE
  5
136
330
1F
100
AcDbEntity
  8
0
  6
Continuous
 62
     7
370
    25
100
AcDbLine
 10
86.8805431887
 20
61.8161827905
 30
0.0
 11
86.8805431887
 21
67.0661827197
 31
0.0
  0
LINE
  5
137
330
1F
100
AcDbEntity
  8
0
  6
Continuous
 62
     7
370
    25
100
AcDbLine
 10
86.8805431887
 20
56.5661828613
 30
0.0
 11
86.8805431887
 21
61.8161827905
 31
0.0
  0
LINE
  5
138
330
1F
100
AcDbEntity
  8
0
  6
Continuous
 62
     8
370
    25
100
AcDbLine
 10
113.8805429577
 20
53.3161823286
 30
0.0
 11
113.8805429577
 21
56.6217381155
 31
0.0
  0
LINE
  5
139
330
1F
100
AcDbEntity
  8
0
  6
Continuous
 62
     8
370
    25
100
AcDbLine
 10
99.8805425256
 20
56.6217381155
 30
0.0
 11
99.8805425256
 21
53.3161823286
 31
0.0
  0
LINE
  5
13A
330
1F
100
AcDbEntity
  8
0
  6
Continuous
 62
     8
370
    25
100
AcDbLine
 10
99.8805425256
 20
70.3161832524
 30
0.0
 11
99.8805425256
 21
67.0106274655
 31
0.0
  0
LINE
  5
13B
330
1F
100
AcDbEntity
  8
0
  6
Continuous
 62
     8
370
    25
100
AcDbLine
 10
113.8805429577
 20
67.0106274655
 30
0.0
 11
113.8805429577
 21
70.3161832524
 31
0.0
  0
LWPOLYLINE
  5
13C
330
1F
100
AcDbEntity
  8
0
  6
Continuous
 62
     8
370
    25
100
AcDbPolyline
 90
       26
 70
   128
 43
0.0
 10
113.2628637492
 20
70.3043200655
 10
113.2486396595
 20
70.2947833223
 10
113.2121038749
 20
70.2703407613
 10
112.9923718176
 20
70.1248495487
 10
112.6214223109
 20
69.885392545
 10
112.1387997768
 20
69.586456625
 10
111.5406075619
 20
69.2381103171
 10
110.7618041929
 20
68.8270012496
 10
109.8598552994
 20
68.4216454273
 10
109.0496235188
 20
68.133726122
 10
108.161583928
 20
67.9135987183
 10
107.4050095408
 20
67.8128519675
 10
106.6156585653
 20
67.7975936441
 10
105.8538603024
 20
67.8705120107
 10
105.0987027479
 20
68.0247795416
 10
104.1646603621
 20
68.3195599003
 10
103.2876350578
 20
68.6885322092
 10
102.5105495132
 20
69.0790059624
 10
101.8180790484
 20
69.469594734
 10
101.2794272169
 20
69.79729688
 10
100.8530425965
 20
70.069717115
 10
100.6207898385
 20
70.2225080339
 10
100.4965211391
 20
70.3054581417
 10
100.4810365043
 20
70.3158507703
 10
100.4805429034
 20
70.3161832524
 10
100.4805429034
 20
70.3161832524
  0
SPLINE
  5
13D
330
1F
100
AcDbEntity
  8
0
  6
Continuous
 62
     8
370
    25
100
AcDbSpline
210
0.0
220
0.0
230
1.0
 70
     8
 71
     3
 72
    31
 73
    27
 74
     0
 42
0.000000001
 43
0.00000001
 40
0.0
 40
0.0
 40
0.0
 40
0.0
 40
0.0037711187155444
 40
0.049992002729545
 40
0.097936429388211
 40
0.1050761840256164
 40
0.1549313305626538
 40
0.2062490225881484
 40
0.2581672983497533
 40
0.3112119050157137
 40
0.3615217123260921
 40
0.4131127109614008
 40
0.4497246541022342
 40
0.4873170705379007
 40
0.5237922493394346
 40
0.5614399427421355
 40
0.6059060778355246
 40
0.6516358760110008
 40
0.7059316929466103
 40
0.76152621211828
 40
0.8094471703882749
 40
0.858397299422234
 40
0.9060541990676286
 40
0.9552753251553713
 40
0.9694482414587082
 40
1.0
 40
1.0
 40
1.0
 40
1.0
 10
100.9805425196549
 20
70.81618240306642
 30
0.0
 10
100.980641166075
 20
70.81610647007707
 30
0.0
 10
100.9819488767239
 20
70.81509986103157
 30
0.0
 10
101.0394147074019
 20
70.77067555143623
 30
0.0
 10
101.1960323436359
 20
70.65110439666103
 30
0.0
 10
101.4109710888032
 20
70.48993729783352
 30
0.0
 10
101.6885385626333
 20
70.28473793852139
 30
0.0
 10
102.1984547355511
 20
69.92536442227724
 30
0.0
 10
102.8239356551635
 20
69.51575009405619
 30
0.0
 10
103.5402099578535
 20
69.09623836248902
 30
0.0
 10
104.3432232932394
 20
68.70002725320134
 30
0.0
 10
105.1389918376871
 20
68.40217323046565
 30
0.0
 10
105.9153119733414
 20
68.21515894558607
 30
0.0
 10
106.6277512476946
 20
68.13360309627986
 30
0.0
 10
107.3551121385193
 20
68.14883965515384
 30
0.0
 10
108.1107155595416
 20
68.26572749912579
 30
0.0
 10
108.8825611103655
 20
68.48997285091099
 30
0.0
 10
109.6861411907249
 20
68.82316680737463
 30
0.0
 10
110.4667134962474
 20
69.2325509673491
 30
0.0
 10
111.1614115406556
 20
69.6586382788847
 30
0.0
 10
111.7373377549096
 20
70.04648661601074
 30
0.0
 10
112.1877726455262
 20
70.36894413847507
 30
0.0
 10
112.5312122327161
 20
70.625058094708
 30
0.0
 10
112.6898272171044
 20
70.74638900222119
 30
0.0
 10
112.768857048259
 20
70.80715057685934
 30
0.0
 10
112.7671816357284
 20
70.80587505600221
 30
0.0
 10
112.7660371489486
 20
70.80500373820331
 30
0.0
  0
LINE
  5
13E
330
1F
100
AcDbEntity
  8
0
  6
Continuous
 62
     7
370
     0
100
AcDbLine
 10
87.5807275099
 20
67.4704346549
 30
0.0
 11
96.3805427417
 21
67.7454288809
 31
0.0
  0
LINE
  5
13F
330
1F
100
AcDbEntity
  8
0
  6
Continuous
 62
     7
370
     0
100
AcDbLine
 10
87.5807275099
 20
56.1619309261
 30
0.0
 11
96.3805427417
 21
55.8869367001
 31
0.0
  0
LINE
  5
140
330
1F
100
AcDbEntity
  8
0
  6
Continuous
 62
     7
370
     0
100
AcDbLine
 10
96.3805427417
 20
55.0874784869
 30
0.0
 11
96.3805427417
 21
68.5448870941
 31
0.0
  0
LINE
  5
141
330
1F
100
AcDbEntity
  8
0
  6
CENTERX2
 62
     7
370
    18
100
AcDbLine
 10
85.531384669
 20
61.8161827905
 30
0.0
 11
148.8805427417
 21
61.8161827905
 31
0.0
  0
LINE
  5
142
330
1F
100
AcDbEntity
  8
0
  6
CENTERX2
 62
     7
370
    18
100
AcDbLine
 10
106.8805427417
 20
49.8161827905
 30
0.0
 11
106.8805427417
 21
90.6789216687
 31
0.0
  0
ARC
  5
143
330
1F
100
AcDbEntity
  8
0
  6
Continuous
 62
     7
370
    25
100
AcDbCircle
 10
179.2768092573
 20
88.9161827905
 30
0.0
 40
0.25
100
AcDbArc
 50
0.0
 51
90.0
  0
ARC
  5
144
330
1F
100
AcDbEntity
  8
0
  6
Continuous
 62
     7
370
    25
100
AcDbCircle
 10
168.7768092573
 20
88.9161827905
 30
0.0
 40
0.25
100
AcDbArc
 50
90.0
 51
180.0
  0
LINE
  5
145
330
1F
100
AcDbEntity
  8
0
  6
Continuous
 62
     7
370
    25
100
AcDbLine
 10
179.5268092275
 20
88.3161824776
 30
0.0
 11
179.5268092275
 21
88.916183321
 31
0.0
  0
LINE
  5
146
330
1F
100
AcDbEntity
  8
0
  6
Continuous
 62
     7
370
    25
100
AcDbLine
 10
168.5268092871
 20
88.916183321
 30
0.0
 11
168.5268092871
 21
88.3161824776
 31
0.0
  0
LINE
  5
147
330
1F
100
AcDbEntity
  8
0
  6
Continuous
 62
     7
370
    25
100
AcDbLine
 10
181.4768091746
 20
80.3161830289
 30
0.0
 11
179.5268092275
 21
88.3161824776
 31
0.0
  0
LINE
  5
148
330
1F
100
AcDbEntity
  8
0
  6
Continuous
 62
     7
370
    25
100
AcDbLine
 10
168.5268092871
 20
88.3161824776
 30
0.0
 11
166.57680934
 21
80.3161830289
 31
0.0
  0
LINE
  5
149
330
1F
100
AcDbEntity
  8
0
  6
Continuous
 62
     7
370
    25
100
AcDbLine
 10
166.57680934
 20
80.3161830289
 30
0.0
 11
167.0268090412
 21
72.3161826489
 31
0.0
  0
LINE
  5
14A
330
1F
100
AcDbEntity
  8
0
  6
Continuous
 62
     7
370
    25
100
AcDbLine
 10
181.0268094734
 20
72.3161826489
 30
0.0
 11
181.4768091746
 21
80.3161830289
 31
0.0
  0
LINE
  5
14B
330
1F
100
AcDbEntity
  8
0
  6
Continuous
 62
     7
370
    25
100
AcDbLine
 10
179.9268094793
 20
70.8142769171
 30
0.0
 11
179.9268094793
 21
72.3161826489
 31
0.0
  0
LINE
  5
14C
330
1F
100
AcDbEntity
  8
0
  6
Continuous
 62
     7
370
    25
100
AcDbLine
 10
168.1268090353
 20
72.3161826489
 30
0.0
 11
168.1268090353
 21
69.8902149333
 31
0.0
  0
ARC
  5
14D
330
1F
100
AcDbEntity
  8
0
  6
Continuous
 62
     7
370
    25
100
AcDbCircle
 10
179.7268092573
 20
70.3579252208
 30
0.0
 40
0.5000000000000135
100
AcDbArc
 50
359.992141364
 51
66.3930114283
  0
LINE
  5
14E
330
1F
100
AcDbEntity
  8
0
  6
Continuous
 62
     7
370
    25
100
AcDbLine
 10
177.5268093653
 20
89.166181965
 30
0.0
 11
179.2768091865
 21
89.166181965
 31
0.0
  0
LINE
  5
14F
330
1F
100
AcDbEntity
  8
0
  6
Continuous
 62
     7
370
    25
100
AcDbLine
 10
168.7768093281
 20
89.166181965
 30
0.0
 11
170.5268091493
 21
89.166181965
 31
0.0
  0
LINE
  5
150
330
1F
100
AcDbEntity
  8
0
  6
Continuous
 62
     7
370
    25
100
AcDbLine
 10
177.5268093653
 20
88.3161824776
 30
0.0
 11
179.5268092275
 21
88.3161824776
 31
0.0
  0
LINE
  5
151
330
1F
100
AcDbEntity
  8
0
  6
Continuous
 62
     7
370
    25
100
AcDbLine
 10
168.5268092871
 20
88.3161824776
 30
0.0
 11
170.5268091493
 21
88.3161824776
 31
0.0
  0
LINE
  5
152
330
1F
100
AcDbEntity
  8
0
  6
Continuous
 62
     7
370
    25
100
AcDbLine
 10
170.5268091493
 20
90.3161828054
 30
0.0
 11
177.5268093653
 21
90.3161828054
 31
0.0
  0
LINE
  5
153
330
1F
100
AcDbEntity
  8
0
  6
Continuous
 62
     7
370
    25
100
AcDbLine
 10
177.5268093653
 20
83.3161835207
 30
0.0
 11
177.5268093653
 21
90.3161828054
 31
0.0
  0
LINE
  5
154
330
1F
100
AcDbEntity
  8
0
  6
Continuous
 62
     7
370
    25
100
AcDbLine
 10
170.5268091493
 20
83.3161835207
 30
0.0
 11
177.5268093653
 21
83.3161835207
 31
0.0
  0
LINE
  5
155
330
1F
100
AcDbEntity
  8
0
  6
Continuous
 62
     7
370
    25
100
AcDbLine
 10
170.5268091493
 20
90.3161828054
 30
0.0
 11
170.5268091493
 21
83.3161835207
 31
0.0
  0
LINE
  5
156
330
1F
100
AcDbEntity
  8
0
  6
Continuous
 62
     7
370
    25
100
AcDbLine
 10
177.5268093653
 20
78.3161827011
 30
0.0
 11
170.5268091493
 21
78.3161827011
 31
0.0
  0
LINE
  5
157
330
1F
100
AcDbEntity
  8
0
  6
Continuous
 62
     7
370
    25
100
AcDbLine
 10
170.5268091493
 20
78.3161827011
 30
0.0
 11
170.5268091493
 21
83.3161835207
 31
0.0
  0
LINE
  5
158
330
1F
100
AcDbEntity
  8
0
  6
Continuous
 62
     7
370
    25
100
AcDbLine
 10
177.5268093653
 20
83.3161835207
 30
0.0
 11
177.5268093653
 21
78.3161827011
 31
0.0
  0
SPLINE
  5
159
330
1F
100
AcDbEntity
  8
0
  6
Continuous
 62
     7
370
    25
100
AcDbSpline
210
0.0
220
0.0
230
1.0
 70
     8
 71
     3
 72
    11
 73
     7
 74
     0
 42
0.000000001
 43
0.00000001
 40
0.0
 40
0.0
 40
0.0
 40
0.0
 40
0.2488465959137647
 40
0.4976945924499491
 40
0.7488461206779728
 40
1.0
 40
1.0
 40
1.0
 40
1.0
 10
177.5268093653498
 20
78.06835776398447
 30
0.0
 10
177.5315008637973
 20
77.99883360813986
 30
0.0
 10
177.5408838870981
 20
77.85978490513689
 30
0.0
 10
177.6173059274622
 20
77.55945521909717
 30
0.0
 10
177.7350318286337
 20
77.19754687078108
 30
0.0
 10
177.8533408615378
 20
76.89595471616187
 30
0.0
 10
177.9124956548688
 20
76.74515793303516
 30
0.0
  0
LINE
  5
15A
330
1F
100
AcDbEntity
  8
0
  6
Continuous
 62
     7
370
    25
100
AcDbLine
 10
177.9124956549
 20
76.745157933
 30
0.0
 11
170.1411228598
 21
76.745157933
 31
0.0
  0
SPLINE
  5
15B
330
1F
100
AcDbEntity
  8
0
  6
Continuous
 62
     7
370
    25
100
AcDbSpline
210
0.0
220
0.0
230
1.0
 70
     8
 71
     3
 72
    11
 73
     7
 74
     0
 42
0.000000001
 43
0.00000001
 40
0.0
 40
0.0
 40
0.0
 40
0.0
 40
0.248860712681952
 40
0.4977192115733558
 40
0.7488602656597823
 40
1.0
 40
1.0
 40
1.0
 40
1.0
 10
170.1411228597639
 20
76.74515793303517
 30
0.0
 10
170.1997764562771
 20
76.89463697006109
 30
0.0
 10
170.3170831275387
 20
77.19359371439207
 30
0.0
 10
170.4351185227045
 20
77.55539747322617
 30
0.0
 10
170.5124735000199
 20
77.85767253265499
 30
0.0
 10
170.522030607899
 20
77.99812947655852
 30
0.0
 10
170.5268091492829
 20
78.06835776398447
 30
0.0
  0
LINE
  5
15C
330
1F
100
AcDbEntity
  8
0
  6
Continuous
 62
     7
370
    25
100
AcDbLine
 10
170.5268091493
 20
78.068357764
 30
0.0
 11
170.5268091493
 21
78.3161827011
 31
0.0
  0
LINE
  5
15D
330
1F
100
AcDbEntity
  8
0
  6
Continuous
 62
     7
370
    25
100
AcDbLine
 10
177.5268093653
 20
78.3161827011
 30
0.0
 11
177.5268093653
 21
78.068357764
 31
0.0
  0
SPLINE
  5
15E
330
1F
100
AcDbEntity
  8
0
  6
Continuous
 62
     7
370
    25
100
AcDbSpline
210
0.0
220
0.0
230
1.0
 70
     8
 71
     3
 72
    17
 73
    13
 74
     0
 42
0.000000001
 43
0.00000001
 40
0.0
 40
0.0
 40
0.0
 40
0.0
 40
0.015561846449589
 40
0.0359292690912283
 40
0.0739045690777559
 40
0.1292602803021116
 40
0.184993852391363
 40
0.2407361090911398
 40
0.4593513138619285
 40
0.6784168665902561
 40
0.8975060046930645
 40
1.0
 40
1.0
 40
1.0
 40
1.0
 10
167.3670868359981
 20
72.31618264893558
 30
0.0
 10
167.3807806622111
 20
72.32137552450155
 30
0.0
 10
167.4123970368162
 20
72.33336486163908
 30
0.0
 10
167.467873076974
 20
72.4517039900807
 30
0.0
 10
167.5310974742958
 20
72.70181664250774
 30
0.0
 10
167.594409248016
 20
73.07272127256194
 30
0.0
 10
167.6485193094135
 20
73.51254150992845
 30
0.0
 10
167.7373682158705
 20
74.40395913914065
 30
0.0
 10
167.8459723111111
 20
75.76220528822103
 30
0.0
 10
167.9484565776726
 20
77.60046528426133
 30
0.0
 10
168.0181854772853
 20
79.12164647769335
 30
0.0
 10
168.0576456996243
 20
80.02747888671023
 30
0.0
 10
168.0702223413167
 20
80.3161830289152
 30
0.0
  0
SPLINE
  5
15F
330
1F
100
AcDbEntity
  8
0
  6
Continuous
 62
     7
370
    25
100
AcDbSpline
210
0.0
220
0.0
230
1.0
 70
     8
 71
     3
 72
     9
 73
     5
 74
     0
 42
0.000000001
 43
0.00000001
 40
0.0
 40
0.0
 40
0.0
 40
0.0
 40
0.4983244219185156
 40
1.0
 40
1.0
 40
1.0
 40
1.0
 10
168.0702223413167
 20
80.3161830289152
 30
0.0
 10
168.0372196228956
 20
80.48997490862747
 30
0.0
 10
167.9709922477771
 20
80.83872739208631
 30
0.0
 10
167.8904616461116
 20
81.15317574765841
 30
0.0
 10
167.8500614099679
 20
81.31092680821683
 30
0.0
  0
ELLIPSE
  5
160
330
1F
100
AcDbEntity
  8
0
  6
Continuous
 62
     7
370
    25
100
AcDbEllipse
 10
105.5268092573
 20
78.6640572228
 30
0.0
 11
65.00000000000001
 21
-5.684341886080801E-14
 31
0.0
210
0.0
220
0.0
230
1.0
 40
0.2713992096
 41
6.084179739699227
 42
6.174194364446294
  0
SPLINE
  5
161
330
1F
100
AcDbEntity
  8
0
  6
Continuous
 62
     7
370
    25
100
AcDbSpline
210
0.0
220
0.0
230
1.0
 70
     8
 71
     3
 72
    13
 73
     9
 74
     0
 42
0.000000001
 43
0.00000001
 40
0.0
 40
0.0
 40
0.0
 40
0.0
 40
0.1610294667108458
 40
0.3266881201944549
 40
0.4877296242753278
 40
0.6535536689976723
 40
0.823760217438079
 40
1.0
 40
1.0
 40
1.0
 40
1.0
 10
169.2439467616854
 20
75.17653690854577
 30
0.0
 10
169.2001431710119
 20
75.10713976449513
 30
0.0
 10
169.1112767480696
 20
74.96635048536604
 30
0.0
 10
168.9822559354806
 20
74.62022642480586
 30
0.0
 10
168.8612464101436
 20
74.18101909618653
 30
0.0
 10
168.7545648631068
 20
73.64741748952771
 30
0.0
 10
168.6638983113043
 20
73.02359117288427
 30
0.0
 10
168.6270794145659
 20
72.55470730304015
 30
0.0
 10
168.608349372494
 20
72.31618264893558
 30
0.0
  0
LINE
  5
162
330
1F
100
AcDbEntity
  8
0
  6
Continuous
 62
     7
370
    25
100
AcDbLine
 10
168.6083493725
 20
72.3161826489
 30
0.0
 11
167.367086836
 21
72.3161826489
 31
0.0
  0
LINE
  5
163
330
1F
100
AcDbEntity
  8
0
  6
Continuous
 62
     7
370
    25
100
AcDbLine
 10
167.85006141
 20
81.3109268082
 30
0.0
 11
170.5268091493
 21
81.3109268082
 31
0.0
  0
SPLINE
  5
164
330
1F
100
AcDbEntity
  8
0
  6
Continuous
 62
     7
370
    25
100
AcDbSpline
210
0.0
220
0.0
230
1.0
 70
     8
 71
     3
 72
    17
 73
    13
 74
     0
 42
0.000000001
 43
0.00000001
 40
0.0
 40
0.0
 40
0.0
 40
0.0
 40
0.3241697917523345
 40
0.5422758587479237
 40
0.689509089275669
 40
0.7894035981534984
 40
0.8577089567094359
 40
0.9049823628410104
 40
0.9551711781537311
 40
0.9753097815865951
 40
0.991957189245944
 40
1.0
 40
1.0
 40
1.0
 40
1.0
 10
179.983396173316
 20
80.31618302891519
 30
0.0
 10
180.0240465777717
 20
79.40356937619858
 30
0.0
 10
180.0920471550788
 20
77.8769362202934
 30
0.0
 10
180.2034806746701
 20
75.95016330292471
 30
0.0
 10
180.2959852073261
 20
74.66252787883224
 30
0.0
 10
180.3738866495941
 20
73.80337616287602
 30
0.0
 10
180.4399388471199
 20
73.22990847511676
 30
0.0
 10
180.5032957966847
 20
72.80837611533714
 30
0.0
 10
180.5614216036693
 20
72.52788425214216
 30
0.0
 10
180.6207642642176
 20
72.37233405745557
 30
0.0
 10
180.6577697294207
 20
72.32172464131669
 30
0.0
 10
180.6794645992861
 20
72.31754436818538
 30
0.0
 10
180.6865316786347
 20
72.31618264893558
 30
0.0
  0
LINE
  5
165
330
1F
100
AcDbEntity
  8
0
  6
Continuous
 62
     7
370
    25
100
AcDbLine
 10
180.6865316786
 20
72.3161826489
 30
0.0
 11
179.4452691421
 21
72.3161826489
 31
0.0
  0
SPLINE
  5
166
330
1F
100
AcDbEntity
  8
0
  6
Continuous
 62
     7
370
    25
100
AcDbSpline
210
0.0
220
0.0
230
1.0
 70
     8
 71
     3
 72
    14
 73
    10
 74
     0
 42
0.000000001
 43
0.00000001
 40
0.0
 40
0.0
 40
0.0
 40
0.0
 40
0.1576094553927752
 40
0.315238234353942
 40
0.4726925966125388
 40
0.6301651045756322
 40
0.790731299294198
 40
0.9513051076307096
 40
1.0
 40
1.0
 40
1.0
 40
1.0
 10
179.4452691421387
 20
72.31618264893558
 30
0.0
 10
179.4287639626145
 20
72.52968432618258
 30
0.0
 10
179.3957515799632
 20
72.95671385686154
 30
0.0
 10
179.3159476107444
 20
73.54196131637234
 30
0.0
 10
179.2181601708843
 20
74.06411584383541
 30
0.0
 10
179.1045702478415
 20
74.51309405791503
 30
0.0
 10
178.9800283489222
 20
74.872376231087
 30
0.0
 10
178.8796705090082
 20
75.07694197346004
 30
0.0
 10
178.8228851752436
 20
75.15773671822932
 30
0.0
 10
178.8096717529473
 20
75.17653690854576
 30
0.0
  0
ELLIPSE
  5
167
330
1F
100
AcDbEntity
  8
0
  6
Continuous
 62
     7
370
    25
100
AcDbEllipse
 10
242.5268092573
 20
78.6640572228
 30
0.0
 11
65.00000000000006
 21
-5.684341886080801E-14
 31
0.0
210
0.0
220
0.0
230
1.0
 40
0.2713992096
 41
3.250583596323191
 42
3.340598221070259
  0
LINE
  5
168
330
1F
100
AcDbEntity
  8
0
  6
Continuous
 62
     7
370
    25
100
AcDbLine
 10
177.5268093653
 20
81.3109268082
 30
0.0
 11
180.2035571047
 21
81.3109268082
 31
0.0
  0
SPLINE
  5
169
330
1F
100
AcDbEntity
  8
0
  6
Continuous
 62
     7
370
    25
100
AcDbSpline
210
0.0
220
0.0
230
1.0
 70
     8
 71
     3
 72
     9
 73
     5
 74
     0
 42
0.000000001
 43
0.00000001
 40
0.0
 40
0.0
 40
0.0
 40
0.0
 40
0.4978404435797771
 40
1.0
 40
1.0
 40
1.0
 40
1.0
 10
180.2035571046648
 20
81.31092680821683
 30
0.0
 10
180.1634539796769
 20
81.15441552842591
 30
0.0
 10
180.0828998071402
 20
80.8400351244043
 30
0.0
 10
180.0166594178294
 20
80.49130246597919
 30
0.0
 10
179.983396173316
 20
80.31618302891519
 30
0.0
  0
LINE
  5
16A
330
1F
100
AcDbEntity
  8
0
  6
Continuous
 62
     7
370
    25
100
AcDbLine
 10
169.2439467617
 20
75.1765369085
 30
0.0
 11
178.8096717529
 21
75.1765369085
 31
0.0
  0
SPLINE
  5
16B
330
1F
100
AcDbEntity
  8
0
  6
Continuous
 62
     7
370
    25
100
AcDbSpline
210
0.0
220
0.0
230
1.0
 70
     8
 71
     3
 72
    20
 73
    16
 74
     0
 42
0.000000001
 43
0.00000001
 40
0.0
 40
0.0
 40
0.0
 40
0.0
 40
0.0541983892197581
 40
0.108455006629509
 40
0.1748676456855473
 40
0.2413639609389542
 40
0.328094328685751
 40
0.4149092198426188
 40
0.503182920372413
 40
0.591455333622778
 40
0.6906632499013349
 40
0.7897037756433406
 40
0.8506104381268789
 40
0.9114495354756834
 40
0.9999999999999999
 40
0.9999999999999999
 40
0.9999999999999999
 40
0.9999999999999999
 10
176.6248853847859
 20
72.31618264893558
 30
0.0
 10
176.5711681050203
 20
72.41090903425484
 30
0.0
 10
176.4636758341803
 20
72.60046357444854
 30
0.0
 10
176.2272605465212
 20
72.85818689680413
 30
0.0
 10
175.9321938494082
 20
73.08728587467057
 30
0.0
 10
175.5432756713555
 20
73.29566646074016
 30
0.0
 10
175.0812837790457
 20
73.45468670928902
 30
0.0
 10
174.5520760290547
 20
73.5534686725152
 30
0.0
 10
174.0078561726578
 20
73.58468020196955
 30
0.0
 10
173.4384420192875
 20
73.54717643403205
 30
0.0
 10
172.8617581276901
 20
73.42823285398029
 30
0.0
 10
172.3714305647502
 20
73.23446750429956
 30
0.0
 10
171.9985605593337
 20
72.99895381219645
 30
0.0
 10
171.6784180127514
 20
72.72517794229192
 30
0.0
 10
171.5216544962124
 20
72.46839211013179
 30
0.0
 10
171.4287331298468
 20
72.31618264893558
 30
0.0
  0
LINE
  5
16C
330
1F
100
AcDbEntity
  8
0
  6
Continuous
 62
     7
370
    25
100
AcDbLine
 10
171.4287331298
 20
72.3161826489
 30
0.0
 11
168.6083493725
 21
72.3161826489
 31
0.0
  0
LINE
  5
16D
330
1F
100
AcDbEntity
  8
0
  6
Continuous
 62
     7
370
    25
100
AcDbLine
 10
179.4452691421
 20
72.3161826489
 30
0.0
 11
176.6248853848
 21
72.3161826489
 31
0.0
  0
LINE
  5
16E
330
1F
100
AcDbEntity
  8
0
  6
Continuous
 62
     7
370
    25
100
AcDbLine
 10
176.6248853848
 20
72.3161826489
 30
0.0
 11
171.4287331298
 21
72.3161826489
 31
0.0
  0
LINE
  5
16F
330
1F
100
AcDbEntity
  8
0
  6
Continuous
 62
     7
370
    25
100
AcDbLine
 10
179.9833961733
 20
80.3161830289
 30
0.0
 11
181.4768091746
 21
80.3161830289
 31
0.0
  0
LINE
  5
170
330
1F
100
AcDbEntity
  8
0
  6
Continuous
 62
     7
370
    25
100
AcDbLine
 10
166.57680934
 20
80.3161830289
 30
0.0
 11
168.0702223413
 21
80.3161830289
 31
0.0
  0
SPLINE
  5
171
330
1F
100
AcDbEntity
  8
0
  6
Continuous
 62
     7
370
    25
100
AcDbSpline
210
0.0
220
0.0
230
1.0
 70
     8
 71
     3
 72
     9
 73
     5
 74
     0
 42
0.000000001
 43
0.00000001
 40
0.0
 40
0.0
 40
0.0
 40
0.0
 40
0.4875149508301391
 40
1.0
 40
1.0
 40
1.0
 40
1.0
 10
180.6865316786347
 20
72.3161826489356
 30
0.0
 10
180.6950577313026
 20
72.31791023050708
 30
0.0
 10
180.7125465337555
 20
72.32145387889892
 30
0.0
 10
180.7288682460625
 20
72.34297214416664
 30
0.0
 10
180.7372328795967
 20
72.35399993340042
 30
0.0
  0
SPLINE
  5
172
330
1F
100
AcDbEntity
  8
0
  6
Continuous
 62
     7
370
    25
100
AcDbSpline
210
0.0
220
0.0
230
1.0
 70
     8
 71
     3
 72
     9
 73
     5
 74
     0
 42
0.000000001
 43
0.00000001
 40
0.0
 40
0.0
 40
0.0
 40
0.0
 40
0.5124863176752154
 40
1.0
 40
1.0
 40
1.0
 40
1.0
 10
167.316385635036
 20
72.35399993340042
 30
0.0
 10
167.3247502567832
 20
72.34297214458184
 30
0.0
 10
167.3410719056912
 20
72.32145393338624
 30
0.0
 10
167.3585607736028
 20
72.3179102453427
 30
0.0
 10
167.3670868359981
 20
72.31618264893558
 30
0.0
  0
LINE
  5
173
330
1F
100
AcDbEntity
  8
0
  6
Continuous
 62
     7
370
    25
100
AcDbLine
 10
180.7350130722
 20
72.3161826489
 30
0.0
 11
181.0268094734
 21
72.3161826489
 31
0.0
  0
LINE
  5
174
330
1F
100
AcDbEntity
  8
0
  6
Continuous
 62
     7
370
    25
100
AcDbLine
 10
167.0268090412
 20
72.3161826489
 30
0.0
 11
167.3186054424
 21
72.3161826489
 31
0.0
  0
LINE
  5
175
330
1F
100
AcDbEntity
  8
0
  6
Continuous
 62
     7
370
    25
100
AcDbLine
 10
180.7372328796
 20
72.3539999334
 30
0.0
 11
180.7350130722
 21
72.3161826489
 31
0.0
  0
LINE
  5
176
330
1F
100
AcDbEntity
  8
0
  6
Continuous
 62
     7
370
    25
100
AcDbLine
 10
180.7350130722
 20
72.3161826489
 30
0.0
 11
180.6865316786
 21
72.3161826489
 31
0.0
  0
LINE
  5
177
330
1F
100
AcDbEntity
  8
0
  6
Continuous
 62
     7
370
    25
100
AcDbLine
 10
167.3186054424
 20
72.3161826489
 30
0.0
 11
167.316385635
 21
72.3539999334
 31
0.0
  0
LINE
  5
178
330
1F
100
AcDbEntity
  8
0
  6
Continuous
 62
     7
370
    25
100
AcDbLine
 10
167.367086836
 20
72.3161826489
 30
0.0
 11
167.3186054424
 21
72.3161826489
 31
0.0
  0
CIRCLE
  5
179
330
1F
100
AcDbEntity
  8
0
  6
Continuous
 62
     7
370
    25
100
AcDbCircle
 10
174.0268092573
 20
61.8161827905
 30
0.0
 40
3.099999999999991
  0
CIRCLE
  5
17A
330
1F
100
AcDbEntity
  8
0
  6
Continuous
 62
     7
370
    25
100
AcDbCircle
 10
174.0268092573
 20
61.8161827905
 30
0.0
 40
2.999999999999995
  0
CIRCLE
  5
17B
330
1F
100
AcDbEntity
  8
0
  6
Continuous
 62
     7
370
    25
100
AcDbCircle
 10
174.0268092573
 20
61.8161827905
 30
0.0
 40
4.099999999999993
  0
CIRCLE
  5
17C
330
1F
100
AcDbEntity
  8
0
  6
Continuous
 62
     7
370
    25
100
AcDbCircle
 10
174.0268092573
 20
61.8161827905
 30
0.0
 40
4.580000000000012
  0
CIRCLE
  5
17D
330
1F
100
AcDbEntity
  8
0
  6
Continuous
 62
     7
370
    25
100
AcDbCircle
 10
174.0268092573
 20
61.8161827905
 30
0.0
 40
5.249999999999973
  0
CIRCLE
  5
17E
330
1F
100
AcDbEntity
  8
0
  6
Continuous
 62
     7
370
    25
100
AcDbCircle
 10
174.0268092573
 20
61.8161827905
 30
0.0
 40
7.799999999999986
  0
CIRCLE
  5
17F
330
1F
100
AcDbEntity
  8
0
  6
Continuous
 62
     7
370
    25
100
AcDbCircle
 10
174.0268092573
 20
61.8161827905
 30
0.0
 40
7.999999999999986
  0
CIRCLE
  5
180
330
1F
100
AcDbEntity
  8
0
  6
Continuous
 62
     7
370
    25
100
AcDbCircle
 10
174.0268092573
 20
61.8161827905
 30
0.0
 40
9.750000000000028
  0
CIRCLE
  5
181
330
1F
100
AcDbEntity
  8
0
  6
Continuous
 62
     7
370
    25
100
AcDbCircle
 10
174.0268092573
 20
61.8161827905
 30
0.0
 40
10.00000000000003
  0
SPLINE
  5
182
330
1F
100
AcDbEntity
  8
0
  6
Continuous
 62
     7
370
    25
100
AcDbSpline
210
0.0
220
0.0
230
1.0
 70
     8
 71
     3
 72
    12
 73
     8
 74
     0
 42
0.000000001
 43
0.00000001
 40
0.0
 40
0.0
 40
0.0
 40
0.0
 40
0.2189570328776399
 40
0.445807827548198
 40
0.6753666123277168
 40
0.906495714678221
 40
1.0
 40
1.0
 40
1.0
 40
1.0
 10
179.9264937609909
 20
70.81427691707877
 30
0.0
 10
179.9248798192535
 20
70.80496754340791
 30
0.0
 10
179.92159375052
 20
70.78601317780708
 30
0.0
 10
179.8957198605988
 20
70.6222290754829
 30
0.0
 10
179.8663716442715
 20
70.37459387132006
 30
0.0
 10
179.846574010078
 20
70.12301095274444
 30
0.0
 10
179.8442372113985
 20
69.96488737565515
 30
0.0
 10
179.8435641423342
 20
69.91934297809865
 30
0.0
  0
SPLINE
  5
183
330
1F
100
AcDbEntity
  8
0
  6
Continuous
 62
     7
370
    25
100
AcDbSpline
210
0.0
220
0.0
230
1.0
 70
    24
 71
     3
 72
    14
 73
    10
 74
     0
 42
0.000000001
 43
0.00000001
 40
0.0
 40
0.0
 40
0.0
 40
0.0
 40
0.08370506487677
 40
0.2629787593415774
 40
0.4498652239136089
 40
0.6371136402532483
 40
0.8243676640623874
 40
0.9376320544946682
 40
1.0
 40
1.0
 40
1.0
 40
1.0
 10
180.2268094353852
 20
70.35061424801614
 30
0.0
 10
180.2268094353852
 20
70.35196468719077
 30
0.0
 10
180.2268094353852
 20
70.35620740319878
 30
0.0
 10
180.2268094353852
 20
70.2930775549549
 30
0.0
 10
180.2268094353852
 20
70.17125707093854
 30
0.0
 10
180.2268094353852
 20
70.00367439763214
 30
0.0
 10
180.2268094353852
 20
69.84152827455083
 30
0.0
 10
180.2268094353852
 20
69.71856590891821
 30
0.0
 10
180.2268094353852
 20
69.66470921979324
 30
0.0
 10
180.2268094353852
 20
69.64558443258073
 30
0.0
  0
LINE
  5
184
330
1F
100
AcDbEntity
  8
0
  6
Continuous
 62
     8
370
    25
100
AcDbLine
 10
179.5268092275
 20
88.916183321
 30
0.0
 11
177.5268093653
 21
88.916183321
 31
0.0
  0
LINE
  5
185
330
1F
100
AcDbEntity
  8
0
  6
Continuous
 62
     8
370
    25
100
AcDbLine
 10
170.5268091493
 20
88.916183321
 30
0.0
 11
168.5268092871
 21
88.916183321
 31
0.0
  0
INSERT
  5
191
330
1F
100
AcDbEntity
  8
0
  6
Continuous
 62
     7
370
    18
100
AcDbBlockReference
  2
SW_CENTERMARKSYMBOL_0
 10
174.0268092573
 20
61.8161827905
 30
0.0
  0
LINE
  5
192
330
1F
100
AcDbEntity
  8
0
  6
Continuous
 62
     7
370
    25
100
AcDbLine
 10
119.6805424183
 20
117.7564102307
 30
0.0
 11
119.8805430099
 21
117.9564108223
 31
0.0
  0
LINE
  5
193
330
1F
100
AcDbEntity
  8
0
  6
Continuous
 62
     7
370
    25
100
AcDbLine
 10
119.8805430099
 20
133.5564103991
 30
0.0
 11
119.6805424183
 21
133.7564109907
 31
0.0
  0
LINE
  5
194
330
1F
100
AcDbEntity
  8
0
  6
Continuous
 62
     7
370
    25
100
AcDbLine
 10
116.8805425182
 20
117.7564102307
 30
0.0
 11
119.6805424183
 21
117.7564102307
 31
0.0
  0
LINE
  5
195
330
1F
100
AcDbEntity
  8
0
  6
Continuous
 62
     7
370
    25
100
AcDbLine
 10
119.6805424183
 20
133.7564109907
 30
0.0
 11
116.8805425182
 21
133.7564109907
 31
0.0
  0
LINE
  5
196
330
1F
100
AcDbEntity
  8
0
  6
Continuous
 62
     7
370
    25
100
AcDbLine
 10
133.3805424288
 20
120.5064106815
 30
0.0
 11
137.880542235
 21
121.2564108044
 31
0.0
  0
LINE
  5
197
330
1F
100
AcDbEntity
  8
0
  6
Continuous
 62
     7
370
    25
100
AcDbLine
 10
137.880542235
 20
130.256410417
 30
0.0
 11
133.3805424288
 21
131.0064105399
 31
0.0
  0
LINE
  5
198
330
1F
100
AcDbEntity
  8
0
  6
Continuous
 62
     7
370
    25
100
AcDbLine
 10
137.880542235
 20
120.5064106815
 30
0.0
 11
142.380543904
 21
121.2564108044
 31
0.0
  0
LINE
  5
199
330
1F
100
AcDbEntity
  8
0
  6
Continuous
 62
     7
370
    25
100
AcDbLine
 10
142.380543904
 20
130.256410417
 30
0.0
 11
137.880542235
 21
131.0064105399
 31
0.0
  0
LINE
  5
19A
330
1F
100
AcDbEntity
  8
0
  6
Continuous
 62
     7
370
    25
100
AcDbLine
 10
142.380543904
 20
120.5064106815
 30
0.0
 11
146.4005419179
 21
121.1764106609
 31
0.0
  0
LINE
  5
19B
330
1F
100
AcDbEntity
  8
0
  6
Continuous
 62
     7
370
    25
100
AcDbLine
 10
146.4005419179
 20
130.3364105605
 30
0.0
 11
142.380543904
 21
131.0064105399
 31
0.0
  0
LINE
  5
19C
330
1F
100
AcDbEntity
  8
0
  6
Continuous
 62
     7
370
    25
100
AcDbLine
 10
119.8805430099
 20
120.5064106815
 30
0.0
 11
124.3805428162
 21
120.5064106815
 31
0.0
  0
LINE
  5
19D
330
1F
100
AcDbEntity
  8
0
  6
Continuous
 62
     7
370
    25
100
AcDbLine
 10
124.3805428162
 20
131.0064105399
 30
0.0
 11
119.8805430099
 21
131.0064105399
 31
0.0
  0
LINE
  5
19E
330
1F
100
AcDbEntity
  8
0
  6
Continuous
 62
     7
370
    25
100
AcDbLine
 10
128.8805426225
 20
120.5064106815
 30
0.0
 11
133.3805424288
 21
121.2564108044
 31
0.0
  0
LINE
  5
19F
330
1F
100
AcDbEntity
  8
0
  6
Continuous
 62
     7
370
    25
100
AcDbLine
 10
133.3805424288
 20
130.256410417
 30
0.0
 11
128.8805426225
 21
131.0064105399
 31
0.0
  0
LINE
  5
1A0
330
1F
100
AcDbEntity
  8
0
  6
Continuous
 62
     7
370
    25
100
AcDbLine
 10
124.3805428162
 20
120.5064106815
 30
0.0
 11
128.8805426225
 21
121.2564108044
 31
0.0
  0
LINE
  5
1A1
330
1F
100
AcDbEntity
  8
0
  6
Continuous
 62
     7
370
    25
100
AcDbLine
 10
128.8805426225
 20
130.256410417
 30
0.0
 11
124.3805428162
 21
131.0064105399
 31
0.0
  0
LINE
  5
1A2
330
1F
100
AcDbEntity
  8
0
  6
Continuous
 62
     7
370
    25
100
AcDbLine
 10
146.4005419179
 20
121.1764106609
 30
0.0
 11
146.8805418476
 21
121.6564105906
 31
0.0
  0
LINE
  5
1A3
330
1F
100
AcDbEntity
  8
0
  6
Continuous
 62
     7
370
    25
100
AcDbLine
 10
146.8805418476
 20
129.8564106308
 30
0.0
 11
146.4005419179
 21
130.3364105605
 31
0.0
  0
LINE
  5
1A4
330
1F
100
AcDbEntity
  8
0
  6
Continuous
 62
     7
370
    25
100
AcDbLine
 10
97.3805430472
 20
135.7564103872
 30
0.0
 11
96.8805429652
 21
135.2564103052
 31
0.0
  0
LINE
  5
1A5
330
1F
100
AcDbEntity
  8
0
  6
Continuous
 62
     7
370
    25
100
AcDbLine
 10
96.8805429652
 20
116.2564109162
 30
0.0
 11
97.3805430472
 21
115.7564108342
 31
0.0
  0
ARC
  5
1A6
330
1F
100
AcDbEntity
  8
0
  6
Continuous
 62
     7
370
    25
100
AcDbCircle
 10
97.8805427417
 20
116.7564106107
 30
0.0
 40
1.5
100
AcDbArc
 50
318.1896851042
 51
0.0
  0
ARC
  5
1A7
330
1F
100
AcDbEntity
  8
0
  6
Continuous
 62
     7
370
    25
100
AcDbCircle
 10
97.8805427417
 20
134.7564106107
 30
0.0
 40
1.5
100
AcDbArc
 50
0.0
 51
41.8103148958
  0
LINE
  5
1A8
330
1F
100
AcDbEntity
  8
0
  6
Continuous
 62
     7
370
    25
100
AcDbLine
 10
116.6305429428
 20
135.7564103872
 30
0.0
 11
114.7625091612
 21
135.7564103872
 31
0.0
  0
LINE
  5
1A9
330
1F
100
AcDbEntity
  8
0
  6
Continuous
 62
     7
370
    25
100
AcDbLine
 10
114.7625091612
 20
115.7564108342
 30
0.0
 11
116.6305429428
 21
115.7564108342
 31
0.0
  0
LINE
  5
1AA
330
1F
100
AcDbEntity
  8
0
  6
Continuous
 62
     7
370
    25
100
AcDbLine
 10
116.6305429428
 20
115.7564108342
 30
0.0
 11
116.8805425182
 21
116.0064104095
 31
0.0
  0
LINE
  5
1AB
330
1F
100
AcDbEntity
  8
0
  6
Continuous
 62
     7
370
    25
100
AcDbLine
 10
116.8805425182
 20
135.5064108119
 30
0.0
 11
116.6305429428
 21
135.7564103872
 31
0.0
  0
ARC
  5
1AC
330
1F
100
AcDbEntity
  8
0
  6
Continuous
 62
     7
370
    25
100
AcDbCircle
 10
115.8805427417
 20
134.7564106107
 30
0.0
 40
1.499999999999994
100
AcDbArc
 50
138.1896851042
 51
180.0
  0
ARC
  5
1AD
330
1F
100
AcDbEntity
  8
0
  6
Continuous
 62
     7
370
    25
100
AcDbCircle
 10
115.8805427417
 20
116.7564106107
 30
0.0
 40
1.499999999999994
100
AcDbArc
 50
180.0
 51
221.8103148958
  0
LINE
  5
1AE
330
1F
100
AcDbEntity
  8
0
  6
Continuous
 62
     7
370
    25
100
AcDbLine
 10
97.3805430472
 20
115.7564108342
 30
0.0
 11
98.9985763222
 21
115.7564108342
 31
0.0
  0
LINE
  5
1AF
330
1F
100
AcDbEntity
  8
0
  6
Continuous
 62
     7
370
    25
100
AcDbLine
 10
98.9985763222
 20
135.7564103872
 30
0.0
 11
97.3805430472
 21
135.7564103872
 31
0.0
  0
LINE
  5
1B0
330
1F
100
AcDbEntity
  8
0
  6
Continuous
 62
     7
370
    25
100
AcDbLine
 10
96.8805429652
 20
132.5007399626
 30
0.0
 11
89.0446686312
 21
132.2558687151
 31
0.0
  0
LINE
  5
1B1
330
1F
100
AcDbEntity
  8
0
  6
Continuous
 62
     7
370
    25
100
AcDbLine
 10
89.0446686312
 20
119.2569525063
 30
0.0
 11
96.8805429652
 21
119.0120812588
 31
0.0
  0
LINE
  5
1B2
330
1F
100
AcDbEntity
  8
0
  6
Continuous
 62
     7
370
    25
100
AcDbLine
 10
89.0446686312
 20
132.2558687151
 30
0.0
 11
86.8805431887
 21
131.0064105399
 31
0.0
  0
LINE
  5
1B3
330
1F
100
AcDbEntity
  8
0
  6
Continuous
 62
     7
370
    25
100
AcDbLine
 10
86.8805431887
 20
120.5064106815
 30
0.0
 11
89.0446686312
 21
119.2569525063
 31
0.0
  0
SPLINE
  5
1B4
330
1F
100
AcDbEntity
  8
0
  6
Continuous
 62
     7
370
    25
100
AcDbSpline
210
0.0
220
0.0
230
1.0
 70
     8
 71
     3
 72
    15
 73
    11
 74
     0
 42
0.000000001
 43
0.00000001
 40
0.0
 40
0.0
 40
0.0
 40
0.0
 40
0.0090436668555053
 40
0.1032416108587011
 40
0.1542555096908477
 40
0.3133160372726557
 40
0.5243720667937798
 40
0.6678058153000223
 40
0.9918331445062708
 40
0.9999999999999999
 40
0.9999999999999999
 40
0.9999999999999999
 40
0.9999999999999999
 10
101.6414574473759
 20
127.4303237058377
 30
0.0
 10
101.6414632028756
 20
127.4303060400509
 30
0.0
 10
101.6415289070938
 20
127.4301043691679
 30
0.0
 10
101.6435239928826
 20
127.4239148516056
 30
0.0
 10
101.6513402156182
 20
127.3997133571635
 30
0.0
 10
101.668511211259
 20
127.3466936834254
 30
0.0
 10
101.6950942240637
 20
127.2653235845926
 30
0.0
 10
101.7329243923462
 20
127.1507439554399
 30
0.0
 10
101.7612035858641
 20
127.0663186158356
 30
0.0
 10
101.7810356766428
 20
127.0078480570548
 30
0.0
 10
101.7815232403239
 20
127.0064105827516
 30
0.0
  0
ARC
  5
1B5
330
1F
100
AcDbEntity
  8
0
  6
Continuous
 62
     7
370
    25
100
AcDbCircle
 10
106.8805427417
 20
125.7564106107
 30
0.0
 40
5.500000000000015
100
AcDbArc
 50
17.7189318734
 51
162.2810681266
  0
SPLINE
  5
1B6
330
1F
100
AcDbEntity
  8
0
  6
Continuous
 62
     7
370
    25
100
AcDbSpline
210
0.0
220
0.0
230
1.0
 70
     8
 71
     3
 72
    15
 73
    11
 74
     0
 42
0.000000001
 43
0.00000001
 40
0.0
 40
0.0
 40
0.0
 40
0.0
 40
0.0081668554937291
 40
0.3321941846999776
 40
0.4756279332062201
 40
0.6866839627273442
 40
0.8457444903091523
 40
0.8967583891412989
 40
0.9909563331444947
 40
1.0
 40
1.0
 40
1.0
 40
1.0
 10
111.9795622430405
 20
127.0064105827516
 30
0.0
 10
111.9800498067216
 20
127.0078480570548
 30
0.0
 10
111.9998818975003
 20
127.0663186158356
 30
0.0
 10
112.0281610910182
 20
127.1507439554399
 30
0.0
 10
112.0659912593007
 20
127.2653235845926
 30
0.0
 10
112.0925742721054
 20
127.3466936834254
 30
0.0
 10
112.1097452677462
 20
127.3997133571635
 30
0.0
 10
112.1175614904818
 20
127.4239148516056
 30
0.0
 10
112.1195565762706
 20
127.4301043691679
 30
0.0
 10
112.1196222804888
 20
127.4303060400509
 30
0.0
 10
112.1196280359885
 20
127.4303237058377
 30
0.0
  0
ARC
  5
1B7
330
1F
100
AcDbEntity
  8
0
  6
Continuous
 62
     7
370
    25
100
AcDbCircle
 10
106.8805427417
 20
125.7564106107
 30
0.0
 40
5.250000000000009
100
AcDbArc
 50
13.774146998
 51
166.225853002
  0
SPLINE
  5
1B8
330
1F
100
AcDbEntity
  8
0
  6
Continuous
 62
     7
370
    25
100
AcDbSpline
210
0.0
220
0.0
230
1.0
 70
     8
 71
     3
 72
    15
 73
    11
 74
     0
 42
0.000000001
 43
0.00000001
 40
0.0
 40
0.0
 40
0.0
 40
0.0
 40
0.0089534934608068
 40
0.0998985020501141
 40
0.1531621750630547
 40
0.3125626131158444
 40
0.524966528186016
 40
0.6689889196484162
 40
0.9919154833883785
 40
0.9999999999999999
 40
0.9999999999999999
 40
0.9999999999999999
 40
0.9999999999999999
 10
112.3577681496402
 20
127.2564106237298
 30
0.0
 10
112.3577524859688
 20
127.2563998379605
 30
0.0
 10
112.3575777187322
 20
127.2562794958618
 30
0.0
 10
112.3521470471318
 20
127.2525609046354
 30
0.0
 10
112.3306133570789
 20
127.2378503230759
 30
0.0
 10
112.2829063107863
 20
127.2054009514648
 30
0.0
 10
112.2105165026164
 20
127.1568174736504
 30
0.0
 10
112.10859683705
 20
127.0894460802982
 30
0.0
 10
112.033240717533
 20
127.0406347030318
 30
0.0
 10
111.9808420134728
 20
127.0072265339801
 30
0.0
 10
111.9795622430405
 20
127.0064105827516
 30
0.0
  0
ARC
  5
1B9
330
1F
100
AcDbEntity
  8
0
  6
Continuous
 62
     7
370
    25
100
AcDbCircle
 10
112.3577683167
 20
127.5064106107
 30
0.0
 40
0.25
100
AcDbArc
 50
197.7189318734
 51
270.0
  0
SPLINE
  5
1BA
330
1F
100
AcDbEntity
  8
0
  6
Continuous
 62
     7
370
    25
100
AcDbSpline
210
0.0
220
0.0
230
1.0
 70
     8
 71
     3
 72
    15
 73
    11
 74
     0
 42
0.000000001
 43
0.00000001
 40
0.0
 40
0.0
 40
0.0
 40
0.0
 40
0.0080845166116213
 40
0.3310110803515837
 40
0.4750334718139839
 40
0.6874373868841556
 40
0.8468378249369453
 40
0.9001014979498858
 40
0.9910465065391931
 40
0.9999999999999999
 40
0.9999999999999999
 40
0.9999999999999999
 40
0.9999999999999999
 10
101.7815232403239
 20
127.0064105827516
 30
0.0
 10
101.7802434698916
 20
127.0072265339801
 30
0.0
 10
101.7278447658314
 20
127.0406347030318
 30
0.0
 10
101.6524886463144
 20
127.0894460802982
 30
0.0
 10
101.550568980748
 20
127.1568174736504
 30
0.0
 10
101.4781791725781
 20
127.2054009514648
 30
0.0
 10
101.4304721262855
 20
127.2378503230759
 30
0.0
 10
101.4089384362326
 20
127.2525609046354
 30
0.0
 10
101.4035077646322
 20
127.2562794958618
 30
0.0
 10
101.4033329973956
 20
127.2563998379605
 30
0.0
 10
101.4033173337242
 20
127.2564106237298
 30
0.0
  0
ARC
  5
1BB
330
1F
100
AcDbEntity
  8
0
  6
Continuous
 62
     7
370
    25
100
AcDbCircle
 10
101.4033171666
 20
127.5064106107
 30
0.0
 40
0.25
100
AcDbArc
 50
270.0
 51
342.2810681266
  0
SPLINE
  5
1BC
330
1F
100
AcDbEntity
  8
0
  6
Continuous
 62
     7
370
    25
100
AcDbSpline
210
0.0
220
0.0
230
1.0
 70
     8
 71
     3
 72
    15
 73
    11
 74
     0
 42
0.000000001
 43
0.00000001
 40
0.0
 40
0.0
 40
0.0
 40
0.0
 40
0.0081668554937291
 40
0.3321941846999776
 40
0.4756279332062201
 40
0.6866839627273442
 40
0.8457444903091523
 40
0.8967583891412989
 40
0.9909563331444947
 40
1.0
 40
1.0
 40
1.0
 40
1.0
 10
101.7815232403239
 20
124.5064106386309
 30
0.0
 10
101.7810356766428
 20
124.5049731643277
 30
0.0
 10
101.7612035858641
 20
124.446502605547
 30
0.0
 10
101.7329243923462
 20
124.3620772659427
 30
0.0
 10
101.6950942240637
 20
124.24749763679
 30
0.0
 10
101.668511211259
 20
124.1661275379571
 30
0.0
 10
101.6513402156182
 20
124.113107864219
 30
0.0
 10
101.6435239928826
 20
124.0889063697769
 30
0.0
 10
101.6415289070938
 20
124.0827168522147
 30
0.0
 10
101.6414632028756
 20
124.0825151813316
 30
0.0
 10
101.6414574473759
 20
124.0824975155448
 30
0.0
  0
ARC
  5
1BD
330
1F
100
AcDbEntity
  8
0
  6
Continuous
 62
     7
370
    25
100
AcDbCircle
 10
106.8805427417
 20
125.7564106107
 30
0.0
 40
5.250000000000009
100
AcDbArc
 50
193.774146998
 51
346.225853002
  0
SPLINE
  5
1BE
330
1F
100
AcDbEntity
  8
0
  6
Continuous
 62
     7
370
    25
100
AcDbSpline
210
0.0
220
0.0
230
1.0
 70
     8
 71
     3
 72
    15
 73
    11
 74
     0
 42
0.000000001
 43
0.00000001
 40
0.0
 40
0.0
 40
0.0
 40
0.0
 40
0.0090436668555053
 40
0.1032416108587011
 40
0.1542555096908477
 40
0.3133160372726557
 40
0.5243720667937798
 40
0.6678058153000223
 40
0.9918331445062708
 40
0.9999999999999999
 40
0.9999999999999999
 40
0.9999999999999999
 40
0.9999999999999999
 10
112.1196280359885
 20
124.0824975155448
 30
0.0
 10
112.1196222804888
 20
124.0825151813316
 30
0.0
 10
112.1195565762706
 20
124.0827168522147
 30
0.0
 10
112.1175614904818
 20
124.0889063697769
 30
0.0
 10
112.1097452677462
 20
124.113107864219
 30
0.0
 10
112.0925742721054
 20
124.1661275379571
 30
0.0
 10
112.0659912593007
 20
124.24749763679
 30
0.0
 10
112.0281610910182
 20
124.3620772659427
 30
0.0
 10
111.9998818975003
 20
124.446502605547
 30
0.0
 10
111.9800498067216
 20
124.5049731643277
 30
0.0
 10
111.9795622430405
 20
124.5064106386309
 30
0.0
  0
ARC
  5
1BF
330
1F
100
AcDbEntity
  8
0
  6
Continuous
 62
     7
370
    25
100
AcDbCircle
 10
106.8805427417
 20
125.7564106107
 30
0.0
 40
5.500000000000011
100
AcDbArc
 50
197.7189318734
 51
342.2810681266
  0
ARC
  5
1C0
330
1F
100
AcDbEntity
  8
0
  6
Continuous
 62
     7
370
    25
100
AcDbCircle
 10
112.3577683167
 20
124.0064106107
 30
0.0
 40
0.25
100
AcDbArc
 50
90.0
 51
162.2810681266
  0
SPLINE
  5
1C1
330
1F
100
AcDbEntity
  8
0
  6
Continuous
 62
     7
370
    25
100
AcDbSpline
210
0.0
220
0.0
230
1.0
 70
     8
 71
     3
 72
    15
 73
    11
 74
     0
 42
0.000000001
 43
0.00000001
 40
0.0
 40
0.0
 40
0.0
 40
0.0
 40
0.0080845166116213
 40
0.3310110803515837
 40
0.4750334718139839
 40
0.6874373868841556
 40
0.8468378249369453
 40
0.9001014979498858
 40
0.9910465065391931
 40
0.9999999999999999
 40
0.9999999999999999
 40
0.9999999999999999
 40
0.9999999999999999
 10
111.9795622430405
 20
124.5064106386309
 30
0.0
 10
111.9808420134728
 20
124.5055946874024
 30
0.0
 10
112.033240717533
 20
124.4721865183508
 30
0.0
 10
112.10859683705
 20
124.4233751410843
 30
0.0
 10
112.2105165026164
 20
124.3560037477322
 30
0.0
 10
112.2829063107863
 20
124.3074202699177
 30
0.0
 10
112.3306133570789
 20
124.2749708983067
 30
0.0
 10
112.3521470471318
 20
124.2602603167471
 30
0.0
 10
112.3575777187322
 20
124.2565417255207
 30
0.0
 10
112.3577524859688
 20
124.256421383422
 30
0.0
 10
112.3577681496402
 20
124.2564105976527
 30
0.0
  0
ARC
  5
1C2
330
1F
100
AcDbEntity
  8
0
  6
Continuous
 62
     7
370
    25
100
AcDbCircle
 10
101.4033171666
 20
124.0064106107
 30
0.0
 40
0.2500000000000034
100
AcDbArc
 50
17.7189318734
 51
90.0
  0
SPLINE
  5
1C3
330
1F
100
AcDbEntity
  8
0
  6
Continuous
 62
     7
370
    25
100
AcDbSpline
210
0.0
220
0.0
230
1.0
 70
     8
 71
     3
 72
    15
 73
    11
 74
     0
 42
0.000000001
 43
0.00000001
 40
0.0
 40
0.0
 40
0.0
 40
0.0
 40
0.0089534934608068
 40
0.0998985020501141
 40
0.1531621750630547
 40
0.3125626131158444
 40
0.524966528186016
 40
0.6689889196484162
 40
0.9919154833883785
 40
0.9999999999999999
 40
0.9999999999999999
 40
0.9999999999999999
 40
0.9999999999999999
 10
101.4033173337242
 20
124.2564105976527
 30
0.0
 10
101.4033329973956
 20
124.256421383422
 30
0.0
 10
101.4035077646322
 20
124.2565417255207
 30
0.0
 10
101.4089384362326
 20
124.2602603167471
 30
0.0
 10
101.4304721262855
 20
124.2749708983067
 30
0.0
 10
101.4781791725781
 20
124.3074202699177
 30
0.0
 10
101.550568980748
 20
124.3560037477322
 30
0.0
 10
101.6524886463144
 20
124.4233751410843
 30
0.0
 10
101.7278447658314
 20
124.4721865183508
 30
0.0
 10
101.7802434698916
 20
124.5055946874024
 30
0.0
 10
101.7815232403239
 20
124.5064106386309
 30
0.0
  0
LINE
  5
1C4
330
1F
100
AcDbEntity
  8
0
  6
Continuous
 62
     7
370
    25
100
AcDbLine
 10
101.8805428534
 20
125.1564105822
 30
0.0
 11
111.8805426299
 21
125.1564105822
 31
0.0
  0
LINE
  5
1C5
330
1F
100
AcDbEntity
  8
0
  6
Continuous
 62
     7
370
    25
100
AcDbLine
 10
101.8805428534
 20
126.3564106392
 30
0.0
 11
101.8805428534
 21
125.1564105822
 31
0.0
  0
LINE
  5
1C6
330
1F
100
AcDbEntity
  8
0
  6
Continuous
 62
     7
370
    25
100
AcDbLine
 10
111.8805426299
 20
126.3564106392
 30
0.0
 11
101.8805428534
 21
126.3564106392
 31
0.0
  0
LINE
  5
1C7
330
1F
100
AcDbEntity
  8
0
  6
Continuous
 62
     7
370
    25
100
AcDbLine
 10
111.8805426299
 20
125.1564105822
 30
0.0
 11
111.8805426299
 21
126.3564106392
 31
0.0
  0
LINE
  5
1C8
330
1F
100
AcDbEntity
  8
0
  6
Continuous
 62
     7
370
    25
100
AcDbLine
 10
101.1305427305
 20
124.5064106386
 30
0.0
 11
101.7815232403
 21
124.5064106386
 31
0.0
  0
LINE
  5
1C9
330
1F
100
AcDbEntity
  8
0
  6
Continuous
 62
     7
370
    25
100
AcDbLine
 10
101.1305427305
 20
127.0064105828
 30
0.0
 11
101.1305427305
 21
124.5064106386
 31
0.0
  0
LINE
  5
1CA
330
1F
100
AcDbEntity
  8
0
  6
Continuous
 62
     7
370
    25
100
AcDbLine
 10
101.7815232403
 20
127.0064105828
 30
0.0
 11
101.1305427305
 21
127.0064105828
 31
0.0
  0
LINE
  5
1CB
330
1F
100
AcDbEntity
  8
0
  6
Continuous
 62
     7
370
    25
100
AcDbLine
 10
112.6305427529
 20
127.0064105828
 30
0.0
 11
111.979562243
 21
127.0064105828
 31
0.0
  0
LINE
  5
1CC
330
1F
100
AcDbEntity
  8
0
  6
Continuous
 62
     7
370
    25
100
AcDbLine
 10
112.6305427529
 20
124.5064106386
 30
0.0
 11
112.6305427529
 21
127.0064105828
 31
0.0
  0
LINE
  5
1CD
330
1F
100
AcDbEntity
  8
0
  6
Continuous
 62
     7
370
    25
100
AcDbLine
 10
111.979562243
 20
124.5064106386
 30
0.0
 11
112.6305427529
 21
124.5064106386
 31
0.0
  0
ARC
  5
1CE
330
1F
100
AcDbEntity
  8
0
  6
Continuous
 62
     7
370
    25
100
AcDbCircle
 10
101.1305427417
 20
127.0064106107
 30
0.0
 40
0.25
100
AcDbArc
 50
90.0
 51
180.0
  0
LINE
  5
1CF
330
1F
100
AcDbEntity
  8
0
  6
Continuous
 62
     7
370
    25
100
AcDbLine
 10
101.1305427305
 20
127.2564106237
 30
0.0
 11
101.1305427305
 21
127.0064105828
 31
0.0
  0
LINE
  5
1D0
330
1F
100
AcDbEntity
  8
0
  6
Continuous
 62
     7
370
    25
100
AcDbLine
 10
101.1305427305
 20
127.0064105828
 30
0.0
 11
100.8805426895
 21
127.0064105828
 31
0.0
  0
LINE
  5
1D1
330
1F
100
AcDbEntity
  8
0
  6
Continuous
 62
     7
370
    25
100
AcDbLine
 10
101.1305427305
 20
127.2564106237
 30
0.0
 11
101.4033173337
 21
127.2564106237
 31
0.0
  0
LINE
  5
1D2
330
1F
100
AcDbEntity
  8
0
  6
Continuous
 62
     7
370
    25
100
AcDbLine
 10
112.3577681496
 20
127.2564106237
 30
0.0
 11
112.6305427529
 21
127.2564106237
 31
0.0
  0
LINE
  5
1D3
330
1F
100
AcDbEntity
  8
0
  6
Continuous
 62
     7
370
    25
100
AcDbLine
 10
112.6305427529
 20
127.0064105828
 30
0.0
 11
112.6305427529
 21
127.2564106237
 31
0.0
  0
LINE
  5
1D4
330
1F
100
AcDbEntity
  8
0
  6
Continuous
 62
     7
370
    25
100
AcDbLine
 10
112.8805427938
 20
127.0064105828
 30
0.0
 11
112.6305427529
 21
127.0064105828
 31
0.0
  0
ARC
  5
1D5
330
1F
100
AcDbEntity
  8
0
  6
Continuous
 62
     7
370
    25
100
AcDbCircle
 10
112.6305427417
 20
127.0064106107
 30
0.0
 40
0.25
100
AcDbArc
 50
0.0
 51
90.0
  0
LINE
  5
1D6
330
1F
100
AcDbEntity
  8
0
  6
Continuous
 62
     7
370
    25
100
AcDbLine
 10
100.8805426895
 20
124.5064106386
 30
0.0
 11
101.1305427305
 21
124.5064106386
 31
0.0
  0
LINE
  5
1D7
330
1F
100
AcDbEntity
  8
0
  6
Continuous
 62
     7
370
    25
100
AcDbLine
 10
100.8805426895
 20
124.5064106386
 30
0.0
 11
100.8805426895
 21
127.0064105828
 31
0.0
  0
LINE
  5
1D8
330
1F
100
AcDbEntity
  8
0
  6
Continuous
 62
     7
370
    25
100
AcDbLine
 10
112.8805427938
 20
127.0064105828
 30
0.0
 11
112.8805427938
 21
124.5064106386
 31
0.0
  0
LINE
  5
1D9
330
1F
100
AcDbEntity
  8
0
  6
Continuous
 62
     7
370
    25
100
AcDbLine
 10
112.6305427529
 20
124.5064106386
 30
0.0
 11
112.8805427938
 21
124.5064106386
 31
0.0
  0
LINE
  5
1DA
330
1F
100
AcDbEntity
  8
0
  6
Continuous
 62
     7
370
    25
100
AcDbLine
 10
101.1305427305
 20
124.5064106386
 30
0.0
 11
101.1305427305
 21
124.2564105977
 31
0.0
  0
LINE
  5
1DB
330
1F
100
AcDbEntity
  8
0
  6
Continuous
 62
     7
370
    25
100
AcDbLine
 10
101.4033173337
 20
124.2564105977
 30
0.0
 11
101.1305427305
 21
124.2564105977
 31
0.0
  0
LINE
  5
1DC
330
1F
100
AcDbEntity
  8
0
  6
Continuous
 62
     7
370
    25
100
AcDbLine
 10
112.6305427529
 20
124.2564105977
 30
0.0
 11
112.6305427529
 21
124.5064106386
 31
0.0
  0
ARC
  5
1DD
330
1F
100
AcDbEntity
  8
0
  6
Continuous
 62
     7
370
    25
100
AcDbCircle
 10
112.6305427417
 20
124.5064106107
 30
0.0
 40
0.25
100
AcDbArc
 50
270.0
 51
0.0
  0
LINE
  5
1DE
330
1F
100
AcDbEntity
  8
0
  6
Continuous
 62
     7
370
    25
100
AcDbLine
 10
112.6305427529
 20
124.2564105977
 30
0.0
 11
112.3577681496
 21
124.2564105977
 31
0.0
  0
ARC
  5
1DF
330
1F
100
AcDbEntity
  8
0
  6
Continuous
 62
     7
370
    25
100
AcDbCircle
 10
101.1305427417
 20
124.5064106107
 30
0.0
 40
0.25
100
AcDbArc
 50
180.0
 51
270.0
  0
LINE
  5
1E0
330
1F
100
AcDbEntity
  8
0
  6
Continuous
 62
     7
370
    25
100
AcDbLine
 10
126.8805422946
 20
122.4847114261
 30
0.0
 11
129.0559795811
 21
122.2564105027
 31
0.0
  0
LINE
  5
1E1
330
1F
100
AcDbEntity
  8
0
  6
Continuous
 62
     7
370
    25
100
AcDbLine
 10
126.8805422946
 20
129.0281097952
 30
0.0
 11
126.8805422946
 21
122.4847114261
 31
0.0
  0
LINE
  5
1E2
330
1F
100
AcDbEntity
  8
0
  6
Continuous
 62
     7
370
    25
100
AcDbLine
 10
146.8805418476
 20
129.2564107187
 30
0.0
 11
129.0559795811
 21
129.2564107187
 31
0.0
  0
LINE
  5
1E3
330
1F
100
AcDbEntity
  8
0
  6
Continuous
 62
     7
370
    25
100
AcDbLine
 10
146.8805418476
 20
122.2564105027
 30
0.0
 11
146.8805418476
 21
129.2564107187
 31
0.0
  0
LINE
  5
1E4
330
1F
100
AcDbEntity
  8
0
  6
Continuous
 62
     7
370
    25
100
AcDbLine
 10
129.0559795811
 20
122.2564105027
 30
0.0
 11
146.8805418476
 21
122.2564105027
 31
0.0
  0
LINE
  5
1E5
330
1F
100
AcDbEntity
  8
0
  6
Continuous
 62
     7
370
    25
100
AcDbLine
 10
129.0559795811
 20
129.2564107187
 30
0.0
 11
126.8805422946
 21
129.0281097952
 31
0.0
  0
LINE
  5
1E6
330
1F
100
AcDbEntity
  8
0
  6
Continuous
 62
     7
370
    25
100
AcDbLine
 10
112.1043450325
 20
124.0353961092
 30
0.0
 11
112.2327539265
 21
124.2195377907
 31
0.0
  0
LINE
  5
1E7
330
1F
100
AcDbEntity
  8
0
  6
Continuous
 62
     7
370
    25
100
AcDbLine
 10
112.2231864497
 20
127.3016283138
 30
0.0
 11
112.1043450325
 21
127.4774251122
 31
0.0
  0
LINE
  5
1E8
330
1F
100
AcDbEntity
  8
0
  6
Continuous
 62
     7
370
    25
100
AcDbLine
 10
120.2971124217
 20
123.1756079558
 30
0.0
 11
120.2971124217
 21
128.3372132655
 31
0.0
  0
LWPOLYLINE
  5
1E9
330
1F
100
AcDbEntity
  8
0
  6
Continuous
 62
     7
370
    25
100
AcDbPolyline
 90
       15
 70
   128
 43
0.0
 10
120.2971124217
 20
123.1756079558
 10
119.5457353383
 20
123.2544611756
 10
118.8042703211
 20
123.3322738752
 10
118.0769809648
 20
123.4085990198
 10
117.3680507704
 20
123.4829977237
 10
116.6815542742
 20
123.5550420441
 10
116.0214393526
 20
123.6243175425
 10
115.3915030077
 20
123.6904260785
 10
114.795367153
 20
123.7529874396
 10
114.2364599868
 20
123.8116417861
 10
113.7179945722
 20
123.8660519792
 10
113.2429530039
 20
123.9159050945
 10
112.8140668511
 20
123.9609145176
 10
112.4338017903
 20
124.0008213407
 10
112.1043450325
 20
124.0353961092
  0
LWPOLYLINE
  5
1EA
330
1F
100
AcDbEntity
  8
0
  6
Continuous
 62
     7
370
    25
100
AcDbPolyline
 90
       15
 70
   128
 43
0.0
 10
112.1043450325
 20
127.4774251122
 10
112.4338017903
 20
127.5119998807
 10
112.8140668511
 20
127.5519067038
 10
113.2429530039
 20
127.5969161268
 10
113.7179945722
 20
127.6467692422
 10
114.2364599868
 20
127.7011794353
 10
114.795367153
 20
127.7598337818
 10
115.3915030077
 20
127.8223951429
 10
116.0214393526
 20
127.8885036789
 10
116.6815542742
 20
127.9577791773
 10
117.3680507704
 20
128.0298234977
 10
118.0769809648
 20
128.1042222016
 10
118.8042703211
 20
128.1805473462
 10
119.5457353383
 20
128.2583600458
 10
120.2971124217
 20
128.3372132655
  0
LWPOLYLINE
  5
1EB
330
1F
100
AcDbEntity
  8
0
  6
Continuous
 62
     7
370
    25
100
AcDbPolyline
 90
       19
 70
   128
 43
0.0
 10
126.8805422946
 20
122.4847114261
 10
126.8547949507
 20
122.4874134258
 10
126.7777689859
 20
122.49549684
 10
126.6501275018
 20
122.5088920526
 10
126.4729675963
 20
122.527484278
 10
126.247809188
 20
122.5511135616
 10
125.9765819773
 20
122.5795773406
 10
125.6616161331
 20
122.6126311429
 10
125.3056162163
 20
122.6499916136
 10
124.9116351023
 20
122.6913379122
 10
124.4830572173
 20
122.7363149718
 10
124.0235575601
 20
122.784536992
 10
123.5370812133
 20
122.8355902329
 10
123.0278060898
 20
122.8890360415
 10
122.5000991612
 20
122.9444159743
 10
121.9584931746
 20
123.0012548238
 10
121.4076344981
 20
123.0590645772
 10
120.852252388
 20
123.1173490722
 10
120.2971124217
 20
123.1756079558
  0
LWPOLYLINE
  5
1EC
330
1F
100
AcDbEntity
  8
0
  6
Continuous
 62
     7
370
    25
100
AcDbPolyline
 90
       19
 70
   128
 43
0.0
 10
120.2971124217
 20
128.3372132655
 10
120.852252388
 20
128.3954721492
 10
121.4076344981
 20
128.4537566442
 10
121.9584931746
 20
128.5115663976
 10
122.5000991612
 20
128.5684052471
 10
123.0278060898
 20
128.6237851799
 10
123.5370812133
 20
128.6772309885
 10
124.0235575601
 20
128.7282842294
 10
124.4830572173
 20
128.7765062496
 10
124.9116351023
 20
128.8214833092
 10
125.3056162163
 20
128.8628296077
 10
125.6616161331
 20
128.9001900785
 10
125.9765819773
 20
128.9332438808
 10
126.247809188
 20
128.9617076598
 10
126.4729675963
 20
128.9853369434
 10
126.6501275018
 20
129.0039291687
 10
126.7777689859
 20
129.0173243813
 10
126.8547949507
 20
129.0254077956
 10
126.8805422946
 20
129.0281097952
  0
ARC
  5
1ED
330
1F
100
AcDbEntity
  8
0
  6
Continuous
 62
     7
370
    25
100
AcDbCircle
 10
106.8805427417
 20
125.7564106107
 30
0.0
 40
7.450000000000656
100
AcDbArc
 50
53.0863788866
 51
306.9136211134
  0
ARC
  5
1EE
330
1F
100
AcDbEntity
  8
0
  6
Continuous
 62
     7
370
    25
100
AcDbCircle
 10
106.8805427417
 20
125.7564106107
 30
0.0
 40
7.207531252870781
100
AcDbArc
 50
15.3041237151
 51
58.9797515565
  0
ARC
  5
1EF
330
1F
100
AcDbEntity
  8
0
  6
Continuous
 62
     7
370
    25
100
AcDbCircle
 10
106.8805427417
 20
125.7564106107
 30
0.0
 40
7.207531252872434
100
AcDbArc
 50
301.0202484435
 51
344.6958762849
  0
ARC
  5
1F0
330
1F
100
AcDbEntity
  8
0
  6
Continuous
 62
     7
370
    25
100
AcDbCircle
 10
129.0559796032
 20
194.2564106107
 30
0.0
 40
65.0
100
AcDbArc
 50
253.4999050078
 51
270.0
  0
ARC
  5
1F1
330
1F
100
AcDbEntity
  8
0
  6
Continuous
 62
     7
370
    25
100
AcDbCircle
 10
129.0559796032
 20
57.2564106107
 30
0.0
 40
65.0
100
AcDbArc
 50
90.0
 51
106.5000949923
  0
LINE
  5
1F2
330
1F
100
AcDbEntity
  8
0
  6
Continuous
 62
     7
370
    25
100
AcDbLine
 10
119.6805424183
 20
117.8244386882
 30
0.0
 11
119.6805424183
 21
121.5767121956
 31
0.0
  0
LINE
  5
1F3
330
1F
100
AcDbEntity
  8
0
  6
Continuous
 62
     7
370
    25
100
AcDbLine
 10
119.6805424183
 20
129.9361090258
 30
0.0
 11
119.6805424183
 21
133.7564109907
 31
0.0
  0
LINE
  5
1F4
330
1F
100
AcDbEntity
  8
0
  6
Continuous
 62
     7
370
    25
100
AcDbLine
 10
119.6805424183
 20
117.7564102307
 30
0.0
 11
119.6805424183
 21
117.8244386882
 31
0.0
  0
LINE
  5
1F5
330
1F
100
AcDbEntity
  8
0
  6
Continuous
 62
     7
370
    25
100
AcDbLine
 10
119.8805430099
 20
118.0227382191
 30
0.0
 11
119.8805430099
 21
117.9564108223
 31
0.0
  0
LINE
  5
1F6
330
1F
100
AcDbEntity
  8
0
  6
Continuous
 62
     7
370
    25
100
AcDbLine
 10
119.8805430099
 20
133.5564103991
 30
0.0
 11
119.8805430099
 21
129.9072743476
 31
0.0
  0
LINE
  5
1F7
330
1F
100
AcDbEntity
  8
0
  6
Continuous
 62
     7
370
    25
100
AcDbLine
 10
119.8805430099
 20
121.6055468738
 30
0.0
 11
119.8805430099
 21
118.0227382191
 31
0.0
  0
LINE
  5
1F8
330
1F
100
AcDbEntity
  8
0
  6
Continuous
 62
     7
370
    25
100
AcDbLine
 10
133.3805424288
 20
120.5510540947
 30
0.0
 11
133.3805424288
 21
122.2564105027
 31
0.0
  0
LINE
  5
1F9
330
1F
100
AcDbEntity
  8
0
  6
Continuous
 62
     7
370
    25
100
AcDbLine
 10
133.3805424288
 20
129.2564107187
 30
0.0
 11
133.3805424288
 21
131.0064105399
 31
0.0
  0
LINE
  5
1FA
330
1F
100
AcDbEntity
  8
0
  6
Continuous
 62
     7
370
    25
100
AcDbLine
 10
133.3805424288
 20
120.5064106815
 30
0.0
 11
133.3805424288
 21
120.5510540947
 31
0.0
  0
LINE
  5
1FB
330
1F
100
AcDbEntity
  8
0
  6
Continuous
 62
     7
370
    25
100
AcDbLine
 10
137.880542235
 20
120.5510540947
 30
0.0
 11
137.880542235
 21
122.2564105027
 31
0.0
  0
LINE
  5
1FC
330
1F
100
AcDbEntity
  8
0
  6
Continuous
 62
     7
370
    25
100
AcDbLine
 10
137.880542235
 20
129.2564107187
 30
0.0
 11
137.880542235
 21
131.0064105399
 31
0.0
  0
LINE
  5
1FD
330
1F
100
AcDbEntity
  8
0
  6
Continuous
 62
     7
370
    25
100
AcDbLine
 10
137.880542235
 20
120.5064106815
 30
0.0
 11
137.880542235
 21
120.5510540947
 31
0.0
  0
LINE
  5
1FE
330
1F
100
AcDbEntity
  8
0
  6
Continuous
 62
     7
370
    25
100
AcDbLine
 10
146.4005419179
 20
121.1764106609
 30
0.0
 11
146.4005419179
 21
122.2564105027
 31
0.0
  0
LINE
  5
1FF
330
1F
100
AcDbEntity
  8
0
  6
Continuous
 62
     7
370
    25
100
AcDbLine
 10
146.4005419179
 20
129.2564107187
 30
0.0
 11
146.4005419179
 21
130.3364105605
 31
0.0
  0
LINE
  5
200
330
1F
100
AcDbEntity
  8
0
  6
Continuous
 62
     7
370
    25
100
AcDbLine
 10
142.380543904
 20
120.5510540947
 30
0.0
 11
142.380543904
 21
122.2564105027
 31
0.0
  0
LINE
  5
201
330
1F
100
AcDbEntity
  8
0
  6
Continuous
 62
     7
370
    25
100
AcDbLine
 10
142.380543904
 20
129.2564107187
 30
0.0
 11
142.380543904
 21
131.0064105399
 31
0.0
  0
LINE
  5
202
330
1F
100
AcDbEntity
  8
0
  6
Continuous
 62
     7
370
    25
100
AcDbLine
 10
142.380543904
 20
120.5064106815
 30
0.0
 11
142.380543904
 21
120.5510540947
 31
0.0
  0
LINE
  5
203
330
1F
100
AcDbEntity
  8
0
  6
Continuous
 62
     7
370
    25
100
AcDbLine
 10
124.3805428162
 20
120.5510540947
 30
0.0
 11
124.3805428162
 21
122.0880408853
 31
0.0
  0
LINE
  5
204
330
1F
100
AcDbEntity
  8
0
  6
Continuous
 62
     7
370
    25
100
AcDbLine
 10
124.3805428162
 20
129.424780336
 30
0.0
 11
124.3805428162
 21
131.0064105399
 31
0.0
  0
LINE
  5
205
330
1F
100
AcDbEntity
  8
0
  6
Continuous
 62
     7
370
    25
100
AcDbLine
 10
124.3805428162
 20
120.5064106815
 30
0.0
 11
124.3805428162
 21
120.5510540947
 31
0.0
  0
LINE
  5
206
330
1F
100
AcDbEntity
  8
0
  6
Continuous
 62
     7
370
    25
100
AcDbLine
 10
128.8805426225
 20
120.5510540947
 30
0.0
 11
128.8805426225
 21
122.2561739467
 31
0.0
  0
LINE
  5
207
330
1F
100
AcDbEntity
  8
0
  6
Continuous
 62
     7
370
    25
100
AcDbLine
 10
128.8805426225
 20
129.2566472747
 30
0.0
 11
128.8805426225
 21
131.0064105399
 31
0.0
  0
LINE
  5
208
330
1F
100
AcDbEntity
  8
0
  6
Continuous
 62
     7
370
    25
100
AcDbLine
 10
128.8805426225
 20
120.5064106815
 30
0.0
 11
128.8805426225
 21
120.5510540947
 31
0.0
  0
LINE
  5
209
330
1F
100
AcDbEntity
  8
0
  6
Continuous
 62
     7
370
    25
100
AcDbLine
 10
146.8805418476
 20
121.6912751168
 30
0.0
 11
146.8805418476
 21
121.6564105906
 31
0.0
  0
LINE
  5
20A
330
1F
100
AcDbEntity
  8
0
  6
Continuous
 62
     7
370
    25
100
AcDbLine
 10
146.8805418476
 20
129.8564106308
 30
0.0
 11
146.8805418476
 21
129.2564107187
 31
0.0
  0
LINE
  5
20B
330
1F
100
AcDbEntity
  8
0
  6
Continuous
 62
     7
370
    25
100
AcDbLine
 10
146.8805418476
 20
122.2564105027
 30
0.0
 11
146.8805418476
 21
121.6912751168
 31
0.0
  0
LINE
  5
20C
330
1F
100
AcDbEntity
  8
0
  6
Continuous
 62
     7
370
    25
100
AcDbLine
 10
97.3805430472
 20
135.7564103872
 30
0.0
 11
97.3805430472
 21
115.7564108342
 31
0.0
  0
LINE
  5
20D
330
1F
100
AcDbEntity
  8
0
  6
Continuous
 62
     7
370
    25
100
AcDbLine
 10
96.8805429652
 20
116.2564109162
 30
0.0
 11
96.8805429652
 21
135.2564103052
 31
0.0
  0
LINE
  5
20E
330
1F
100
AcDbEntity
  8
0
  6
Continuous
 62
     7
370
    25
100
AcDbLine
 10
98.9985763222
 20
135.7564103872
 30
0.0
 11
98.9985763222
 21
115.7564108342
 31
0.0
  0
SPLINE
  5
20F
330
1F
100
AcDbEntity
  8
0
  6
Continuous
 62
     7
370
    25
100
AcDbSpline
210
0.0
220
0.0
230
1.0
 70
     8
 71
     3
 72
    12
 73
     8
 74
     0
 42
0.000000001
 43
0.00000001
 40
0.0
 40
0.0
 40
0.0
 40
0.0
 40
0.25
 40
0.25
 40
0.5
 40
0.5
 40
1.0
 40
1.0
 40
1.0
 40
1.0
 10
99.15145667458017
 20
134.5188717904411
 30
0.0
 10
99.2325732766848
 20
134.5533769283012
 30
0.0
 10
99.27960319985311
 20
134.5862219996016
 30
0.0
 10
99.34246680138496
 20
134.6445745278483
 30
0.0
 10
99.35791647230215
 20
134.6702288914769
 30
0.0
 10
99.38510013668142
 20
134.7333281442166
 30
0.0
 10
99.3805427416822
 20
134.7564106106913
 30
0.0
 10
99.3805427416822
 20
134.7564106106913
 30
0.0
  0
SPLINE
  5
210
330
1F
100
AcDbEntity
  8
0
  6
Continuous
 62
     7
370
    25
100
AcDbSpline
210
0.0
220
0.0
230
1.0
 70
     8
 71
     3
 72
    14
 73
    10
 74
     0
 42
0.000000001
 43
0.00000001
 40
0.0
 40
0.0
 40
0.0
 40
0.0
 40
0.25
 40
0.25
 40
0.5
 40
0.5
 40
0.75
 40
0.75
 40
1.0
 40
1.0
 40
1.0
 40
1.0
 10
99.15145667458017
 20
134.5188717904411
 30
0.0
 10
99.12393568683508
 20
134.5071649948955
 30
0.0
 10
99.10401576499868
 20
134.4751230418139
 30
0.0
 10
99.08834872318062
 20
134.3757992911489
 30
0.0
 10
99.09284055499293
 20
134.3079758483682
 30
0.0
 10
99.12409690027651
 20
134.1455342309553
 30
0.0
 10
99.15046948365828
 20
134.0510888342196
 30
0.0
 10
99.21330603480259
 20
133.8428597266231
 30
0.0
 10
99.24934561366267
 20
133.7302613337399
 30
0.0
 10
99.28334161702827
 20
133.6105049401398
 30
0.0
  0
SPLINE
  5
211
330
1F
100
AcDbEntity
  8
0
  6
Continuous
 62
     7
370
    25
100
AcDbSpline
210
0.0
220
0.0
230
1.0
 70
     8
 71
     3
 72
     8
 73
     4
 74
     0
 42
0.000000001
 43
0.00000001
 40
0.0
 40
0.0
 40
0.0
 40
0.0
 40
1.0
 40
1.0
 40
1.0
 40
1.0
 10
99.3805427416822
 20
132.8803140350788
 30
0.0
 10
99.3805427416822
 20
133.1277434918738
 30
0.0
 10
99.35117803460435
 20
133.3715402407811
 30
0.0
 10
99.28334161702827
 20
133.6105049401398
 30
0.0
  0
LINE
  5
212
330
1F
100
AcDbEntity
  8
0
  6
Continuous
 62
     7
370
    25
100
AcDbLine
 10
99.3805429093
 20
132.8803139821
 30
0.0
 11
99.3805429093
 21
118.6325072393
 31
0.0
  0
SPLINE
  5
213
330
1F
100
AcDbEntity
  8
0
  6
Continuous
 62
     7
370
    25
100
AcDbSpline
210
0.0
220
0.0
230
1.0
 70
     8
 71
     3
 72
     8
 73
     4
 74
     0
 42
0.000000001
 43
0.00000001
 40
0.0
 40
0.0
 40
0.0
 40
0.0
 40
1.0
 40
1.0
 40
1.0
 40
1.0
 10
99.28334161702827
 20
117.9023162812427
 30
0.0
 10
99.35117803460435
 20
118.1412809806014
 30
0.0
 10
99.3805427416822
 20
118.3850777295088
 30
0.0
 10
99.3805427416822
 20
118.6325071863038
 30
0.0
  0
SPLINE
  5
214
330
1F
100
AcDbEntity
  8
0
  6
Continuous
 62
     7
370
    25
100
AcDbSpline
210
0.0
220
0.0
230
1.0
 70
     8
 71
     3
 72
    12
 73
     8
 74
     0
 42
0.000000001
 43
0.00000001
 40
0.0
 40
0.0
 40
0.0
 40
0.0
 40
0.4999999999999992
 40
0.4999999999999992
 40
0.7499999999999996
 40
0.7499999999999996
 40
1.0
 40
1.0
 40
1.0
 40
1.0
 10
99.28334161702827
 20
117.9023162812427
 30
0.0
 10
99.21547185701847
 20
117.6632341277946
 30
0.0
 10
99.13943730576473
 20
117.4474640206178
 30
0.0
 10
99.09279270738773
 20
117.2043694279139
 30
0.0
 10
99.08835371086509
 20
117.1367041524377
 30
0.0
 10
99.10408432465792
 20
117.0375510362811
 30
0.0
 10
99.1239647546003
 20
117.0056438617279
 30
0.0
 10
99.15145667458017
 20
116.9939494309415
 30
0.0
  0
SPLINE
  5
215
330
1F
100
AcDbEntity
  8
0
  6
Continuous
 62
     7
370
    25
100
AcDbSpline
210
0.0
220
0.0
230
1.0
 70
     8
 71
     3
 72
    12
 73
     8
 74
     0
 42
0.000000001
 43
0.00000001
 40
0.0
 40
0.0
 40
0.0
 40
0.0
 40
0.5000000000000002
 40
0.5000000000000002
 40
0.7500000000000001
 40
0.7500000000000001
 40
1.0
 40
1.0
 40
1.0
 40
1.0
 10
99.3805427416822
 20
116.7564106106913
 30
0.0
 10
99.3805427416822
 20
116.7564106106913
 30
0.0
 10
99.38510013668142
 20
116.7794930771659
 30
0.0
 10
99.35791647230216
 20
116.8425923299056
 30
0.0
 10
99.34246680138496
 20
116.8682466935342
 30
0.0
 10
99.27960319985311
 20
116.9265992217809
 30
0.0
 10
99.2325732766848
 20
116.9594442930814
 30
0.0
 10
99.15145667458016
 20
116.9939494309415
 30
0.0
  0
LINE
  5
216
330
1F
100
AcDbEntity
  8
0
  6
Continuous
 62
     7
370
    25
100
AcDbLine
 10
114.7625091612
 20
115.7564108342
 30
0.0
 11
114.7625091612
 21
120.6653744064
 31
0.0
  0
LINE
  5
217
330
1F
100
AcDbEntity
  8
0
  6
Continuous
 62
     7
370
    25
100
AcDbLine
 10
114.7625091612
 20
130.8474468149
 30
0.0
 11
114.7625091612
 21
135.7564103872
 31
0.0
  0
LINE
  5
218
330
1F
100
AcDbEntity
  8
0
  6
Continuous
 62
     7
370
    25
100
AcDbLine
 10
116.6305429428
 20
115.7564108342
 30
0.0
 11
116.6305429428
 21
121.0577312939
 31
0.0
  0
LINE
  5
219
330
1F
100
AcDbEntity
  8
0
  6
Continuous
 62
     7
370
    25
100
AcDbLine
 10
116.6305429428
 20
130.4550899275
 30
0.0
 11
116.6305429428
 21
135.7564103872
 31
0.0
  0
LINE
  5
21A
330
1F
100
AcDbEntity
  8
0
  6
Continuous
 62
     7
370
    25
100
AcDbLine
 10
116.8805425182
 20
135.5064108119
 30
0.0
 11
116.8805425182
 21
130.4069098167
 31
0.0
  0
LINE
  5
21B
330
1F
100
AcDbEntity
  8
0
  6
Continuous
 62
     7
370
    25
100
AcDbLine
 10
116.8805425182
 20
121.1059114047
 30
0.0
 11
116.8805425182
 21
116.0064104095
 31
0.0
  0
SPLINE
  5
21C
330
1F
100
AcDbEntity
  8
0
  6
Continuous
 62
     7
370
    25
100
AcDbSpline
210
0.0
220
0.0
230
1.0
 70
     8
 71
     3
 72
    12
 73
     8
 74
     0
 42
0.000000001
 43
0.00000001
 40
0.0
 40
0.0
 40
0.0
 40
0.0
 40
0.2500000000000001
 40
0.2500000000000001
 40
0.5000000000000001
 40
0.5000000000000001
 40
1.0
 40
1.0
 40
1.0
 40
1.0
 10
114.6096288087842
 20
116.9939494309415
 30
0.0
 10
114.5285122066796
 20
116.9594442930814
 30
0.0
 10
114.4814822835113
 20
116.9265992217809
 30
0.0
 10
114.4186186819794
 20
116.8682466935342
 30
0.0
 10
114.4031690110622
 20
116.8425923299056
 30
0.0
 10
114.375985346683
 20
116.7794930771659
 30
0.0
 10
114.3805427416822
 20
116.7564106106913
 30
0.0
 10
114.3805427416822
 20
116.7564106106913
 30
0.0
  0
SPLINE
  5
21D
330
1F
100
AcDbEntity
  8
0
  6
Continuous
 62
     7
370
    25
100
AcDbSpline
210
0.0
220
0.0
230
1.0
 70
     8
 71
     3
 72
    14
 73
    10
 74
     0
 42
0.000000001
 43
0.00000001
 40
0.0
 40
0.0
 40
0.0
 40
0.0
 40
0.25
 40
0.25
 40
0.5
 40
0.5
 40
0.75
 40
0.75
 40
1.0
 40
1.0
 40
1.0
 40
1.0
 10
114.6096288087842
 20
116.9939494309415
 30
0.0
 10
114.6371497965293
 20
117.005656226487
 30
0.0
 10
114.6570697183657
 20
117.0376981795686
 30
0.0
 10
114.6727367601838
 20
117.1370219302336
 30
0.0
 10
114.6682449283715
 20
117.2048453730143
 30
0.0
 10
114.6369885830879
 20
117.3672869904272
 30
0.0
 10
114.6106159997061
 20
117.4617323871629
 30
0.0
 10
114.5477794485618
 20
117.6699614947594
 30
0.0
 10
114.5117398697017
 20
117.7825598876426
 30
0.0
 10
114.4777438663361
 20
117.9023162812427
 30
0.0
  0
SPLINE
  5
21E
330
1F
100
AcDbEntity
  8
0
  6
Continuous
 62
     7
370
    25
100
AcDbSpline
210
0.0
220
0.0
230
1.0
 70
     8
 71
     3
 72
     8
 73
     4
 74
     0
 42
0.000000001
 43
0.00000001
 40
0.0
 40
0.0
 40
0.0
 40
0.0
 40
1.0
 40
1.0
 40
1.0
 40
1.0
 10
114.3805427416822
 20
118.6325071863038
 30
0.0
 10
114.3805427416822
 20
118.3850777295088
 30
0.0
 10
114.4099074487601
 20
118.1412809806014
 30
0.0
 10
114.4777438663361
 20
117.9023162812427
 30
0.0
  0
LINE
  5
21F
330
1F
100
AcDbEntity
  8
0
  6
Continuous
 62
     7
370
    25
100
AcDbLine
 10
114.380542574
 20
118.6325072393
 30
0.0
 11
114.380542574
 21
120.5780619837
 31
0.0
  0
LINE
  5
220
330
1F
100
AcDbEntity
  8
0
  6
Continuous
 62
     7
370
    25
100
AcDbLine
 10
114.380542574
 20
130.9347592376
 30
0.0
 11
114.380542574
 21
132.8803139821
 31
0.0
  0
SPLINE
  5
221
330
1F
100
AcDbEntity
  8
0
  6
Continuous
 62
     7
370
    25
100
AcDbSpline
210
0.0
220
0.0
230
1.0
 70
     8
 71
     3
 72
     8
 73
     4
 74
     0
 42
0.000000001
 43
0.00000001
 40
0.0
 40
0.0
 40
0.0
 40
0.0
 40
1.0
 40
1.0
 40
1.0
 40
1.0
 10
114.4777438663361
 20
133.6105049401398
 30
0.0
 10
114.4099074487601
 20
133.3715402407811
 30
0.0
 10
114.3805427416822
 20
133.1277434918738
 30
0.0
 10
114.3805427416822
 20
132.8803140350788
 30
0.0
  0
SPLINE
  5
222
330
1F
100
AcDbEntity
  8
0
  6
Continuous
 62
     7
370
    25
100
AcDbSpline
210
0.0
220
0.0
230
1.0
 70
     8
 71
     3
 72
    12
 73
     8
 74
     0
 42
0.000000001
 43
0.00000001
 40
0.0
 40
0.0
 40
0.0
 40
0.0
 40
0.4999999999999992
 40
0.4999999999999992
 40
0.7499999999999996
 40
0.7499999999999996
 40
1.0
 40
1.0
 40
1.0
 40
1.0
 10
114.4777438663361
 20
133.6105049401398
 30
0.0
 10
114.5456136263459
 20
133.8495870935879
 30
0.0
 10
114.6216481775997
 20
134.0653572007648
 30
0.0
 10
114.6682927759767
 20
134.3084517934687
 30
0.0
 10
114.6727317724993
 20
134.3761170689448
 30
0.0
 10
114.6570011587065
 20
134.4752701851014
 30
0.0
 10
114.6371207287641
 20
134.5071773596546
 30
0.0
 10
114.6096288087842
 20
134.5188717904411
 30
0.0
  0
SPLINE
  5
223
330
1F
100
AcDbEntity
  8
0
  6
Continuous
 62
     7
370
    25
100
AcDbSpline
210
0.0
220
0.0
230
1.0
 70
     8
 71
     3
 72
    12
 73
     8
 74
     0
 42
0.000000001
 43
0.00000001
 40
0.0
 40
0.0
 40
0.0
 40
0.0
 40
0.4999999999999998
 40
0.4999999999999998
 40
0.7499999999999999
 40
0.7499999999999999
 40
1.0
 40
1.0
 40
1.0
 40
1.0
 10
114.3805427416822
 20
134.7564106106913
 30
0.0
 10
114.3805427416822
 20
134.7564106106913
 30
0.0
 10
114.375985346683
 20
134.7333281442166
 30
0.0
 10
114.4031690110622
 20
134.6702288914769
 30
0.0
 10
114.4186186819794
 20
134.6445745278483
 30
0.0
 10
114.4814822835113
 20
134.5862219996016
 30
0.0
 10
114.5285122066796
 20
134.5533769283012
 30
0.0
 10
114.6096288087842
 20
134.5188717904411
 30
0.0
  0
ARC
  5
224
330
1F
100
AcDbEntity
  8
0
  6
Continuous
 62
     7
370
    25
100
AcDbCircle
 10
99.833860507
 20
118.5735317547
 30
0.0
 40
0.4571377824698337
100
AcDbArc
 50
84.1388497305
 51
172.5875946393
  0
ARC
  5
225
330
1F
100
AcDbEntity
  8
0
  6
Continuous
 62
     7
370
    25
100
AcDbCircle
 10
99.833860507
 20
132.9392894667
 30
0.0
 40
0.4571377824698478
100
AcDbArc
 50
187.4124053607
 51
275.8611502695
  0
ARC
  5
226
330
1F
100
AcDbEntity
  8
0
  6
Continuous
 62
     7
370
    25
100
AcDbCircle
 10
113.9272249763
 20
118.5735317547
 30
0.0
 40
0.4571377824698396
100
AcDbArc
 50
7.4124053607
 51
95.8611502695
  0
ARC
  5
227
330
1F
100
AcDbEntity
  8
0
  6
Continuous
 62
     7
370
    25
100
AcDbCircle
 10
113.9272249763
 20
132.9392894667
 30
0.0
 40
0.4571377824698463
100
AcDbArc
 50
264.1388497305
 51
352.5875946393
  0
LINE
  5
228
330
1F
100
AcDbEntity
  8
0
  6
Continuous
 62
     7
370
    25
100
AcDbLine
 10
89.0446686312
 20
119.2569525063
 30
0.0
 11
89.0446686312
 21
132.2558687151
 31
0.0
  0
LINE
  5
229
330
1F
100
AcDbEntity
  8
0
  6
Continuous
 62
     7
370
    25
100
AcDbLine
 10
86.8805431887
 20
120.5064106815
 30
0.0
 11
86.8805431887
 21
131.0064105399
 31
0.0
  0
SPLINE
  5
22A
330
1F
100
AcDbEntity
  8
0
  6
Continuous
 62
     7
370
    25
100
AcDbSpline
210
0.0
220
0.0
230
1.0
 70
     8
 71
     3
 72
     8
 73
     4
 74
     0
 42
0.000000001
 43
0.00000001
 40
0.0
 40
0.0
 40
0.0
 40
0.0
 40
1.0
 40
1.0
 40
1.0
 40
1.0
 10
113.8805427416822
 20
132.8803140350788
 30
0.0
 10
113.8805427416822
 20
133.1787369031795
 30
0.0
 10
113.9211355458323
 20
133.4711548530614
 30
0.0
 10
114.0101442412208
 20
133.7564106106913
 30
0.0
  0
LWPOLYLINE
  5
22B
330
1F
100
AcDbEntity
  8
0
  6
Continuous
 62
     7
370
    25
100
AcDbPolyline
 90
        9
 70
   128
 43
0.0
 10
114.0101444102
 20
133.7564109907
 10
114.0914134808
 20
133.7310520083
 10
114.1703090757
 20
133.7064343587
 10
114.244527103
 20
133.6832760915
 10
114.311900375
 20
133.6622533471
 10
114.3704614728
 20
133.6439807981
 10
114.4184995569
 20
133.6289911613
 10
114.4546115897
 20
133.6177230895
 10
114.4777437798
 20
133.6105053395
  0
LINE
  5
22C
330
1F
100
AcDbEntity
  8
0
  6
Continuous
 62
     7
370
    25
100
AcDbLine
 10
114.380542574
 20
132.8803139821
 30
0.0
 11
113.8805429577
 21
132.8803139821
 31
0.0
  0
LWPOLYLINE
  5
22D
330
1F
100
AcDbEntity
  8
0
  6
Continuous
 62
     7
370
    25
100
AcDbPolyline
 90
        9
 70
   128
 43
0.0
 10
99.2833417035
 20
133.6105053395
 10
99.3064738936
 20
133.6177230895
 10
99.3425859265
 20
133.6289911613
 10
99.3906240105
 20
133.6439807981
 10
99.4491851084
 20
133.6622533471
 10
99.5165583804
 20
133.6832760915
 10
99.5907764077
 20
133.7064343587
 10
99.6696720026
 20
133.7310520083
 10
99.7509410731
 20
133.7564109907
  0
SPLINE
  5
22E
330
1F
100
AcDbEntity
  8
0
  6
Continuous
 62
     7
370
    25
100
AcDbSpline
210
0.0
220
0.0
230
1.0
 70
     8
 71
     3
 72
     8
 73
     4
 74
     0
 42
0.000000001
 43
0.00000001
 40
0.0
 40
0.0
 40
0.0
 40
0.0
 40
1.0
 40
1.0
 40
1.0
 40
1.0
 10
99.75094124214364
 20
133.7564106106913
 30
0.0
 10
99.83994993753205
 20
133.4711548530614
 30
0.0
 10
99.8805427416822
 20
133.1787369031795
 30
0.0
 10
99.8805427416822
 20
132.8803140350788
 30
0.0
  0
LINE
  5
22F
330
1F
100
AcDbEntity
  8
0
  6
Continuous
 62
     7
370
    25
100
AcDbLine
 10
99.3805429093
 20
132.8803139821
 30
0.0
 11
99.8805425256
 21
132.8803139821
 31
0.0
  0
LWPOLYLINE
  5
230
330
1F
100
AcDbEntity
  8
0
  6
Continuous
 62
     7
370
    25
100
AcDbPolyline
 90
        9
 70
   128
 43
0.0
 10
114.4777437798
 20
117.9023158819
 10
114.4546115897
 20
117.8950981319
 10
114.4184995569
 20
117.8838300601
 10
114.3704614728
 20
117.8688404232
 10
114.311900375
 20
117.8505678743
 10
114.244527103
 20
117.8295451299
 10
114.1703090757
 20
117.8063868627
 10
114.0914134808
 20
117.7817692131
 10
114.0101444102
 20
117.7564102307
  0
SPLINE
  5
231
330
1F
100
AcDbEntity
  8
0
  6
Continuous
 62
     7
370
    25
100
AcDbSpline
210
0.0
220
0.0
230
1.0
 70
     8
 71
     3
 72
     8
 73
     4
 74
     0
 42
0.000000001
 43
0.00000001
 40
0.0
 40
0.0
 40
0.0
 40
0.0
 40
1.0
 40
1.0
 40
1.0
 40
1.0
 10
114.0101442412208
 20
117.7564106106913
 30
0.0
 10
113.9211355458323
 20
118.0416663683211
 30
0.0
 10
113.8805427416822
 20
118.334084318203
 30
0.0
 10
113.8805427416822
 20
118.6325071863038
 30
0.0
  0
LINE
  5
232
330
1F
100
AcDbEntity
  8
0
  6
Continuous
 62
     7
370
    25
100
AcDbLine
 10
114.380542574
 20
118.6325072393
 30
0.0
 11
113.8805429577
 21
118.6325072393
 31
0.0
  0
SPLINE
  5
233
330
1F
100
AcDbEntity
  8
0
  6
Continuous
 62
     7
370
    25
100
AcDbSpline
210
0.0
220
0.0
230
1.0
 70
     8
 71
     3
 72
     8
 73
     4
 74
     0
 42
0.000000001
 43
0.00000001
 40
0.0
 40
0.0
 40
0.0
 40
0.0
 40
1.0
 40
1.0
 40
1.0
 40
1.0
 10
99.8805427416822
 20
118.6325071863038
 30
0.0
 10
99.8805427416822
 20
118.334084318203
 30
0.0
 10
99.83994993753205
 20
118.0416663683211
 30
0.0
 10
99.75094124214364
 20
117.7564106106913
 30
0.0
  0
LWPOLYLINE
  5
234
330
1F
100
AcDbEntity
  8
0
  6
Continuous
 62
     7
370
    25
100
AcDbPolyline
 90
        9
 70
   128
 43
0.0
 10
99.7509410731
 20
117.7564102307
 10
99.6696720026
 20
117.7817692131
 10
99.5907764077
 20
117.8063868627
 10
99.5165583804
 20
117.8295451299
 10
99.4491851084
 20
117.8505678743
 10
99.3906240105
 20
117.8688404232
 10
99.3425859265
 20
117.8838300601
 10
99.3064738936
 20
117.8950981319
 10
99.2833417035
 20
117.9023158819
  0
LINE
  5
235
330
1F
100
AcDbEntity
  8
0
  6
Continuous
 62
     7
370
    25
100
AcDbLine
 10
99.8805425256
 20
118.6325072393
 30
0.0
 11
99.3805429093
 21
118.6325072393
 31
0.0
  0
LINE
  5
236
330
1F
100
AcDbEntity
  8
0
  6
Continuous
 62
     7
370
    25
100
AcDbLine
 10
113.8805429577
 20
132.8803139821
 30
0.0
 11
113.8805429577
 21
132.4845414691
 31
0.0
  0
LINE
  5
237
330
1F
100
AcDbEntity
  8
0
  6
Continuous
 62
     7
370
    25
100
AcDbLine
 10
99.8805425256
 20
132.8803139821
 30
0.0
 11
99.8805425256
 21
132.4845414691
 31
0.0
  0
LINE
  5
238
330
1F
100
AcDbEntity
  8
0
  6
Continuous
 62
     7
370
    25
100
AcDbLine
 10
113.8805429577
 20
119.0282797523
 30
0.0
 11
113.8805429577
 21
118.6325072393
 31
0.0
  0
LINE
  5
239
330
1F
100
AcDbEntity
  8
0
  6
Continuous
 62
     7
370
    25
100
AcDbLine
 10
99.8805425256
 20
119.0282797523
 30
0.0
 11
99.8805425256
 21
118.6325072393
 31
0.0
  0
ARC
  5
23A
330
1F
100
AcDbEntity
  8
0
  6
Continuous
 62
     7
370
    25
100
AcDbCircle
 10
99.5789228749
 20
134.7357177886
 30
0.0
 40
0.4793220025378209
100
AcDbArc
 50
206.8978733264
 51
269.5424057934
  0
SPLINE
  5
23B
330
1F
100
AcDbEntity
  8
0
  6
Continuous
 62
     7
370
    25
100
AcDbSpline
210
0.0
220
0.0
230
1.0
 70
     8
 71
     3
 72
    14
 73
    10
 74
     0
 42
0.000000001
 43
0.00000001
 40
0.0
 40
0.0
 40
0.0
 40
0.0
 40
0.25
 40
0.25
 40
0.5
 40
0.5
 40
0.75
 40
0.75
 40
1.0
 40
1.0
 40
1.0
 40
1.0
 10
99.75094124214364
 20
133.7564106106913
 30
0.0
 10
99.71246575852204
 20
133.8180638749187
 30
0.0
 10
99.67137683705204
 20
133.8762478201917
 30
0.0
 10
99.59209398961146
 20
133.9899131416586
 30
0.0
 10
99.55481108850101
 20
134.0435897403584
 30
0.0
 10
99.50200532918922
 20
134.143579772805
 30
0.0
 10
99.4900360690956
 20
134.187984273028
 30
0.0
 10
99.51003785746776
 20
134.2440441285218
 30
0.0
 10
99.53949431302006
 20
134.2564106106913
 30
0.0
 10
99.57509465221281
 20
134.2564106106913
 30
0.0
  0
ARC
  5
23C
330
1F
100
AcDbEntity
  8
0
  6
Continuous
 62
     7
370
    25
100
AcDbCircle
 10
114.1821626085
 20
116.7771034328
 30
0.0
 40
0.4793220025378209
100
AcDbArc
 50
26.8978733264
 51
89.5424057934
  0
SPLINE
  5
23D
330
1F
100
AcDbEntity
  8
0
  6
Continuous
 62
     7
370
    25
100
AcDbSpline
210
0.0
220
0.0
230
1.0
 70
     8
 71
     3
 72
    14
 73
    10
 74
     0
 42
0.000000001
 43
0.00000001
 40
0.0
 40
0.0
 40
0.0
 40
0.0
 40
0.25
 40
0.25
 40
0.5
 40
0.5
 40
0.75
 40
0.75
 40
1.0
 40
1.0
 40
1.0
 40
1.0
 10
114.0101442412208
 20
117.7564106106913
 30
0.0
 10
114.0486197248424
 20
117.6947573464638
 30
0.0
 10
114.0897086463124
 20
117.6365734011909
 30
0.0
 10
114.1689914937529
 20
117.5229080797239
 30
0.0
 10
114.2062743948634
 20
117.4692314810242
 30
0.0
 10
114.2590801541752
 20
117.3692414485775
 30
0.0
 10
114.2710494142688
 20
117.3248369483546
 30
0.0
 10
114.2510476258966
 20
117.2687770928608
 30
0.0
 10
114.2215911703443
 20
117.2564106106913
 30
0.0
 10
114.1859908311516
 20
117.2564106106913
 30
0.0
  0
SPLINE
  5
23E
330
1F
100
AcDbEntity
  8
0
  6
Continuous
 62
     7
370
    25
100
AcDbSpline
210
0.0
220
0.0
230
1.0
 70
     8
 71
     3
 72
    16
 73
    12
 74
     0
 42
0.000000001
 43
0.00000001
 40
0.0
 40
0.0
 40
0.0
 40
0.0
 40
0.2500000000000049
 40
0.2500000000000049
 40
0.3750000000000051
 40
0.3750000000000051
 40
0.5000000000000052
 40
0.5000000000000052
 40
0.7500000000000026
 40
0.7500000000000026
 40
1.0
 40
1.0
 40
1.0
 40
1.0
 10
114.1859908311516
 20
134.2564106106913
 30
0.0
 10
114.2215447606002
 20
134.2564106106913
 30
0.0
 10
114.2508169018289
 20
134.2442788602754
 30
0.0
 10
114.2660294520498
 20
134.202257153996
 30
0.0
 10
114.2660901202233
 20
134.1840427844895
 30
0.0
 10
114.255879535746
 20
134.1421057719629
 30
0.0
 10
114.2460962062208
 20
134.1190782084687
 30
0.0
 10
114.2069316576888
 20
134.0446695296966
 30
0.0
 10
114.1690585844156
 20
133.9900116535142
 30
0.0
 10
114.089985611424
 20
133.8766425803354
 30
0.0
 10
114.0485984788332
 20
133.8180298302312
 30
0.0
 10
114.0101442412208
 20
133.7564106106913
 30
0.0
  0
ARC
  5
23F
330
1F
100
AcDbEntity
  8
0
  6
Continuous
 62
     7
370
    25
100
AcDbCircle
 10
114.1821626085
 20
134.7357177886
 30
0.0
 40
0.4793220025377928
100
AcDbArc
 50
270.4575942066
 51
333.1021266736
  0
SPLINE
  5
240
330
1F
100
AcDbEntity
  8
0
  6
Continuous
 62
     7
370
    25
100
AcDbSpline
210
0.0
220
0.0
230
1.0
 70
     8
 71
     3
 72
    16
 73
    12
 74
     0
 42
0.000000001
 43
0.00000001
 40
0.0
 40
0.0
 40
0.0
 40
0.0
 40
0.2500000000000011
 40
0.2500000000000011
 40
0.3749999999999992
 40
0.3749999999999992
 40
0.4999999999999974
 40
0.4999999999999974
 40
0.7499999999999987
 40
0.7499999999999987
 40
1.0
 40
1.0
 40
1.0
 40
1.0
 10
99.57509465221281
 20
117.2564106106913
 30
0.0
 10
99.53954072276416
 20
117.2564106106913
 30
0.0
 10
99.51026858153546
 20
117.2685423611071
 30
0.0
 10
99.49505603131459
 20
117.3105640673865
 30
0.0
 10
99.49499536314104
 20
117.328778436893
 30
0.0
 10
99.50520594761838
 20
117.3707154494196
 30
0.0
 10
99.51498927714361
 20
117.3937430129139
 30
0.0
 10
99.55415382567554
 20
117.4681516916859
 30
0.0
 10
99.5920268989488
 20
117.5228095678684
 30
0.0
 10
99.6710998719404
 20
117.6361786410471
 30
0.0
 10
99.71248700453123
 20
117.6947913911513
 30
0.0
 10
99.75094124214364
 20
117.7564106106913
 30
0.0
  0
ARC
  5
241
330
1F
100
AcDbEntity
  8
0
  6
Continuous
 62
     7
370
    25
100
AcDbCircle
 10
99.5789228749
 20
116.7771034328
 30
0.0
 40
0.4793220025378351
100
AcDbArc
 50
90.4575942066
 51
153.1021266736
  0
LINE
  5
242
330
1F
100
AcDbEntity
  8
0
  6
Continuous
 62
     7
370
    25
100
AcDbLine
 10
99.5750947982
 20
134.2564110726
 30
0.0
 11
114.1859906852
 21
134.2564110726
 31
0.0
  0
LINE
  5
243
330
1F
100
AcDbEntity
  8
0
  6
Continuous
 62
     7
370
    25
100
AcDbLine
 10
114.0101444102
 20
133.7564109907
 30
0.0
 11
99.7509410731
 21
133.7564109907
 31
0.0
  0
LINE
  5
244
330
1F
100
AcDbEntity
  8
0
  6
Continuous
 62
     7
370
    25
100
AcDbLine
 10
99.7509410731
 20
117.7564102307
 30
0.0
 11
114.0101444102
 21
117.7564102307
 31
0.0
  0
LINE
  5
245
330
1F
100
AcDbEntity
  8
0
  6
Continuous
 62
     7
370
    25
100
AcDbLine
 10
114.1859906852
 20
117.2564101488
 30
0.0
 11
99.5750947982
 21
117.2564101488
 31
0.0
  0
ARC
  5
246
330
1F
100
AcDbEntity
  8
0
  6
Continuous
 62
     7
370
    25
100
AcDbCircle
 10
113.8805427417
 20
134.7564106107
 30
0.0
 40
0.5
100
AcDbArc
 50
270.0
 51
0.0
  0
ARC
  5
247
330
1F
100
AcDbEntity
  8
0
  6
Continuous
 62
     7
370
    25
100
AcDbCircle
 10
99.8805427417
 20
134.7564106107
 30
0.0
 40
0.5
100
AcDbArc
 50
180.0
 51
270.0
  0
ARC
  5
248
330
1F
100
AcDbEntity
  8
0
  6
Continuous
 62
     7
370
    25
100
AcDbCircle
 10
99.8805427417
 20
116.7564106107
 30
0.0
 40
0.5
100
AcDbArc
 50
90.0
 51
180.0
  0
ARC
  5
249
330
1F
100
AcDbEntity
  8
0
  6
Continuous
 62
     7
370
    25
100
AcDbCircle
 10
113.8805427417
 20
116.7564106107
 30
0.0
 40
0.5
100
AcDbArc
 50
0.0
 51
90.0
  0
LINE
  5
24A
330
1F
100
AcDbEntity
  8
0
  6
Continuous
 62
     8
370
    25
100
AcDbLine
 10
99.8805425256
 20
132.4845414691
 30
0.0
 11
99.8805425256
 21
128.3064107027
 31
0.0
  0
LINE
  5
24B
330
1F
100
AcDbEntity
  8
0
  6
Continuous
 62
     8
370
    25
100
AcDbLine
 10
99.8805425256
 20
123.2064105187
 30
0.0
 11
99.8805425256
 21
119.0282797523
 31
0.0
  0
LINE
  5
24C
330
1F
100
AcDbEntity
  8
0
  6
Continuous
 62
     8
370
    25
100
AcDbLine
 10
113.8805429577
 20
119.0282797523
 30
0.0
 11
113.8805429577
 21
120.4600983381
 31
0.0
  0
LINE
  5
24D
330
1F
100
AcDbEntity
  8
0
  6
Continuous
 62
     8
370
    25
100
AcDbLine
 10
113.8805429577
 20
131.0527228832
 30
0.0
 11
113.8805429577
 21
132.4845414691
 31
0.0
  0
LINE
  5
24E
330
1F
100
AcDbEntity
  8
0
  6
Continuous
 62
     8
370
    25
100
AcDbLine
 10
99.8805425256
 20
119.0282797523
 30
0.0
 11
103.6813626192
 21
119.0282797523
 31
0.0
  0
LINE
  5
24F
330
1F
100
AcDbEntity
  8
0
  6
Continuous
 62
     8
370
    25
100
AcDbLine
 10
110.0797228641
 20
119.0282797523
 30
0.0
 11
113.8805429577
 21
119.0282797523
 31
0.0
  0
LINE
  5
250
330
1F
100
AcDbEntity
  8
0
  6
Continuous
 62
     8
370
    25
100
AcDbLine
 10
113.8805429577
 20
132.4845414691
 30
0.0
 11
110.0797228641
 21
132.4845414691
 31
0.0
  0
LINE
  5
251
330
1F
100
AcDbEntity
  8
0
  6
Continuous
 62
     8
370
    25
100
AcDbLine
 10
103.6813626192
 20
132.4845414691
 30
0.0
 11
99.8805425256
 21
132.4845414691
 31
0.0
  0
LINE
  5
252
330
1F
100
AcDbEntity
  8
0
  6
Continuous
 62
     8
370
    25
100
AcDbLine
 10
99.8805425256
 20
132.8803139821
 30
0.0
 11
104.7005198557
 21
132.8803139821
 31
0.0
  0
LINE
  5
253
330
1F
100
AcDbEntity
  8
0
  6
Continuous
 62
     8
370
    25
100
AcDbLine
 10
109.0605656277
 20
132.8803139821
 30
0.0
 11
113.8805429577
 21
132.8803139821
 31
0.0
  0
LINE
  5
254
330
1F
100
AcDbEntity
  8
0
  6
Continuous
 62
     8
370
    25
100
AcDbLine
 10
113.8805429577
 20
118.6325072393
 30
0.0
 11
109.0605656277
 21
118.6325072393
 31
0.0
  0
LINE
  5
255
330
1F
100
AcDbEntity
  8
0
  6
Continuous
 62
     8
370
    25
100
AcDbLine
 10
104.7005198557
 20
118.6325072393
 30
0.0
 11
99.8805425256
 21
118.6325072393
 31
0.0
  0
INSERT
  5
261
330
1F
100
AcDbEntity
  8
0
  6
Continuous
 62
     7
370
    18
100
AcDbBlockReference
  2
SW_CENTERMARKSYMBOL_1
 10
106.8805427417
 20
125.7564106107
 30
0.0
  0
LINE
  5
262
330
1F
100
AcDbEntity
  8
0
  6
Continuous
 62
     7
370
     0
100
AcDbLine
 10
87.5807275099
 20
131.4106624751
 30
0.0
 11
96.3805427417
 21
131.6856567011
 31
0.0
  0
LINE
  5
263
330
1F
100
AcDbEntity
  8
0
  6
Continuous
 62
     7
370
     0
100
AcDbLine
 10
87.5807275099
 20
120.1021587463
 30
0.0
 11
96.3805427417
 21
119.8271645203
 31
0.0
  0
LINE
  5
264
330
1F
100
AcDbEntity
  8
0
  6
Continuous
 62
     7
370
     0
100
AcDbLine
 10
96.3805427417
 20
119.0277063071
 30
0.0
 11
96.3805427417
 21
132.4851149143
 31
0.0
  0
ENDSEC
  0
SECTION
  2
OBJECTS
  0
DICTIONARY
  5
C
330
0
100
AcDbDictionary
281
     1
  3
ACAD_GROUP
350
D
  3
ACAD_LAYOUT
350
1A
  3
ACAD_MLINESTYLE
350
17
  3
ACAD_PLOTSETTINGS
350
19
  3
ACAD_PLOTSTYLENAME
350
E
  3
ACAD_SCALELIST
350
47
  0
DICTIONARY
  5
D
102
{ACAD_REACTORS
330
C
102
}
330
C
100
AcDbDictionary
281
     1
  0
DICTIONARY
  5
1A
102
{ACAD_REACTORS
330
C
102
}
330
C
100
AcDbDictionary
281
     1
  3
Layout1
350
1E
  3
Layout2
350
26
  3
Model
350
22
  0
DICTIONARY
  5
17
102
{ACAD_REACTORS
330
C
102
}
330
C
100
AcDbDictionary
281
     1
  3
Standard
350
18
  0
DICTIONARY
  5
19
102
{ACAD_REACTORS
330
C
102
}
330
C
100
AcDbDictionary
281
     1
  0
ACDBDICTIONARYWDFLT
  5
E
102
{ACAD_REACTORS
330
C
102
}
330
C
100
AcDbDictionary
281
     1
  3
Normal
350
F
100
AcDbDictionaryWithDefault
340
F
  0
DICTIONARY
  5
47
102
{ACAD_REACTORS
330
C
102
}
330
C
100
AcDbDictionary
281
     1
  3
A0
350
48
  3
A1
350
49
  3
A2
350
4A
  3
A3
350
4B
  3
A4
350
4C
  3
A5
350
4D
  3
A6
350
4E
  3
A7
350
4F
  3
A8
350
50
  3
A9
350
51
  3
B0
350
52
  3
B1
350
53
  3
B2
350
54
  3
B3
350
55
  3
B4
350
56
  3
B5
350
57
  3
B6
350
58
  3
B7
350
59
  3
B8
350
5A
  3
B9
350
5B
  3
C0
350
5C
  3
C1
350
5D
  3
C2
350
5E
  3
C3
350
5F
  3
C4
350
60
  3
C5
350
61
  3
C6
350
62
  3
C7
350
63
  3
C8
350
64
  3
C9
350
65
  3
D0
350
66
  3
D1
350
67
  3
D2
350
68
  0
LAYOUT
  5
1E
102
{ACAD_REACTORS
330
1A
102
}
330
1A
100
AcDbPlotSettings
  1

  2
none_device
  4

  6

 40
0.0
 41
0.0
 42
0.0
 43
0.0
 44
0.0
 45
0.0
 46
0.0
 47
0.0
 48
0.0
 49
0.0
140
0.0
141
0.0
142
1.0
143
1.0
 70
   688
 72
     1
 73
     0
 74
     5
  7

 75
    16
147
1.0
148
0.0
149
0.0
100
AcDbLayout
  1
Layout1
 70
     1
 71
     1
 10
0.0
 20
0.0
 11
420.0
 21
297.0
 12
0.0
 22
0.0
 32
0.0
 14
1.0000000000E+20
 24
1.0000000000E+20
 34
1.0000000000E+20
 15
-1.0000000000E+20
 25
-1.0000000000E+20
 35
-1.0000000000E+20
146
0.0
 13
0.0
 23
0.0
 33
0.0
 16
1.0
 26
0.0
 36
0.0
 17
0.0
 27
1.0
 37
0.0
 76
     0
330
1B
  0
LAYOUT
  5
26
102
{ACAD_REACTORS
330
1A
102
}
330
1A
100
AcDbPlotSettings
  1

  2
none_device
  4

  6

 40
0.0
 41
0.0
 42
0.0
 43
0.0
 44
0.0
 45
0.0
 46
0.0
 47
0.0
 48
0.0
 49
0.0
140
0.0
141
0.0
142
1.0
143
1.0
 70
   688
 72
     1
 73
     0
 74
     5
  7

 75
    16
147
1.0
148
0.0
149
0.0
100
AcDbLayout
  1
Layout2
 70
     1
 71
     2
 10
0.0
 20
0.0
 11
0.0
 21
0.0
 12
0.0
 22
0.0
 32
0.0
 14
0.0
 24
0.0
 34
0.0
 15
0.0
 25
0.0
 35
0.0
146
0.0
 13
0.0
 23
0.0
 33
0.0
 16
1.0
 26
0.0
 36
0.0
 17
0.0
 27
1.0
 37
0.0
 76
     0
330
23
  0
LAYOUT
  5
22
102
{ACAD_REACTORS
330
1A
102
}
330
1A
100
AcDbPlotSettings
  1

  2
none_device
  4
Letter_(8.50_x_11.00_Inches)
  6

 40
6.35
 41
6.35
 42
6.35000508
 43
6.35000508
 44
215.9
 45
279.4
 46
0.0
 47
0.0
 48
0.0
 49
0.0
140
0.0
141
0.0
142
1.0
143
1.0
 70
  1712
 72
     1
 73
     0
 74
     0
  7

 75
     0
147
1.0
148
0.0
149
0.0
100
AcDbLayout
  1
Model
 70
     1
 71
     0
 10
0.0
 20
0.0
 11
431.8
 21
279.4
 12
0.0
 22
0.0
 32
0.0
 14
0.0
 24
0.0
 34
0.0
 15
431.8
 25
279.4
 35
0.0
146
0.0
 13
0.0
 23
0.0
 33
0.0
 16
1.0
 26
0.0
 36
0.0
 17
0.0
 27
1.0
 37
0.0
 76
     0
330
1F
331
29
  0
MLINESTYLE
  5
18
102
{ACAD_REACTORS
330
17
102
}
330
17
100
AcDbMlineStyle
  2
Standard
 70
     0
  3

 62
   256
 51
90.0
 52
90.0
 71
     2
 49
0.5
 62
   256
  6
BYLAYER
 49
-0.5
 62
   256
  6
BYLAYER
  0
ACDBPLACEHOLDER
  5
F
102
{ACAD_REACTORS
330
E
102
}
330
E
  0
SCALE
  5
48
102
{ACAD_REACTORS
330
47
102
}
330
47
100
AcDbScale
 70
     0
300
1:1
140
1.0
141
1.0
290
     1
  0
SCALE
  5
49
102
{ACAD_REACTORS
330
47
102
}
330
47
100
AcDbScale
 70
     0
300
1:2
140
1.0
141
2.0
290
     0
  0
SCALE
  5
4A
102
{ACAD_REACTORS
330
47
102
}
330
47
100
AcDbScale
 70
     0
300
1:4
140
1.0
141
4.0
290
     0
  0
SCALE
  5
4B
102
{ACAD_REACTORS
330
47
102
}
330
47
100
AcDbScale
 70
     0
300
1:5
140
1.0
141
5.0
290
     0
  0
SCALE
  5
4C
102
{ACAD_REACTORS
330
47
102
}
330
47
100
AcDbScale
 70
     0
300
1:8
140
1.0
141
8.0
290
     0
  0
SCALE
  5
4D
102
{ACAD_REACTORS
330
47
102
}
330
47
100
AcDbScale
 70
     0
300
1:10
140
1.0
141
10.0
290
     0
  0
SCALE
  5
4E
102
{ACAD_REACTORS
330
47
102
}
330
47
100
AcDbScale
 70
     0
300
1:16
140
1.0
141
16.0
290
     0
  0
SCALE
  5
4F
102
{ACAD_REACTORS
330
47
102
}
330
47
100
AcDbScale
 70
     0
300
1:20
140
1.0
141
20.0
290
     0
  0
SCALE
  5
50
102
{ACAD_REACTORS
330
47
102
}
330
47
100
AcDbScale
 70
     0
300
1:30
140
1.0
141
30.0
290
     0
  0
SCALE
  5
51
102
{ACAD_REACTORS
330
47
102
}
330
47
100
AcDbScale
 70
     0
300
1:40
140
1.0
141
40.0
290
     0
  0
SCALE
  5
52
102
{ACAD_REACTORS
330
47
102
}
330
47
100
AcDbScale
 70
     0
300
1:50
140
1.0
141
50.0
290
     0
  0
SCALE
  5
53
102
{ACAD_REACTORS
330
47
102
}
330
47
100
AcDbScale
 70
     0
300
1:100
140
1.0
141
100.0
290
     0
  0
SCALE
  5
54
102
{ACAD_REACTORS
330
47
102
}
330
47
100
AcDbScale
 70
     0
300
2:1
140
2.0
141
1.0
290
     0
  0
SCALE
  5
55
102
{ACAD_REACTORS
330
47
102
}
330
47
100
AcDbScale
 70
     0
300
4:1
140
4.0
141
1.0
290
     0
  0
SCALE
  5
56
102
{ACAD_REACTORS
330
47
102
}
330
47
100
AcDbScale
 70
     0
300
8:1
140
8.0
141
1.0
290
     0
  0
SCALE
  5
57
102
{ACAD_REACTORS
330
47
102
}
330
47
100
AcDbScale
 70
     0
300
10:1
140
10.0
141
1.0
290
     0
  0
SCALE
  5
58
102
{ACAD_REACTORS
330
47
102
}
330
47
100
AcDbScale
 70
     0
300
100:1
140
100.0
141
1.0
290
     0
  0
SCALE
  5
59
102
{ACAD_REACTORS
330
47
102
}
330
47
100
AcDbScale
 70
     0
300
1/128" = 1'-0"
140
0.0078125
141
12.0
290
     0
  0
SCALE
  5
5A
102
{ACAD_REACTORS
330
47
102
}
330
47
100
AcDbScale
 70
     0
300
1/64" = 1'-0"
140
0.015625
141
12.0
290
     0
  0
SCALE
  5
5B
102
{ACAD_REACTORS
330
47
102
}
330
47
100
AcDbScale
 70
     0
300
1/32" = 1'-0"
140
0.03125
141
12.0
290
     0
  0
SCALE
  5
5C
102
{ACAD_REACTORS
330
47
102
}
330
47
100
AcDbScale
 70
     0
300
1/16" = 1'-0"
140
0.0625
141
12.0
290
     0
  0
SCALE
  5
5D
102
{ACAD_REACTORS
330
47
102
}
330
47
100
AcDbScale
 70
     0
300
3/32" = 1'-0"
140
0.09375
141
12.0
290
     0
  0
SCALE
  5
5E
102
{ACAD_REACTORS
330
47
102
}
330
47
100
AcDbScale
 70
     0
300
1/8" = 1'-0"
140
0.125
141
12.0
290
     0
  0
SCALE
  5
5F
102
{ACAD_REACTORS
330
47
102
}
330
47
100
AcDbScale
 70
     0
300
3/16" = 1'-0"
140
0.1875
141
12.0
290
     0
  0
SCALE
  5
60
102
{ACAD_REACTORS
330
47
102
}
330
47
100
AcDbScale
 70
     0
300
1/4" = 1'-0"
140
0.25
141
12.0
290
     0
  0
SCALE
  5
61
102
{ACAD_REACTORS
330
47
102
}
330
47
100
AcDbScale
 70
     0
300
3/8" = 1'-0"
140
0.375
141
12.0
290
     0
  0
SCALE
  5
62
102
{ACAD_REACTORS
330
47
102
}
330
47
100
AcDbScale
 70
     0
300
1/2" = 1'-0"
140
0.5
141
12.0
290
     0
  0
SCALE
  5
63
102
{ACAD_REACTORS
330
47
102
}
330
47
100
AcDbScale
 70
     0
300
3/4" = 1'-0"
140
0.75
141
12.0
290
     0
  0
SCALE
  5
64
102
{ACAD_REACTORS
330
47
102
}
330
47
100
AcDbScale
 70
     0
300
1" = 1'-0"
140
1.0
141
12.0
290
     0
  0
SCALE
  5
65
102
{ACAD_REACTORS
330
47
102
}
330
47
100
AcDbScale
 70
     0
300
1-1/2" = 1'-0"
140
1.5
141
12.0
290
     0
  0
SCALE
  5
66
102
{ACAD_REACTORS
330
47
102
}
330
47
100
AcDbScale
 70
     0
300
3" = 1'-0"
140
3.0
141
12.0
290
     0
  0
SCALE
  5
67
102
{ACAD_REACTORS
330
47
102
}
330
47
100
AcDbScale
 70
     0
300
6" = 1'-0"
140
6.0
141
12.0
290
     0
  0
SCALE
  5
68
102
{ACAD_REACTORS
330
47
102
}
330
47
100
AcDbScale
 70
     0
300
1'-0" = 1'-0"
140
12.0
141
12.0
290
     0
  0
ENDSEC
  0
EOF
