  0
SECTION
  2
HEADER
  9
$ACADVER
  1
AC1015
  9
$ACADMAINTVER
 70
     6
  9
$DWGCODEPAGE
  3
DOS932
  9
$INSBASE
 10
0.0
 20
0.0
 30
0.0
  9
$EXTMIN
 10
0.0
 20
0.0
 30
0.0
  9
$EXTMAX
 10
431.8
 20
279.4
 30
0.0
  9
$LIMMIN
 10
0.0
 20
0.0
  9
$LIMMAX
 10
431.8
 20
279.4
  9
$ORTHOMODE
 70
     0
  9
$REGENMODE
 70
     1
  9
$FILLMODE
 70
     1
  9
$QTEXTMODE
 70
     0
  9
$MIRRTEXT
 70
     1
  9
$LTSCALE
 40
1.0
  9
$ATTMODE
 70
     1
  9
$TEXTSIZE
 40
3.5
  9
$TRACEWID
 40
1.0
  9
$TEXTSTYLE
  7
Standard
  9
$CLAYER
  8
0
  9
$CELTYPE
  6
ByLayer
  9
$CECOLOR
 62
   256
  9
$CELTSCALE
 40
1.0
  9
$DISPSILH
 70
     0
  9
$DIMSCALE
 40
1.0
  9
$DIMASZ
 40
3.556
  9
$DIMEXO
 40
1.0
  9
$DIMDLI
 40
3.75
  9
$DIMRND
 40
0.0
  9
$DIMDLE
 40
0.0
  9
$DIMEXE
 40
1.0
  9
$DIMTP
 40
0.0
  9
$DIMTM
 40
0.0
  9
$DIMTXT
 40
3.5
  9
$DIMCEN
 40
2.5
  9
$DIMTSZ
 40
0.0
  9
$DIMTOL
 70
     0
  9
$DIMLIM
 70
     0
  9
$DIMTIH
 70
     1
  9
$DIMTOH
 70
     1
  9
$DIMSE1
 70
     0
  9
$DIMSE2
 70
     0
  9
$DIMTAD
 70
     1
  9
$DIMZIN
 70
     0
  9
$DIMBLK
  1

  9
$DIMASO
 70
     1
  9
$DIMSHO
 70
     1
  9
$DIMPOST
  1

  9
$DIMAPOST
  1

  9
$DIMALT
 70
     0
  9
$DIMALTD
 70
     3
  9
$DIMALTF
 40
0.0393700787
  9
$DIMLFAC
 40
1.0
  9
$DIMTOFL
 70
     1
  9
$DIMTVP
 40
0.0
  9
$DIMTIX
 70
     0
  9
$DIMSOXD
 70
     0
  9
$DIMSAH
 70
     0
  9
$DIMBLK1
  1

  9
$DIMBLK2
  1

  9
$DIMSTYLE
  2
ISO-25
  9
$DIMCLRD
 70
     0
  9
$DIMCLRE
 70
     0
  9
$DIMCLRT
 70
     0
  9
$DIMTFAC
 40
1.0
  9
$DIMGAP
 40
1.524
  9
$DIMJUST
 70
     0
  9
$DIMSD1
 70
     0
  9
$DIMSD2
 70
     0
  9
$DIMTOLJ
 70
     0
  9
$DIMTZIN
 70
     0
  9
$DIMALTZ
 70
     0
  9
$DIMALTTZ
 70
     0
  9
$DIMUPT
 70
     0
  9
$DIMDEC
 70
     3
  9
$DIMTDEC
 70
     3
  9
$DIMALTU
 70
     2
  9
$DIMALTTD
 70
     3
  9
$DIMTXSTY
  7
Standard
  9
$DIMAUNIT
 70
     0
  9
$DIMADEC
 70
     2
  9
$DIMALTRND
 40
0.0
  9
$DIMAZIN
 70
     0
  9
$DIMDSEP
 70
    44
  9
$DIMATFIT
 70
     3
  9
$DIMFRAC
 70
     0
  9
$DIMLDRBLK
  1

  9
$DIMLUNIT
 70
     2
  9
$DIMLWD
 70
    -2
  9
$DIMLWE
 70
    -2
  9
$DIMTMOVE
 70
     0
  9
$LUNITS
 70
     2
  9
$LUPREC
 70
     3
  9
$SKETCHINC
 40
1.0
  9
$FILLETRAD
 40
0.0
  9
$AUNITS
 70
     0
  9
$AUPREC
 70
     2
  9
$MENU
  1
.
  9
$ELEVATION
 40
0.0
  9
$PELEVATION
 40
0.0
  9
$THICKNESS
 40
0.0
  9
$LIMCHECK
 70
     0
  9
$CHAMFERA
 40
0.0
  9
$CHAMFERB
 40
0.0
  9
$CHAMFERC
 40
0.0
  9
$CHAMFERD
 40
0.0
  9
$SKPOLY
 70
     0
  9
$TDCREATE
 40
2460299.410520486
  9
$TDUCREATE
 40
2460299.035520486
  9
$TDUPDATE
 40
2460299.410521377
  9
$TDUUPDATE
 40
2460299.035521377
  9
$TDINDWG
 40
0.0000000116
  9
$TDUSRTIMER
 40
0.0000000116
  9
$USRTIMER
 70
     1
  9
$ANGBASE
 50
0.0
  9
$ANGDIR
 70
     0
  9
$PDMODE
 70
     0
  9
$PDSIZE
 40
-1.0
  9
$PLINEWID
 40
0.0
  9
$SPLFRAME
 70
     0
  9
$SPLINETYPE
 70
     6
  9
$SPLINESEGS
 70
     8
  9
$HANDSEED
  5
306
  9
$SURFTAB1
 70
     6
  9
$SURFTAB2
 70
     6
  9
$SURFTYPE
 70
     6
  9
$SURFU
 70
     6
  9
$SURFV
 70
     6
  9
$UCSBASE
  2

  9
$UCSNAME
  2

  9
$UCSORG
 10
0.0
 20
0.0
 30
0.0
  9
$UCSXDIR
 10
1.0
 20
0.0
 30
0.0
  9
$UCSYDIR
 10
0.0
 20
1.0
 30
0.0
  9
$UCSORTHOREF
  2

  9
$UCSORTHOVIEW
 70
     0
  9
$UCSORGTOP
 10
0.0
 20
0.0
 30
0.0
  9
$UCSORGBOTTOM
 10
0.0
 20
0.0
 30
0.0
  9
$UCSORGLEFT
 10
0.0
 20
0.0
 30
0.0
  9
$UCSORGRIGHT
 10
0.0
 20
0.0
 30
0.0
  9
$UCSORGFRONT
 10
0.0
 20
0.0
 30
0.0
  9
$UCSORGBACK
 10
0.0
 20
0.0
 30
0.0
  9
$PUCSBASE
  2

  9
$PUCSNAME
  2

  9
$PUCSORG
 10
0.0
 20
0.0
 30
0.0
  9
$PUCSXDIR
 10
1.0
 20
0.0
 30
0.0
  9
$PUCSYDIR
 10
0.0
 20
1.0
 30
0.0
  9
$PUCSORTHOREF
  2

  9
$PUCSORTHOVIEW
 70
     0
  9
$PUCSORGTOP
 10
0.0
 20
0.0
 30
0.0
  9
$PUCSORGBOTTOM
 10
0.0
 20
0.0
 30
0.0
  9
$PUCSORGLEFT
 10
0.0
 20
0.0
 30
0.0
  9
$PUCSORGRIGHT
 10
0.0
 20
0.0
 30
0.0
  9
$PUCSORGFRONT
 10
0.0
 20
0.0
 30
0.0
  9
$PUCSORGBACK
 10
0.0
 20
0.0
 30
0.0
  9
$USERI1
 70
     0
  9
$USERI2
 70
     0
  9
$USERI3
 70
     0
  9
$USERI4
 70
     0
  9
$USERI5
 70
     0
  9
$USERR1
 40
0.0
  9
$USERR2
 40
0.0
  9
$USERR3
 40
0.0
  9
$USERR4
 40
0.0
  9
$USERR5
 40
0.0
  9
$WORLDVIEW
 70
     1
  9
$SHADEDGE
 70
     3
  9
$SHADEDIF
 70
    70
  9
$TILEMODE
 70
     1
  9
$MAXACTVP
 70
    64
  9
$PINSBASE
 10
0.0
 20
0.0
 30
0.0
  9
$PLIMCHECK
 70
     0
  9
$PEXTMIN
 10
1.0000000000E+20
 20
1.0000000000E+20
 30
1.0000000000E+20
  9
$PEXTMAX
 10
-1.0000000000E+20
 20
-1.0000000000E+20
 30
-1.0000000000E+20
  9
$PLIMMIN
 10
0.0
 20
0.0
  9
$PLIMMAX
 10
420.0
 20
297.0
  9
$UNITMODE
 70
     0
  9
$VISRETAIN
 70
     1
  9
$PLINEGEN
 70
     0
  9
$PSLTSCALE
 70
     1
  9
$TREEDEPTH
 70
  3020
  9
$CMLSTYLE
  2
Standard
  9
$CMLJUST
 70
     0
  9
$CMLSCALE
 40
20.0
  9
$PROXYGRAPHICS
 70
     1
  9
$MEASUREMENT
 70
     1
  9
$CELWEIGHT
370
    -1
  9
$ENDCAPS
280
     0
  9
$JOINSTYLE
280
     0
  9
$LWDISPLAY
290
     1
  9
$INSUNITS
 70
     4
  9
$HYPERLINKBASE
  1

  9
$STYLESHEET
  1

  9
$XEDIT
290
     1
  9
$CEPSNTYPE
380
     0
  9
$PSTYLEMODE
290
     1
  9
$FINGERPRINTGUID
  2
{8b0b0d80-68d5-4a20-869e-6bf8ddbb19fd}
  9
$VERSIONGUID
  2
{FAEB1C32-E019-11D5-929B-00C0DF256EC4}
  9
$EXTNAMES
290
     1
  9
$PSVPSCALE
 40
0.0
  9
$OLESTARTUP
290
     0
  0
ENDSEC
  0
SECTION
  2
CLASSES
  0
CLASS
  1
ACDBDICTIONARYWDFLT
  2
AcDbDictionaryWithDefault
  3
ObjectDBX Classes
 90
        0
280
     0
281
     0
  0
CLASS
  1
VISUALSTYLE
  2
AcDbVisualStyle
  3
ObjectDBX Classes
 90
     4095
280
     0
281
     0
  0
CLASS
  1
MATERIAL
  2
AcDbMaterial
  3
ObjectDBX Classes
 90
     1153
280
     0
281
     0
  0
CLASS
  1
SCALE
  2
AcDbScale
  3
ObjectDBX Classes
 90
     1153
280
     0
281
     0
  0
CLASS
  1
TABLESTYLE
  2
AcDbTableStyle
  3
ObjectDBX Classes
 90
     4095
280
     0
281
     0
  0
CLASS
  1
MLEADERSTYLE
  2
AcDbMLeaderStyle
  3
ACDB_MLEADERSTYLE_CLASS
 90
     4095
280
     0
281
     0
  0
CLASS
  1
SUN
  2
AcDbSun
  3
SCENEOE
 90
     1153
280
     0
281
     0
  0
CLASS
  1
ACDBPLACEHOLDER
  2
AcDbPlaceHolder
  3
ObjectDBX Classes
 90
        0
280
     0
281
     0
  0
CLASS
  1
LAYOUT
  2
AcDbLayout
  3
ObjectDBX Classes
 90
        0
280
     0
281
     0
  0
ENDSEC
  0
SECTION
  2
TABLES
  0
TABLE
  2
VPORT
  5
8
330
0
100
AcDbSymbolTable
 70
     1
  0
VPORT
  5
29
330
8
100
AcDbSymbolTableRecord
100
AcDbViewportTableRecord
  2
*Active
 70
     0
 10
0.0
 20
0.0
 11
1.0
 21
1.0
 12
215.9
 22
139.7
 13
0.0
 23
0.0
 14
10.0
 24
10.0
 15
10.0
 25
10.0
 16
0.0
 26
0.0
 36
1.0
 17
0.0
 27
0.0
 37
0.0
 40
279.4
 41
1.5454545455
 42
50.0
 43
0.0
 44
0.0
 50
0.0
 51
0.0
 71
     0
 72
  2000
 73
     1
 74
     3
 75
     0
 76
     0
 77
     0
 78
     0
281
     0
 65
     1
110
0.0
120
0.0
130
0.0
111
1.0
121
0.0
131
0.0
112
0.0
122
1.0
132
0.0
 79
     0
146
0.0
  0
ENDTAB
  0
TABLE
  2
LTYPE
  5
5
330
0
100
AcDbSymbolTable
 70
     6
  0
LTYPE
  5
14
330
5
100
AcDbSymbolTableRecord
100
AcDbLinetypeTableRecord
  2
ByBlock
 70
     0
  3

 72
    65
 73
     0
 40
0.0
  0
LTYPE
  5
15
330
5
100
AcDbSymbolTableRecord
100
AcDbLinetypeTableRecord
  2
ByLayer
 70
     0
  3

 72
    65
 73
     0
 40
0.0
  0
LTYPE
  5
16
330
5
100
AcDbSymbolTableRecord
100
AcDbLinetypeTableRecord
  2
Continuous
 70
     0
  3
Solid line
 72
    65
 73
     0
 40
0.0
  0
LTYPE
  5
5E
330
5
100
AcDbSymbolTableRecord
100
AcDbLinetypeTableRecord
  2
HIDDEN
 70
     0
  3
Hidden __ __ __ __ __ __ __ __ __ __ __ __ __ __
 72
    65
 73
     2
 40
1.905
 49
1.27
 74
     0
 49
-0.635
 74
     0
  0
LTYPE
  5
5F
330
5
100
AcDbSymbolTableRecord
100
AcDbLinetypeTableRecord
  2
PHANTOM
 70
     0
  3
Phantom ______  __  __  ______  __  __  ______
 72
    65
 73
     6
 40
12.7
 49
6.35
 74
     0
 49
-1.27
 74
     0
 49
1.27
 74
     0
 49
-1.27
 74
     0
 49
1.27
 74
     0
 49
-1.27
 74
     0
  0
LTYPE
  5
60
330
5
100
AcDbSymbolTableRecord
100
AcDbLinetypeTableRecord
  2
CENTER
 70
     0
  3
Center ____ _ ____ _ ____ _ ____ _ ____ _ ____
 72
    65
 73
     4
 40
10.16
 49
6.35
 74
     0
 49
-1.27
 74
     0
 49
1.27
 74
     0
 49
-1.27
 74
     0
  0
LTYPE
  5
61
330
5
100
AcDbSymbolTableRecord
100
AcDbLinetypeTableRecord
  2
CENTERX2
 70
     0
  3
Center (2x) ________  __  ________  __  _____
 72
    65
 73
     4
 40
20.32
 49
12.7
 74
     0
 49
-2.54
 74
     0
 49
2.54
 74
     0
 49
-2.54
 74
     0
  0
LTYPE
  5
62
330
5
100
AcDbSymbolTableRecord
100
AcDbLinetypeTableRecord
  2
DOT2
 70
     0
  3
Dot (.5x) ........................................
 72
    65
 73
     2
 40
0.635
 49
0.0
 74
     0
 49
-0.635
 74
     0
  0
ENDTAB
  0
TABLE
  2
LAYER
  5
2
330
0
100
AcDbSymbolTable
 70
     1
  0
LAYER
  5
10
330
2
100
AcDbSymbolTableRecord
100
AcDbLayerTableRecord
  2
0
 70
     0
 62
     7
  6
Continuous
370
    -3
390
F
  0
ENDTAB
  0
TABLE
  2
STYLE
  5
3
330
0
100
AcDbSymbolTable
 70
     2
  0
STYLE
  5
11
330
3
100
AcDbSymbolTableRecord
100
AcDbTextStyleTableRecord
  2
Standard
 70
     0
 40
0.0
 41
1.0
 50
0.0
 71
     0
 42
3.5
  3
txt
  4
bigfont
  0
STYLE
  5
63
330
3
100
AcDbSymbolTableRecord
100
AcDbTextStyleTableRecord
  2
SLDTEXTSTYLE0
 70
     0
 40
0.0
 41
0.7
 50
0.0
 71
     0
 42
3.5
  3
TXT
  4
bigfont
  0
ENDTAB
  0
TABLE
  2
VIEW
  5
6
330
0
100
AcDbSymbolTable
 70
     0
  0
ENDTAB
  0
TABLE
  2
UCS
  5
7
330
0
100
AcDbSymbolTable
 70
     0
  0
ENDTAB
  0
TABLE
  2
APPID
  5
9
330
0
100
AcDbSymbolTable
 70
     1
  0
APPID
  5
12
330
9
100
AcDbSymbolTableRecord
100
AcDbRegAppTableRecord
  2
ACAD
 70
     0
  0
ENDTAB
  0
TABLE
  2
DIMSTYLE
  5
A
330
0
100
AcDbSymbolTable
 70
     1
100
AcDbDimStyleTable
  0
DIMSTYLE
105
27
330
A
100
AcDbSymbolTableRecord
100
AcDbDimStyleTableRecord
  2
ISO-25
 70
     0
 41
2.5
 42
0.625
 43
3.75
 44
1.25
 73
     0
 74
     0
 77
     1
 78
     8
140
2.5
141
2.5
143
0.0393700787
147
0.625
171
     3
172
     1
178
     0
271
     2
272
     2
274
     3
278
    44
283
     0
284
     8
340
11
  0
ENDTAB
  0
TABLE
  2
BLOCK_RECORD
  5
1
330
0
100
AcDbSymbolTable
 70
     3
  0
BLOCK_RECORD
  5
1F
330
1
100
AcDbSymbolTableRecord
100
AcDbBlockTableRecord
  2
*Model_Space
340
22
  0
BLOCK_RECORD
  5
1B
330
1
100
AcDbSymbolTableRecord
100
AcDbBlockTableRecord
  2
*Paper_Space
340
1E
  0
BLOCK_RECORD
  5
23
330
1
100
AcDbSymbolTableRecord
100
AcDbBlockTableRecord
  2
*Paper_Space0
340
26
  0
BLOCK_RECORD
  5
1FD
330
1
100
AcDbSymbolTableRecord
100
AcDbBlockTableRecord
  2
SW_CENTERMARKSYMBOL_0
340
0
102
{BLKREFS
331
208
102
}
  0
BLOCK_RECORD
  5
2F7
330
1
100
AcDbSymbolTableRecord
100
AcDbBlockTableRecord
  2
SW_CENTERMARKSYMBOL_1
340
0
102
{BLKREFS
331
302
102
}
  0
ENDTAB
  0
ENDSEC
  0
SECTION
  2
BLOCKS
  0
BLOCK
  5
20
330
1F
100
AcDbEntity
  8
0
100
AcDbBlockBegin
  2
*Model_Space
 70
     0
 10
0.0
 20
0.0
 30
0.0
  3
*Model_Space
  1

  0
ENDBLK
  5
21
330
1F
100
AcDbEntity
  8
0
100
AcDbBlockEnd
  0
BLOCK
  5
1C
330
1B
100
AcDbEntity
 67
     1
  8
0
100
AcDbBlockBegin
  2
*Paper_Space
 70
     0
 10
0.0
 20
0.0
 30
0.0
  3
*Paper_Space
  1

  0
ENDBLK
  5
1D
330
1B
100
AcDbEntity
 67
     1
  8
0
100
AcDbBlockEnd
  0
BLOCK
  5
24
330
23
100
AcDbEntity
  8
0
100
AcDbBlockBegin
  2
*Paper_Space0
 70
     0
 10
0.0
 20
0.0
 30
0.0
  3
*Paper_Space0
  1

  0
ENDBLK
  5
25
330
23
100
AcDbEntity
  8
0
100
AcDbBlockEnd
  0
BLOCK
  5
1FE
330
1FD
100
AcDbEntity
  8
0
100
AcDbBlockBegin
  2
SW_CENTERMARKSYMBOL_0
 70
     0
 10
0.0
 20
0.0
 30
0.0
  3
SW_CENTERMARKSYMBOL_0
  1

  0
LINE
  5
200
330
1FD
100
AcDbEntity
  8
0
  6
Continuous
 62
     0
370
    18
100
AcDbLine
 10
0.0
 20
0.0
 30
0.0
 11
0.0
 21
2.5
 31
0.0
  0
LINE
  5
201
330
1FD
100
AcDbEntity
  8
0
  6
Continuous
 62
     0
370
    18
100
AcDbLine
 10
0.0
 20
0.0
 30
0.0
 11
-2.5
 21
0.0
 31
0.0
  0
LINE
  5
202
330
1FD
100
AcDbEntity
  8
0
  6
Continuous
 62
     0
370
    18
100
AcDbLine
 10
0.0
 20
0.0
 30
0.0
 11
0.0
 21
-2.5
 31
0.0
  0
LINE
  5
203
330
1FD
100
AcDbEntity
  8
0
  6
Continuous
 62
     0
370
    18
100
AcDbLine
 10
0.0
 20
0.0
 30
0.0
 11
2.5
 21
0.0
 31
0.0
  0
LINE
  5
204
330
1FD
100
AcDbEntity
  8
0
  6
Continuous
 62
     0
370
    18
100
AcDbLine
 10
0.0
 20
5.0
 30
0.0
 11
0.0
 21
42.9098434142
 31
0.0
  0
LINE
  5
205
330
1FD
100
AcDbEntity
  8
0
  6
Continuous
 62
     0
370
    18
100
AcDbLine
 10
-5.0
 20
0.0
 30
0.0
 11
-16.5
 21
0.0
 31
0.0
  0
LINE
  5
206
330
1FD
100
AcDbEntity
  8
0
  6
Continuous
 62
     0
370
    18
100
AcDbLine
 10
0.0
 20
-5.0
 30
0.0
 11
0.0
 21
-16.5
 31
0.0
  0
LINE
  5
207
330
1FD
100
AcDbEntity
  8
0
  6
Continuous
 62
     0
370
    18
100
AcDbLine
 10
5.0
 20
0.0
 30
0.0
 11
16.5
 21
0.0
 31
0.0
  0
ENDBLK
  5
1FF
330
1FD
100
AcDbEntity
  8
0
100
AcDbBlockEnd
  0
BLOCK
  5
2F8
330
2F7
100
AcDbEntity
  8
0
100
AcDbBlockBegin
  2
SW_CENTERMARKSYMBOL_1
 70
     0
 10
0.0
 20
0.0
 30
0.0
  3
SW_CENTERMARKSYMBOL_1
  1

  0
LINE
  5
2FA
330
2F7
100
AcDbEntity
  8
0
  6
Continuous
 62
     0
370
    18
100
AcDbLine
 10
0.0
 20
0.0
 30
0.0
 11
0.0
 21
2.5
 31
0.0
  0
LINE
  5
2FB
330
2F7
100
AcDbEntity
  8
0
  6
Continuous
 62
     0
370
    18
100
AcDbLine
 10
0.0
 20
0.0
 30
0.0
 11
-2.5
 21
0.0
 31
0.0
  0
LINE
  5
2FC
330
2F7
100
AcDbEntity
  8
0
  6
Continuous
 62
     0
370
    18
100
AcDbLine
 10
0.0
 20
0.0
 30
0.0
 11
0.0
 21
-2.5
 31
0.0
  0
LINE
  5
2FD
330
2F7
100
AcDbEntity
  8
0
  6
Continuous
 62
     0
370
    18
100
AcDbLine
 10
0.0
 20
0.0
 30
0.0
 11
2.5
 21
0.0
 31
0.0
  0
LINE
  5
2FE
330
2F7
100
AcDbEntity
  8
0
  6
Continuous
 62
     0
370
    18
100
AcDbLine
 10
0.0
 20
5.0
 30
0.0
 11
0.0
 21
16.2277327551
 31
0.0
  0
LINE
  5
2FF
330
2F7
100
AcDbEntity
  8
0
  6
Continuous
 62
     0
370
    18
100
AcDbLine
 10
-5.0
 20
0.0
 30
0.0
 11
-57.2119373567
 21
0.0
 31
0.0
  0
LINE
  5
300
330
2F7
100
AcDbEntity
  8
0
  6
Continuous
 62
     0
370
    18
100
AcDbLine
 10
0.0
 20
-5.0
 30
0.0
 11
0.0
 21
-16.0582166197
 31
0.0
  0
LINE
  5
301
330
2F7
100
AcDbEntity
  8
0
  6
Continuous
 62
     0
370
    18
100
AcDbLine
 10
5.0
 20
0.0
 30
0.0
 11
30.7574712637
 21
0.0
 31
0.0
  0
ENDBLK
  5
2F9
330
2F7
100
AcDbEntity
  8
0
100
AcDbBlockEnd
  0
ENDSEC
  0
SECTION
  2
ENTITIES
  0
MTEXT
  5
64
330
1F
100
AcDbEntity
  8
0
  6
Continuous
 62
     7
370
     0
100
AcDbMText
 10
168.336702799
 20
108.9794659333
 30
0.0
 40
4.2333333333
 41
0.0
 71
     1
 72
     1
  1
エースボールZERO　BH-0620
  7
SLDTEXTSTYLE0
 73
     1
 44
1.0
  0
LINE
  5
65
330
1F
100
AcDbEntity
  8
0
  6
Continuous
 62
     7
370
    25
100
AcDbLine
 10
141.1985849864
 20
65.767431912
 30
0.0
 11
137.6985849864
 21
65.767431912
 31
0.0
  0
LINE
  5
66
330
1F
100
AcDbEntity
  8
0
  6
Continuous
 62
     7
370
    25
100
AcDbLine
 10
137.6985849864
 20
38.767431912
 30
0.0
 11
141.1985849864
 21
38.767431912
 31
0.0
  0
LINE
  5
67
330
1F
100
AcDbEntity
  8
0
  6
Continuous
 62
     7
370
    25
100
AcDbLine
 10
137.6985849864
 20
65.767431912
 30
0.0
 11
137.1985849864
 21
65.267431912
 31
0.0
  0
LINE
  5
68
330
1F
100
AcDbEntity
  8
0
  6
Continuous
 62
     7
370
    25
100
AcDbLine
 10
137.1985849864
 20
39.267431912
 30
0.0
 11
137.6985849864
 21
38.767431912
 31
0.0
  0
LINE
  5
69
330
1F
100
AcDbEntity
  8
0
  6
Continuous
 62
     7
370
    25
100
AcDbLine
 10
130.1985849864
 20
62.517431912
 30
0.0
 11
125.1985849864
 21
61.517431912
 31
0.0
  0
LINE
  5
6A
330
1F
100
AcDbEntity
  8
0
  6
Continuous
 62
     7
370
    25
100
AcDbLine
 10
125.1985849864
 20
43.017431912
 30
0.0
 11
130.1985849864
 21
42.017431912
 31
0.0
  0
LINE
  5
6B
330
1F
100
AcDbEntity
  8
0
  6
Continuous
 62
     7
370
    25
100
AcDbLine
 10
130.1985849864
 20
42.017431912
 30
0.0
 11
137.1985849864
 21
42.017431912
 31
0.0
  0
LINE
  5
6C
330
1F
100
AcDbEntity
  8
0
  6
Continuous
 62
     7
370
    25
100
AcDbLine
 10
137.1985849864
 20
62.517431912
 30
0.0
 11
130.1985849864
 21
62.517431912
 31
0.0
  0
LINE
  5
6D
330
1F
100
AcDbEntity
  8
0
  6
Continuous
 62
     7
370
    25
100
AcDbLine
 10
120.1985849864
 20
62.517431912
 30
0.0
 11
115.1985849864
 21
61.517431912
 31
0.0
  0
LINE
  5
6E
330
1F
100
AcDbEntity
  8
0
  6
Continuous
 62
     7
370
    25
100
AcDbLine
 10
115.1985849864
 20
43.017431912
 30
0.0
 11
120.1985849864
 21
42.017431912
 31
0.0
  0
LINE
  5
6F
330
1F
100
AcDbEntity
  8
0
  6
Continuous
 62
     7
370
    25
100
AcDbLine
 10
110.1985849864
 20
62.517431912
 30
0.0
 11
102.6365676191
 21
61.5721797411
 31
0.0
  0
LINE
  5
70
330
1F
100
AcDbEntity
  8
0
  6
Continuous
 62
     7
370
    25
100
AcDbLine
 10
102.6365676191
 20
42.962684083
 30
0.0
 11
110.1985849864
 21
42.017431912
 31
0.0
  0
LINE
  5
71
330
1F
100
AcDbEntity
  8
0
  6
Continuous
 62
     7
370
    25
100
AcDbLine
 10
125.1985849864
 20
62.517431912
 30
0.0
 11
120.1985849864
 21
61.517431912
 31
0.0
  0
LINE
  5
72
330
1F
100
AcDbEntity
  8
0
  6
Continuous
 62
     7
370
    25
100
AcDbLine
 10
120.1985849864
 20
43.017431912
 30
0.0
 11
125.1985849864
 21
42.017431912
 31
0.0
  0
LINE
  5
73
330
1F
100
AcDbEntity
  8
0
  6
Continuous
 62
     7
370
    25
100
AcDbLine
 10
115.1985849864
 20
62.517431912
 30
0.0
 11
110.1985849864
 21
61.517431912
 31
0.0
  0
LINE
  5
74
330
1F
100
AcDbEntity
  8
0
  6
Continuous
 62
     7
370
    25
100
AcDbLine
 10
110.1985849864
 20
43.017431912
 30
0.0
 11
115.1985849864
 21
42.017431912
 31
0.0
  0
ARC
  5
75
330
1F
100
AcDbEntity
  8
0
  6
Continuous
 62
     7
370
    25
100
AcDbCircle
 10
102.6985849864
 20
43.4588230213
 30
0.0
 40
0.5000000000000017
100
AcDbArc
 50
180.0
 51
262.8749836511
  0
ARC
  5
76
330
1F
100
AcDbEntity
  8
0
  6
Continuous
 62
     7
370
    25
100
AcDbCircle
 10
102.6985849864
 20
61.0760408028
 30
0.0
 40
0.5000000000000017
100
AcDbArc
 50
97.1250163489
 51
180.0
  0
LINE
  5
77
330
1F
100
AcDbEntity
  8
0
  6
Continuous
 62
     7
370
    25
100
AcDbLine
 10
167.1985849864
 20
38.844744412
 30
0.0
 11
180.5934086474
 21
39.2633326515
 31
0.0
  0
LINE
  5
78
330
1F
100
AcDbEntity
  8
0
  6
Continuous
 62
     7
370
    25
100
AcDbLine
 10
180.5934086474
 20
65.2715311726
 30
0.0
 11
167.1985849864
 21
65.690119412
 31
0.0
  0
LINE
  5
79
330
1F
100
AcDbEntity
  8
0
  6
Continuous
 62
     7
370
    25
100
AcDbLine
 10
180.5934086474
 20
39.2633326515
 30
0.0
 11
183.1985849864
 21
40.767431912
 31
0.0
  0
LINE
  5
7A
330
1F
100
AcDbEntity
  8
0
  6
Continuous
 62
     7
370
    25
100
AcDbLine
 10
183.1985849864
 20
63.767431912
 30
0.0
 11
180.5934086474
 21
65.2715311726
 31
0.0
  0
ARC
  5
7B
330
1F
100
AcDbEntity
  8
0
  6
Continuous
 62
     7
370
    25
100
AcDbCircle
 10
162.9485849864
 20
66.767431912
 30
0.0
 40
0.5
100
AcDbArc
 50
180.0
 51
270.0
  0
ARC
  5
7C
330
1F
100
AcDbEntity
  8
0
  6
Continuous
 62
     7
370
    25
100
AcDbCircle
 10
145.4485849864
 20
66.767431912
 30
0.0
 40
0.5
100
AcDbArc
 50
270.0
 51
0.0
  0
LINE
  5
7D
330
1F
100
AcDbEntity
  8
0
  6
Continuous
 62
     7
370
    25
100
AcDbLine
 10
162.4485849864
 20
66.767431912
 30
0.0
 11
162.4485849864
 21
71.767431912
 31
0.0
  0
LINE
  5
7E
330
1F
100
AcDbEntity
  8
0
  6
Continuous
 62
     7
370
    25
100
AcDbLine
 10
145.9485849864
 20
71.767431912
 30
0.0
 11
145.9485849864
 21
66.767431912
 31
0.0
  0
LINE
  5
7F
330
1F
100
AcDbEntity
  8
0
  6
Continuous
 62
     7
370
    25
100
AcDbLine
 10
162.4485849864
 20
71.767431912
 30
0.0
 11
161.9485849864
 21
72.267431912
 31
0.0
  0
LINE
  5
80
330
1F
100
AcDbEntity
  8
0
  6
Continuous
 62
     7
370
    25
100
AcDbLine
 10
146.4485849864
 20
72.267431912
 30
0.0
 11
145.9485849864
 21
71.767431912
 31
0.0
  0
LINE
  5
81
330
1F
100
AcDbEntity
  8
0
  6
Continuous
 62
     7
370
    25
100
AcDbLine
 10
149.1985849864
 20
72.767431912
 30
0.0
 11
149.1985849864
 21
72.267431912
 31
0.0
  0
LINE
  5
82
330
1F
100
AcDbEntity
  8
0
  6
Continuous
 62
     7
370
    25
100
AcDbLine
 10
159.1985849864
 20
72.267431912
 30
0.0
 11
159.1985849864
 21
72.767431912
 31
0.0
  0
ARC
  5
83
330
1F
100
AcDbEntity
  8
0
  6
Continuous
 62
     7
370
    25
100
AcDbCircle
 10
154.1985849864
 20
70.267431912
 30
0.0
 40
20.6
100
AcDbArc
 50
90.5755559454
 51
93.3558231766
  0
ARC
  5
84
330
1F
100
AcDbEntity
  8
0
  6
Continuous
 62
     7
370
    25
100
AcDbCircle
 10
154.1985849864
 20
70.267431912
 30
0.0
 40
20.6
100
AcDbArc
 50
86.6441768145
 51
89.4107283504
  0
ARC
  5
85
330
1F
100
AcDbEntity
  8
0
  6
Continuous
 62
     7
370
    25
100
AcDbCircle
 10
162.1923553548
 20
82.7550112168
 30
0.0
 40
0.9999999999999957
100
AcDbArc
 50
354.2894068625
 51
7.1250163489
  0
LINE
  5
86
330
1F
100
AcDbEntity
  8
0
  6
Continuous
 62
     7
370
    25
100
AcDbLine
 10
145.7919571298
 20
76.8337104784
 30
0.0
 11
146.0185849864
 21
74.567431912
 31
0.0
  0
LINE
  5
87
330
1F
100
AcDbEntity
  8
0
  6
Continuous
 62
     7
370
    25
100
AcDbLine
 10
162.2436098004
 20
73.2176800525
 30
0.0
 11
163.187392545
 21
82.6555074978
 31
0.0
  0
LINE
  5
88
330
1F
100
AcDbEntity
  8
0
  6
Continuous
 62
     7
370
    25
100
AcDbLine
 10
163.1846332315
 20
82.8790459514
 30
0.0
 11
162.2533328155
 21
90.3294492793
 31
0.0
  0
LINE
  5
89
330
1F
100
AcDbEntity
  8
0
  6
Continuous
 62
     7
370
    25
100
AcDbLine
 10
146.1438371573
 20
90.3294492793
 30
0.0
 11
145.9485849864
 21
88.767431912
 31
0.0
  0
ARC
  5
8A
330
1F
100
AcDbEntity
  8
0
  6
Continuous
 62
     7
370
    25
100
AcDbCircle
 10
146.6399760957
 20
90.267431912
 30
0.0
 40
0.5000000000000017
100
AcDbArc
 50
90.0
 51
172.8749836511
  0
ARC
  5
8B
330
1F
100
AcDbEntity
  8
0
  6
Continuous
 62
     7
370
    25
100
AcDbCircle
 10
161.7571938771
 20
90.267431912
 30
0.0
 40
0.5000000000000017
100
AcDbArc
 50
7.1250163489
 51
90.0
  0
ARC
  5
8C
330
1F
100
AcDbEntity
  8
0
  6
Continuous
 62
     7
370
    25
100
AcDbCircle
 10
161.7460912053
 20
73.267431912
 30
0.0
 40
0.5000000000000269
100
AcDbArc
 50
270.0
 51
354.2894068625
  0
LINE
  5
8D
330
1F
100
AcDbEntity
  8
0
  6
Continuous
 62
     7
370
    25
100
AcDbLine
 10
148.6985849864
 20
72.267431912
 30
0.0
 11
148.6985849864
 21
72.767431912
 31
0.0
  0
LINE
  5
8E
330
1F
100
AcDbEntity
  8
0
  6
Continuous
 62
     7
370
    25
100
AcDbLine
 10
146.6985849864
 20
72.770666644
 30
0.0
 11
146.6985849864
 21
72.267431912
 31
0.0
  0
LINE
  5
8F
330
1F
100
AcDbEntity
  8
0
  6
Continuous
 62
     7
370
    25
100
AcDbLine
 10
137.6985849864
 20
64.744463914
 30
0.0
 11
137.6985849864
 21
38.767431912
 31
0.0
  0
LINE
  5
90
330
1F
100
AcDbEntity
  8
0
  6
Continuous
 62
     7
370
    25
100
AcDbLine
 10
137.6985849864
 20
65.767431912
 30
0.0
 11
137.6985849864
 21
64.744463914
 31
0.0
  0
LINE
  5
91
330
1F
100
AcDbEntity
  8
0
  6
Continuous
 62
     7
370
    25
100
AcDbLine
 10
137.1985849864
 20
64.2823516176
 30
0.0
 11
137.1985849864
 21
65.267431912
 31
0.0
  0
LINE
  5
92
330
1F
100
AcDbEntity
  8
0
  6
Continuous
 62
     7
370
    25
100
AcDbLine
 10
137.1985849864
 20
39.267431912
 30
0.0
 11
137.1985849864
 21
64.2823516176
 31
0.0
  0
LINE
  5
93
330
1F
100
AcDbEntity
  8
0
  6
Continuous
 62
     7
370
    25
100
AcDbLine
 10
130.1985849864
 20
42.017431912
 30
0.0
 11
130.1985849864
 21
62.517431912
 31
0.0
  0
LINE
  5
94
330
1F
100
AcDbEntity
  8
0
  6
Continuous
 62
     7
370
    25
100
AcDbLine
 10
120.1985849864
 20
42.017431912
 30
0.0
 11
120.1985849864
 21
62.517431912
 31
0.0
  0
LINE
  5
95
330
1F
100
AcDbEntity
  8
0
  6
Continuous
 62
     7
370
    25
100
AcDbLine
 10
110.1985849864
 20
42.017431912
 30
0.0
 11
110.1985849864
 21
62.517431912
 31
0.0
  0
LINE
  5
96
330
1F
100
AcDbEntity
  8
0
  6
Continuous
 62
     7
370
    25
100
AcDbLine
 10
125.1985849864
 20
42.017431912
 30
0.0
 11
125.1985849864
 21
62.517431912
 31
0.0
  0
LINE
  5
97
330
1F
100
AcDbEntity
  8
0
  6
Continuous
 62
     7
370
    25
100
AcDbLine
 10
115.1985849864
 20
42.017431912
 30
0.0
 11
115.1985849864
 21
62.517431912
 31
0.0
  0
LINE
  5
98
330
1F
100
AcDbEntity
  8
0
  6
Continuous
 62
     7
370
    25
100
AcDbLine
 10
102.1985849864
 20
43.4588230213
 30
0.0
 11
102.1985849864
 21
61.0760408028
 31
0.0
  0
LINE
  5
99
330
1F
100
AcDbEntity
  8
0
  6
Continuous
 62
     7
370
    25
100
AcDbLine
 10
165.7552093134
 20
60.9995565103
 30
0.0
 11
142.6419606594
 21
60.9995565103
 31
0.0
  0
LINE
  5
9A
330
1F
100
AcDbEntity
  8
0
  6
Continuous
 62
     7
370
    25
100
AcDbLine
 10
142.6419606594
 20
60.9995565103
 30
0.0
 11
142.6419606594
 21
66.267431912
 31
0.0
  0
LINE
  5
9B
330
1F
100
AcDbEntity
  8
0
  6
Continuous
 62
     7
370
    25
100
AcDbLine
 10
153.639567992
 20
66.267431912
 30
0.0
 11
142.6419606594
 21
66.267431912
 31
0.0
  0
LINE
  5
9C
330
1F
100
AcDbEntity
  8
0
  6
Continuous
 62
     7
370
    25
100
AcDbLine
 10
154.7576019808
 20
66.267431912
 30
0.0
 11
153.639567992
 21
66.267431912
 31
0.0
  0
LINE
  5
9D
330
1F
100
AcDbEntity
  8
0
  6
Continuous
 62
     7
370
    25
100
AcDbLine
 10
165.7552093134
 20
66.267431912
 30
0.0
 11
154.7576019808
 21
66.267431912
 31
0.0
  0
LINE
  5
9E
330
1F
100
AcDbEntity
  8
0
  6
Continuous
 62
     7
370
    25
100
AcDbLine
 10
165.7552093134
 20
66.267431912
 30
0.0
 11
165.7552093134
 21
60.9995565103
 31
0.0
  0
SPLINE
  5
9F
330
1F
100
AcDbEntity
  8
0
  6
Continuous
 62
     7
370
    25
100
AcDbSpline
210
0.0
220
0.0
230
1.0
 70
    24
 71
     3
 72
    12
 73
     8
 74
     0
 42
0.00000001
 43
0.00000001
 40
0.0
 40
0.0
 40
0.0
 40
0.0
 40
0.25
 40
0.25
 40
0.5
 40
0.5
 40
1.0
 40
1.0
 40
1.0
 40
1.0
 10
167.1985849863906
 20
66.2674319120435
 30
0.0
 10
167.1985849863906
 20
66.2674319120435
 30
0.0
 10
167.1637756214302
 20
66.2674319120435
 30
0.0
 10
167.0287354413214
 20
66.2674319120435
 30
0.0
 10
166.9290719726863
 20
66.2674319120435
 30
0.0
 10
166.5483770563298
 20
66.2674319120435
 30
0.0
 10
166.1863928333836
 20
66.2674319120435
 30
0.0
 10
165.7552093134165
 20
66.2674319120435
 30
0.0
  0
LINE
  5
A0
330
1F
100
AcDbEntity
  8
0
  6
Continuous
 62
     7
370
    25
100
AcDbLine
 10
167.1985849864
 20
66.267431912
 30
0.0
 11
167.1985849864
 21
52.267431912
 31
0.0
  0
SPLINE
  5
A1
330
1F
100
AcDbEntity
  8
0
  6
Continuous
 62
     7
370
    25
100
AcDbSpline
210
0.0
220
0.0
230
1.0
 70
     8
 71
     3
 72
    12
 73
     8
 74
     0
 42
0.00000001
 43
0.00000001
 40
0.0
 40
0.0
 40
0.0
 40
0.0
 40
0.25
 40
0.25
 40
0.5
 40
0.5
 40
1.0
 40
1.0
 40
1.0
 40
1.0
 10
167.1985849863906
 20
52.26743191204351
 30
0.0
 10
167.1985849863906
 20
53.01008861635959
 30
0.0
 10
167.163775621426
 20
53.76026942793362
 30
0.0
 10
167.0287354413187
 20
55.24410388949143
 30
0.0
 10
166.9290719726854
 20
55.97813675752053
 30
0.0
 10
166.5483770563335
 20
58.16019428231979
 30
0.0
 10
166.1863928333886
 20
59.58836225091056
 30
0.0
 10
165.7552093134165
 20
60.99955651033001
 30
0.0
  0
SPLINE
  5
A2
330
1F
100
AcDbEntity
  8
0
  6
Continuous
 62
     7
370
    25
100
AcDbSpline
210
0.0
220
0.0
230
1.0
 70
     8
 71
     3
 72
    12
 73
     8
 74
     0
 42
0.00000001
 43
0.00000001
 40
0.0
 40
0.0
 40
0.0
 40
0.0
 40
0.25
 40
0.25
 40
0.5
 40
0.5
 40
1.0
 40
1.0
 40
1.0
 40
1.0
 10
165.7552093134165
 20
43.53530731375702
 30
0.0
 10
165.9718643544584
 20
44.24438439122142
 30
0.0
 10
166.1720778783207
 20
44.96183944019039
 30
0.0
 10
166.5271165415374
 20
46.40699845028087
 30
0.0
 10
166.681300134098
 20
47.13206515461275
 30
0.0
 10
167.0599581928324
 20
49.31620682760328
 30
0.0
 10
167.1985849863906
 20
50.78443172160402
 30
0.0
 10
167.1985849863906
 20
52.26743191204351
 30
0.0
  0
LINE
  5
A3
330
1F
100
AcDbEntity
  8
0
  6
Continuous
 62
     7
370
    25
100
AcDbLine
 10
165.7552093134
 20
43.5353073138
 30
0.0
 11
142.6419606594
 21
43.5353073138
 31
0.0
  0
SPLINE
  5
A4
330
1F
100
AcDbEntity
  8
0
  6
Continuous
 62
     7
370
    25
100
AcDbSpline
210
0.0
220
0.0
230
1.0
 70
     8
 71
     3
 72
    10
 73
     6
 74
     0
 42
0.00000001
 43
0.00000001
 40
0.0
 40
0.0
 40
0.0
 40
0.0
 40
0.5
 40
0.5
 40
1.0
 40
1.0
 40
1.0
 40
1.0
 10
142.6419606593646
 20
43.53530731375702
 30
0.0
 10
142.2088609336083
 20
44.95277300628385
 30
0.0
 10
141.8420606432687
 20
46.40400716081044
 30
0.0
 10
141.3370380155168
 20
49.31738462978867
 30
0.0
 10
141.1985849863906
 20
50.78548319209795
 30
0.0
 10
141.1985849863906
 20
52.26743191204351
 30
0.0
  0
SPLINE
  5
A5
330
1F
100
AcDbEntity
  8
0
  6
Continuous
 62
     7
370
    25
100
AcDbSpline
210
0.0
220
0.0
230
1.0
 70
     8
 71
     3
 72
    14
 73
    10
 74
     0
 42
0.00000001
 43
0.00000001
 40
0.0
 40
0.0
 40
0.0
 40
0.0
 40
0.125
 40
0.125
 40
0.2500000000000001
 40
0.2500000000000001
 40
0.5
 40
0.5
 40
1.0
 40
1.0
 40
1.0
 40
1.0
 10
141.1985849863906
 20
52.26743191204351
 30
0.0
 10
141.1985849863906
 20
52.63844399086387
 30
0.0
 10
141.2071133432108
 20
53.01030920440495
 30
0.0
 10
141.2413002765987
 20
53.75575325411675
 30
0.0
 10
141.2670478096398
 20
54.12988571811839
 30
0.0
 10
141.3683597522723
 20
55.2436237598503
 30
0.0
 10
141.4680777862895
 20
55.97804150770405
 30
0.0
 10
141.8489057675226
 20
58.16079989104954
 30
0.0
 10
142.2109225466813
 20
59.58883814556241
 30
0.0
 10
142.6419606593646
 20
60.99955651033
 30
0.0
  0
LINE
  5
A6
330
1F
100
AcDbEntity
  8
0
  6
Continuous
 62
     7
370
    25
100
AcDbLine
 10
141.1985849864
 20
52.267431912
 30
0.0
 11
141.1985849864
 21
66.267431912
 31
0.0
  0
SPLINE
  5
A7
330
1F
100
AcDbEntity
  8
0
  6
Continuous
 62
     7
370
    25
100
AcDbSpline
210
0.0
220
0.0
230
1.0
 70
    24
 71
     3
 72
    14
 73
    10
 74
     0
 42
0.00000001
 43
0.00000001
 40
0.0
 40
0.0
 40
0.0
 40
0.0
 40
0.125
 40
0.125
 40
0.25
 40
0.25
 40
0.5
 40
0.5
 40
1.0
 40
1.0
 40
1.0
 40
1.0
 10
141.1985849863906
 20
66.2674319120435
 30
0.0
 10
141.1985849863906
 20
66.2674319120435
 30
0.0
 10
141.2071133432107
 20
66.2674319120435
 30
0.0
 10
141.2413002765985
 20
66.2674319120435
 30
0.0
 10
141.2670478096395
 20
66.2674319120435
 30
0.0
 10
141.3683597522721
 20
66.2674319120435
 30
0.0
 10
141.4680777862894
 20
66.2674319120435
 30
0.0
 10
141.8489057675228
 20
66.2674319120435
 30
0.0
 10
142.2109225466816
 20
66.2674319120435
 30
0.0
 10
142.6419606593646
 20
66.2674319120435
 30
0.0
  0
SPLINE
  5
A8
330
1F
100
AcDbEntity
  8
0
  6
Continuous
 62
     7
370
    25
100
AcDbSpline
210
0.0
220
0.0
230
1.0
 70
    24
 71
     3
 72
    12
 73
     8
 74
     0
 42
0.00000001
 43
0.00000001
 40
0.0
 40
0.0
 40
0.0
 40
0.0
 40
0.25
 40
0.25
 40
0.5
 40
0.5
 40
1.0
 40
1.0
 40
1.0
 40
1.0
 10
167.1985849863906
 20
38.26743191204351
 30
0.0
 10
167.1985849863906
 20
38.26743191204351
 30
0.0
 10
167.163775621426
 20
38.26743191204351
 30
0.0
 10
167.0287354413187
 20
38.26743191204351
 30
0.0
 10
166.9290719726854
 20
38.26743191204351
 30
0.0
 10
166.5483770563335
 20
38.26743191204351
 30
0.0
 10
166.1863928333886
 20
38.26743191204351
 30
0.0
 10
165.7552093134165
 20
38.26743191204351
 30
0.0
  0
LINE
  5
A9
330
1F
100
AcDbEntity
  8
0
  6
Continuous
 62
     7
370
    25
100
AcDbLine
 10
165.7552093134
 20
43.5353073138
 30
0.0
 11
165.7552093134
 21
38.267431912
 31
0.0
  0
LINE
  5
AA
330
1F
100
AcDbEntity
  8
0
  6
Continuous
 62
     7
370
    25
100
AcDbLine
 10
167.1985849864
 20
52.267431912
 30
0.0
 11
167.1985849864
 21
38.267431912
 31
0.0
  0
SPLINE
  5
AB
330
1F
100
AcDbEntity
  8
0
  6
Continuous
 62
     7
370
    25
100
AcDbSpline
210
0.0
220
0.0
230
1.0
 70
    24
 71
     3
 72
    14
 73
    10
 74
     0
 42
0.00000001
 43
0.00000001
 40
0.0
 40
0.0
 40
0.0
 40
0.0
 40
0.125
 40
0.125
 40
0.25
 40
0.25
 40
0.5
 40
0.5
 40
1.0
 40
1.0
 40
1.0
 40
1.0
 10
141.1985849863906
 20
38.26743191204351
 30
0.0
 10
141.1985849863906
 20
38.26743191204351
 30
0.0
 10
141.2071133432108
 20
38.26743191204351
 30
0.0
 10
141.2413002765987
 20
38.26743191204351
 30
0.0
 10
141.2670478096398
 20
38.26743191204351
 30
0.0
 10
141.3683597522723
 20
38.26743191204351
 30
0.0
 10
141.4680777862895
 20
38.26743191204351
 30
0.0
 10
141.8489057675226
 20
38.26743191204351
 30
0.0
 10
142.2109225466813
 20
38.26743191204351
 30
0.0
 10
142.6419606593646
 20
38.26743191204351
 30
0.0
  0
LINE
  5
AC
330
1F
100
AcDbEntity
  8
0
  6
Continuous
 62
     7
370
    25
100
AcDbLine
 10
141.1985849864
 20
38.267431912
 30
0.0
 11
141.1985849864
 21
52.267431912
 31
0.0
  0
LINE
  5
AD
330
1F
100
AcDbEntity
  8
0
  6
Continuous
 62
     7
370
    25
100
AcDbLine
 10
142.6419606594
 20
38.267431912
 30
0.0
 11
142.6419606594
 21
43.5353073138
 31
0.0
  0
LINE
  5
AE
330
1F
100
AcDbEntity
  8
0
  6
Continuous
 62
     7
370
    25
100
AcDbLine
 10
165.7552093134
 20
38.267431912
 30
0.0
 11
142.6419606594
 21
38.267431912
 31
0.0
  0
LINE
  5
AF
330
1F
100
AcDbEntity
  8
0
  6
Continuous
 62
     7
370
    25
100
AcDbLine
 10
180.5934086474
 20
52.267431912
 30
0.0
 11
180.5934086474
 21
65.2715311726
 31
0.0
  0
LINE
  5
B0
330
1F
100
AcDbEntity
  8
0
  6
Continuous
 62
     7
370
    25
100
AcDbLine
 10
180.5934086474
 20
39.2633326515
 30
0.0
 11
180.5934086474
 21
52.267431912
 31
0.0
  0
LINE
  5
B1
330
1F
100
AcDbEntity
  8
0
  6
Continuous
 62
     7
370
    25
100
AcDbLine
 10
183.1985849864
 20
63.767431912
 30
0.0
 11
183.1985849864
 21
40.767431912
 31
0.0
  0
SPLINE
  5
B2
330
1F
100
AcDbEntity
  8
0
  6
Continuous
 62
     7
370
    25
100
AcDbSpline
210
0.0
220
0.0
230
1.0
 70
    24
 71
     3
 72
     8
 73
     4
 74
     0
 42
0.00000001
 43
0.00000001
 40
0.0
 40
0.0
 40
0.0
 40
0.0
 40
1.0
 40
1.0
 40
1.0
 40
1.0
 10
153.6715118202657
 20
66.7674319120435
 30
0.0
 10
154.0228939310156
 20
66.7674319120435
 30
0.0
 10
154.3742760417655
 20
66.7674319120435
 30
0.0
 10
154.7256581525155
 20
66.7674319120435
 30
0.0
  0
ARC
  5
B3
330
1F
100
AcDbEntity
  8
0
  6
Continuous
 62
     7
370
    25
100
AcDbCircle
 10
156.706175504
 20
66.6429421161
 30
0.0
 40
1.98442603512608
100
AcDbArc
 50
176.4032790661
 51
190.9077708916
  0
ARC
  5
B4
330
1F
100
AcDbEntity
  8
0
  6
Continuous
 62
     7
370
    25
100
AcDbCircle
 10
151.6909944688
 20
66.6429421161
 30
0.0
 40
1.984426035123904
100
AcDbArc
 50
349.0922291084
 51
3.5967209339
  0
LINE
  5
B5
330
1F
100
AcDbEntity
  8
0
  6
Continuous
 62
     7
370
    25
100
AcDbLine
 10
154.1985849864
 20
71.767431912
 30
0.0
 11
145.9485849864
 21
71.767431912
 31
0.0
  0
LINE
  5
B6
330
1F
100
AcDbEntity
  8
0
  6
Continuous
 62
     7
370
    25
100
AcDbLine
 10
162.4485849864
 20
71.767431912
 30
0.0
 11
154.1985849864
 21
71.767431912
 31
0.0
  0
LINE
  5
B7
330
1F
100
AcDbEntity
  8
0
  6
Continuous
 62
     7
370
    25
100
AcDbLine
 10
154.1985849864
 20
72.267431912
 30
0.0
 11
161.9485849864
 21
72.267431912
 31
0.0
  0
LINE
  5
B8
330
1F
100
AcDbEntity
  8
0
  6
Continuous
 62
     7
370
    25
100
AcDbLine
 10
146.4485849864
 20
72.267431912
 30
0.0
 11
154.1985849864
 21
72.267431912
 31
0.0
  0
ARC
  5
B9
330
1F
100
AcDbEntity
  8
0
  6
Continuous
 62
     7
370
    25
100
AcDbCircle
 10
153.1316333172
 20
88.4685079628
 30
0.0
 40
2.367678303604179
100
AcDbArc
 50
93.3632881502
 51
99.4868245016
  0
ARC
  5
BA
330
1F
100
AcDbEntity
  8
0
  6
Continuous
 62
     7
370
    25
100
AcDbCircle
 10
155.2655403421
 20
88.4685492135
 30
0.0
 40
2.36763690766654
100
AcDbArc
 50
80.5187694298
 51
86.636742268
  0
SPLINE
  5
BB
330
1F
100
AcDbEntity
  8
0
  6
Continuous
 62
     7
370
    25
100
AcDbSpline
210
0.0
220
0.0
230
1.0
 70
     8
 71
     3
 72
    15
 73
    11
 74
     0
 42
0.00000001
 43
0.00000001
 40
0.0
 40
0.0
 40
0.0
 40
0.0
 40
0.1233867499278388
 40
0.2487396502211601
 40
0.3739317114754985
 40
0.4999973617625659
 40
0.6259591330513601
 40
0.7512551380600303
 40
0.8765613478174267
 40
1.0
 40
1.0
 40
1.0
 40
1.0
 10
154.1357021215845
 20
90.867324809348
 30
0.0
 10
154.1385803227764
 20
90.86732546842013
 30
0.0
 10
154.144382588888
 20
90.86732679706664
 30
0.0
 10
154.1599119936087
 20
90.86733074669378
 30
0.0
 10
154.1782665754822
 20
90.86733252904317
 30
0.0
 10
154.1985793919651
 20
90.86733408262113
 30
0.0
 10
154.2188978096802
 20
90.86733252848619
 30
0.0
 10
154.2372506788443
 20
90.86733075160564
 30
0.0
 10
154.2527887832398
 20
90.86732678408747
 30
0.0
 10
154.2585893452711
 20
90.86732546429153
 30
0.0
 10
154.2614678511966
 20
90.867324809348
 30
0.0
  0
ARC
  5
BC
330
1F
100
AcDbEntity
  8
0
  6
Continuous
 62
     7
370
    25
100
AcDbCircle
 10
154.1365965492
 20
88.3229753965
 30
0.0
 40
2.544349570046061
100
AcDbArc
 50
90.0201414662
 51
95.4127462175
  0
SPLINE
  5
BD
330
1F
100
AcDbEntity
  8
0
  6
Continuous
 62
     7
370
    25
100
AcDbSpline
210
0.0
220
0.0
230
1.0
 70
     8
 71
     3
 72
    15
 73
    11
 74
     0
 42
0.00000001
 43
0.00000001
 40
0.0
 40
0.0
 40
0.0
 40
0.0
 40
0.126158522421064
 40
0.2513121451548799
 40
0.3762846848783793
 40
0.499306278334087
 40
0.6261594278645742
 40
0.7521171342021308
 40
0.875819692269278
 40
1.0
 40
1.0
 40
1.0
 40
1.0
 10
153.9594714607128
 20
90.85408167793726
 30
0.0
 10
153.9542403642241
 20
90.85403075218679
 30
0.0
 10
153.9438198388815
 20
90.85392930632844
 30
0.0
 10
153.9290332883671
 20
90.85392512469119
 30
0.0
 10
153.9158429357416
 20
90.85402446351182
 30
0.0
 10
153.9049723609003
 20
90.85424500571487
 30
0.0
 10
153.8969647735718
 20
90.85456887311635
 30
0.0
 10
153.8927981465391
 20
90.85498874296383
 30
0.0
 10
153.8921770950274
 20
90.85546746002956
 30
0.0
 10
153.8951162073822
 20
90.85580874927513
 30
0.0
 10
153.896588595865
 20
90.85597972278474
 30
0.0
  0
ARC
  5
BE
330
1F
100
AcDbEntity
  8
0
  6
Continuous
 62
     7
370
    25
100
AcDbCircle
 10
154.1985849864
 20
70.267431912
 30
0.0
 40
20.58803836847347
100
AcDbArc
 50
89.3345405821
 51
90.66545941
  0
SPLINE
  5
BF
330
1F
100
AcDbEntity
  8
0
  6
Continuous
 62
     7
370
    25
100
AcDbSpline
210
0.0
220
0.0
230
1.0
 70
     8
 71
     3
 72
    15
 73
    11
 74
     0
 42
0.00000001
 43
0.00000001
 40
0.0
 40
0.0
 40
0.0
 40
0.0
 40
0.1241186784437694
 40
0.2478474916628983
 40
0.3736574149478942
 40
0.5005082335853297
 40
0.6234527658309919
 40
0.7484986612277521
 40
0.8736976492452766
 40
1.0
 40
1.0
 40
1.0
 40
1.0
 10
154.5005813796421
 20
90.85597972275144
 30
0.0
 10
154.502052452251
 20
90.85580884247297
 30
0.0
 10
154.5049899767293
 20
90.85546761866256
 30
0.0
 10
154.5043732422293
 20
90.85498908237508
 30
0.0
 10
154.5002112806346
 20
90.85456929250317
 30
0.0
 10
154.4922125328363
 20
90.85424550465679
 30
0.0
 10
154.4813464412994
 20
90.85402480645108
 30
0.0
 10
154.4681587234748
 20
90.85392521454091
 30
0.0
 10
154.4533642768996
 20
90.85392912893953
 30
0.0
 10
154.4429356859923
 20
90.85403067974492
 30
0.0
 10
154.4376985148778
 20
90.85408167790465
 30
0.0
  0
ARC
  5
C0
330
1F
100
AcDbEntity
  8
0
  6
Continuous
 62
     7
370
    25
100
AcDbCircle
 10
154.2605734234
 20
88.3229753443
 30
0.0
 40
2.544349622302234
100
AcDbArc
 50
84.5872538302
 51
89.9798585321
  0
SPLINE
  5
C1
330
1F
100
AcDbEntity
  8
0
  6
Continuous
 62
     7
370
    25
100
AcDbSpline
210
0.0
220
0.0
230
1.0
 70
     8
 71
     3
 72
    13
 73
     9
 74
     0
 42
0.00000001
 43
0.00000001
 40
0.0
 40
0.0
 40
0.0
 40
0.0
 40
0.1374692963454099
 40
0.2749820892813126
 40
0.4163021045260215
 40
0.5576318202769774
 40
0.777008491451321
 40
1.0
 40
1.0
 40
1.0
 40
1.0
 10
134.6743842190345
 20
82.04380451406978
 30
0.0
 10
135.1597121103982
 20
81.95756410464087
 30
0.0
 10
136.1305214554781
 20
81.78505599849875
 30
0.0
 10
137.5512138232879
 20
81.38607392517578
 30
0.0
 10
138.9433101483041
 20
80.88576451370349
 30
0.0
 10
140.5476693325457
 20
80.15694404210076
 30
0.0
 10
142.3385372081781
 20
79.1407250918991
 30
0.0
 10
143.575200571393
 20
78.15314180559557
 30
0.0
 10
144.1985849863906
 20
77.65531511523965
 30
0.0
  0
ELLIPSE
  5
C2
330
1F
100
AcDbEntity
  8
0
  6
Continuous
 62
     7
370
    25
100
AcDbEllipse
 10
256.7124804588
 20
75.3892546304
 30
0.0
 11
171.000000000001
 21
0.0
 31
0.0
210
0.0
220
0.0
230
1.0
 40
0.0555555556
 41
2.292395939553285
 42
2.365524293035122
  0
LINE
  5
C3
330
1F
100
AcDbEntity
  8
0
  6
Continuous
 62
     7
370
    25
100
AcDbLine
 10
143.7522016315
 20
82.5213797027
 30
0.0
 11
144.1985849864
 21
82.4839177368
 31
0.0
  0
LINE
  5
C4
330
1F
100
AcDbEntity
  8
0
  6
Continuous
 62
     7
370
    25
100
AcDbLine
 10
144.1985849864
 20
77.6553151152
 30
0.0
 11
144.1985849864
 21
82.4839177368
 31
0.0
  0
SPLINE
  5
C5
330
1F
100
AcDbEntity
  8
0
  6
Continuous
 62
     7
370
    25
100
AcDbSpline
210
0.0
220
0.0
230
1.0
 70
     8
 71
     3
 72
    11
 73
     7
 74
     0
 42
0.00000001
 43
0.00000001
 40
0.0
 40
0.0
 40
0.0
 40
0.0
 40
0.2795638428677821
 40
0.5590315779132456
 40
0.7794196683689406
 40
1.0
 40
1.0
 40
1.0
 40
1.0
 10
131.7622570323131
 20
82.26743191204352
 30
0.0
 10
131.6386836865369
 20
82.3059507639916
 30
0.0
 10
131.3915794767485
 20
82.38297522596444
 30
0.0
 10
131.1378235688252
 20
82.91577312375415
 30
0.0
 10
131.0212051278447
 20
83.54350969062052
 30
0.0
 10
131.0477245138799
 20
83.94449250678915
 30
0.0
 10
131.0609899874905
 20
84.14507131955374
 30
0.0
  0
SPLINE
  5
C6
330
1F
100
AcDbEntity
  8
0
  6
Continuous
 62
     7
370
    25
100
AcDbSpline
210
0.0
220
0.0
230
1.0
 70
     8
 71
     3
 72
     9
 73
     5
 74
     0
 42
0.00000001
 43
0.00000001
 40
0.0
 40
0.0
 40
0.0
 40
0.0
 40
0.4986740982738611
 40
1.0
 40
1.0
 40
1.0
 40
1.0
 10
132.3525505285594
 20
84.1748723449842
 30
0.0
 10
132.1460768874896
 20
84.17633742424086
 30
0.0
 10
131.73203163873
 20
84.17927537361845
 30
0.0
 10
131.2850655367851
 20
84.15649209468674
 30
0.0
 10
131.0609898526866
 20
84.14507024683203
 30
0.0
  0
SPLINE
  5
C7
330
1F
100
AcDbEntity
  8
0
  6
Continuous
 62
     7
370
    25
100
AcDbSpline
210
0.0
220
0.0
230
1.0
 70
     8
 71
     3
 72
    13
 73
     9
 74
     0
 42
0.00000001
 43
0.00000001
 40
0.0
 40
0.0
 40
0.0
 40
0.0
 40
0.3327087167328944
 40
0.5628656559531304
 40
0.6987124125384707
 40
0.8016200683166474
 40
0.9052998751809803
 40
1.0
 40
1.0
 40
1.0
 40
1.0
 10
134.3433512688301
 20
82.09197895089439
 30
0.0
 10
133.9809604385029
 20
82.17776452581253
 30
0.0
 10
133.3678795597495
 20
82.32289373785053
 30
0.0
 10
132.7183342350871
 20
82.77326043427783
 30
0.0
 10
132.375637219489
 20
83.1730015828837
 30
0.0
 10
132.2267136083453
 20
83.52889382929527
 30
0.0
 10
132.2145408889186
 20
83.87632767632948
 30
0.0
 10
132.3079574827388
 20
84.07840654750858
 30
0.0
 10
132.3525515251899
 20
84.17487242569271
 30
0.0
  0
SPLINE
  5
C8
330
1F
100
AcDbEntity
  8
0
  6
Continuous
 62
     7
370
    25
100
AcDbSpline
210
0.0
220
0.0
230
1.0
 70
     8
 71
     3
 72
     9
 73
     5
 74
     0
 42
0.00000001
 43
0.00000001
 40
0.0
 40
0.0
 40
0.0
 40
0.0
 40
0.5551829690770672
 40
1.0
 40
1.0
 40
1.0
 40
1.0
 10
131.7622570323131
 20
82.26743191204352
 30
0.0
 10
132.2922799060343
 20
82.25443289155245
 30
0.0
 10
133.2469613412417
 20
82.23101895197742
 30
0.0
 10
134.0058047823991
 20
82.13478531262572
 30
0.0
 10
134.3433512688301
 20
82.09197895089439
 30
0.0
  0
LINE
  5
C9
330
1F
100
AcDbEntity
  8
0
  6
Continuous
 62
     7
370
    25
100
AcDbLine
 10
143.7522016315
 20
87.767431912
 30
0.0
 11
143.7522016315
 21
82.5213797027
 31
0.0
  0
LINE
  5
CA
330
1F
100
AcDbEntity
  8
0
  6
Continuous
 62
     7
370
    25
100
AcDbLine
 10
144.1985849864
 20
87.767431912
 30
0.0
 11
143.7522016315
 21
87.767431912
 31
0.0
  0
LINE
  5
CB
330
1F
100
AcDbEntity
  8
0
  6
Continuous
 62
     7
370
    25
100
AcDbLine
 10
144.1985849864
 20
82.4839177368
 30
0.0
 11
144.1985849864
 21
87.767431912
 31
0.0
  0
ARC
  5
CC
330
1F
100
AcDbEntity
  8
0
  6
Continuous
 62
     7
370
    25
100
AcDbCircle
 10
150.575014045
 20
88.1412780659
 30
0.0
 40
6.833046917561953
100
AcDbArc
 50
170.513808076
 51
183.1363032674
  0
ARC
  5
CD
330
1F
100
AcDbEntity
  8
0
  6
Continuous
 62
     7
370
    25
100
AcDbCircle
 10
143.8310171201
 20
88.4771819636
 30
0.0
 40
0.7902621394870986
100
AcDbArc
 50
62.2819181136
 51
89.6817467964
  0
LINE
  5
CE
330
1F
100
AcDbEntity
  8
0
  6
Continuous
 62
     7
370
    25
100
AcDbLine
 10
144.1985849864
 20
87.767431912
 30
0.0
 11
144.1985849864
 21
89.1767590592
 31
0.0
  0
LINE
  5
CF
330
1F
100
AcDbEntity
  8
0
  6
Continuous
 62
     7
370
    25
100
AcDbLine
 10
132.3523774549
 20
84.1749728314
 30
0.0
 11
134.4183311898
 21
87.767542918
 31
0.0
  0
LINE
  5
D0
330
1F
100
AcDbEntity
  8
0
  6
Continuous
 62
     7
370
    25
100
AcDbLine
 10
134.41852362
 20
87.767431912
 30
0.0
 11
143.7522016315
 21
87.767431912
 31
0.0
  0
ARC
  5
D1
330
1F
100
AcDbEntity
  8
0
  6
Continuous
 62
     7
370
    25
100
AcDbCircle
 10
131.7622570324
 20
63.1944246648
 30
0.0
 40
19.0730072472477
100
AcDbArc
 50
81.2175477188
 51
82.2224666688
  0
LINE
  5
D2
330
1F
100
AcDbEntity
  8
0
  6
Continuous
 62
     7
370
    25
100
AcDbLine
 10
143.8354066609
 20
89.267431912
 30
0.0
 11
132.4196773774
 21
89.267431912
 31
0.0
  0
SPLINE
  5
D3
330
1F
100
AcDbEntity
  8
0
  6
Continuous
 62
     7
370
    25
100
AcDbSpline
210
0.0
220
0.0
230
1.0
 70
     8
 71
     3
 72
    15
 73
    11
 74
     0
 42
0.00000001
 43
0.00000001
 40
0.0
 40
0.0
 40
0.0
 40
0.0
 40
0.2070474010410777
 40
0.4175968630246832
 40
0.5931232720441627
 40
0.6923428991082514
 40
0.7730996831079096
 40
0.8543284120985933
 40
0.926147516637204
 40
1.0
 40
1.0
 40
1.0
 40
1.0
 10
132.4171110907051
 20
89.2674171859375
 30
0.0
 10
132.6482003276699
 20
89.26356694709618
 30
0.0
 10
133.1142875132615
 20
89.2558013453357
 30
0.0
 10
133.7388853125686
 20
89.16915138259823
 30
0.0
 10
134.2005645029993
 20
88.99920087305563
 30
0.0
 10
134.4624682019831
 20
88.7698360157071
 30
0.0
 10
134.5829348581142
 20
88.53204255042773
 30
0.0
 10
134.60172889631
 20
88.27012957315452
 30
0.0
 10
134.5406905043099
 20
88.00458717113912
 30
0.0
 10
134.4594954106952
 20
87.84728954812539
 30
0.0
 10
134.4183311769093
 20
87.76754290532438
 30
0.0
  0
SPLINE
  5
D4
330
1F
100
AcDbEntity
  8
0
  6
Continuous
 62
     7
370
    25
100
AcDbSpline
210
0.0
220
0.0
230
1.0
 70
     8
 71
     3
 72
    11
 73
     7
 74
     0
 42
0.00000001
 43
0.00000001
 40
0.0
 40
0.0
 40
0.0
 40
0.0
 40
0.249115000282908
 40
0.4989585322854286
 40
0.7493328274976518
 40
1.0
 40
1.0
 40
1.0
 40
1.0
 10
131.0609899874905
 20
84.14507131955374
 30
0.0
 10
130.6352787061771
 20
84.11881821158491
 30
0.0
 10
129.7826111596212
 20
84.06623521897033
 30
0.0
 10
128.4190453983694
 20
83.98191418874384
 30
0.0
 10
127.0183727811572
 20
83.8951809199321
 30
0.0
 10
126.06755254567
 20
83.8362033545045
 30
0.0
 10
125.5918645331094
 20
83.80669733450533
 30
0.0
  0
SPLINE
  5
D5
330
1F
100
AcDbEntity
  8
0
  6
Continuous
 62
     7
370
    25
100
AcDbSpline
210
0.0
220
0.0
230
1.0
 70
     8
 71
     3
 72
     9
 73
     5
 74
     0
 42
0.00000001
 43
0.00000001
 40
0.0
 40
0.0
 40
0.0
 40
0.0
 40
0.5599987526606142
 40
1.0
 40
1.0
 40
1.0
 40
1.0
 10
128.1557659007668
 20
88.78052038619732
 30
0.0
 10
127.6759996428796
 20
87.85267908634802
 30
0.0
 10
126.8192722740994
 20
86.19581593184803
 30
0.0
 10
125.9669065256267
 20
84.53670723193757
 30
0.0
 10
125.5918645331094
 20
83.80669733450534
 30
0.0
  0
SPLINE
  5
D6
330
1F
100
AcDbEntity
  8
0
  6
Continuous
 62
     7
370
    25
100
AcDbSpline
210
0.0
220
0.0
230
1.0
 70
     8
 71
     3
 72
     9
 73
     5
 74
     0
 42
0.00000001
 43
0.00000001
 40
0.0
 40
0.0
 40
0.0
 40
0.0
 40
0.5600000882143262
 40
1.0
 40
1.0
 40
1.0
 40
1.0
 10
128.6602530383189
 20
89.75434343788946
 30
0.0
 10
128.5660406227873
 20
89.57258456705766
 30
0.0
 10
128.3978041929822
 20
89.24801520598602
 30
0.0
 10
128.2297220353137
 20
88.92336600568922
 30
0.0
 10
128.1557659007668
 20
88.78052038619732
 30
0.0
  0
SPLINE
  5
D7
330
1F
100
AcDbEntity
  8
0
  6
Continuous
 62
     7
370
    25
100
AcDbSpline
210
0.0
220
0.0
230
1.0
 70
     8
 71
     3
 72
    10
 73
     6
 74
     0
 42
0.00000001
 43
0.00000001
 40
0.0
 40
0.0
 40
0.0
 40
0.0
 40
0.428349366631063
 40
0.7616603141144168
 40
1.0
 40
1.0
 40
1.0
 40
1.0
 10
128.6602530383191
 20
89.75434343788967
 30
0.0
 10
129.1071802396022
 20
89.65254717506652
 30
0.0
 10
129.9018743352018
 20
89.47154031581196
 30
0.0
 10
130.9384291362073
 20
89.29787793285888
 30
0.0
 10
131.5242944692077
 20
89.2763906549631
 30
0.0
 10
131.7685607243077
 20
89.26743191204342
 30
0.0
  0
LINE
  5
D8
330
1F
100
AcDbEntity
  8
0
  6
Continuous
 62
     7
370
    25
100
AcDbLine
 10
131.7664605643
 20
89.267431912
 30
0.0
 11
132.4171140303
 21
89.267431912
 31
0.0
  0
LINE
  5
D9
330
1F
100
AcDbEntity
  8
0
  6
Continuous
 62
     7
370
    25
100
AcDbLine
 10
144.1985849864
 20
89.267431912
 30
0.0
 11
143.8354066609
 21
89.267431912
 31
0.0
  0
LINE
  5
DA
330
1F
100
AcDbEntity
  8
0
  6
Continuous
 62
     7
370
    25
100
AcDbLine
 10
144.1985849864
 20
89.1767590592
 30
0.0
 11
144.1985849864
 21
89.267431912
 31
0.0
  0
SPLINE
  5
DB
330
1F
100
AcDbEntity
  8
0
  6
Continuous
 62
     7
370
    25
100
AcDbSpline
210
0.0
220
0.0
230
1.0
 70
    24
 71
     3
 72
    11
 73
     7
 74
     0
 42
0.00000001
 43
0.00000001
 40
0.0
 40
0.0
 40
0.0
 40
0.0
 40
0.2799857774483057
 40
0.5599458358671288
 40
0.779998565900937
 40
0.9999999999999999
 40
0.9999999999999999
 40
0.9999999999999999
 40
0.9999999999999999
 10
125.6311165002916
 20
82.26743191204352
 30
0.0
 10
126.2284404873756
 20
82.26743191204352
 30
0.0
 10
127.4230335923521
 20
82.26743191204352
 30
0.0
 10
129.0503953478348
 20
82.26743191204352
 30
0.0
 10
130.5061249173328
 20
82.26743191204352
 30
0.0
 10
131.3435788672406
 20
82.2674319120435
 30
0.0
 10
131.7622570323131
 20
82.26743191204352
 30
0.0
  0
SPLINE
  5
DC
330
1F
100
AcDbEntity
  8
0
  6
Continuous
 62
     7
370
    25
100
AcDbSpline
210
0.0
220
0.0
230
1.0
 70
     8
 71
     3
 72
    11
 73
     7
 74
     0
 42
0.00000001
 43
0.00000001
 40
0.0
 40
0.0
 40
0.0
 40
0.0
 40
0.2500000000000001
 40
0.4999999999999997
 40
0.75
 40
1.0
 40
1.0
 40
1.0
 40
1.0
 10
125.6311165002916
 20
82.26743191204352
 30
0.0
 10
125.6258854665315
 20
82.29075344435182
 30
0.0
 10
125.6154233990112
 20
82.33739650896842
 30
0.0
 10
125.602308911144
 20
82.69537757733514
 30
0.0
 10
125.59328456765
 20
83.20557051537706
 30
0.0
 10
125.5923378779563
 20
83.60632172812925
 30
0.0
 10
125.5918645331094
 20
83.80669733450533
 30
0.0
  0
SPLINE
  5
DD
330
1F
100
AcDbEntity
  8
0
  6
Continuous
 62
     7
370
    25
100
AcDbSpline
210
0.0
220
0.0
230
1.0
 70
     8
 71
     3
 72
    11
 73
     7
 74
     0
 42
0.00000001
 43
0.00000001
 40
0.0
 40
0.0
 40
0.0
 40
0.0
 40
0.2499999999999989
 40
0.4999999999999996
 40
0.749999999999999
 40
1.0
 40
1.0
 40
1.0
 40
1.0
 10
141.1855144526095
 20
89.2674319120435
 30
0.0
 10
141.1872009231134
 20
89.27469422169565
 30
0.0
 10
141.1905738641213
 20
89.28921884099992
 30
0.0
 10
141.1948537610225
 20
89.40119104459244
 30
0.0
 10
141.1978958818363
 20
89.56170262261739
 30
0.0
 10
141.1983642550589
 20
89.69012983279883
 30
0.0
 10
141.1985984416702
 20
89.75434343788957
 30
0.0
  0
SPLINE
  5
DE
330
1F
100
AcDbEntity
  8
0
  6
Continuous
 62
     7
370
    25
100
AcDbSpline
210
0.0
220
0.0
230
1.0
 70
     8
 71
     3
 72
    13
 73
     9
 74
     0
 42
0.00000001
 43
0.00000001
 40
0.0
 40
0.0
 40
0.0
 40
0.0
 40
0.288694968291485
 40
0.5545536835943152
 40
0.6780091910936104
 40
0.7888922083801199
 40
0.8964194071406489
 40
1.0
 40
1.0
 40
1.0
 40
1.0
 10
141.1985984416702
 20
89.75434343788957
 30
0.0
 10
141.4703236322464
 20
89.71571328401157
 30
0.0
 10
141.9922800981008
 20
89.64150868578933
 30
0.0
 10
142.5898555062041
 20
89.5584459662607
 30
0.0
 10
142.9537096863836
 20
89.5094650356521
 30
0.0
 10
143.1502571779493
 20
89.4834480758806
 30
0.0
 10
143.2765404670555
 20
89.46808926553638
 30
0.0
 10
143.2913289690266
 20
89.46764828184891
 30
0.0
 10
143.2985849863906
 20
89.46743191204354
 30
0.0
  0
SPLINE
  5
DF
330
1F
100
AcDbEntity
  8
0
  6
Continuous
 62
     7
370
    25
100
AcDbSpline
210
0.0
220
0.0
230
1.0
 70
     8
 71
     3
 72
    11
 73
     7
 74
     0
 42
0.00000001
 43
0.00000001
 40
0.0
 40
0.0
 40
0.0
 40
0.0
 40
0.2500000000000007
 40
0.5000000000000022
 40
0.7500000000000036
 40
1.0
 40
1.0
 40
1.0
 40
1.0
 10
143.2985849863906
 20
89.46743191204352
 30
0.0
 10
143.3238449245947
 20
89.43805424221173
 30
0.0
 10
143.374364801003
 20
89.3792989025482
 30
0.0
 10
143.4732234102034
 20
89.31670875966921
 30
0.0
 10
143.5826106900269
 20
89.2751759580363
 30
0.0
 10
143.6599268876026
 20
89.27001326070777
 30
0.0
 10
143.6985849863906
 20
89.26743191204353
 30
0.0
  0
LINE
  5
E0
330
1F
100
AcDbEntity
  8
0
  6
Continuous
 62
     7
370
    25
100
AcDbLine
 10
141.1985984417
 20
89.7543434379
 30
0.0
 11
128.6602530383
 21
89.7543434379
 31
0.0
  0
LINE
  5
E1
330
1F
100
AcDbEntity
  8
0
  6
Continuous
 62
     7
370
    25
100
AcDbLine
 10
143.2985849864
 20
89.467431912
 30
0.0
 11
140.8985849864
 21
92.667431912
 31
0.0
  0
LINE
  5
E2
330
1F
100
AcDbEntity
  8
0
  6
Continuous
 62
     7
370
    25
100
AcDbLine
 10
139.0750391882
 20
92.5857557759
 30
0.0
 11
141.1985984417
 21
89.7543434379
 31
0.0
  0
ELLIPSE
  5
E3
330
1F
100
AcDbEntity
  8
0
  6
Continuous
 62
     7
370
    25
100
AcDbEllipse
 10
139.0985849864
 20
92.567431912
 30
0.0
 11
1.560063634884841
 21
0.4198716740992978
 31
0.0
210
0.0
220
0.0
230
1.0
 40
0.0147408623
 41
0.9331929812048492
 42
1.581922327328493
  0
SPLINE
  5
E4
330
1F
100
AcDbEntity
  8
0
  6
Continuous
 62
     7
370
    25
100
AcDbSpline
210
0.0
220
0.0
230
1.0
 70
     8
 71
     3
 72
    11
 73
     7
 74
     0
 42
0.00000001
 43
0.00000001
 40
0.0
 40
0.0
 40
0.0
 40
0.0
 40
0.2307374805226516
 40
0.4903955403005857
 40
0.7438105520730655
 40
1.0
 40
1.0
 40
1.0
 40
1.0
 10
140.0222729900256
 20
92.83584790719684
 30
0.0
 10
140.1139049947851
 20
92.85456375760128
 30
0.0
 10
140.3086541373218
 20
92.89434129851266
 30
0.0
 10
140.5561617045597
 20
92.87702130995405
 30
0.0
 10
140.7659704339538
 20
92.80603641762788
 30
0.0
 10
140.8542199834341
 20
92.7138007998242
 30
0.0
 10
140.8985849863906
 20
92.66743191204353
 30
0.0
  0
LINE
  5
E5
330
1F
100
AcDbEntity
  8
0
  6
Continuous
 62
     7
370
    25
100
AcDbLine
 10
125.5918645331
 20
83.8066973345
 30
0.0
 11
103.9643163644
 21
83.8066973345
 31
0.0
  0
LINE
  5
E6
330
1F
100
AcDbEntity
  8
0
  6
Continuous
 62
     7
370
    25
100
AcDbLine
 10
103.9643163644
 20
83.8066973345
 30
0.0
 11
104.1867612755
 21
92.301525771
 31
0.0
  0
ARC
  5
E7
330
1F
100
AcDbEntity
  8
0
  6
Continuous
 62
     7
370
    25
100
AcDbCircle
 10
104.7983013905
 20
91.7857557759
 30
0.0
 40
0.8000000000000023
100
AcDbArc
 50
90.0
 51
139.8558773282
  0
LINE
  5
E8
330
1F
100
AcDbEntity
  8
0
  6
Continuous
 62
     7
370
    25
100
AcDbLine
 10
104.7983013905
 20
92.5857557759
 30
0.0
 11
139.0750391882
 21
92.5857557759
 31
0.0
  0
SPLINE
  5
E9
330
1F
100
AcDbEntity
  8
0
  6
Continuous
 62
     7
370
    25
100
AcDbSpline
210
0.0
220
0.0
230
1.0
 70
     8
 71
     3
 72
    11
 73
     7
 74
     0
 42
0.00000001
 43
0.00000001
 40
0.0
 40
0.0
 40
0.0
 40
0.0
 40
0.2499999999999985
 40
0.4999999999999984
 40
0.7499999999999983
 40
1.0
 40
1.0
 40
1.0
 40
1.0
 10
104.7983013904554
 20
92.58575577585904
 30
0.0
 10
104.7986292517112
 20
92.67565482298606
 30
0.0
 10
104.7992849742229
 20
92.85545291724007
 30
0.0
 10
104.8035439433621
 20
93.08016912647501
 30
0.0
 10
104.8095357990239
 20
93.2369302115045
 30
0.0
 10
104.814257916435
 20
93.25726467853052
 30
0.0
 10
104.8166189751405
 20
93.26743191204352
 30
0.0
  0
LINE
  5
EA
330
1F
100
AcDbEntity
  8
0
  6
Continuous
 62
     7
370
    25
100
AcDbLine
 10
139.0933567729
 20
93.267431912
 30
0.0
 11
104.8166189751
 21
93.267431912
 31
0.0
  0
SPLINE
  5
EB
330
1F
100
AcDbEntity
  8
0
  6
Continuous
 62
     7
370
    25
100
AcDbSpline
210
0.0
220
0.0
230
1.0
 70
     8
 71
     3
 72
    11
 73
     7
 74
     0
 42
0.00000001
 43
0.00000001
 40
0.0
 40
0.0
 40
0.0
 40
0.0
 40
0.2500000000000006
 40
0.4999999999999992
 40
0.7499999999999969
 40
1.0
 40
1.0
 40
1.0
 40
1.0
 10
139.0933567728781
 20
93.26743191204352
 30
0.0
 10
139.0909957141726
 20
93.25726467853052
 30
0.0
 10
139.0862735967616
 20
93.2369302115045
 30
0.0
 10
139.0802817410998
 20
93.08016912647504
 30
0.0
 10
139.0760227719605
 20
92.85545291724006
 30
0.0
 10
139.0753670494489
 20
92.67565482298603
 30
0.0
 10
139.0750391881931
 20
92.58575577585904
 30
0.0
  0
LINE
  5
EC
330
1F
100
AcDbEntity
  8
0
  6
Continuous
 62
     7
370
    25
100
AcDbLine
 10
139.6985849864
 20
93.267431912
 30
0.0
 11
139.0933567729
 21
93.267431912
 31
0.0
  0
SPLINE
  5
ED
330
1F
100
AcDbEntity
  8
0
  6
Continuous
 62
     7
370
    25
100
AcDbSpline
210
0.0
220
0.0
230
1.0
 70
     8
 71
     3
 72
    10
 73
     6
 74
     0
 42
0.00000001
 43
0.00000001
 40
0.0
 40
0.0
 40
0.0
 40
0.0
 40
0.280833517338673
 40
0.5616510917414113
 40
1.0
 40
1.0
 40
1.0
 40
1.0
 10
139.6985849863906
 20
93.26743191204352
 30
0.0
 10
139.736935435353
 20
93.2598573037756
 30
0.0
 10
139.8136341561205
 20
93.24470851725073
 30
0.0
 10
139.9387885061625
 20
93.11107758419107
 30
0.0
 10
139.9906575725158
 20
92.94007686983282
 30
0.0
 10
140.0222729900256
 20
92.83584790719682
 30
0.0
  0
LINE
  5
EE
330
1F
100
AcDbEntity
  8
0
  6
Continuous
 62
     7
370
    25
100
AcDbLine
 10
103.9643163644
 20
83.8066973345
 30
0.0
 11
103.9213239369
 21
83.7438102496
 31
0.0
  0
ELLIPSE
  5
EF
330
1F
100
AcDbEntity
  8
0
  6
Continuous
 62
     7
370
    25
100
AcDbEllipse
 10
99.6985849864
 20
83.767431912
 30
0.0
 11
0.5000325503427944
 21
1.499994860147993
 31
0.0
210
0.0
220
0.0
230
0.9999999999999998
 40
0.0078530307
 41
2.363888000157229
 42
3.144210503886386
  0
SPLINE
  5
F0
330
1F
100
AcDbEntity
  8
0
  6
Continuous
 62
     7
370
    25
100
AcDbSpline
210
0.0
220
0.0
230
1.0
 70
     8
 71
     3
 72
    12
 73
     8
 74
     0
 42
0.00000001
 43
0.00000001
 40
0.0
 40
0.0
 40
0.0
 40
0.0
 40
0.0715202026166142
 40
0.1260836237049476
 40
0.3855387013103047
 40
0.8475626424815554
 40
1.0
 40
1.0
 40
1.0
 40
1.0
 10
99.67315637338999
 20
83.09573986169272
 30
0.0
 10
99.65870223861111
 20
83.0926312138279
 30
0.0
 10
99.63322091132505
 20
83.08715094988457
 30
0.0
 10
99.5667491836789
 20
83.04756240446414
 30
0.0
 10
99.46204479654585
 20
82.94112827148189
 30
0.0
 10
99.37521623769952
 20
82.81062125577363
 30
0.0
 10
99.34221967098966
 20
82.72311154181031
 30
0.0
 10
99.33403378613873
 20
82.70140187582774
 30
0.0
  0
ELLIPSE
  5
F1
330
1F
100
AcDbEntity
  8
0
  6
Continuous
 62
     7
370
    25
100
AcDbEllipse
 10
67.7744481458
 20
83.767431912
 30
0.0
 11
36.17607470647087
 21
0.04043410480177556
 31
0.0
210
0.0
220
0.0
230
1.0
 40
0.0414488012
 41
5.791928562280354
 42
6.243021298617556
  0
ELLIPSE
  5
F2
330
1F
100
AcDbEntity
  8
0
  6
Continuous
 62
     7
370
    25
100
AcDbEllipse
 10
104.0035683316
 20
83.767431912
 30
0.0
 11
0.03725061189165046
 21
1.499998630535856
 31
0.0
210
0.0
220
0.0
230
1.0
 40
0.0544129722
 41
1.585352277991081
 42
1.587896030767908
  0
LINE
  5
F3
330
1F
100
AcDbEntity
  8
0
  6
Continuous
 62
     7
370
    25
100
AcDbLine
 10
99.1985849864
 20
82.267431912
 30
0.0
 11
125.6311165003
 21
82.267431912
 31
0.0
  0
SPLINE
  5
F4
330
1F
100
AcDbEntity
  8
0
  6
Continuous
 62
     7
370
    25
100
AcDbSpline
210
0.0
220
0.0
230
1.0
 70
     8
 71
     3
 72
    11
 73
     7
 74
     0
 42
0.00000001
 43
0.00000001
 40
0.0
 40
0.0
 40
0.0
 40
0.0
 40
0.2561894651307283
 40
0.5096044939206908
 40
0.7692742066553652
 40
1.0
 40
1.0
 40
1.0
 40
1.0
 10
140.8985849863906
 20
92.66743191204353
 30
0.0
 10
140.8229888540967
 20
92.75544227703195
 30
0.0
 10
140.672615267422
 20
92.93050988758655
 30
0.0
 10
140.3734024814668
 20
93.12069745728812
 30
0.0
 10
140.04588274658
 20
93.24469625801382
 30
0.0
 10
139.8097043657662
 20
93.26015754389297
 30
0.0
 10
139.6985849863906
 20
93.26743191204352
 30
0.0
  0
ARC
  5
F5
330
1F
100
AcDbEntity
  8
0
  6
Continuous
 62
     7
370
    25
100
AcDbCircle
 10
108.3973232084
 20
83.7724359599
 30
0.0
 40
8.750371682077676
100
AcDbArc
 50
182.878079786
 51
184.4353064954
  0
ELLIPSE
  5
F6
330
1F
100
AcDbEntity
  8
0
  6
Continuous
 62
     7
370
    25
100
AcDbEllipse
 10
67.7475777869
 20
83.7808670915
 30
0.0
 11
36.18915847374971
 21
0.02692057091445577
 31
0.0
210
0.0
220
0.0
230
1.0
 40
0.0276225703
 41
5.791964074121232
 42
6.25483629951347
  0
SPLINE
  5
F7
330
1F
100
AcDbEntity
  8
0
  6
Continuous
 62
     7
370
    25
100
AcDbSpline
210
0.0
220
0.0
230
1.0
 70
     8
 71
     3
 72
     9
 73
     5
 74
     0
 42
0.00000001
 43
0.00000001
 40
0.0
 40
0.0
 40
0.0
 40
0.0
 40
0.8673350121728702
 40
1.0
 40
1.0
 40
1.0
 40
1.0
 10
103.9222163100662
 20
83.77944190790608
 30
0.0
 10
103.9219789244363
 20
83.77024348453088
 30
0.0
 10
103.9217052290054
 20
83.75963809763184
 30
0.0
 10
103.9214493424968
 20
83.74903247303043
 30
0.0
 10
103.9214153953162
 20
83.74762547797177
 30
0.0
  0
LINE
  5
F8
330
1F
100
AcDbEntity
  8
0
  6
Continuous
 62
     7
370
    25
100
AcDbLine
 10
104.1715160514
 20
92.2602421466
 30
0.0
 11
104.1446456925
 21
92.2736773261
 31
0.0
  0
LINE
  5
F9
330
1F
100
AcDbEntity
  8
0
  6
Continuous
 62
     7
370
    25
100
AcDbLine
 10
104.1715160514
 20
92.2602421466
 30
0.0
 11
103.9495880452
 21
83.785153516
 31
0.0
  0
LINE
  5
FA
330
1F
100
AcDbEntity
  8
0
  6
Continuous
 62
     7
370
    25
100
AcDbLine
 10
104.1446456925
 20
92.2736773261
 30
0.0
 11
103.9222163101
 21
83.7794419079
 31
0.0
  0
ARC
  5
FB
330
1F
100
AcDbEntity
  8
0
  6
Continuous
 62
     7
370
    25
100
AcDbCircle
 10
104.7790004727
 20
91.7862411633
 30
0.0
 40
0.8000000000000038
100
AcDbArc
 50
142.4614409777
 51
153.4349488229
  0
LINE
  5
FC
330
1F
100
AcDbEntity
  8
0
  6
Continuous
 62
     7
370
    25
100
AcDbLine
 10
99.6579888957
 20
83.3330723912
 30
0.0
 11
104.0634587199
 21
92.1440120397
 31
0.0
  0
SPLINE
  5
FD
330
1F
100
AcDbEntity
  8
0
  6
Continuous
 62
     7
370
    25
100
AcDbSpline
210
0.0
220
0.0
230
1.0
 70
     8
 71
     3
 72
    12
 73
     8
 74
     0
 42
0.00000001
 43
0.00000001
 40
0.0
 40
0.0
 40
0.0
 40
0.0
 40
0.139683458618249
 40
0.3831896274038307
 40
0.55131692930133
 40
0.8194729461607051
 40
0.9999999999999999
 40
0.9999999999999999
 40
0.9999999999999999
 40
0.9999999999999999
 10
98.89602804548537
 20
83.28035201898298
 30
0.0
 10
98.90626942623163
 20
83.29366439264393
 30
0.0
 10
98.93436431241996
 20
83.33018384565189
 30
0.0
 10
99.04151467377474
 20
83.36785590624326
 30
0.0
 10
99.22185176118774
 20
83.39222322700476
 30
0.0
 10
99.43030790575672
 20
83.39110619224081
 30
0.0
 10
99.59266480646065
 20
83.34972290386325
 30
0.0
 10
99.65798889570904
 20
83.33307239124784
 30
0.0
  0
LWPOLYLINE
  5
FE
330
1F
100
AcDbEntity
  8
0
  6
Continuous
 62
     7
370
    25
100
AcDbPolyline
 90
        9
 70
   128
 43
0.0
 10
98.8960280455
 20
83.280352019
 10
98.8731775557
 20
83.2040215414
 10
98.8760826817
 20
83.1196215421
 10
98.9045842467
 20
83.0317764416
 10
98.9571206012
 20
82.9452994232
 10
99.0308131884
 20
82.8649287109
 10
99.1216242652
 20
82.7950679535
 10
99.2245781374
 20
82.7395449415
 10
99.3340337861
 20
82.7014018758
  0
SPLINE
  5
FF
330
1F
100
AcDbEntity
  8
0
  6
Continuous
 62
     7
370
    25
100
AcDbSpline
210
0.0
220
0.0
230
1.0
 70
    24
 71
     3
 72
    11
 73
     7
 74
     0
 42
0.00000001
 43
0.00000001
 40
0.0
 40
0.0
 40
0.0
 40
0.0
 40
0.2499999999999989
 40
0.4999999999999977
 40
0.7499999999999992
 40
1.0
 40
1.0
 40
1.0
 40
1.0
 10
104.0634587199136
 20
92.14401203965696
 30
0.0
 10
103.9852236115814
 20
92.18312959382308
 30
0.0
 10
103.8287533949168
 20
92.26136470215535
 30
0.0
 10
103.6354272435003
 20
92.35802777786358
 30
0.0
 10
103.5010508112214
 20
92.42521599400308
 30
0.0
 10
103.4836690628342
 20
92.43390686819666
 30
0.0
 10
103.4749781886406
 20
92.43825230529347
 30
0.0
  0
LINE
  5
100
330
1F
100
AcDbEntity
  8
0
  6
Continuous
 62
     7
370
    25
100
AcDbLine
 10
103.4749781886
 20
92.4382523053
 30
0.0
 11
98.8960280455
 21
83.280352019
 31
0.0
  0
LINE
  5
101
330
1F
100
AcDbEntity
  8
0
  6
Continuous
 62
     7
370
    25
100
AcDbLine
 10
104.0521938315
 20
92.4121444059
 30
0.0
 11
103.6699812597
 21
92.7345006529
 31
0.0
  0
SPLINE
  5
102
330
1F
100
AcDbEntity
  8
0
  6
Continuous
 62
     7
370
    25
100
AcDbSpline
210
0.0
220
0.0
230
1.0
 70
     8
 71
     3
 72
    12
 73
     8
 74
     0
 42
0.00000001
 43
0.00000001
 40
0.0
 40
0.0
 40
0.0
 40
0.0
 40
0.2198609600791264
 40
0.4397396970008128
 40
0.6583291451397731
 40
0.8791239516843589
 40
1.0
 40
1.0
 40
1.0
 40
1.0
 10
104.1867612755495
 20
92.30152577097401
 30
0.0
 10
104.1268462128207
 20
92.35201398710191
 30
0.0
 10
104.0070112429347
 20
92.45299450157886
 30
0.0
 10
103.8502762546601
 20
92.5846574945289
 30
0.0
 10
103.733707930874
 20
92.68221881730196
 30
0.0
 10
103.6774512390798
 20
92.72887820877868
 30
0.0
 10
103.6719333678635
 20
92.73303135578003
 30
0.0
 10
103.6699812596919
 20
92.73450065288411
 30
0.0
  0
SPLINE
  5
103
330
1F
100
AcDbEntity
  8
0
  6
Continuous
 62
     7
370
    25
100
AcDbSpline
210
0.0
220
0.0
230
1.0
 70
     8
 71
     3
 72
    12
 73
     8
 74
     0
 42
0.00000001
 43
0.00000001
 40
0.0
 40
0.0
 40
0.0
 40
0.0
 40
0.0006864401057837
 40
0.2840613788817063
 40
0.5703177902163716
 40
0.8469872112136456
 40
1.0
 40
1.0
 40
1.0
 40
1.0
 10
104.14948951086
 20
92.33084945847166
 30
0.0
 10
104.1494487931029
 20
92.33088375310857
 30
0.0
 10
104.1325990459413
 20
92.34507549651886
 30
0.0
 10
104.1033701098285
 20
92.36960777636851
 30
0.0
 10
104.0701240641297
 20
92.39743736111491
 30
0.0
 10
104.0544418410198
 20
92.41043822408784
 30
0.0
 10
104.0528616132138
 20
92.41163103697387
 30
0.0
 10
104.0522988832287
 20
92.4120558058427
 30
0.0
  0
SPLINE
  5
104
330
1F
100
AcDbEntity
  8
0
  6
Continuous
 62
     7
370
    25
100
AcDbSpline
210
0.0
220
0.0
230
1.0
 70
     8
 71
     3
 72
    12
 73
     8
 74
     0
 42
0.00000001
 43
0.00000001
 40
0.0
 40
0.0
 40
0.0
 40
0.0
 40
0.2225634137435263
 40
0.4462063173695687
 40
0.6680851268158023
 40
0.8917990985569296
 40
1.0
 40
1.0
 40
1.0
 40
1.0
 10
103.6272037622721
 20
92.68137471736411
 30
0.0
 10
103.6327903283746
 20
92.6759476447504
 30
0.0
 10
103.6439905568642
 20
92.66506717682294
 30
0.0
 10
103.7380413345512
 20
92.58977374580265
 30
0.0
 10
103.8775323979492
 20
92.48029520104933
 30
0.0
 10
104.0227564977856
 20
92.36758056050283
 30
0.0
 10
104.1146796665156
 20
92.29676310305865
 30
0.0
 10
104.1446456925171
 20
92.27367732609463
 30
0.0
  0
LINE
  5
105
330
1F
100
AcDbEntity
  8
0
  6
Continuous
 62
     7
370
    25
100
AcDbLine
 10
104.0236754999
 20
92.3767271156
 30
0.0
 11
103.6272037623
 21
92.6813747174
 31
0.0
  0
ARC
  5
106
330
1F
100
AcDbEntity
  8
0
  6
Continuous
 62
     7
370
    25
100
AcDbCircle
 10
104.8166189751
 20
91.767431912
 30
0.0
 40
1.500000000000012
100
AcDbArc
 50
90.0
 51
139.8558773282
  0
ARC
  5
107
330
1F
100
AcDbEntity
  8
0
  6
Continuous
 62
     7
370
    25
100
AcDbCircle
 10
104.8166189751
 20
91.767431912
 30
0.0
 40
1.500000000000013
100
AcDbArc
 50
142.4614409777
 51
153.4349488229
  0
LINE
  5
108
330
1F
100
AcDbEntity
  8
0
  6
Continuous
 62
     7
370
    25
100
AcDbLine
 10
98.7513713909
 20
82.9910387098
 30
0.0
 11
98.8960280455
 21
83.280352019
 31
0.0
  0
ARC
  5
109
330
1F
100
AcDbEntity
  8
0
  6
Continuous
 62
     7
370
    25
100
AcDbCircle
 10
99.1985849864
 20
82.767431912
 30
0.0
 40
0.5
100
AcDbArc
 50
153.4349488229
 51
270.0
  0
SPLINE
  5
10A
330
1F
100
AcDbEntity
  8
0
  6
Continuous
 62
     7
370
    25
100
AcDbSpline
210
0.0
220
0.0
230
1.0
 70
     8
 71
     3
 72
     9
 73
     5
 74
     0
 42
0.00000001
 43
0.00000001
 40
0.0
 40
0.0
 40
0.0
 40
0.0
 40
0.5600029565045049
 40
1.0
 40
1.0
 40
1.0
 40
1.0
 10
103.6699812596919
 20
92.73450065288411
 30
0.0
 10
103.6618335003388
 20
92.72471419072414
 30
0.0
 10
103.6472840068791
 20
92.70723845770117
 30
0.0
 10
103.6333393639385
 20
92.68927749003537
 30
0.0
 10
103.6272037622721
 20
92.68137471736411
 30
0.0
  0
LINE
  5
10B
330
1F
100
AcDbEntity
  8
0
  6
Continuous
 62
     7
370
    25
100
AcDbLine
 10
145.7925241313
 20
82.6555074978
 30
0.0
 11
145.7946642465
 21
82.8790459514
 31
0.0
  0
SPLINE
  5
10C
330
1F
100
AcDbEntity
  8
0
  6
Continuous
 62
     7
370
    25
100
AcDbSpline
210
0.0
220
0.0
230
1.0
 70
     8
 71
     3
 72
    10
 73
     6
 74
     0
 42
0.00000001
 43
0.00000001
 40
0.0
 40
0.0
 40
0.0
 40
0.0
 40
0.3536466237081646
 40
0.7182931081305524
 40
1.0
 40
1.0
 40
1.0
 40
1.0
 10
145.9438120951798
 20
80.70923885132927
 30
0.0
 10
145.9063050608705
 20
80.26570120121072
 30
0.0
 10
145.8301243696249
 20
79.36483006059015
 30
0.0
 10
145.8685607722381
 20
77.9868207657789
 30
0.0
 10
145.9315428915711
 20
77.06878673447402
 30
0.0
 10
145.9589930414913
 20
76.6686704465806
 30
0.0
  0
LINE
  5
10D
330
1F
100
AcDbEntity
  8
0
  6
Continuous
 62
     7
370
    25
100
AcDbLine
 10
145.7925241313
 20
82.6555074978
 30
0.0
 11
145.9438120952
 21
80.7092388513
 31
0.0
  0
LINE
  5
10E
330
1F
100
AcDbEntity
  8
0
  6
Continuous
 62
     7
370
    25
100
AcDbLine
 10
146.0185849864
 20
74.567431912
 30
0.0
 11
146.0799397792
 21
74.567431912
 31
0.0
  0
LWPOLYLINE
  5
10F
330
1F
100
AcDbEntity
  8
0
  6
Continuous
 62
     7
370
    25
100
AcDbPolyline
 90
        3
 70
   128
 43
0.0
 10
146.2159523217
 20
73.2176800525
 10
146.1746535495
 20
73.6274811971
 10
146.0799397792
 20
74.567431912
  0
SPLINE
  5
110
330
1F
100
AcDbEntity
  8
0
  6
Continuous
 62
     7
370
    25
100
AcDbSpline
210
0.0
220
0.0
230
1.0
 70
     8
 71
     3
 72
    11
 73
     7
 74
     0
 42
0.00000001
 43
0.00000001
 40
0.0
 40
0.0
 40
0.0
 40
0.0
 40
0.2920574028183094
 40
0.5665622171831318
 40
0.8065682389915578
 40
1.0
 40
1.0
 40
1.0
 40
1.0
 10
146.0823793793372
 20
88.76743191204355
 30
0.0
 10
146.1140399156527
 20
88.75060011599484
 30
0.0
 10
146.1754581967133
 20
88.71794811129816
 30
0.0
 10
146.2553705559779
 20
88.4625562242572
 30
0.0
 10
146.2944693697054
 20
88.12683330768253
 30
0.0
 10
146.2790530067758
 20
87.87833161286146
 30
0.0
 10
146.2721730937917
 20
87.76743191203143
 30
0.0
  0
LINE
  5
111
330
1F
100
AcDbEntity
  8
0
  6
Continuous
 62
     7
370
    25
100
AcDbLine
 10
146.2721730938
 20
87.767431912
 30
0.0
 11
145.7946642465
 21
82.8790459514
 31
0.0
  0
LINE
  5
112
330
1F
100
AcDbEntity
  8
0
  6
Continuous
 62
     7
370
    25
100
AcDbLine
 10
146.6399760957
 20
90.767431912
 30
0.0
 11
161.7571938771
 21
90.767431912
 31
0.0
  0
LINE
  5
113
330
1F
100
AcDbEntity
  8
0
  6
Continuous
 62
     7
370
    25
100
AcDbLine
 10
161.7460912053
 20
72.767431912
 30
0.0
 11
146.7176191313
 21
72.767431912
 31
0.0
  0
SPLINE
  5
114
330
1F
100
AcDbEntity
  8
0
  6
Continuous
 62
     7
370
    25
100
AcDbSpline
210
0.0
220
0.0
230
1.0
 70
     8
 71
     3
 72
    12
 73
     8
 74
     0
 42
0.00000001
 43
0.00000001
 40
0.0
 40
0.0
 40
0.0
 40
0.0
 40
0.2316347876629375
 40
0.46330664808196
 40
0.6939442291381526
 40
0.9227406525226395
 40
1.0
 40
1.0
 40
1.0
 40
1.0
 10
146.7176191313022
 20
72.76743191204352
 30
0.0
 10
146.6605658136535
 20
72.77302137707379
 30
0.0
 10
146.546450047069
 20
72.78420120171876
 30
0.0
 10
146.3945967165909
 20
72.87152426767442
 30
0.0
 10
146.280429333707
 20
72.99983444145649
 30
0.0
 10
146.2286750013397
 20
73.12451386815428
 30
0.0
 10
146.2185166503527
 20
73.19890187690758
 30
0.0
 10
146.2159523217452
 20
73.21768005253301
 30
0.0
  0
SPLINE
  5
115
330
1F
100
AcDbEntity
  8
0
  6
Continuous
 62
     7
370
    25
100
AcDbSpline
210
0.0
220
0.0
230
1.0
 70
     8
 71
     3
 72
     9
 73
     5
 74
     0
 42
0.00000001
 43
0.00000001
 40
0.0
 40
0.0
 40
0.0
 40
0.0
 40
0.4474581094010271
 40
1.0
 40
1.0
 40
1.0
 40
1.0
 10
144.1985849863906
 20
78.2997437312206
 30
0.0
 10
144.4722355880689
 20
78.0718107878537
 30
0.0
 10
145.0838025614435
 20
77.5624157437634
 30
0.0
 10
145.6475171287265
 20
76.98674992592322
 30
0.0
 10
145.9589930414913
 20
76.6686704465806
 30
0.0
  0
SPLINE
  5
116
330
1F
100
AcDbEntity
  8
0
  6
Continuous
 62
     7
370
    25
100
AcDbSpline
210
0.0
220
0.0
230
1.0
 70
     8
 71
     3
 72
     9
 73
     5
 74
     0
 42
0.00000001
 43
0.00000001
 40
0.0
 40
0.0
 40
0.0
 40
0.0
 40
0.7210175706402088
 40
0.9999999999999999
 40
0.9999999999999999
 40
0.9999999999999999
 40
0.9999999999999999
 10
144.542513442088
 20
82.46523204827841
 30
0.0
 10
144.4735802230918
 20
82.52848286118771
 30
0.0
 10
144.3779747596423
 20
82.61620723225003
 30
0.0
 10
144.2377149959945
 20
82.66101641859397
 30
0.0
 10
144.1985849863906
 20
82.67351739425786
 30
0.0
  0
ARC
  5
117
330
1F
100
AcDbEntity
  8
0
  6
Continuous
 62
     7
370
    25
100
AcDbCircle
 10
137.4763586475
 20
75.3892546304
 30
0.0
 40
10.00000000000003
100
AcDbArc
 50
32.1405798582
 51
45.0397956095
  0
LINE
  5
118
330
1F
100
AcDbEntity
  8
0
  6
Continuous
 62
     7
370
    25
100
AcDbLine
 10
144.5425134421
 20
87.767431912
 30
0.0
 11
144.5425134421
 21
82.4652320483
 31
0.0
  0
LINE
  5
119
330
1F
100
AcDbEntity
  8
0
  6
Continuous
 62
     7
370
    25
100
AcDbLine
 10
146.2721730938
 20
87.767431912
 30
0.0
 11
144.5425134421
 21
87.767431912
 31
0.0
  0
LINE
  5
11A
330
1F
100
AcDbEntity
  8
0
  6
Continuous
 62
     7
370
    25
100
AcDbLine
 10
144.1985849864
 20
88.767431912
 30
0.0
 11
146.0823793793
 21
88.767431912
 31
0.0
  0
ARC
  5
11B
330
1F
100
AcDbEntity
  8
0
  6
Continuous
 62
     7
370
    25
100
AcDbCircle
 10
106.586044312
 20
95.4767771332
 30
0.0
 40
4.021945305552479
100
AcDbArc
 50
230.4243196696
 51
233.1058614851
  0
LINE
  5
11C
330
1F
100
AcDbEntity
  8
0
  6
Continuous
 62
     7
370
    25
100
AcDbLine
 10
102.6365676191
 20
61.5721797411
 30
0.0
 11
102.6365676191
 21
42.962684083
 31
0.0
  0
LINE
  5
11D
330
1F
100
AcDbEntity
  8
0
  6
Continuous
 62
     7
370
    25
100
AcDbLine
 10
154.7256581525
 20
66.767431912
 30
0.0
 11
162.4485849864
 21
66.767431912
 31
0.0
  0
LINE
  5
11E
330
1F
100
AcDbEntity
  8
0
  6
Continuous
 62
     7
370
    25
100
AcDbLine
 10
145.9485849864
 20
66.767431912
 30
0.0
 11
153.6715118203
 21
66.767431912
 31
0.0
  0
LINE
  5
11F
330
1F
100
AcDbEntity
  8
0
  6
Continuous
 62
     7
370
    25
100
AcDbLine
 10
154.1357021216
 20
90.8553742475
 30
0.0
 11
154.1357021216
 21
90.8673248093
 31
0.0
  0
LINE
  5
120
330
1F
100
AcDbEntity
  8
0
  6
Continuous
 62
     7
370
    25
100
AcDbLine
 10
154.2614678512
 20
90.8553742475
 30
0.0
 11
154.2614678512
 21
90.8673248093
 31
0.0
  0
LINE
  5
121
330
1F
100
AcDbEntity
  8
0
  6
Continuous
 62
     7
370
    25
100
AcDbLine
 10
145.7946642465
 20
82.8790459514
 30
0.0
 11
163.1846332315
 21
82.8790459514
 31
0.0
  0
LINE
  5
122
330
1F
100
AcDbEntity
  8
0
  6
Continuous
 62
     7
370
    25
100
AcDbLine
 10
163.187392545
 20
82.6555074978
 30
0.0
 11
145.7925241313
 21
82.6555074978
 31
0.0
  0
LINE
  5
123
330
1F
100
AcDbEntity
  8
0
  6
Continuous
 62
     7
370
    25
100
AcDbLine
 10
146.2159523217
 20
73.2176800525
 30
0.0
 11
162.2436098004
 21
73.2176800525
 31
0.0
  0
LINE
  5
124
330
1F
100
AcDbEntity
  8
0
  6
Continuous
 62
     7
370
    25
100
AcDbLine
 10
162.2533328155
 20
90.3294492793
 30
0.0
 11
146.1438371573
 21
90.3294492793
 31
0.0
  0
LINE
  5
125
330
1F
100
AcDbEntity
  8
0
  6
Continuous
 62
     7
370
    25
100
AcDbLine
 10
144.1985849864
 20
87.767431912
 30
0.0
 11
144.5425134421
 21
87.767431912
 31
0.0
  0
ARC
  5
126
330
1F
100
AcDbEntity
  8
0
  6
Continuous
 62
     7
370
    25
100
AcDbCircle
 10
143.4366397232
 20
87.8220964951
 30
0.0
 40
1.107223960532715
100
AcDbArc
 50
357.1701084939
 51
46.5155082001
  0
LINE
  5
127
330
1F
100
AcDbEntity
  8
0
  6
Continuous
 62
     7
370
    25
100
AcDbLine
 10
103.9495880452
 20
83.785153516
 30
0.0
 11
104.1715154816
 21
92.2602203875
 31
0.0
  0
LINE
  5
128
330
1F
100
AcDbEntity
  8
0
  6
Continuous
 62
     7
370
    18
100
AcDbLine
 10
167.6985849864
 20
39.724556912
 30
0.0
 11
182.1758790265
 21
40.1769723508
 31
0.0
  0
LINE
  5
129
330
1F
100
AcDbEntity
  8
0
  6
Continuous
 62
     7
370
    18
100
AcDbLine
 10
182.1758790265
 20
64.3578914733
 30
0.0
 11
167.6985849864
 21
64.810306912
 31
0.0
  0
LINE
  5
12A
330
1F
100
AcDbEntity
  8
0
  6
CENTERX2
 62
     7
370
    18
100
AcDbLine
 10
100.1985849864
 20
52.267431912
 30
0.0
 11
185.8710426696
 21
52.267431912
 31
0.0
  0
LINE
  5
12B
330
1F
100
AcDbEntity
  8
0
  6
CENTERX2
 62
     7
370
    18
100
AcDbLine
 10
154.1985849864
 20
36.2260074395
 30
0.0
 11
154.1985849864
 21
92.8244531046
 31
0.0
  0
LINE
  5
12C
330
1F
100
AcDbEntity
  8
0
  6
Continuous
 62
     7
370
    25
100
AcDbLine
 10
230.5517404013
 20
71.767431912
 30
0.0
 11
230.0517404013
 21
72.267431912
 31
0.0
  0
LINE
  5
12D
330
1F
100
AcDbEntity
  8
0
  6
Continuous
 62
     7
370
    25
100
AcDbLine
 10
214.5517404013
 20
72.267431912
 30
0.0
 11
214.0517404013
 21
71.767431912
 31
0.0
  0
LINE
  5
12E
330
1F
100
AcDbEntity
  8
0
  6
Continuous
 62
     7
370
    25
100
AcDbLine
 10
230.5517404013
 20
66.767431912
 30
0.0
 11
230.5517404013
 21
71.767431912
 31
0.0
  0
LINE
  5
12F
330
1F
100
AcDbEntity
  8
0
  6
Continuous
 62
     7
370
    25
100
AcDbLine
 10
214.0517404013
 20
71.767431912
 30
0.0
 11
214.0517404013
 21
66.767431912
 31
0.0
  0
LINE
  5
130
330
1F
100
AcDbEntity
  8
0
  6
Continuous
 62
     7
370
    25
100
AcDbLine
 10
217.3017404013
 20
74.567431912
 30
0.0
 11
217.3017404013
 21
72.267431912
 31
0.0
  0
LINE
  5
131
330
1F
100
AcDbEntity
  8
0
  6
Continuous
 62
     7
370
    25
100
AcDbLine
 10
227.3017404013
 20
72.267431912
 30
0.0
 11
227.3017404013
 21
72.767431912
 31
0.0
  0
SPLINE
  5
132
330
1F
100
AcDbEntity
  8
0
  6
Continuous
 62
     7
370
    25
100
AcDbSpline
210
0.0
220
0.0
230
1.0
 70
     8
 71
     3
 72
    14
 73
    10
 74
     0
 42
0.00000001
 43
0.00000001
 40
0.0
 40
0.0
 40
0.0
 40
0.0
 40
0.0648424038072732
 40
0.3282655971001145
 40
0.5309778235497735
 40
0.6982210780495584
 40
0.8395977818468048
 40
0.9560410423153237
 40
1.0
 40
1.0
 40
1.0
 40
1.0
 10
214.0460270086626
 20
66.76628528978384
 30
0.0
 10
214.0473879906865
 20
66.75005066350906
 30
0.0
 10
214.054277981657
 20
66.66786263569276
 30
0.0
 10
213.9985776824931
 20
66.53826084116153
 30
0.0
 10
213.9005057558833
 20
66.41335197704316
 30
0.0
 10
213.7940144788056
 20
66.33878466635845
 30
0.0
 10
213.6946469495998
 20
66.29975424908613
 30
0.0
 10
213.6199458761135
 20
66.28403926003591
 30
0.0
 10
213.58004813914
 20
66.28349503909966
 30
0.0
 10
213.5691139827953
 20
66.28334589287599
 30
0.0
  0
SPLINE
  5
133
330
1F
100
AcDbEntity
  8
0
  6
Continuous
 62
     7
370
    25
100
AcDbSpline
210
0.0
220
0.0
230
1.0
 70
     8
 71
     3
 72
    13
 73
     9
 74
     0
 42
0.00000001
 43
0.00000001
 40
0.0
 40
0.0
 40
0.0
 40
0.0
 40
0.081779405528814
 40
0.2305020087196953
 40
0.4449397637531724
 40
0.6699122809280371
 40
0.9097889399767607
 40
1.0
 40
1.0
 40
1.0
 40
1.0
 10
231.0350102042965
 20
66.28356277269599
 30
0.0
 10
231.0145805525257
 20
66.28442498825771
 30
0.0
 10
230.9569978917058
 20
66.2868552140296
 30
0.0
 10
230.8486892896306
 20
66.31840391508821
 30
0.0
 10
230.7192509625015
 20
66.39465570366787
 30
0.0
 10
230.6108005554786
 20
66.52775813738636
 30
0.0
 10
230.5524862335851
 20
66.66131938469812
 30
0.0
 10
230.5574980763153
 20
66.74433841249896
 30
0.0
 10
230.5588677838786
 20
66.76702703151535
 30
0.0
  0
LINE
  5
134
330
1F
100
AcDbEntity
  8
0
  6
Continuous
 62
     7
370
    25
100
AcDbLine
 10
221.4317113366
 20
92.716147579
 30
0.0
 11
221.4317113366
 21
92.6813649106
 31
0.0
  0
SPLINE
  5
135
330
1F
100
AcDbEntity
  8
0
  6
Continuous
 62
     7
370
    25
100
AcDbSpline
210
0.0
220
0.0
230
1.0
 70
     8
 71
     3
 72
     9
 73
     5
 74
     0
 42
0.00000001
 43
0.00000001
 40
0.0
 40
0.0
 40
0.0
 40
0.0
 40
0.4993165458323641
 40
1.0
 40
1.0
 40
1.0
 40
1.0
 10
223.3110331961694
 20
93.25499934079524
 30
0.0
 10
223.2879025785222
 20
93.25835037644286
 30
0.0
 10
223.2415780218051
 20
93.26506162139479
 30
0.0
 10
223.1950186286768
 20
93.26073445208912
 30
0.0
 10
223.1717071109013
 20
93.2585679100144
 30
0.0
  0
SPLINE
  5
136
330
1F
100
AcDbEntity
  8
0
  6
Continuous
 62
     7
370
    25
100
AcDbSpline
210
0.0
220
0.0
230
1.0
 70
     8
 71
     3
 72
     9
 73
     5
 74
     0
 42
0.00000001
 43
0.00000001
 40
0.0
 40
0.0
 40
0.0
 40
0.0
 40
0.5006834545219043
 40
0.9999999999999999
 40
0.9999999999999999
 40
0.9999999999999999
 40
0.9999999999999999
 10
221.4317736390213
 20
93.25856790994199
 30
0.0
 10
221.4084621243702
 20
93.26073445060727
 30
0.0
 10
221.3619027375152
 20
93.26506161709483
 30
0.0
 10
221.3155781872586
 20
93.25835037074017
 30
0.0
 10
221.2924475728537
 20
93.25499933439451
 30
0.0
  0
LINE
  5
137
330
1F
100
AcDbEntity
  8
0
  6
Continuous
 62
     7
370
    25
100
AcDbLine
 10
219.825885883
 20
92.5994823015
 30
0.0
 11
219.6951085283
 21
89.7462208114
 31
0.0
  0
LINE
  5
138
330
1F
100
AcDbEntity
  8
0
  6
Continuous
 62
     7
370
    25
100
AcDbLine
 10
224.9083722742
 20
89.7462208114
 30
0.0
 11
224.7775949196
 21
92.5994823015
 31
0.0
  0
LINE
  5
139
330
1F
100
AcDbEntity
  8
0
  6
Continuous
 62
     7
370
    25
100
AcDbLine
 10
220.3487664211
 20
93.2445831925
 30
0.0
 11
220.3003354781
 21
93.2233786785
 31
0.0
  0
SPLINE
  5
13A
330
1F
100
AcDbEntity
  8
0
  6
Continuous
 62
     7
370
    25
100
AcDbSpline
210
0.0
220
0.0
230
1.0
 70
     8
 71
     3
 72
     9
 73
     5
 74
     0
 42
0.00000001
 43
0.00000001
 40
0.0
 40
0.0
 40
0.0
 40
0.0
 40
0.0503631419175621
 40
0.9999999999999999
 40
0.9999999999999999
 40
0.9999999999999999
 40
0.9999999999999999
 10
219.8822482070389
 20
92.8379904699843
 30
0.0
 10
219.8803521264448
 20
92.83482041262032
 30
0.0
 10
219.8427039472025
 20
92.77187641740264
 30
0.0
 10
219.8361635041872
 20
92.69672881870875
 30
0.0
 10
219.8299524584317
 20
92.62536588919265
 30
0.0
  0
SPLINE
  5
13B
330
1F
100
AcDbEntity
  8
0
  6
Continuous
 62
     7
370
    25
100
AcDbSpline
210
0.0
220
0.0
230
1.0
 70
     8
 71
     3
 72
    11
 73
     7
 74
     0
 42
0.00000001
 43
0.00000001
 40
0.0
 40
0.0
 40
0.0
 40
0.0
 40
0.2436788845968619
 40
0.4915884466681963
 40
0.7437897073051941
 40
0.9999999999999999
 40
0.9999999999999999
 40
0.9999999999999999
 40
0.9999999999999999
 10
224.7735283441085
 20
92.62536588919265
 30
0.0
 10
224.76222438728
 20
92.69448524108948
 30
0.0
 10
224.7394202178186
 20
92.83392397370635
 30
0.0
 10
224.6262554189141
 20
93.01857786624628
 30
0.0
 10
224.4639718261038
 20
93.1692063720555
 30
0.0
 10
224.3248325861853
 20
93.2193258482183
 30
0.0
 10
224.2547143814529
 20
93.2445831925356
 30
0.0
  0
SPLINE
  5
13C
330
1F
100
AcDbEntity
  8
0
  6
Continuous
 62
     7
370
    25
100
AcDbSpline
210
0.0
220
0.0
230
1.0
 70
     8
 71
     3
 72
    10
 73
     6
 74
     0
 42
0.00000001
 43
0.00000001
 40
0.0
 40
0.0
 40
0.0
 40
0.0
 40
0.2663464296502981
 40
0.5214744039517447
 40
1.0
 40
1.0
 40
1.0
 40
1.0
 10
225.256507598185
 20
89.29067769010982
 30
0.0
 10
225.2113261342685
 20
89.30966375584934
 30
0.0
 10
225.1228662401506
 20
89.3468361982504
 30
0.0
 10
224.9762819007511
 20
89.4764033163663
 30
0.0
 10
224.9222577839741
 20
89.60688270780918
 30
0.0
 10
224.8870205497718
 20
89.6919879006217
 30
0.0
  0
SPLINE
  5
13D
330
1F
100
AcDbEntity
  8
0
  6
Continuous
 62
     7
370
    25
100
AcDbSpline
210
0.0
220
0.0
230
1.0
 70
     8
 71
     3
 72
    10
 73
     6
 74
     0
 42
0.00000001
 43
0.00000001
 40
0.0
 40
0.0
 40
0.0
 40
0.0
 40
0.4785255960482541
 40
0.7336535703497082
 40
1.0
 40
1.0
 40
1.0
 40
1.0
 10
219.7164602527683
 20
89.69198790062168
 30
0.0
 10
219.6812230185661
 20
89.60688270780916
 30
0.0
 10
219.6271989017891
 20
89.4764033163663
 30
0.0
 10
219.4806145623895
 20
89.34683619825037
 30
0.0
 10
219.3921546682717
 20
89.30966375584933
 30
0.0
 10
219.3469732043552
 20
89.29067769010982
 30
0.0
  0
ARC
  5
13E
330
1F
100
AcDbEntity
  8
0
  6
Continuous
 62
     7
370
    25
100
AcDbCircle
 10
218.575001977
 20
87.767431912
 30
0.0
 40
1.5
100
AcDbArc
 50
90.0
 51
180.0
  0
LINE
  5
13F
330
1F
100
AcDbEntity
  8
0
  6
Continuous
 62
     7
370
    25
100
AcDbLine
 10
217.075001977
 20
87.767431912
 30
0.0
 11
217.075001977
 21
82.5144772798
 31
0.0
  0
ARC
  5
140
330
1F
100
AcDbEntity
  8
0
  6
Continuous
 62
     7
370
    25
100
AcDbCircle
 10
226.0284788255
 20
87.767431912
 30
0.0
 40
1.5
100
AcDbArc
 50
0.0
 51
90.0
  0
LINE
  5
141
330
1F
100
AcDbEntity
  8
0
  6
Continuous
 62
     7
370
    25
100
AcDbLine
 10
227.5284788255
 20
82.5144772798
 30
0.0
 11
227.5284788255
 21
87.767431912
 31
0.0
  0
LINE
  5
142
330
1F
100
AcDbEntity
  8
0
  6
Continuous
 62
     7
370
    25
100
AcDbLine
 10
213.3129328427
 20
82.6555074978
 30
0.0
 11
214.1217404013
 21
74.567431912
 31
0.0
  0
LINE
  5
143
330
1F
100
AcDbEntity
  8
0
  6
Continuous
 62
     7
370
    25
100
AcDbLine
 10
230.3467652153
 20
73.2176800525
 30
0.0
 11
231.2905479598
 21
82.6555074978
 31
0.0
  0
ARC
  5
144
330
1F
100
AcDbEntity
  8
0
  6
Continuous
 62
     7
370
    25
100
AcDbCircle
 10
230.2955107696
 20
82.7550112168
 30
0.0
 40
0.9999999999999957
100
AcDbArc
 50
354.2894068625
 51
7.1250163489
  0
ARC
  5
145
330
1F
100
AcDbEntity
  8
0
  6
Continuous
 62
     7
370
    25
100
AcDbCircle
 10
214.3079700329
 20
82.7550112168
 30
0.0
 40
1.000000000000003
100
AcDbArc
 50
172.8749836511
 51
185.7105931375
  0
LINE
  5
146
330
1F
100
AcDbEntity
  8
0
  6
Continuous
 62
     7
370
    25
100
AcDbLine
 10
231.2877886464
 20
82.8790459514
 30
0.0
 11
230.3564882304
 21
90.3294492793
 31
0.0
  0
LINE
  5
147
330
1F
100
AcDbEntity
  8
0
  6
Continuous
 62
     7
370
    25
100
AcDbLine
 10
214.2469925722
 20
90.3294492793
 30
0.0
 11
213.3156921562
 21
82.8790459514
 31
0.0
  0
ARC
  5
148
330
1F
100
AcDbEntity
  8
0
  6
Continuous
 62
     7
370
    25
100
AcDbCircle
 10
214.7431315105
 20
90.267431912
 30
0.0
 40
0.5
100
AcDbArc
 50
90.0
 51
172.8749836511
  0
ARC
  5
149
330
1F
100
AcDbEntity
  8
0
  6
Continuous
 62
     7
370
    25
100
AcDbCircle
 10
229.860349292
 20
90.267431912
 30
0.0
 40
0.5000000000000017
100
AcDbArc
 50
7.1250163489
 51
90.0
  0
ARC
  5
14A
330
1F
100
AcDbEntity
  8
0
  6
Continuous
 62
     7
370
    25
100
AcDbCircle
 10
229.8492466202
 20
73.267431912
 30
0.0
 40
0.5
100
AcDbArc
 50
270.0
 51
354.2894068625
  0
LINE
  5
14B
330
1F
100
AcDbEntity
  8
0
  6
Continuous
 62
     7
370
    25
100
AcDbLine
 10
223.3017404013
 20
72.267431912
 30
0.0
 11
223.3017404013
 21
72.7386407584
 31
0.0
  0
LINE
  5
14C
330
1F
100
AcDbEntity
  8
0
  6
Continuous
 62
     7
370
    25
100
AcDbLine
 10
221.3017404013
 20
74.067431912
 30
0.0
 11
221.3017404013
 21
72.267431912
 31
0.0
  0
ARC
  5
14D
330
1F
100
AcDbEntity
  8
0
  6
Continuous
 62
     7
370
    25
100
AcDbCircle
 10
221.5017404013
 20
74.067431912
 30
0.0
 40
0.2000000000000028
100
AcDbArc
 50
90.0
 51
180.0
  0
ARC
  5
14E
330
1F
100
AcDbEntity
  8
0
  6
Continuous
 62
     7
370
    25
100
AcDbCircle
 10
223.1017404013
 20
74.067431912
 30
0.0
 40
0.2000000000000028
100
AcDbArc
 50
0.0
 51
90.0
  0
CIRCLE
  5
14F
330
1F
100
AcDbEntity
  8
0
  6
Continuous
 62
     7
370
    25
100
AcDbCircle
 10
222.3017404013
 20
52.267431912
 30
0.0
 40
8.808608890731357
  0
CIRCLE
  5
150
330
1F
100
AcDbEntity
  8
0
  6
Continuous
 62
     7
370
    25
100
AcDbCircle
 10
222.3017404013
 20
52.267431912
 30
0.0
 40
9.304747829088182
  0
CIRCLE
  5
151
330
1F
100
AcDbEntity
  8
0
  6
Continuous
 62
     7
370
    25
100
AcDbCircle
 10
222.3017404013
 20
52.267431912
 30
0.0
 40
6.699999999999993
  0
CIRCLE
  5
152
330
1F
100
AcDbEntity
  8
0
  6
Continuous
 62
     7
370
    25
100
AcDbCircle
 10
222.3017404013
 20
52.267431912
 30
0.0
 40
6.500000000000008
  0
CIRCLE
  5
153
330
1F
100
AcDbEntity
  8
0
  6
Continuous
 62
     7
370
    25
100
AcDbCircle
 10
222.3017404013
 20
52.267431912
 30
0.0
 40
10.25
  0
CIRCLE
  5
154
330
1F
100
AcDbEntity
  8
0
  6
Continuous
 62
     7
370
    25
100
AcDbCircle
 10
222.3017404013
 20
52.267431912
 30
0.0
 40
13.00000000000004
  0
CIRCLE
  5
155
330
1F
100
AcDbEntity
  8
0
  6
Continuous
 62
     7
370
    25
100
AcDbCircle
 10
222.3017404013
 20
52.267431912
 30
0.0
 40
13.50000000000003
  0
ARC
  5
156
330
1F
100
AcDbEntity
  8
0
  6
Continuous
 62
     7
370
    25
100
AcDbCircle
 10
222.3017404013
 20
52.267431912
 30
0.0
 40
16.5
100
AcDbArc
 50
121.9527464003
 51
148.0472535997
  0
SPLINE
  5
157
330
1F
100
AcDbEntity
  8
0
  6
Continuous
 62
     7
370
    25
100
AcDbSpline
210
0.0
220
0.0
230
1.0
 70
    24
 71
     3
 72
    10
 73
     6
 74
     0
 42
0.00000001
 43
0.00000001
 40
0.0
 40
0.0
 40
0.0
 40
0.0
 40
0.5
 40
0.5
 40
1.0
 40
1.0
 40
1.0
 40
1.0
 10
213.5696158029836
 20
66.2674319120435
 30
0.0
 10
214.9870814955116
 20
66.2674319120435
 30
0.0
 10
216.4383156500394
 20
66.2674319120435
 30
0.0
 10
219.3516931190175
 20
66.2674319120435
 30
0.0
 10
220.8197916813261
 20
66.2674319120435
 30
0.0
 10
222.3017404012701
 20
66.2674319120435
 30
0.0
  0
ARC
  5
158
330
1F
100
AcDbEntity
  8
0
  6
Continuous
 62
     7
370
    25
100
AcDbCircle
 10
222.3017404013
 20
52.267431912
 30
0.0
 40
14.0
100
AcDbArc
 50
90.0
 51
180.0
  0
SPLINE
  5
159
330
1F
100
AcDbEntity
  8
0
  6
Continuous
 62
     7
370
    25
100
AcDbSpline
210
0.0
220
0.0
230
1.0
 70
    24
 71
     3
 72
    14
 73
    10
 74
     0
 42
0.00000001
 43
0.00000001
 40
0.0
 40
0.0
 40
0.0
 40
0.0
 40
0.125
 40
0.125
 40
0.25
 40
0.25
 40
0.5
 40
0.5
 40
1.0
 40
1.0
 40
1.0
 40
1.0
 10
208.3017404012701
 20
52.26743191204351
 30
0.0
 10
208.3017404012701
 20
52.63844399086387
 30
0.0
 10
208.3017404012701
 20
53.01030920440495
 30
0.0
 10
208.3017404012701
 20
53.75575325411675
 30
0.0
 10
208.3017404012701
 20
54.1298857181184
 30
0.0
 10
208.3017404012701
 20
55.24362375985031
 30
0.0
 10
208.3017404012701
 20
55.97804150770405
 30
0.0
 10
208.3017404012701
 20
58.16079989104955
 30
0.0
 10
208.3017404012701
 20
59.58883814556242
 30
0.0
 10
208.3017404012701
 20
60.99955651033001
 30
0.0
  0
ARC
  5
15A
330
1F
100
AcDbEntity
  8
0
  6
Continuous
 62
     7
370
    25
100
AcDbCircle
 10
222.3017404013
 20
52.267431912
 30
0.0
 40
14.0
100
AcDbArc
 50
180.0
 51
270.0
  0
ARC
  5
15B
330
1F
100
AcDbEntity
  8
0
  6
Continuous
 62
     7
370
    25
100
AcDbCircle
 10
222.3017404013
 20
52.267431912
 30
0.0
 40
14.0
100
AcDbArc
 50
0.0
 51
90.0
  0
ARC
  5
15C
330
1F
100
AcDbEntity
  8
0
  6
Continuous
 62
     7
370
    25
100
AcDbCircle
 10
222.3017404013
 20
52.267431912
 30
0.0
 40
14.0
100
AcDbArc
 50
270.0
 51
0.0
  0
ARC
  5
15D
330
1F
100
AcDbEntity
  8
0
  6
Continuous
 62
     7
370
    25
100
AcDbCircle
 10
222.3017404013
 20
52.267431912
 30
0.0
 40
16.50000000000001
100
AcDbArc
 50
211.9527464003
 51
238.0472535997
  0
SPLINE
  5
15E
330
1F
100
AcDbEntity
  8
0
  6
Continuous
 62
     7
370
    25
100
AcDbSpline
210
0.0
220
0.0
230
1.0
 70
    24
 71
     3
 72
    10
 73
     6
 74
     0
 42
0.00000001
 43
0.00000001
 40
0.0
 40
0.0
 40
0.0
 40
0.0
 40
0.5
 40
0.5
 40
1.0
 40
1.0
 40
1.0
 40
1.0
 10
208.3017404012701
 20
43.53530731375702
 30
0.0
 10
208.3017404012701
 20
44.95277300628385
 30
0.0
 10
208.3017404012701
 20
46.40400716081044
 30
0.0
 10
208.3017404012701
 20
49.31738462978868
 30
0.0
 10
208.3017404012701
 20
50.78548319209796
 30
0.0
 10
208.3017404012701
 20
52.26743191204351
 30
0.0
  0
SPLINE
  5
15F
330
1F
100
AcDbEntity
  8
0
  6
Continuous
 62
     7
370
    25
100
AcDbSpline
210
0.0
220
0.0
230
1.0
 70
    24
 71
     3
 72
    10
 73
     6
 74
     0
 42
0.00000001
 43
0.00000001
 40
0.0
 40
0.0
 40
0.0
 40
0.0
 40
0.5
 40
0.5
 40
1.0
 40
1.0
 40
1.0
 40
1.0
 10
213.5696158029836
 20
38.26743191204351
 30
0.0
 10
214.9870814955104
 20
38.26743191204351
 30
0.0
 10
216.438315650037
 20
38.26743191204351
 30
0.0
 10
219.3516931190152
 20
38.26743191204351
 30
0.0
 10
220.8197916813245
 20
38.26743191204351
 30
0.0
 10
222.3017404012701
 20
38.26743191204351
 30
0.0
  0
ARC
  5
160
330
1F
100
AcDbEntity
  8
0
  6
Continuous
 62
     7
370
    25
100
AcDbCircle
 10
222.3017404013
 20
52.267431912
 30
0.0
 40
16.5
100
AcDbArc
 50
31.9527464003
 51
58.0472535997
  0
SPLINE
  5
161
330
1F
100
AcDbEntity
  8
0
  6
Continuous
 62
     7
370
    25
100
AcDbSpline
210
0.0
220
0.0
230
1.0
 70
    24
 71
     3
 72
    14
 73
    10
 74
     0
 42
0.00000001
 43
0.00000001
 40
0.0
 40
0.0
 40
0.0
 40
0.0
 40
0.125
 40
0.125
 40
0.2500000000000001
 40
0.2500000000000001
 40
0.5
 40
0.5
 40
1.0
 40
1.0
 40
1.0
 40
1.0
 10
236.3017404012701
 20
52.26743191204351
 30
0.0
 10
236.3017404012701
 20
52.63844399086387
 30
0.0
 10
236.3017404012701
 20
53.01030920440495
 30
0.0
 10
236.3017404012701
 20
53.75575325411675
 30
0.0
 10
236.3017404012701
 20
54.12988571811839
 30
0.0
 10
236.3017404012701
 20
55.2436237598503
 30
0.0
 10
236.3017404012701
 20
55.97804150770405
 30
0.0
 10
236.3017404012701
 20
58.16079989104954
 30
0.0
 10
236.3017404012701
 20
59.58883814556241
 30
0.0
 10
236.3017404012701
 20
60.99955651033
 30
0.0
  0
SPLINE
  5
162
330
1F
100
AcDbEntity
  8
0
  6
Continuous
 62
     7
370
    25
100
AcDbSpline
210
0.0
220
0.0
230
1.0
 70
    24
 71
     3
 72
    14
 73
    10
 74
     0
 42
0.00000001
 43
0.00000001
 40
0.0
 40
0.0
 40
0.0
 40
0.0
 40
0.125
 40
0.125
 40
0.25
 40
0.25
 40
0.5
 40
0.5
 40
1.0
 40
1.0
 40
1.0
 40
1.0
 10
222.3017404012701
 20
66.2674319120435
 30
0.0
 10
222.6727524800895
 20
66.2674319120435
 30
0.0
 10
223.0446176936295
 20
66.2674319120435
 30
0.0
 10
223.7900617433392
 20
66.2674319120435
 30
0.0
 10
224.164194207341
 20
66.2674319120435
 30
0.0
 10
225.2779322490751
 20
66.2674319120435
 30
0.0
 10
226.0123499969298
 20
66.2674319120435
 30
0.0
 10
228.1951083802772
 20
66.2674319120435
 30
0.0
 10
229.6231466347899
 20
66.2674319120435
 30
0.0
 10
231.0338649995566
 20
66.2674319120435
 30
0.0
  0
SPLINE
  5
163
330
1F
100
AcDbEntity
  8
0
  6
Continuous
 62
     7
370
    25
100
AcDbSpline
210
0.0
220
0.0
230
1.0
 70
    24
 71
     3
 72
    10
 73
     6
 74
     0
 42
0.00000001
 43
0.00000001
 40
0.0
 40
0.0
 40
0.0
 40
0.0
 40
0.5
 40
0.5
 40
1.0
 40
1.0
 40
1.0
 40
1.0
 10
236.3017404012701
 20
43.53530731375702
 30
0.0
 10
236.3017404012701
 20
44.95277300628385
 30
0.0
 10
236.3017404012701
 20
46.40400716081044
 30
0.0
 10
236.3017404012701
 20
49.31738462978867
 30
0.0
 10
236.3017404012701
 20
50.78548319209795
 30
0.0
 10
236.3017404012701
 20
52.26743191204351
 30
0.0
  0
ARC
  5
164
330
1F
100
AcDbEntity
  8
0
  6
Continuous
 62
     7
370
    25
100
AcDbCircle
 10
222.3017404013
 20
52.267431912
 30
0.0
 40
16.50000000000001
100
AcDbArc
 50
301.9527464003
 51
328.0472535997
  0
SPLINE
  5
165
330
1F
100
AcDbEntity
  8
0
  6
Continuous
 62
     7
370
    25
100
AcDbSpline
210
0.0
220
0.0
230
1.0
 70
    24
 71
     3
 72
    14
 73
    10
 74
     0
 42
0.00000001
 43
0.00000001
 40
0.0
 40
0.0
 40
0.0
 40
0.0
 40
0.125
 40
0.125
 40
0.25
 40
0.25
 40
0.5
 40
0.5
 40
1.0
 40
1.0
 40
1.0
 40
1.0
 10
222.3017404012701
 20
38.26743191204351
 30
0.0
 10
222.6727524800905
 20
38.26743191204351
 30
0.0
 10
223.0446176936315
 20
38.26743191204351
 30
0.0
 10
223.7900617433433
 20
38.26743191204351
 30
0.0
 10
224.164194207345
 20
38.26743191204351
 30
0.0
 10
225.2779322490769
 20
38.26743191204351
 30
0.0
 10
226.0123499969306
 20
38.26743191204351
 30
0.0
 10
228.1951083802761
 20
38.26743191204351
 30
0.0
 10
229.623146634789
 20
38.26743191204351
 30
0.0
 10
231.0338649995566
 20
38.26743191204351
 30
0.0
  0
ARC
  5
166
330
1F
100
AcDbEntity
  8
0
  6
Continuous
 62
     7
370
    25
100
AcDbCircle
 10
213.5691045545
 20
66.766921708
 30
0.0
 40
0.4994900575603529
100
AcDbArc
 50
270.0586445851
 51
0.0585247798
  0
LINE
  5
167
330
1F
100
AcDbEntity
  8
0
  6
Continuous
 62
     7
370
    25
100
AcDbLine
 10
214.0685943515
 20
66.767431912
 30
0.0
 11
230.5348864511
 21
66.767431912
 31
0.0
  0
ARC
  5
168
330
1F
100
AcDbEntity
  8
0
  6
Continuous
 62
     7
370
    25
100
AcDbCircle
 10
231.0343762481
 20
66.766921708
 30
0.0
 40
0.4994900575603529
100
AcDbArc
 50
179.9414752202
 51
269.9413554149
  0
LINE
  5
169
330
1F
100
AcDbEntity
  8
0
  6
Continuous
 62
     7
370
    25
100
AcDbLine
 10
214.5517404013
 20
72.267431912
 30
0.0
 11
230.0517404013
 21
72.267431912
 31
0.0
  0
LINE
  5
16A
330
1F
100
AcDbEntity
  8
0
  6
Continuous
 62
     7
370
    25
100
AcDbLine
 10
230.5517404013
 20
71.767431912
 30
0.0
 11
214.0517404013
 21
71.767431912
 31
0.0
  0
ELLIPSE
  5
16B
330
1F
100
AcDbEntity
  8
0
  6
Continuous
 62
     7
370
    25
100
AcDbEllipse
 10
222.1272018462
 20
83.9910387098
 30
0.0
 11
0.7234244958980298
 21
-0.7001325129304662
 31
0.0
210
0.0
220
0.0
230
1.0
 40
0.9869902583
 41
4.70764954536256
 42
5.487972049091407
  0
LINE
  5
16C
330
1F
100
AcDbEntity
  8
0
  6
Continuous
 62
     7
370
    25
100
AcDbLine
 10
222.1402948069
 20
82.9910387098
 30
0.0
 11
222.1402948069
 21
82.267431912
 31
0.0
  0
ELLIPSE
  5
16D
330
1F
100
AcDbEntity
  8
0
  6
Continuous
 62
     7
370
    25
100
AcDbEllipse
 10
222.1272018462
 20
83.767431912
 30
0.0
 11
1.074619436156752
 21
-1.056020081253692
 31
0.0
210
0.0
220
0.0
230
1.0
 40
0.9913091236
 41
4.713099434383481
 42
5.493421938112308
  0
LWPOLYLINE
  5
16E
330
1F
100
AcDbEntity
  8
0
  6
Continuous
 62
     7
370
    25
100
AcDbPolyline
 90
        9
 70
   128
 43
0.0
 10
221.4327570268
 20
83.280352019
 10
221.3470281447
 20
83.2040215414
 10
221.2659964948
 20
83.1196215421
 10
221.1941019399
 20
83.0317764416
 10
221.1352837057
 20
82.9452994232
 10
221.092764544
 20
82.8649287109
 10
221.0688741523
 20
82.7950679535
 10
221.0649215262
 20
82.7395449415
 10
221.0811232367
 20
82.7014018758
  0
ELLIPSE
  5
16F
330
1F
100
AcDbEntity
  8
0
  6
Continuous
 62
     7
370
    25
100
AcDbEllipse
 10
222.4762789564
 20
83.9910387098
 30
0.0
 11
0.7234244958980298
 21
0.7001325129304804
 31
0.0
210
0.0
220
0.0
230
1.0
 40
0.9869902583
 41
3.936805911678
 42
4.717128415406837
  0
LWPOLYLINE
  5
170
330
1F
100
AcDbEntity
  8
0
  6
Continuous
 62
     7
370
    25
100
AcDbPolyline
 90
        9
 70
   128
 43
0.0
 10
223.1707237758
 20
83.280352019
 10
223.2564526579
 20
83.2040215414
 10
223.3374843077
 20
83.1196215421
 10
223.4093788626
 20
83.0317764416
 10
223.4681970968
 20
82.9452994232
 10
223.5107162586
 20
82.8649287109
 10
223.5346066503
 20
82.7950679535
 10
223.5385592764
 20
82.7395449415
 10
223.5223575658
 20
82.7014018758
  0
ELLIPSE
  5
171
330
1F
100
AcDbEntity
  8
0
  6
Continuous
 62
     7
370
    25
100
AcDbEllipse
 10
222.4762789564
 20
83.767431912
 30
0.0
 11
1.074619436156752
 21
1.056020081253664
 31
0.0
210
0.0
220
0.0
230
1.0
 40
0.9913091236
 41
3.931356022657103
 42
4.711678526385933
  0
LINE
  5
172
330
1F
100
AcDbEntity
  8
0
  6
Continuous
 62
     7
370
    25
100
AcDbLine
 10
222.4631859956
 20
82.9910387098
 30
0.0
 11
222.4631859956
 21
82.267431912
 31
0.0
  0
LINE
  5
173
330
1F
100
AcDbEntity
  8
0
  6
Continuous
 62
     7
370
    25
100
AcDbLine
 10
222.1402948069
 20
82.9910387098
 30
0.0
 11
222.4631859956
 21
82.9910387098
 31
0.0
  0
LINE
  5
174
330
1F
100
AcDbEntity
  8
0
  6
Continuous
 62
     7
370
    25
100
AcDbLine
 10
222.4631859956
 20
82.267431912
 30
0.0
 11
222.1402948069
 21
82.267431912
 31
0.0
  0
LINE
  5
175
330
1F
100
AcDbEntity
  8
0
  6
Continuous
 62
     7
370
    25
100
AcDbLine
 10
221.4327570268
 20
83.280352019
 30
0.0
 11
221.4327570268
 21
92.4382523053
 31
0.0
  0
LINE
  5
176
330
1F
100
AcDbEntity
  8
0
  6
Continuous
 62
     7
370
    25
100
AcDbLine
 10
221.4327570268
 20
92.4382523053
 30
0.0
 11
223.1707237758
 21
92.4382523053
 31
0.0
  0
LINE
  5
177
330
1F
100
AcDbEntity
  8
0
  6
Continuous
 62
     7
370
    25
100
AcDbLine
 10
223.1707237758
 20
92.4382523053
 30
0.0
 11
223.1707237758
 21
83.280352019
 31
0.0
  0
SPLINE
  5
178
330
1F
100
AcDbEntity
  8
0
  6
Continuous
 62
     7
370
    25
100
AcDbSpline
210
0.0
220
0.0
230
1.0
 70
     8
 71
     3
 72
    12
 73
     8
 74
     0
 42
0.00000001
 43
0.00000001
 40
0.0
 40
0.0
 40
0.0
 40
0.0
 40
0.139683458618249
 40
0.3831896274038307
 40
0.55131692930133
 40
0.8194729461607051
 40
0.9999999999999999
 40
0.9999999999999999
 40
0.9999999999999999
 40
0.9999999999999999
 10
223.1707237757888
 20
83.28035201898298
 30
0.0
 10
223.2204386962672
 20
83.29366439264393
 30
0.0
 10
223.3568202123251
 20
83.33018384565189
 30
0.0
 10
223.5367363215372
 20
83.36785590624326
 30
0.0
 10
223.7150777499221
 20
83.39222322700476
 30
0.0
 10
223.8355979744736
 20
83.39110619224081
 30
0.0
 10
223.8597439877804
 20
83.34972290386325
 30
0.0
 10
223.8694591050401
 20
83.33307239124784
 30
0.0
  0
ARC
  5
179
330
1F
100
AcDbEntity
  8
0
  6
Continuous
 62
     7
370
    25
100
AcDbCircle
 10
223.3712049244
 20
83.3182194055
 30
0.0
 40
0.498475515683783
100
AcDbArc
 50
333.4921832491
 51
1.7074848132
  0
SPLINE
  5
17A
330
1F
100
AcDbEntity
  8
0
  6
Continuous
 62
     7
370
    25
100
AcDbSpline
210
0.0
220
0.0
230
1.0
 70
     8
 71
     3
 72
    12
 73
     8
 74
     0
 42
0.00000001
 43
0.00000001
 40
0.0
 40
0.0
 40
0.0
 40
0.0
 40
0.0715202026166142
 40
0.1260836237049476
 40
0.3855387013103047
 40
0.8475626424815554
 40
1.0
 40
1.0
 40
1.0
 40
1.0
 10
223.817277443479
 20
83.09573986169272
 30
0.0
 10
223.8153413977738
 20
83.0926312138279
 30
0.0
 10
223.8119283249743
 20
83.08715094988457
 30
0.0
 10
223.789745874469
 20
83.04756240446414
 30
0.0
 10
223.7267323997027
 20
82.94112827148189
 30
0.0
 10
223.6296860742307
 20
82.81062125577363
 30
0.0
 10
223.5436913810125
 20
82.72311154181031
 30
0.0
 10
223.5223575658109
 20
82.70140187582774
 30
0.0
  0
SPLINE
  5
17B
330
1F
100
AcDbEntity
  8
0
  6
Continuous
 62
     7
370
    25
100
AcDbSpline
210
0.0
220
0.0
230
1.0
 70
     8
 71
     3
 72
    11
 73
     7
 74
     0
 42
0.00000001
 43
0.00000001
 40
0.0
 40
0.0
 40
0.0
 40
0.0
 40
0.2499999999999989
 40
0.4999999999999977
 40
0.7499999999999992
 40
1.0
 40
1.0
 40
1.0
 40
1.0
 10
223.8694591050401
 20
92.14401203965696
 30
0.0
 10
223.8544597998735
 20
92.18312959382308
 30
0.0
 10
223.8244611895404
 20
92.26136470215535
 30
0.0
 10
223.6609414867437
 20
92.35802777786358
 30
0.0
 10
223.4353618726614
 20
92.42521599400308
 30
0.0
 10
223.2589364747463
 20
92.43390686819666
 30
0.0
 10
223.1707237757888
 20
92.43825230529347
 30
0.0
  0
LINE
  5
17C
330
1F
100
AcDbEntity
  8
0
  6
Continuous
 62
     7
370
    25
100
AcDbLine
 10
223.869459105
 20
83.3330723912
 30
0.0
 11
223.869459105
 21
92.1440120397
 31
0.0
  0
SPLINE
  5
17D
330
1F
100
AcDbEntity
  8
0
  6
Continuous
 62
     7
370
    25
100
AcDbSpline
210
0.0
220
0.0
230
1.0
 70
     8
 71
     3
 72
    13
 73
     9
 74
     0
 42
0.00000001
 43
0.00000001
 40
0.0
 40
0.0
 40
0.0
 40
0.0
 40
0.1143463544469914
 40
0.2890454840074685
 40
0.5294852105593209
 40
0.7014879056604271
 40
0.9335094878266192
 40
1.0
 40
1.0
 40
1.0
 40
1.0
 10
220.7340216975001
 20
83.33307239124784
 30
0.0
 10
220.7388562890052
 20
83.34445922300581
 30
0.0
 10
220.7510772019352
 20
83.37324293292569
 30
0.0
 10
220.8237252969762
 20
83.39349311037455
 30
0.0
 10
220.9542375633831
 20
83.38563578362894
 30
0.0
 10
221.1411051625526
 20
83.35310836730099
 30
0.0
 10
221.3024785673093
 20
83.31598701234908
 30
0.0
 10
221.4090249181612
 20
83.28684344923013
 30
0.0
 10
221.4327570267514
 20
83.28035201898298
 30
0.0
  0
SPLINE
  5
17E
330
1F
100
AcDbEntity
  8
0
  6
Continuous
 62
     7
370
    25
100
AcDbSpline
210
0.0
220
0.0
230
1.0
 70
     8
 71
     3
 72
    11
 73
     7
 74
     0
 42
0.00000001
 43
0.00000001
 40
0.0
 40
0.0
 40
0.0
 40
0.0
 40
0.3325271082490199
 40
0.7778992719027311
 40
0.9254453528959206
 40
1.0
 40
1.0
 40
1.0
 40
1.0
 10
221.0811232367293
 20
82.70140187582776
 30
0.0
 10
221.035892413583
 20
82.74933842395593
 30
0.0
 10
220.9300814179674
 20
82.861479073429
 30
0.0
 10
220.8423214434898
 20
82.9968392914462
 30
0.0
 10
220.794708551552
 20
83.08183992522467
 30
0.0
 10
220.7883408616238
 20
83.0922465662908
 30
0.0
 10
220.7862033590612
 20
83.09573986169272
 30
0.0
  0
ARC
  5
17F
330
1F
100
AcDbEntity
  8
0
  6
Continuous
 62
     7
370
    25
100
AcDbCircle
 10
221.2322758782
 20
83.3182194055
 30
0.0
 40
0.4984755156843191
100
AcDbArc
 50
178.2925151868
 51
206.5078167509
  0
SPLINE
  5
180
330
1F
100
AcDbEntity
  8
0
  6
Continuous
 62
     7
370
    25
100
AcDbSpline
210
0.0
220
0.0
230
1.0
 70
     8
 71
     3
 72
    11
 73
     7
 74
     0
 42
0.00000001
 43
0.00000001
 40
0.0
 40
0.0
 40
0.0
 40
0.0
 40
0.2499999999999988
 40
0.5000000000000019
 40
0.7499999999999991
 40
1.0
 40
1.0
 40
1.0
 40
1.0
 10
220.7340216975001
 20
92.14401203965694
 30
0.0
 10
220.7490210026666
 20
92.18312959382308
 30
0.0
 10
220.7790196129998
 20
92.26136470215533
 30
0.0
 10
220.9425393157964
 20
92.35802777786358
 30
0.0
 10
221.1681189298788
 20
92.42521599400305
 30
0.0
 10
221.3445443277939
 20
92.43390686819666
 30
0.0
 10
221.4327570267514
 20
92.43825230529346
 30
0.0
  0
LINE
  5
181
330
1F
100
AcDbEntity
  8
0
  6
Continuous
 62
     7
370
    25
100
AcDbLine
 10
220.7340216975
 20
92.1440120397
 30
0.0
 11
220.7340216975
 21
83.3330723912
 31
0.0
  0
LINE
  5
182
330
1F
100
AcDbEntity
  8
0
  6
Continuous
 62
     7
370
    25
100
AcDbLine
 10
221.4481346098
 20
82.267431912
 30
0.0
 11
222.1402948069
 21
82.267431912
 31
0.0
  0
SPLINE
  5
183
330
1F
100
AcDbEntity
  8
0
  6
Continuous
 62
     7
370
    25
100
AcDbSpline
210
0.0
220
0.0
230
1.0
 70
     8
 71
     3
 72
    11
 73
     7
 74
     0
 42
0.00000001
 43
0.00000001
 40
0.0
 40
0.0
 40
0.0
 40
0.0
 40
0.2500000000000013
 40
0.5000000000000004
 40
0.7500000000000003
 40
1.0
 40
1.0
 40
1.0
 40
1.0
 10
219.949162458773
 20
83.80669733450533
 30
0.0
 10
219.967238769191
 20
83.60632172812923
 30
0.0
 10
220.0033913900271
 20
83.20557051537708
 30
0.0
 10
220.3480171642276
 20
82.69537757733511
 30
0.0
 10
220.8488392503477
 20
82.33739650896844
 30
0.0
 10
221.2483694900085
 20
82.29075344435182
 30
0.0
 10
221.4481346098389
 20
82.26743191204352
 30
0.0
  0
LINE
  5
184
330
1F
100
AcDbEntity
  8
0
  6
Continuous
 62
     7
370
    25
100
AcDbLine
 10
220.5154997389
 20
83.8066973345
 30
0.0
 11
219.9491624588
 21
83.8066973345
 31
0.0
  0
SPLINE
  5
185
330
1F
100
AcDbEntity
  8
0
  6
Continuous
 62
     7
370
    25
100
AcDbSpline
210
0.0
220
0.0
230
1.0
 70
     8
 71
     3
 72
     9
 73
     5
 74
     0
 42
0.00000001
 43
0.00000001
 40
0.0
 40
0.0
 40
0.0
 40
0.0
 40
0.540774756067758
 40
1.0
 40
1.0
 40
1.0
 40
1.0
 10
220.5154997388535
 20
83.80669733450536
 30
0.0
 10
220.5154702384406
 20
83.79536338070464
 30
0.0
 10
220.5154156863142
 20
83.77440464756572
 30
0.0
 10
220.5160199314491
 20
83.75343845469777
 30
0.0
 10
220.5162974160686
 20
83.74381024966364
 30
0.0
  0
ELLIPSE
  5
186
330
1F
100
AcDbEntity
  8
0
  6
Continuous
 62
     7
370
    25
100
AcDbEllipse
 10
222.0144718899
 20
83.767431912
 30
0.0
 11
-0.399986139932679
 21
1.44582663936005
 31
0.0
210
0.0
220
0.0
230
1.0
 40
0.9987379186
 41
1.314426961368748
 42
1.316970714136495
  0
ELLIPSE
  5
187
330
1F
100
AcDbEntity
  8
0
  6
Continuous
 62
     7
370
    25
100
AcDbEllipse
 10
222.9631647896
 20
83.767431912
 30
0.0
 11
2.447559743736974
 21
-0.02501587584980314
 31
0.0
210
0.0
220
0.0
230
1.0
 40
0.6127700831
 41
3.171475350442063
 42
3.622568086779201
  0
LINE
  5
188
330
1F
100
AcDbEntity
  8
0
  6
Continuous
 62
     7
370
    25
100
AcDbLine
 10
224.0879810637
 20
83.8066973345
 30
0.0
 11
224.0871833865
 21
83.7438102496
 31
0.0
  0
LINE
  5
189
330
1F
100
AcDbEntity
  8
0
  6
Continuous
 62
     7
370
    25
100
AcDbLine
 10
224.6543183438
 20
83.8066973345
 30
0.0
 11
224.0879810637
 21
83.8066973345
 31
0.0
  0
SPLINE
  5
18A
330
1F
100
AcDbEntity
  8
0
  6
Continuous
 62
     7
370
    25
100
AcDbSpline
210
0.0
220
0.0
230
1.0
 70
     8
 71
     3
 72
    11
 73
     7
 74
     0
 42
0.00000001
 43
0.00000001
 40
0.0
 40
0.0
 40
0.0
 40
0.0
 40
0.2500000000000001
 40
0.4999999999999997
 40
0.75
 40
1.0
 40
1.0
 40
1.0
 40
1.0
 10
223.1553461927013
 20
82.26743191204352
 30
0.0
 10
223.3551113125317
 20
82.29075344435182
 30
0.0
 10
223.7546415521924
 20
82.33739650896842
 30
0.0
 10
224.2554636383126
 20
82.69537757733514
 30
0.0
 10
224.6000894125131
 20
83.20557051537706
 30
0.0
 10
224.6362420333491
 20
83.60632172812925
 30
0.0
 10
224.6543183437672
 20
83.80669733450533
 30
0.0
  0
LINE
  5
18B
330
1F
100
AcDbEntity
  8
0
  6
Continuous
 62
     7
370
    25
100
AcDbLine
 10
222.4631859956
 20
82.267431912
 30
0.0
 11
223.1553461927
 21
82.267431912
 31
0.0
  0
ELLIPSE
  5
18C
330
1F
100
AcDbEntity
  8
0
  6
Continuous
 62
     7
370
    25
100
AcDbEllipse
 10
221.6403160129
 20
83.767431912
 30
0.0
 11
2.447559743736974
 21
0.02501587584977472
 31
0.0
210
0.0
220
0.0
230
1.0
 40
0.6127700831
 41
5.802209873990229
 42
6.253302610327363
  0
ELLIPSE
  5
18D
330
1F
100
AcDbEntity
  8
0
  6
Continuous
 62
     7
370
    25
100
AcDbEllipse
 10
222.5890089126
 20
83.767431912
 30
0.0
 11
0.3999861399325652
 21
1.445826639360078
 31
0.0
210
0.0
220
0.0
230
0.9999999999999998
 40
0.9987379186
 41
4.966214593033926
 42
4.968758345810755
  0
ELLIPSE
  5
18E
330
1F
100
AcDbEntity
  8
0
  6
Continuous
 62
     7
370
    25
100
AcDbEllipse
 10
220.6858675395
 20
91.7862411633
 30
0.0
 11
0.02159772760037981
 21
0.7999991561933086
 31
0.0
210
0.0
220
0.0
230
1.0
 40
0.0537988877
 41
5.177489007048621
 42
5.369012849440431
  0
ELLIPSE
  5
18F
330
1F
100
AcDbEntity
  8
0
  6
Continuous
 62
     7
370
    25
100
AcDbEllipse
 10
222.4640681259
 20
83.7808670915
 30
0.0
 11
1.947791790405574
 21
-0.0177698114313074
 31
0.0
210
0.0
220
0.0
230
1.0
 40
0.513320833
 41
3.160788584408924
 42
3.623660809788565
  0
LINE
  5
190
330
1F
100
AcDbEntity
  8
0
  6
Continuous
 62
     7
370
    25
100
AcDbLine
 10
220.5164601021
 20
83.7794419079
 30
0.0
 11
220.7331412134
 21
92.2736773261
 31
0.0
  0
ELLIPSE
  5
191
330
1F
100
AcDbEntity
  8
0
  6
Continuous
 62
     7
370
    25
100
AcDbEllipse
 10
223.9176132631
 20
91.7862411633
 30
0.0
 11
-0.02159772760037981
 21
0.7999991561933086
 31
0.0
210
0.0
220
0.0
230
1.0
 40
0.0537988877
 41
0.9141724577391728
 42
1.105696300131266
  0
LINE
  5
192
330
1F
100
AcDbEntity
  8
0
  6
Continuous
 62
     7
370
    25
100
AcDbLine
 10
223.8703395892
 20
92.2736773261
 30
0.0
 11
224.0870207004
 21
83.7794419079
 31
0.0
  0
ELLIPSE
  5
193
330
1F
100
AcDbEntity
  8
0
  6
Continuous
 62
     7
370
    25
100
AcDbEllipse
 10
222.1394126767
 20
83.7808670915
 30
0.0
 11
1.947791790405546
 21
0.01776981143129319
 31
0.0
210
0.0
220
0.0
230
1.0
 40
0.513320833
 41
5.80111715098087
 42
6.263989376373015
  0
LINE
  5
194
330
1F
100
AcDbEntity
  8
0
  6
Continuous
 62
     7
370
    25
100
AcDbLine
 10
220.516239767
 20
83.747625478
 30
0.0
 11
220.5164601021
 21
83.7794419079
 31
0.0
  0
SPLINE
  5
195
330
1F
100
AcDbEntity
  8
0
  6
Continuous
 62
     7
370
    25
100
AcDbSpline
210
0.0
220
0.0
230
1.0
 70
     8
 71
     3
 72
     9
 73
     5
 74
     0
 42
0.00000001
 43
0.00000001
 40
0.0
 40
0.0
 40
0.0
 40
0.0
 40
0.8673350121728702
 40
1.0
 40
1.0
 40
1.0
 40
1.0
 10
224.0870207003955
 20
83.77944190790608
 30
0.0
 10
224.0871914325827
 20
83.77024348453088
 30
0.0
 10
224.0873882794583
 20
83.75963809763184
 30
0.0
 10
224.0872582816931
 20
83.74903247303043
 30
0.0
 10
224.0872410355411
 20
83.74762547797177
 30
0.0
  0
ELLIPSE
  5
196
330
1F
100
AcDbEntity
  8
0
  6
Continuous
 62
     7
370
    25
100
AcDbEllipse
 10
221.4021920308
 20
91.767431912
 30
0.0
 11
0.0209600052571659
 21
1.499999971448744
 31
0.0
210
0.0
220
0.0
230
1.0
 40
0.013963099
 41
5.413231207420211
 42
6.283380418268021
  0
LINE
  5
197
330
1F
100
AcDbEntity
  8
0
  6
Continuous
 62
     7
370
    25
100
AcDbLine
 10
223.1803328534
 20
93.267431912
 30
0.0
 11
221.4231479491
 21
93.267431912
 31
0.0
  0
ELLIPSE
  5
198
330
1F
100
AcDbEntity
  8
0
  6
Continuous
 62
     7
370
    25
100
AcDbEllipse
 10
223.2012887717
 20
91.767431912
 30
0.0
 11
-0.0209600052571659
 21
1.499999971448744
 31
0.0
210
0.0
220
0.0
230
1.0
 40
0.013963099
 41
6.282990196092133
 42
7.153139406940038
  0
SPLINE
  5
199
330
1F
100
AcDbEntity
  8
0
  6
Continuous
 62
     7
370
    25
100
AcDbSpline
210
0.0
220
0.0
230
1.0
 70
     8
 71
     3
 72
     9
 73
     5
 74
     0
 42
0.00000001
 43
0.00000001
 40
0.0
 40
0.0
 40
0.0
 40
0.0
 40
0.5600029565045049
 40
1.0
 40
1.0
 40
1.0
 40
1.0
 10
223.171764487894
 20
92.73450065288411
 30
0.0
 10
223.1717701259603
 20
92.72471419072414
 30
0.0
 10
223.1717801938825
 20
92.70723845770117
 30
0.0
 10
223.1716580172791
 20
92.68927749003537
 30
0.0
 10
223.1716042599348
 20
92.68137471736411
 30
0.0
  0
ELLIPSE
  5
19A
330
1F
100
AcDbEntity
  8
0
  6
Continuous
 62
     7
370
    25
100
AcDbEllipse
 10
223.2188779338
 20
91.767431912
 30
0.0
 11
-0.02155295842285909
 21
1.499999872388898
 31
0.0
210
0.0
220
0.0
230
0.9999999999999998
 40
0.0287076702
 41
0.9152123852431806
 42
1.106736227634701
  0
ELLIPSE
  5
19B
330
1F
100
AcDbEntity
  8
0
  6
Continuous
 62
     7
370
    25
100
AcDbEllipse
 10
221.3846028687
 20
91.767431912
 30
0.0
 11
0.02155295842283067
 21
1.499999872388898
 31
0.0
210
0.0
220
0.0
230
1.0
 40
0.0287076702
 41
5.176449079544881
 42
5.367972921936408
  0
SPLINE
  5
19C
330
1F
100
AcDbEntity
  8
0
  6
Continuous
 62
     7
370
    25
100
AcDbSpline
210
0.0
220
0.0
230
1.0
 70
     8
 71
     3
 72
     9
 73
     5
 74
     0
 42
0.00000001
 43
0.00000001
 40
0.0
 40
0.0
 40
0.0
 40
0.0
 40
0.5599925069634957
 40
0.9999999999999999
 40
0.9999999999999999
 40
0.9999999999999999
 40
0.9999999999999999
 10
221.4318765426054
 20
92.6813747173641
 30
0.0
 10
221.431810797454
 20
92.69142231166697
 30
0.0
 10
221.431693393827
 20
92.7093646844272
 30
0.0
 10
221.4317093109797
 20
92.72682012724847
 30
0.0
 10
221.4317163146461
 20
92.73450065288411
 30
0.0
  0
SPLINE
  5
19D
330
1F
100
AcDbEntity
  8
0
  6
Continuous
 62
     7
370
    25
100
AcDbSpline
210
0.0
220
0.0
230
1.0
 70
     8
 71
     3
 72
    12
 73
     8
 74
     0
 42
0.00000001
 43
0.00000001
 40
0.0
 40
0.0
 40
0.0
 40
0.0
 40
0.2225634137434412
 40
0.446206317369527
 40
0.6680851268156953
 40
0.8917990985568368
 40
1.0
 40
1.0
 40
1.0
 40
1.0
 10
220.7331412133541
 20
92.27367732609463
 30
0.0
 10
220.7454943209208
 20
92.32126326940096
 30
0.0
 10
220.7702604518079
 20
92.41666596009543
 30
0.0
 10
220.9028443798057
 20
92.54088469266836
 30
0.0
 10
221.0892017833003
 20
92.63277449377284
 30
0.0
 10
221.2772925946536
 20
92.6752300727829
 30
0.0
 10
221.393872627542
 20
92.67986407829807
 30
0.0
 10
221.4318765426054
 20
92.6813747173641
 30
0.0
  0
SPLINE
  5
19E
330
1F
100
AcDbEntity
  8
0
  6
Continuous
 62
     7
370
    25
100
AcDbSpline
210
0.0
220
0.0
230
1.0
 70
     8
 71
     3
 72
    12
 73
     8
 74
     0
 42
0.00000001
 43
0.00000001
 40
0.0
 40
0.0
 40
0.0
 40
0.0
 40
0.2225634137435263
 40
0.4462063173695687
 40
0.6680851268158023
 40
0.8917990985569296
 40
1.0
 40
1.0
 40
1.0
 40
1.0
 10
223.1716042599348
 20
92.68137471736411
 30
0.0
 10
223.2501079199774
 20
92.6759476447504
 30
0.0
 10
223.407496003034
 20
92.66506717682294
 30
0.0
 10
223.6168475406614
 20
92.58977374580265
 30
0.0
 10
223.7756068351314
 20
92.48029520104933
 30
0.0
 10
223.8534557054481
 20
92.36758056050283
 30
0.0
 10
223.8661887462815
 20
92.29676310305865
 30
0.0
 10
223.8703395891861
 20
92.27367732609463
 30
0.0
  0
SPLINE
  5
19F
330
1F
100
AcDbEntity
  8
0
  6
Continuous
 62
     7
370
    25
100
AcDbSpline
210
0.0
220
0.0
230
1.0
 70
     8
 71
     3
 72
    12
 73
     8
 74
     0
 42
0.00000001
 43
0.00000001
 40
0.0
 40
0.0
 40
0.0
 40
0.0
 40
0.2198609600791264
 40
0.4397396970008128
 40
0.6583291451397731
 40
0.8791239516843589
 40
1.0
 40
1.0
 40
1.0
 40
1.0
 10
223.8712848250581
 20
92.30152577097401
 30
0.0
 10
223.860612830414
 20
92.35201398710191
 30
0.0
 10
223.8392679782424
 20
92.45299450157886
 30
0.0
 10
223.7111495829755
 20
92.5846574945289
 30
0.0
 10
223.5282116469104
 20
92.68221881730196
 30
0.0
 10
223.3366624750232
 20
92.72887820877868
 30
0.0
 10
223.2148568033382
 20
92.73303135578003
 30
0.0
 10
223.171764487894
 20
92.73450065288411
 30
0.0
  0
SPLINE
  5
1A0
330
1F
100
AcDbEntity
  8
0
  6
Continuous
 62
     7
370
    25
100
AcDbSpline
210
0.0
220
0.0
230
1.0
 70
     8
 71
     3
 72
    12
 73
     8
 74
     0
 42
0.00000001
 43
0.00000001
 40
0.0
 40
0.0
 40
0.0
 40
0.0
 40
0.2198610998683205
 40
0.4397399767664977
 40
0.6583294271823363
 40
0.8791242261983233
 40
1.0
 40
1.0
 40
1.0
 40
1.0
 10
221.4317163146461
 20
92.73450065288411
 30
0.0
 10
221.353025404927
 20
92.72967685953448
 30
0.0
 10
221.1956372228777
 20
92.72002888280392
 30
0.0
 10
220.9863554743927
 20
92.64285474514219
 30
0.0
 10
220.8277061537283
 20
92.52898723593
 30
0.0
 10
220.7476060910131
 20
92.40750666642639
 30
0.0
 10
220.7362230537114
 20
92.3292214231819
 30
0.0
 10
220.732195977482
 20
92.30152577097401
 30
0.0
  0
LINE
  5
1A1
330
1F
100
AcDbEntity
  8
0
  6
Continuous
 62
     7
370
    25
100
AcDbLine
 10
223.3078225109
 20
93.2424975337
 30
0.0
 11
223.1803328534
 21
93.267431912
 31
0.0
  0
ELLIPSE
  5
1A2
330
1F
100
AcDbEntity
  8
0
  6
Continuous
 62
     7
370
    25
100
AcDbEllipse
 10
223.9008091089
 20
91.7857557759
 30
0.0
 11
-0.02097028290367575
 21
0.7999998117962832
 31
0.0
210
0.0
220
0.0
230
1.0
 40
0.0261679535
 41
6.282499370390492
 42
7.152648581237709
  0
ELLIPSE
  5
1A3
330
1F
100
AcDbEntity
  8
0
  6
Continuous
 62
     7
370
    25
100
AcDbEllipse
 10
220.7026716936
 20
91.7857557759
 30
0.0
 11
0.02097028290364733
 21
0.7999998117962832
 31
0.0
210
0.0
220
0.0
230
0.9999999999999999
 40
0.0261679535
 41
5.413722033122003
 42
6.283871243969204
  0
SPLINE
  5
1A4
330
1F
100
AcDbEntity
  8
0
  6
Continuous
 62
     7
370
    25
100
AcDbSpline
210
0.0
220
0.0
230
1.0
 70
     8
 71
     3
 72
    11
 73
     7
 74
     0
 42
0.00000001
 43
0.00000001
 40
0.0
 40
0.0
 40
0.0
 40
0.0
 40
0.2500000000000026
 40
0.5000000000000006
 40
0.7499999999999989
 40
1.0
 40
1.0
 40
1.0
 40
1.0
 10
220.7236276119566
 20
92.58575577585904
 30
0.0
 10
220.7361481281792
 20
92.67565482298603
 30
0.0
 10
220.7611891606244
 20
92.85545291724009
 30
0.0
 10
220.9238326302469
 20
93.080169126475
 30
0.0
 10
221.1526523663014
 20
93.23693021150451
 30
0.0
 10
221.3329827548476
 20
93.25726467853052
 30
0.0
 10
221.4231479491207
 20
93.26743191204352
 30
0.0
  0
LINE
  5
1A5
330
1F
100
AcDbEntity
  8
0
  6
Continuous
 62
     7
370
    25
100
AcDbLine
 10
224.086326542
 20
83.8066539945
 30
0.0
 11
224.0879810637
 21
83.8066973345
 31
0.0
  0
LINE
  5
1A6
330
1F
100
AcDbEntity
  8
0
  6
Continuous
 62
     7
370
    25
100
AcDbLine
 10
220.5171542606
 20
83.8066539945
 30
0.0
 11
220.5154997389
 21
83.8066973345
 31
0.0
  0
SPLINE
  5
1A7
330
1F
100
AcDbEntity
  8
0
  6
Continuous
 62
     7
370
    25
100
AcDbSpline
210
0.0
220
0.0
230
1.0
 70
     8
 71
     3
 72
     9
 73
     5
 74
     0
 42
0.00000001
 43
0.00000001
 40
0.0
 40
0.0
 40
0.0
 40
0.0
 40
0.5600012771711208
 40
0.9999999999999999
 40
0.9999999999999999
 40
0.9999999999999999
 40
0.9999999999999999
 10
219.949162458773
 20
83.80669733450533
 30
0.0
 10
219.960996871118
 20
84.7357469739335
 30
0.0
 10
219.9821297021088
 20
86.39476040354802
 30
0.0
 10
220.0030904315212
 20
88.05153963871462
 30
0.0
 10
220.0123131256923
 20
88.78052038619732
 30
0.0
  0
SPLINE
  5
1A8
330
1F
100
AcDbEntity
  8
0
  6
Continuous
 62
     7
370
    25
100
AcDbSpline
210
0.0
220
0.0
230
1.0
 70
     8
 71
     3
 72
     9
 73
     5
 74
     0
 42
0.00000001
 43
0.00000001
 40
0.0
 40
0.0
 40
0.0
 40
0.0
 40
0.5599999095970982
 40
1.0
 40
1.0
 40
1.0
 40
1.0
 10
220.0123131256923
 20
88.78052038619732
 30
0.0
 10
220.0146105355895
 20
88.96232210094615
 30
0.0
 10
220.0187130539254
 20
89.28696807254927
 30
0.0
 10
220.0228094471184
 20
89.61153427810376
 30
0.0
 10
220.0246118604937
 20
89.75434343788946
 30
0.0
  0
LINE
  5
1A9
330
1F
100
AcDbEntity
  8
0
  6
Continuous
 62
     7
370
    25
100
AcDbLine
 10
220.0246118605
 20
89.7543434379
 30
0.0
 11
219.6962837312
 21
89.7543434379
 31
0.0
  0
LINE
  5
1AA
330
1F
100
AcDbEntity
  8
0
  6
Continuous
 62
     7
370
    25
100
AcDbLine
 10
219.6962837312
 20
89.7543434379
 30
0.0
 11
219.8260596443
 21
92.5857557759
 31
0.0
  0
LINE
  5
1AB
330
1F
100
AcDbEntity
  8
0
  6
Continuous
 62
     7
370
    25
100
AcDbLine
 10
219.8260596443
 20
92.5857557759
 30
0.0
 11
220.723627612
 21
92.5857557759
 31
0.0
  0
LINE
  5
1AC
330
1F
100
AcDbEntity
  8
0
  6
Continuous
 62
     7
370
    25
100
AcDbLine
 10
220.7321959775
 20
92.301525771
 30
0.0
 11
220.5154997389
 21
83.8066973345
 31
0.0
  0
LINE
  5
1AD
330
1F
100
AcDbEntity
  8
0
  6
Continuous
 62
     7
370
    25
100
AcDbLine
 10
224.9071970714
 20
89.7543434379
 30
0.0
 11
224.578868942
 21
89.7543434379
 31
0.0
  0
SPLINE
  5
1AE
330
1F
100
AcDbEntity
  8
0
  6
Continuous
 62
     7
370
    25
100
AcDbSpline
210
0.0
220
0.0
230
1.0
 70
     8
 71
     3
 72
     9
 73
     5
 74
     0
 42
0.00000001
 43
0.00000001
 40
0.0
 40
0.0
 40
0.0
 40
0.0
 40
0.5600000882143262
 40
1.0
 40
1.0
 40
1.0
 40
1.0
 10
224.5788689420465
 20
89.75434343788946
 30
0.0
 10
224.5811630581875
 20
89.57258456705766
 30
0.0
 10
224.5852596935084
 20
89.24801520598602
 30
0.0
 10
224.5893624599677
 20
88.92336600568922
 30
0.0
 10
224.5911676768479
 20
88.78052038619732
 30
0.0
  0
SPLINE
  5
1AF
330
1F
100
AcDbEntity
  8
0
  6
Continuous
 62
     7
370
    25
100
AcDbSpline
210
0.0
220
0.0
230
1.0
 70
     8
 71
     3
 72
     9
 73
     5
 74
     0
 42
0.00000001
 43
0.00000001
 40
0.0
 40
0.0
 40
0.0
 40
0.0
 40
0.5599987526606142
 40
1.0
 40
1.0
 40
1.0
 40
1.0
 10
224.5911676768479
 20
88.78052038619732
 30
0.0
 10
224.6029092633703
 20
87.85267908634802
 30
0.0
 10
224.6238764288623
 20
86.19581593184803
 30
0.0
 10
224.6450166292344
 20
84.53670723193757
 30
0.0
 10
224.6543183437672
 20
83.80669733450534
 30
0.0
  0
LINE
  5
1B0
330
1F
100
AcDbEntity
  8
0
  6
Continuous
 62
     7
370
    25
100
AcDbLine
 10
224.0879810637
 20
83.8066973345
 30
0.0
 11
223.8712848251
 21
92.301525771
 31
0.0
  0
LINE
  5
1B1
330
1F
100
AcDbEntity
  8
0
  6
Continuous
 62
     7
370
    25
100
AcDbLine
 10
223.8798531906
 20
92.5857557759
 30
0.0
 11
224.7774211582
 21
92.5857557759
 31
0.0
  0
LINE
  5
1B2
330
1F
100
AcDbEntity
  8
0
  6
Continuous
 62
     7
370
    25
100
AcDbLine
 10
224.7774211582
 20
92.5857557759
 30
0.0
 11
224.9071970714
 21
89.7543434379
 31
0.0
  0
LINE
  5
1B3
330
1F
100
AcDbEntity
  8
0
  6
Continuous
 62
     7
370
    25
100
AcDbLine
 10
221.4231479491
 20
93.267431912
 30
0.0
 11
220.5255799815
 21
93.267431912
 31
0.0
  0
SPLINE
  5
1B4
330
1F
100
AcDbEntity
  8
0
  6
Continuous
 62
     7
370
    25
100
AcDbSpline
210
0.0
220
0.0
230
1.0
 70
     8
 71
     3
 72
    11
 73
     7
 74
     0
 42
0.00000001
 43
0.00000001
 40
0.0
 40
0.0
 40
0.0
 40
0.0
 40
0.2499999999999985
 40
0.4999999999999984
 40
0.7499999999999983
 40
1.0
 40
1.0
 40
1.0
 40
1.0
 10
219.8260596443375
 20
92.58575577585904
 30
0.0
 10
219.83858016056
 20
92.67565482298606
 30
0.0
 10
219.8636211930052
 20
92.85545291724007
 30
0.0
 10
220.0262646626278
 20
93.08016912647501
 30
0.0
 10
220.2550843986822
 20
93.2369302115045
 30
0.0
 10
220.4354147872284
 20
93.25726467853052
 30
0.0
 10
220.5255799815016
 20
93.26743191204352
 30
0.0
  0
LINE
  5
1B5
330
1F
100
AcDbEntity
  8
0
  6
Continuous
 62
     7
370
    25
100
AcDbLine
 10
224.077900821
 20
93.267431912
 30
0.0
 11
223.1803328534
 21
93.267431912
 31
0.0
  0
SPLINE
  5
1B6
330
1F
100
AcDbEntity
  8
0
  6
Continuous
 62
     7
370
    25
100
AcDbSpline
210
0.0
220
0.0
230
1.0
 70
     8
 71
     3
 72
    11
 73
     7
 74
     0
 42
0.00000001
 43
0.00000001
 40
0.0
 40
0.0
 40
0.0
 40
0.0
 40
0.2500000000000006
 40
0.4999999999999992
 40
0.7499999999999969
 40
1.0
 40
1.0
 40
1.0
 40
1.0
 10
224.0779008210386
 20
93.26743191204352
 30
0.0
 10
224.1680660153117
 20
93.25726467853052
 30
0.0
 10
224.3483964038579
 20
93.2369302115045
 30
0.0
 10
224.5772161399124
 20
93.08016912647504
 30
0.0
 10
224.739859609535
 20
92.85545291724006
 30
0.0
 10
224.7649006419801
 20
92.67565482298603
 30
0.0
 10
224.7774211582027
 20
92.58575577585904
 30
0.0
  0
LINE
  5
1B7
330
1F
100
AcDbEntity
  8
0
  6
Continuous
 62
     7
370
    25
100
AcDbLine
 10
219.4367919891
 20
89.267431912
 30
0.0
 11
219.2026968553
 21
89.267431912
 31
0.0
  0
SPLINE
  5
1B8
330
1F
100
AcDbEntity
  8
0
  6
Continuous
 62
     7
370
    25
100
AcDbSpline
210
0.0
220
0.0
230
1.0
 70
     8
 71
     3
 72
    10
 73
     6
 74
     0
 42
0.00000001
 43
0.00000001
 40
0.0
 40
0.0
 40
0.0
 40
0.0
 40
0.2383396858856107
 40
0.571650633368965
 40
1.0
 40
1.0
 40
1.0
 40
1.0
 10
219.4432179592153
 20
89.26743191204342
 30
0.0
 10
219.5178161616423
 20
89.27639065496307
 30
0.0
 10
219.6967377269161
 20
89.29787793285878
 30
0.0
 10
219.9330818391711
 20
89.4715403158119
 30
0.0
 10
219.9916652153566
 20
89.65254717506649
 30
0.0
 10
220.0246118604937
 20
89.75434343788966
 30
0.0
  0
SPLINE
  5
1B9
330
1F
100
AcDbEntity
  8
0
  6
Continuous
 62
     7
370
    25
100
AcDbSpline
210
0.0
220
0.0
230
1.0
 70
     8
 71
     3
 72
    11
 73
     7
 74
     0
 42
0.00000001
 43
0.00000001
 40
0.0
 40
0.0
 40
0.0
 40
0.0
 40
0.2506671725023491
 40
0.5010414677145718
 40
0.7508849997170934
 40
1.0
 40
1.0
 40
1.0
 40
1.0
 10
219.949162458773
 20
83.80669733450533
 30
0.0
 10
219.9222878921178
 20
83.83620335450453
 30
0.0
 10
219.8685701588116
 20
83.89518091993212
 30
0.0
 10
219.5831046951577
 20
83.98191418874383
 30
0.0
 10
219.1615765485381
 20
84.06623521897033
 30
0.0
 10
218.7452194708411
 20
84.1188182115849
 30
0.0
 10
218.5373448944646
 20
84.14507131955374
 30
0.0
  0
SPLINE
  5
1BA
330
1F
100
AcDbEntity
  8
0
  6
Continuous
 62
     7
370
    25
100
AcDbSpline
210
0.0
220
0.0
230
1.0
 70
     8
 71
     3
 72
     9
 73
     5
 74
     0
 42
0.00000001
 43
0.00000001
 40
0.0
 40
0.0
 40
0.0
 40
0.0
 40
0.501325902198991
 40
1.0
 40
1.0
 40
1.0
 40
1.0
 10
218.5373448411004
 20
84.14507108526651
 30
0.0
 10
218.4123021836303
 20
84.15649293237915
 30
0.0
 10
218.1628782920627
 20
84.17927620980909
 30
0.0
 10
217.8611101836415
 20
84.1763382559016
 30
0.0
 10
217.7106262444294
 20
84.17487317438739
 30
0.0
  0
LINE
  5
1BB
330
1F
100
AcDbEntity
  8
0
  6
Continuous
 62
     7
370
    25
100
AcDbLine
 10
217.5958598051
 20
87.7675429179
 30
0.0
 11
217.7106350126
 21
84.1749728314
 31
0.0
  0
SPLINE
  5
1BC
330
1F
100
AcDbEntity
  8
0
  6
Continuous
 62
     7
370
    25
100
AcDbSpline
210
0.0
220
0.0
230
1.0
 70
     8
 71
     3
 72
    14
 73
    10
 74
     0
 42
0.00000001
 43
0.00000001
 40
0.0
 40
0.0
 40
0.0
 40
0.0
 40
0.0829413618596697
 40
0.1664594845668882
 40
0.2437726390188662
 40
0.3161479456895724
 40
0.4353725718192331
 40
0.6486290670514194
 40
0.9999999999999999
 40
0.9999999999999999
 40
0.9999999999999999
 40
0.9999999999999999
 10
217.5958598099327
 20
87.76754290530423
 30
0.0
 10
217.5976749995151
 20
87.85740681289408
 30
0.0
 10
217.6013180012154
 20
88.03775952718742
 30
0.0
 10
217.682979133703
 20
88.32564423797332
 30
0.0
 10
217.8162626139878
 20
88.57717026540006
 30
0.0
 10
218.0045890702254
 20
88.8111195953011
 30
0.0
 10
218.3028561498877
 20
89.05193056580904
 30
0.0
 10
218.760883308673
 20
89.24387216904844
 30
0.0
 10
219.0332188373509
 20
89.25838547267134
 30
0.0
 10
219.2026948210007
 20
89.26741718593856
 30
0.0
  0
LINE
  5
1BD
330
1F
100
AcDbEntity
  8
0
  6
Continuous
 62
     7
370
    25
100
AcDbLine
 10
226.8928457899
 20
84.1749728314
 30
0.0
 11
227.0076209974
 21
87.767542918
 31
0.0
  0
SPLINE
  5
1BE
330
1F
100
AcDbEntity
  8
0
  6
Continuous
 62
     7
370
    25
100
AcDbSpline
210
0.0
220
0.0
230
1.0
 70
     8
 71
     3
 72
     9
 73
     5
 74
     0
 42
0.00000001
 43
0.00000001
 40
0.0
 40
0.0
 40
0.0
 40
0.0
 40
0.4986740982738611
 40
1.0
 40
1.0
 40
1.0
 40
1.0
 10
226.892854739946
 20
84.1748723449842
 30
0.0
 10
226.742370803667
 20
84.17633742424086
 30
0.0
 10
226.4406027014136
 20
84.17927537361845
 30
0.0
 10
226.1911788097913
 20
84.15649209468674
 30
0.0
 10
226.0661361524118
 20
84.14507024683203
 30
0.0
  0
SPLINE
  5
1BF
330
1F
100
AcDbEntity
  8
0
  6
Continuous
 62
     7
370
    25
100
AcDbSpline
210
0.0
220
0.0
230
1.0
 70
     8
 71
     3
 72
    11
 73
     7
 74
     0
 42
0.00000001
 43
0.00000001
 40
0.0
 40
0.0
 40
0.0
 40
0.0
 40
0.249115000282908
 40
0.4989585322854286
 40
0.7493328274976518
 40
1.0
 40
1.0
 40
1.0
 40
1.0
 10
226.0661359080756
 20
84.14507131955374
 30
0.0
 10
225.8582613316991
 20
84.11881821158491
 30
0.0
 10
225.4419042540021
 20
84.06623521897033
 30
0.0
 10
225.0203761073824
 20
83.98191418874384
 30
0.0
 10
224.7349106437285
 20
83.8951809199321
 30
0.0
 10
224.6811929104223
 20
83.8362033545045
 30
0.0
 10
224.6543183437672
 20
83.80669733450533
 30
0.0
  0
SPLINE
  5
1C0
330
1F
100
AcDbEntity
  8
0
  6
Continuous
 62
     7
370
    25
100
AcDbSpline
210
0.0
220
0.0
230
1.0
 70
     8
 71
     3
 72
    10
 73
     6
 74
     0
 42
0.00000001
 43
0.00000001
 40
0.0
 40
0.0
 40
0.0
 40
0.0
 40
0.428349366631063
 40
0.7616603141144168
 40
1.0
 40
1.0
 40
1.0
 40
1.0
 10
224.5788689420465
 20
89.75434343788967
 30
0.0
 10
224.6118155871836
 20
89.65254717506652
 30
0.0
 10
224.6703989633691
 20
89.47154031581196
 30
0.0
 10
224.906743075624
 20
89.29787793285888
 30
0.0
 10
225.0856646408978
 20
89.2763906549631
 30
0.0
 10
225.1602628433247
 20
89.26743191204342
 30
0.0
  0
LINE
  5
1C1
330
1F
100
AcDbEntity
  8
0
  6
Continuous
 62
     7
370
    25
100
AcDbLine
 10
225.1666888137
 20
89.267431912
 30
0.0
 11
225.4007839475
 21
89.267431912
 31
0.0
  0
SPLINE
  5
1C2
330
1F
100
AcDbEntity
  8
0
  6
Continuous
 62
     7
370
    25
100
AcDbSpline
210
0.0
220
0.0
230
1.0
 70
     8
 71
     3
 72
    15
 73
    11
 74
     0
 42
0.00000001
 43
0.00000001
 40
0.0
 40
0.0
 40
0.0
 40
0.0
 40
0.2091652517822444
 40
0.4176299509274903
 40
0.5931463878153087
 40
0.6923603779431098
 40
0.7731125739307014
 40
0.8543366880968429
 40
0.9261517123972135
 40
0.9999999999999999
 40
0.9999999999999999
 40
0.9999999999999999
 40
0.9999999999999999
 10
225.4007859817709
 20
89.26741718593752
 30
0.0
 10
225.4984836142603
 20
89.26432569543904
 30
0.0
 10
225.6935516626796
 20
89.2581530687041
 30
0.0
 10
226.0428315160321
 20
89.1678796088939
 30
0.0
 10
226.3757217029755
 20
88.9992731567905
 30
0.0
 10
226.6373397890115
 20
88.76982444873752
 30
0.0
 10
226.8179338019253
 20
88.5320454054812
 30
0.0
 10
226.9400279652356
 20
88.27012890864269
 30
0.0
 10
227.0040779545541
 20
88.00458733390472
 30
0.0
 10
227.0064290405921
 20
87.84728960288314
 30
0.0
 10
227.0076209926055
 20
87.76754290532438
 30
0.0
  0
SPLINE
  5
1C3
330
1F
100
AcDbEntity
  8
0
  6
Continuous
 62
     7
370
    25
100
AcDbSpline
210
0.0
220
0.0
230
1.0
 70
     8
 71
     3
 72
    11
 73
     7
 74
     0
 42
0.00000001
 43
0.00000001
 40
0.0
 40
0.0
 40
0.0
 40
0.0
 40
0.279563842830426
 40
0.5590315778757569
 40
0.7794196683313495
 40
1.0
 40
1.0
 40
1.0
 40
1.0
 10
218.5373448944646
 20
84.14507131955374
 30
0.0
 10
218.5135957183377
 20
83.8878057093729
 30
0.0
 10
218.4661055305184
 20
83.37336293116357
 30
0.0
 10
218.8017926119366
 20
82.73084873192444
 30
0.0
 10
219.2805075012
 20
82.33917543073049
 30
0.0
 10
219.6323930718693
 20
82.29135336765253
 30
0.0
 10
219.808412559872
 20
82.26743191204352
 30
0.0
  0
SPLINE
  5
1C4
330
1F
100
AcDbEntity
  8
0
  6
Continuous
 62
     7
370
    25
100
AcDbSpline
210
0.0
220
0.0
230
1.0
 70
    24
 71
     3
 72
    11
 73
     7
 74
     0
 42
0.00000001
 43
0.00000001
 40
0.0
 40
0.0
 40
0.0
 40
0.0
 40
0.2799317596299056
 40
0.5599103390525024
 40
0.7799480709991913
 40
1.0
 40
1.0
 40
1.0
 40
1.0
 10
219.808412559872
 20
82.26743191204352
 30
0.0
 10
220.0759805173115
 20
82.26743191204352
 30
0.0
 10
220.611161184084
 20
82.2674319120435
 30
0.0
 10
221.0850279777465
 20
82.26743191204352
 30
0.0
 10
221.3702777352952
 20
82.2674319120435
 30
0.0
 10
221.4221817601924
 20
82.2674319120435
 30
0.0
 10
221.4481346098389
 20
82.26743191204352
 30
0.0
  0
SPLINE
  5
1C5
330
1F
100
AcDbEntity
  8
0
  6
Continuous
 62
     7
370
    25
100
AcDbSpline
210
0.0
220
0.0
230
1.0
 70
     8
 71
     3
 72
    11
 73
     7
 74
     0
 42
0.00000001
 43
0.00000001
 40
0.0
 40
0.0
 40
0.0
 40
0.0
 40
0.2795638428677821
 40
0.5590315779132456
 40
0.7794196683689406
 40
1.0
 40
1.0
 40
1.0
 40
1.0
 10
224.7950682426682
 20
82.26743191204352
 30
0.0
 10
225.0190486582344
 20
82.3059507639916
 30
0.0
 10
225.4669324898889
 20
82.38297522596444
 30
0.0
 10
225.9268727249944
 20
82.91577312375415
 30
0.0
 10
226.1382471658937
 20
83.54350969062052
 30
0.0
 10
226.0901799790144
 20
83.94449250678915
 30
0.0
 10
226.0661359080756
 20
84.14507131955374
 30
0.0
  0
SPLINE
  5
1C6
330
1F
100
AcDbEntity
  8
0
  6
Continuous
 62
     7
370
    25
100
AcDbSpline
210
0.0
220
0.0
230
1.0
 70
    24
 71
     3
 72
    11
 73
     7
 74
     0
 42
0.00000001
 43
0.00000001
 40
0.0
 40
0.0
 40
0.0
 40
0.0
 40
0.2799857774483057
 40
0.5599458358671288
 40
0.779998565900937
 40
0.9999999999999999
 40
0.9999999999999999
 40
0.9999999999999999
 40
0.9999999999999999
 10
223.1553461927013
 20
82.26743191204352
 30
0.0
 10
223.1930999123091
 20
82.26743191204352
 30
0.0
 10
223.2686038835308
 20
82.26743191204352
 30
0.0
 10
223.6501570338396
 20
82.26743191204352
 30
0.0
 10
224.1535877156527
 20
82.26743191204352
 30
0.0
 10
224.58125801779
 20
82.2674319120435
 30
0.0
 10
224.7950682426682
 20
82.26743191204352
 30
0.0
  0
SPLINE
  5
1C7
330
1F
100
AcDbEntity
  8
0
  6
Continuous
 62
     7
370
    25
100
AcDbSpline
210
0.0
220
0.0
230
1.0
 70
     8
 71
     3
 72
    11
 73
     7
 74
     0
 42
0.00000001
 43
0.00000001
 40
0.0
 40
0.0
 40
0.0
 40
0.0
 40
0.2499999999999989
 40
0.4999999999999996
 40
0.749999999999999
 40
1.0
 40
1.0
 40
1.0
 40
1.0
 10
225.4068544550746
 20
89.2674319120435
 30
0.0
 10
225.3424507448796
 20
89.27469422169565
 30
0.0
 10
225.2136433244894
 20
89.28921884099992
 30
0.0
 10
225.0502006558791
 20
89.40119104459244
 30
0.0
 10
224.9340267490058
 20
89.56170262261739
 30
0.0
 10
224.9161402972593
 20
89.69012983279883
 30
0.0
 10
224.907197071386
 20
89.75434343788957
 30
0.0
  0
SPLINE
  5
1C8
330
1F
100
AcDbEntity
  8
0
  6
Continuous
 62
     7
370
    25
100
AcDbSpline
210
0.0
220
0.0
230
1.0
 70
     8
 71
     3
 72
    11
 73
     7
 74
     0
 42
0.00000001
 43
0.00000001
 40
0.0
 40
0.0
 40
0.0
 40
0.0
 40
0.2500000000000009
 40
0.5000000000000002
 40
0.7500000000000007
 40
0.9999999999999999
 40
0.9999999999999999
 40
0.9999999999999999
 40
0.9999999999999999
 10
219.6962837311542
 20
89.75434343788957
 30
0.0
 10
219.6873405052809
 20
89.69012983279883
 30
0.0
 10
219.6694540535344
 20
89.56170262261739
 30
0.0
 10
219.5532801466611
 20
89.40119104459244
 30
0.0
 10
219.3898374780508
 20
89.28921884099991
 30
0.0
 10
219.2610300576606
 20
89.27469422169565
 30
0.0
 10
219.1966263474655
 20
89.2674319120435
 30
0.0
  0
SPLINE
  5
1C9
330
1F
100
AcDbEntity
  8
0
  6
Continuous
 62
     7
370
    25
100
AcDbSpline
210
0.0
220
0.0
230
1.0
 70
     8
 71
     3
 72
     9
 73
     5
 74
     0
 42
0.00000001
 43
0.00000001
 40
0.0
 40
0.0
 40
0.0
 40
0.0
 40
0.5642319118445199
 40
1.0
 40
1.0
 40
1.0
 40
1.0
 10
217.6000253562707
 20
82.09197895089439
 30
0.0
 10
218.0754569675442
 20
82.1455609196217
 30
0.0
 10
218.9180743404595
 20
82.24052536172877
 30
0.0
 10
219.5381871753647
 20
82.25926554026924
 30
0.0
 10
219.808412559872
 20
82.26743191204352
 30
0.0
  0
SPLINE
  5
1CA
330
1F
100
AcDbEntity
  8
0
  6
Continuous
 62
     7
370
    25
100
AcDbSpline
210
0.0
220
0.0
230
1.0
 70
     8
 71
     3
 72
    13
 73
     9
 74
     0
 42
0.00000001
 43
0.00000001
 40
0.0
 40
0.0
 40
0.0
 40
0.0
 40
0.0926677825201015
 40
0.1856533156297234
 40
0.2733112842947882
 40
0.4135488925758326
 40
0.6528449691515648
 40
0.9999999999999999
 40
0.9999999999999999
 40
0.9999999999999999
 40
0.9999999999999999
 10
217.7106253420285
 20
84.17487242569273
 30
0.0
 10
217.7130600094796
 20
84.08063770857393
 30
0.0
 10
217.7179376926663
 20
83.89184515085046
 30
0.0
 10
217.7178632055202
 20
83.5786347466296
 30
0.0
 10
217.711476148464
 20
83.23690061183653
 30
0.0
 10
217.6935615023671
 20
82.82004645493313
 30
0.0
 10
217.6564997616006
 20
82.33681780927026
 30
0.0
 10
217.6210249760469
 20
82.18302059891701
 30
0.0
 10
217.6000253562707
 20
82.09197895089439
 30
0.0
  0
SPLINE
  5
1CB
330
1F
100
AcDbEntity
  8
0
  6
Continuous
 62
     7
370
    25
100
AcDbSpline
210
0.0
220
0.0
230
1.0
 70
     8
 71
     3
 72
     9
 73
     5
 74
     0
 42
0.00000001
 43
0.00000001
 40
0.0
 40
0.0
 40
0.0
 40
0.0
 40
0.5551829690770672
 40
1.0
 40
1.0
 40
1.0
 40
1.0
 10
224.7950682426682
 20
82.26743191204352
 30
0.0
 10
225.1453227014163
 20
82.25443289155245
 30
0.0
 10
225.7762038311641
 20
82.23101895197742
 30
0.0
 10
226.625620462363
 20
82.13478531262572
 30
0.0
 10
227.0034554462695
 20
82.09197895089439
 30
0.0
  0
SPLINE
  5
1CC
330
1F
100
AcDbEntity
  8
0
  6
Continuous
 62
     7
370
    25
100
AcDbSpline
210
0.0
220
0.0
230
1.0
 70
     8
 71
     3
 72
    13
 73
     9
 74
     0
 42
0.00000001
 43
0.00000001
 40
0.0
 40
0.0
 40
0.0
 40
0.0
 40
0.3327087167328944
 40
0.5628656559531304
 40
0.6987124125384707
 40
0.8016200683166474
 40
0.9052998751809803
 40
1.0
 40
1.0
 40
1.0
 40
1.0
 10
227.0034554462695
 20
82.09197895089439
 30
0.0
 10
226.9833226223624
 20
82.17776452581253
 30
0.0
 10
226.9492625735428
 20
82.32289373785053
 30
0.0
 10
226.9131767221726
 20
82.77326043427783
 30
0.0
 10
226.8941379990839
 20
83.1730015828837
 30
0.0
 10
226.8858644651314
 20
83.52889382929527
 30
0.0
 10
226.885188202941
 20
83.87632767632948
 30
0.0
 10
226.8903780137088
 20
84.07840654750858
 30
0.0
 10
226.8928554605117
 20
84.17487242569271
 30
0.0
  0
SPLINE
  5
1CD
330
1F
100
AcDbEntity
  8
0
  6
Continuous
 62
     7
370
    25
100
AcDbSpline
210
0.0
220
0.0
230
1.0
 70
     8
 71
     3
 72
    13
 73
     9
 74
     0
 42
0.00000001
 43
0.00000001
 40
0.0
 40
0.0
 40
0.0
 40
0.0
 40
0.1400312919410834
 40
0.2800978778503041
 40
0.4240602241121907
 40
0.5680316995452359
 40
0.7822812815056388
 40
0.9999999999999999
 40
0.9999999999999999
 40
0.9999999999999999
 40
0.9999999999999999
 10
220.0275178697652
 20
77.65531511097207
 30
0.0
 10
219.9386722494559
 20
77.97344073111269
 30
0.0
 10
219.7609586158819
 20
78.60977215286869
 30
0.0
 10
219.4067425968835
 20
79.44288024429213
 30
0.0
 10
219.0155666710704
 20
80.18517701899499
 30
0.0
 10
218.5407939078028
 20
80.92363539079116
 30
0.0
 10
218.0004437242817
 20
81.60679001547341
 30
0.0
 10
217.7219831048581
 20
81.89735517181302
 30
0.0
 10
217.5816346368149
 20
82.04380451406978
 30
0.0
  0
ELLIPSE
  5
1CE
330
1F
100
AcDbEntity
  8
0
  6
Continuous
 62
     7
370
    25
100
AcDbEllipse
 10
217.7434194805
 20
63.1944246648
 30
0.0
 11
0.0
 21
19.07300724724769
 31
0.0
210
0.0
220
0.0
230
1.0
 40
0.0555555556
 41
0.135743564313581
 42
0.1532827087060872
  0
ELLIPSE
  5
1CF
330
1F
100
AcDbEntity
  8
0
  6
Continuous
 62
     7
370
    25
100
AcDbEllipse
 10
226.860061322
 20
63.1944246648
 30
0.0
 11
0.0
 21
19.07300724724769
 31
0.0
210
0.0
220
0.0
230
1.0
 40
0.0555555556
 41
6.129902598473738
 42
6.147441742866246
  0
SPLINE
  5
1D0
330
1F
100
AcDbEntity
  8
0
  6
Continuous
 62
     7
370
    25
100
AcDbSpline
210
0.0
220
0.0
230
1.0
 70
     8
 71
     3
 72
    13
 73
     9
 74
     0
 42
0.00000001
 43
0.00000001
 40
0.0
 40
0.0
 40
0.0
 40
0.0
 40
0.1374692963454099
 40
0.2749820892813126
 40
0.4163021045260215
 40
0.5576318202769774
 40
0.777008491451321
 40
1.0
 40
1.0
 40
1.0
 40
1.0
 10
227.0218461657253
 20
82.04380451406978
 30
0.0
 10
226.9385676861094
 20
81.95756410464087
 30
0.0
 10
226.771984376776
 20
81.78505599849875
 30
0.0
 10
226.4262842035472
 20
81.38607392517578
 30
0.0
 10
226.0427198888558
 20
80.88576451370349
 30
0.0
 10
225.5674621732573
 20
80.15694404210076
 30
0.0
 10
225.0213594053386
 20
79.1407250918991
 30
0.0
 10
224.7252350235457
 20
78.15314180559557
 30
0.0
 10
224.5759629338231
 20
77.65531511523965
 30
0.0
  0
LINE
  5
1D1
330
1F
100
AcDbEntity
  8
0
  6
Continuous
 62
     7
370
    25
100
AcDbLine
 10
220.0275178698
 20
77.655315111
 30
0.0
 11
224.5759629338
 21
77.6553151152
 31
0.0
  0
LINE
  5
1D2
330
1F
100
AcDbEntity
  8
0
  6
Continuous
 62
     7
370
    25
100
AcDbLine
 10
217.0773114472
 20
87.767431912
 30
0.0
 11
217.5958491145
 21
87.767431912
 31
0.0
  0
ARC
  5
1D3
330
1F
100
AcDbEntity
  8
0
  6
Continuous
 62
     7
370
    25
100
AcDbCircle
 10
210.8017404013
 20
75.3892546304
 30
0.0
 40
9.499999999999995
100
AcDbArc
 50
44.4654416734
 51
48.6553876907
  0
LINE
  5
1D4
330
1F
100
AcDbEntity
  8
0
  6
Continuous
 62
     7
370
    25
100
AcDbLine
 10
217.0773114472
 20
82.5213797027
 30
0.0
 11
217.0773114472
 21
87.767431912
 31
0.0
  0
LINE
  5
1D5
330
1F
100
AcDbEntity
  8
0
  6
Continuous
 62
     7
370
    25
100
AcDbLine
 10
227.5261693553
 20
87.767431912
 30
0.0
 11
227.5261693553
 21
82.5213797027
 31
0.0
  0
ARC
  5
1D6
330
1F
100
AcDbEntity
  8
0
  6
Continuous
 62
     7
370
    25
100
AcDbCircle
 10
233.8017404013
 20
75.3892546304
 30
0.0
 40
9.50000000000001
100
AcDbArc
 50
131.3446123093
 51
135.5345583266
  0
LINE
  5
1D7
330
1F
100
AcDbEntity
  8
0
  6
Continuous
 62
     7
370
    25
100
AcDbLine
 10
227.007631688
 20
87.767431912
 30
0.0
 11
227.5261693553
 21
87.767431912
 31
0.0
  0
ARC
  5
1D8
330
1F
100
AcDbEntity
  8
0
  6
Continuous
 62
     7
370
    25
100
AcDbCircle
 10
226.0273232001
 20
87.7685857582
 30
0.0
 40
1.498846599345463
100
AcDbArc
 50
359.9558924033
 51
89.9558243884
  0
LINE
  5
1D9
330
1F
100
AcDbEntity
  8
0
  6
Continuous
 62
     7
370
    25
100
AcDbLine
 10
226.0284788255
 20
89.267431912
 30
0.0
 11
225.3942716431
 21
89.267431912
 31
0.0
  0
ARC
  5
1DA
330
1F
100
AcDbEntity
  8
0
  6
Continuous
 62
     7
370
    25
100
AcDbCircle
 10
218.5761576025
 20
87.7685857582
 30
0.0
 40
1.498846599345509
100
AcDbArc
 50
90.0441756116
 51
180.0441075967
  0
LINE
  5
1DB
330
1F
100
AcDbEntity
  8
0
  6
Continuous
 62
     7
370
    25
100
AcDbLine
 10
219.2092091595
 20
89.267431912
 30
0.0
 11
218.575001977
 21
89.267431912
 31
0.0
  0
LINE
  5
1DC
330
1F
100
AcDbEntity
  8
0
  6
Continuous
 62
     7
370
    25
100
AcDbLine
 10
219.7414276428
 20
89.6976375721
 30
0.0
 11
219.7037545165
 21
89.7449592854
 31
0.0
  0
LINE
  5
1DD
330
1F
100
AcDbEntity
  8
0
  6
Continuous
 62
     7
370
    25
100
AcDbLine
 10
224.899726286
 20
89.7449592854
 30
0.0
 11
224.8620531598
 21
89.6976375721
 31
0.0
  0
ELLIPSE
  5
1DE
330
1F
100
AcDbEntity
  8
0
  6
Continuous
 62
     7
370
    25
100
AcDbEllipse
 10
223.2774891646
 20
92.567431912
 30
0.0
 11
1.500207016110437
 21
0.02894030982645291
 31
0.0
210
0.0
220
0.0
230
1.0
 40
0.2796306798
 41
6.25789752407609
 42
6.352565501149988
  0
LINE
  5
1DF
330
1F
100
AcDbEntity
  8
0
  6
Continuous
 62
     7
370
    25
100
AcDbLine
 10
217.0851090887
 20
82.5144772798
 30
0.0
 11
217.0773114472
 21
82.5213797027
 31
0.0
  0
LINE
  5
1E0
330
1F
100
AcDbEntity
  8
0
  6
Continuous
 62
     7
370
    25
100
AcDbLine
 10
227.5261693553
 20
82.5213797027
 30
0.0
 11
227.5183717138
 21
82.5144772798
 31
0.0
  0
SPLINE
  5
1E1
330
1F
100
AcDbEntity
  8
0
  6
Continuous
 62
     7
370
    25
100
AcDbSpline
210
0.0
220
0.0
230
1.0
 70
     8
 71
     3
 72
     9
 73
     5
 74
     0
 42
0.00000001
 43
0.00000001
 40
0.0
 40
0.0
 40
0.0
 40
0.0
 40
0.0576289627817999
 40
1.0
 40
1.0
 40
1.0
 40
1.0
 10
224.0642539517979
 20
77.65531511475953
 30
0.0
 10
224.0593978797022
 20
77.63781184174117
 30
0.0
 10
223.97513344284
 20
77.33408829417986
 30
0.0
 10
223.9281753196688
 20
76.99150809974273
 30
0.0
 10
223.8839233444301
 20
76.6686704465806
 30
0.0
  0
SPLINE
  5
1E2
330
1F
100
AcDbEntity
  8
0
  6
Continuous
 62
     7
370
    25
100
AcDbSpline
210
0.0
220
0.0
230
1.0
 70
     8
 71
     3
 72
    10
 73
     6
 74
     0
 42
0.00000001
 43
0.00000001
 40
0.0
 40
0.0
 40
0.0
 40
0.0
 40
0.2746918501531821
 40
0.5573359346812419
 40
1.0
 40
1.0
 40
1.0
 40
1.0
 10
223.8839233444301
 20
76.6686704465806
 30
0.0
 10
223.5993025860758
 20
76.7218944897437
 30
0.0
 10
223.0218213965223
 20
76.82988339377302
 30
0.0
 10
221.9428034533556
 20
76.87166946701157
 30
0.0
 10
221.1831704089228
 20
76.74560752648105
 30
0.0
 10
220.7195574581101
 20
76.66867044658059
 30
0.0
  0
LINE
  5
1E3
330
1F
100
AcDbEntity
  8
0
  6
Continuous
 62
     7
370
    25
100
AcDbLine
 10
220.7195574581
 20
76.6686704466
 30
0.0
 11
220.5043226723
 21
77.6553151114
 31
0.0
  0
LINE
  5
1E4
330
1F
100
AcDbEntity
  8
0
  6
Continuous
 62
     7
370
    25
100
AcDbLine
 10
214.1217404013
 20
74.567431912
 30
0.0
 11
223.3017404013
 21
74.567431912
 31
0.0
  0
LWPOLYLINE
  5
1E5
330
1F
100
AcDbEntity
  8
0
  6
Continuous
 62
     7
370
    25
100
AcDbPolyline
 90
        3
 70
   128
 43
0.0
 10
214.1830951941
 20
74.567431912
 10
214.2765788703
 20
73.6396877226
 10
214.3191077366
 20
73.2176800525
  0
LINE
  5
1E6
330
1F
100
AcDbEntity
  8
0
  6
Continuous
 62
     7
370
    25
100
AcDbLine
 10
223.3017404013
 20
73.2176800525
 30
0.0
 11
223.3017404013
 21
74.567431912
 31
0.0
  0
LINE
  5
1E7
330
1F
100
AcDbEntity
  8
0
  6
Continuous
 62
     7
370
    25
100
AcDbLine
 10
214.7431315105
 20
90.767431912
 30
0.0
 11
219.7419150642
 21
90.767431912
 31
0.0
  0
LINE
  5
1E8
330
1F
100
AcDbEntity
  8
0
  6
Continuous
 62
     7
370
    25
100
AcDbLine
 10
224.8615657383
 20
90.767431912
 30
0.0
 11
229.8603492508
 21
90.767431912
 31
0.0
  0
SPLINE
  5
1E9
330
1F
100
AcDbEntity
  8
0
  6
Continuous
 62
     7
370
    25
100
AcDbSpline
210
0.0
220
0.0
230
1.0
 70
     8
 71
     3
 72
    12
 73
     8
 74
     0
 42
0.00000001
 43
0.00000001
 40
0.0
 40
0.0
 40
0.0
 40
0.0
 40
0.2271543139929597
 40
0.4542742953683958
 40
0.6823371405829708
 40
0.9121899191033218
 40
1.0
 40
1.0
 40
1.0
 40
1.0
 10
214.3191077366247
 20
73.21768005253301
 30
0.0
 10
214.3302116818231
 20
73.16256024563864
 30
0.0
 10
214.3524178939443
 20
73.05232896278238
 30
0.0
 10
214.4529141054828
 20
72.91247490319397
 30
0.0
 10
214.5903763803133
 20
72.8122265141084
 30
0.0
 10
214.7213499636695
 20
72.77129782353367
 30
0.0
 10
214.7992429474843
 20
72.76826912204433
 30
0.0
 10
214.8207745461817
 20
72.76743191204352
 30
0.0
  0
LINE
  5
1EA
330
1F
100
AcDbEntity
  8
0
  6
Continuous
 62
     7
370
    25
100
AcDbLine
 10
229.8492466202
 20
72.767431912
 30
0.0
 11
223.3017404013
 21
72.767431912
 31
0.0
  0
SPLINE
  5
1EB
330
1F
100
AcDbEntity
  8
0
  6
Continuous
 62
     7
370
    25
100
AcDbSpline
210
0.0
220
0.0
230
1.0
 70
    24
 71
     3
 72
    12
 73
     8
 74
     0
 42
0.00000001
 43
0.00000001
 40
0.0
 40
0.0
 40
0.0
 40
0.0
 40
0.2316347876629375
 40
0.46330664808196
 40
0.6939442291381526
 40
0.9227406525226395
 40
1.0
 40
1.0
 40
1.0
 40
1.0
 10
223.3017404012701
 20
72.76743191204352
 30
0.0
 10
223.3017404012701
 20
72.77302137707379
 30
0.0
 10
223.3017404012701
 20
72.78420120171876
 30
0.0
 10
223.3017404012701
 20
72.87152426767442
 30
0.0
 10
223.3017404012701
 20
72.99983444145649
 30
0.0
 10
223.3017404012701
 20
73.12451386815428
 30
0.0
 10
223.3017404012701
 20
73.19890187690758
 30
0.0
 10
223.3017404012701
 20
73.21768005253301
 30
0.0
  0
SPLINE
  5
1EC
330
1F
100
AcDbEntity
  8
0
  6
Continuous
 62
     7
370
    25
100
AcDbSpline
210
0.0
220
0.0
230
1.0
 70
     8
 71
     3
 72
    11
 73
     7
 74
     0
 42
0.00000001
 43
0.00000001
 40
0.0
 40
0.0
 40
0.0
 40
0.0
 40
0.2981995125517625
 40
0.5964325929955623
 40
0.8933636912282922
 40
1.0
 40
1.0
 40
1.0
 40
1.0
 10
216.3856606181705
 20
72.76743191204352
 30
0.0
 10
216.5016831097788
 20
72.77862867764914
 30
0.0
 10
216.7337411534813
 20
72.80102346926427
 30
0.0
 10
217.0356450036495
 20
72.98037239540837
 30
0.0
 10
217.2355921320694
 20
73.17851908897765
 30
0.0
 10
217.2879149291281
 20
73.32613551082918
 30
0.0
 10
217.3017404012701
 20
73.36514081717235
 30
0.0
  0
LINE
  5
1ED
330
1F
100
AcDbEntity
  8
0
  6
Continuous
 62
     7
370
    25
100
AcDbLine
 10
217.3017404013
 20
72.767431912
 30
0.0
 11
216.3856606182
 21
72.767431912
 31
0.0
  0
LINE
  5
1EE
330
1F
100
AcDbEntity
  8
0
  6
Continuous
 62
     7
370
    25
100
AcDbLine
 10
214.8207745462
 20
72.767431912
 30
0.0
 11
216.3856606182
 21
72.767431912
 31
0.0
  0
LINE
  5
1EF
330
1F
100
AcDbEntity
  8
0
  6
Continuous
 62
     7
370
    25
100
AcDbLine
 10
221.5017404013
 20
74.267431912
 30
0.0
 11
223.1017404013
 21
74.267431912
 31
0.0
  0
SPLINE
  5
1F0
330
1F
100
AcDbEntity
  8
0
  6
Continuous
 62
     7
370
    25
100
AcDbSpline
210
0.0
220
0.0
230
1.0
 70
     8
 71
     3
 72
    11
 73
     7
 74
     0
 42
0.00000001
 43
0.00000001
 40
0.0
 40
0.0
 40
0.0
 40
0.0
 40
0.2843931288920273
 40
0.5687862577840562
 40
0.8531793866760852
 40
1.0
 40
1.0
 40
1.0
 40
1.0
 10
223.8798531905835
 20
92.58575577585904
 30
0.0
 10
223.8673866669681
 20
92.67581839670747
 30
0.0
 10
223.8424536197373
 20
92.85594363840433
 30
0.0
 10
223.6790002610072
 20
93.07820624181798
 30
0.0
 10
223.4896583225009
 20
93.21751037495507
 30
0.0
 10
223.3540087715221
 20
93.23615080029454
 30
0.0
 10
223.3078225109232
 20
93.24249753374254
 30
0.0
  0
LINE
  5
1F1
330
1F
100
AcDbEntity
  8
0
  6
Continuous
 62
     7
370
    25
100
AcDbLine
 10
219.7037545165
 20
89.7449592854
 30
0.0
 11
219.6962837312
 21
89.7543434379
 31
0.0
  0
ELLIPSE
  5
1F2
330
1F
100
AcDbEntity
  8
0
  6
Continuous
 62
     7
370
    25
100
AcDbEllipse
 10
221.3259916379
 20
92.567431912
 30
0.0
 11
1.500207016110408
 21
-0.02894030982646712
 31
0.0
210
0.0
220
0.0
230
1.0
 40
0.2796306798
 41
3.072248304391437
 42
3.166880436693422
  0
LINE
  5
1F3
330
1F
100
AcDbEntity
  8
0
  6
Continuous
 62
     7
370
    25
100
AcDbLine
 10
217.0773114472
 20
87.767431912
 30
0.0
 11
217.075001977
 21
87.767431912
 31
0.0
  0
LINE
  5
1F4
330
1F
100
AcDbEntity
  8
0
  6
Continuous
 62
     7
370
    25
100
AcDbLine
 10
227.5284788255
 20
87.767431912
 30
0.0
 11
227.5261693553
 21
87.767431912
 31
0.0
  0
LINE
  5
1F5
330
1F
100
AcDbEntity
  8
0
  6
Continuous
 62
     7
370
    25
100
AcDbLine
 10
217.075001977
 20
82.6555074978
 30
0.0
 11
213.3129328427
 21
82.6555074978
 31
0.0
  0
LINE
  5
1F6
330
1F
100
AcDbEntity
  8
0
  6
Continuous
 62
     7
370
    25
100
AcDbLine
 10
231.2905479598
 20
82.6555074978
 30
0.0
 11
227.5284788255
 21
82.6555074978
 31
0.0
  0
LINE
  5
1F7
330
1F
100
AcDbEntity
  8
0
  6
Continuous
 62
     7
370
    25
100
AcDbLine
 10
223.3017404013
 20
73.2176800525
 30
0.0
 11
230.3467652153
 21
73.2176800525
 31
0.0
  0
LINE
  5
1F8
330
1F
100
AcDbEntity
  8
0
  6
Continuous
 62
     7
370
    25
100
AcDbLine
 10
227.5284788255
 20
82.8790459514
 30
0.0
 11
231.2877886463
 21
82.8790459514
 31
0.0
  0
LINE
  5
1F9
330
1F
100
AcDbEntity
  8
0
  6
Continuous
 62
     7
370
    25
100
AcDbLine
 10
213.3156921562
 20
82.8790459514
 30
0.0
 11
217.075001977
 21
82.8790459514
 31
0.0
  0
LINE
  5
1FA
330
1F
100
AcDbEntity
  8
0
  6
Continuous
 62
     7
370
    25
100
AcDbLine
 10
230.3564882304
 20
90.3294492793
 30
0.0
 11
224.8816403828
 21
90.3294492793
 31
0.0
  0
LINE
  5
1FB
330
1F
100
AcDbEntity
  8
0
  6
Continuous
 62
     7
370
    25
100
AcDbLine
 10
219.7218404197
 20
90.3294492793
 30
0.0
 11
214.2469925722
 21
90.3294492793
 31
0.0
  0
LINE
  5
1FC
330
1F
100
AcDbEntity
  8
0
  6
Continuous
 62
     7
370
    25
100
AcDbLine
 10
223.3017404013
 20
74.067431912
 30
0.0
 11
221.3017404013
 21
74.067431912
 31
0.0
  0
INSERT
  5
208
330
1F
100
AcDbEntity
  8
0
  6
Continuous
 62
     7
370
    18
100
AcDbBlockReference
  2
SW_CENTERMARKSYMBOL_0
 10
222.3017404013
 20
52.267431912
 30
0.0
  0
LINE
  5
209
330
1F
100
AcDbEntity
  8
0
  6
Continuous
 62
     7
370
    25
100
AcDbLine
 10
141.1985849864
 20
149.3094129276
 30
0.0
 11
137.6985849864
 21
149.3094129276
 31
0.0
  0
LINE
  5
20A
330
1F
100
AcDbEntity
  8
0
  6
Continuous
 62
     7
370
    25
100
AcDbLine
 10
137.6985849864
 20
122.3094129276
 30
0.0
 11
141.1985849864
 21
122.3094129276
 31
0.0
  0
LINE
  5
20B
330
1F
100
AcDbEntity
  8
0
  6
Continuous
 62
     7
370
    25
100
AcDbLine
 10
137.6985849864
 20
149.3094129276
 30
0.0
 11
137.1985849864
 21
148.8094129276
 31
0.0
  0
LINE
  5
20C
330
1F
100
AcDbEntity
  8
0
  6
Continuous
 62
     7
370
    25
100
AcDbLine
 10
137.1985849864
 20
122.8094129276
 30
0.0
 11
137.6985849864
 21
122.3094129276
 31
0.0
  0
LINE
  5
20D
330
1F
100
AcDbEntity
  8
0
  6
Continuous
 62
     7
370
    25
100
AcDbLine
 10
130.1985849864
 20
146.0594129276
 30
0.0
 11
125.1985849864
 21
145.0594129276
 31
0.0
  0
LINE
  5
20E
330
1F
100
AcDbEntity
  8
0
  6
Continuous
 62
     7
370
    25
100
AcDbLine
 10
125.1985849864
 20
126.5594129276
 30
0.0
 11
130.1985849864
 21
125.5594129276
 31
0.0
  0
LINE
  5
20F
330
1F
100
AcDbEntity
  8
0
  6
Continuous
 62
     7
370
    25
100
AcDbLine
 10
130.1985849864
 20
125.5594129276
 30
0.0
 11
137.1985849864
 21
125.5594129276
 31
0.0
  0
LINE
  5
210
330
1F
100
AcDbEntity
  8
0
  6
Continuous
 62
     7
370
    25
100
AcDbLine
 10
137.1985849864
 20
146.0594129276
 30
0.0
 11
130.1985849864
 21
146.0594129276
 31
0.0
  0
LINE
  5
211
330
1F
100
AcDbEntity
  8
0
  6
Continuous
 62
     7
370
    25
100
AcDbLine
 10
110.1985849864
 20
146.0594129276
 30
0.0
 11
102.6365676191
 21
145.1141607567
 31
0.0
  0
LINE
  5
212
330
1F
100
AcDbEntity
  8
0
  6
Continuous
 62
     7
370
    25
100
AcDbLine
 10
102.6365676191
 20
126.5046650985
 30
0.0
 11
110.1985849864
 21
125.5594129276
 31
0.0
  0
LINE
  5
213
330
1F
100
AcDbEntity
  8
0
  6
Continuous
 62
     7
370
    25
100
AcDbLine
 10
115.1985849864
 20
146.0594129276
 30
0.0
 11
110.1985849864
 21
145.0594129276
 31
0.0
  0
LINE
  5
214
330
1F
100
AcDbEntity
  8
0
  6
Continuous
 62
     7
370
    25
100
AcDbLine
 10
110.1985849864
 20
126.5594129276
 30
0.0
 11
115.1985849864
 21
125.5594129276
 31
0.0
  0
LINE
  5
215
330
1F
100
AcDbEntity
  8
0
  6
Continuous
 62
     7
370
    25
100
AcDbLine
 10
125.1985849864
 20
146.0594129276
 30
0.0
 11
120.1985849864
 21
145.0594129276
 31
0.0
  0
LINE
  5
216
330
1F
100
AcDbEntity
  8
0
  6
Continuous
 62
     7
370
    25
100
AcDbLine
 10
120.1985849864
 20
126.5594129276
 30
0.0
 11
125.1985849864
 21
125.5594129276
 31
0.0
  0
LINE
  5
217
330
1F
100
AcDbEntity
  8
0
  6
Continuous
 62
     7
370
    25
100
AcDbLine
 10
120.1985849864
 20
146.0594129276
 30
0.0
 11
115.1985849864
 21
145.0594129276
 31
0.0
  0
LINE
  5
218
330
1F
100
AcDbEntity
  8
0
  6
Continuous
 62
     7
370
    25
100
AcDbLine
 10
115.1985849864
 20
126.5594129276
 30
0.0
 11
120.1985849864
 21
125.5594129276
 31
0.0
  0
ARC
  5
219
330
1F
100
AcDbEntity
  8
0
  6
Continuous
 62
     7
370
    25
100
AcDbCircle
 10
102.6985849864
 20
127.0008040368
 30
0.0
 40
0.5000000000000017
100
AcDbArc
 50
180.0
 51
262.8749836511
  0
ARC
  5
21A
330
1F
100
AcDbEntity
  8
0
  6
Continuous
 62
     7
370
    25
100
AcDbCircle
 10
102.6985849864
 20
144.6180218183
 30
0.0
 40
0.5000000000000299
100
AcDbArc
 50
97.1250163489
 51
180.0
  0
LINE
  5
21B
330
1F
100
AcDbEntity
  8
0
  6
Continuous
 62
     7
370
    25
100
AcDbLine
 10
167.1985849864
 20
122.3867254276
 30
0.0
 11
180.5934086474
 21
122.805313667
 31
0.0
  0
LINE
  5
21C
330
1F
100
AcDbEntity
  8
0
  6
Continuous
 62
     7
370
    25
100
AcDbLine
 10
180.5934086474
 20
148.8135121882
 30
0.0
 11
167.1985849864
 21
149.2321004276
 31
0.0
  0
LINE
  5
21D
330
1F
100
AcDbEntity
  8
0
  6
Continuous
 62
     7
370
    25
100
AcDbLine
 10
180.5934086474
 20
122.805313667
 30
0.0
 11
183.1985849864
 21
124.3094129276
 31
0.0
  0
LINE
  5
21E
330
1F
100
AcDbEntity
  8
0
  6
Continuous
 62
     7
370
    25
100
AcDbLine
 10
183.1985849864
 20
147.3094129276
 30
0.0
 11
180.5934086474
 21
148.8135121882
 31
0.0
  0
LINE
  5
21F
330
1F
100
AcDbEntity
  8
0
  6
Continuous
 62
     7
370
    25
100
AcDbLine
 10
103.6547595943
 20
134.9393838452
 30
0.0
 11
103.6721785846
 21
134.9393838452
 31
0.0
  0
LINE
  5
220
330
1F
100
AcDbEntity
  8
0
  6
Continuous
 62
     7
370
    25
100
AcDbLine
 10
132.2329326638
 20
140.404571287
 30
0.0
 11
131.040692607
 21
139.6105980487
 31
0.0
  0
LINE
  5
221
330
1F
100
AcDbEntity
  8
0
  6
Continuous
 62
     7
370
    25
100
AcDbLine
 10
131.0406925477
 20
132.008227699
 30
0.0
 11
132.2373118197
 21
131.2113381765
 31
0.0
  0
SPLINE
  5
222
330
1F
100
AcDbEntity
  8
0
  6
Continuous
 62
     7
370
    25
100
AcDbSpline
210
0.0
220
0.0
230
1.0
 70
     8
 71
     3
 72
    11
 73
     7
 74
     0
 42
0.00000001
 43
0.00000001
 40
0.0
 40
0.0
 40
0.0
 40
0.0
 40
0.2485427336868735
 40
0.4982459407376401
 40
0.7488347621401439
 40
1.0
 40
1.0
 40
1.0
 40
1.0
 10
131.0406127649388
 20
139.6107427647258
 30
0.0
 10
130.6193326218827
 20
139.3969775312707
 30
0.0
 10
129.7748053324407
 20
138.9684489709706
 30
0.0
 10
128.4181997652066
 20
138.5297550093573
 30
0.0
 10
127.0201026590802
 20
138.2288260648632
 30
0.0
 10
126.0687467600995
 20
138.1675453807505
 30
0.0
 10
125.5925223504591
 20
138.1368698389841
 30
0.0
  0
SPLINE
  5
223
330
1F
100
AcDbEntity
  8
0
  6
Continuous
 62
     7
370
    25
100
AcDbSpline
210
0.0
220
0.0
230
1.0
 70
     8
 71
     3
 72
    10
 73
     6
 74
     0
 42
0.00000001
 43
0.00000001
 40
0.0
 40
0.0
 40
0.0
 40
0.0
 40
0.0711023749285983
 40
0.5366329433438182
 40
1.0
 40
1.0
 40
1.0
 40
1.0
 10
128.2010976775955
 20
133.1095069703745
 30
0.0
 10
128.2720720699489
 20
133.0952806167719
 30
0.0
 10
128.8077390868226
 20
132.9879096602531
 30
0.0
 10
129.7730143021064
 20
132.6414199605723
 30
0.0
 10
130.618736539496
 20
132.2188673222137
 30
0.0
 10
131.0406127649388
 20
132.008083090417
 30
0.0
  0
LINE
  5
224
330
1F
100
AcDbEntity
  8
0
  6
Continuous
 62
     7
370
    25
100
AcDbLine
 10
125.5918510778
 20
138.1625047065
 30
0.0
 11
103.9374600481
 21
137.5954645213
 31
0.0
  0
LINE
  5
225
330
1F
100
AcDbEntity
  8
0
  6
Continuous
 62
     7
370
    25
100
AcDbLine
 10
103.9374635666
 20
134.0233612417
 30
0.0
 11
125.5918510778
 21
133.4563211487
 31
0.0
  0
SPLINE
  5
226
330
1F
100
AcDbEntity
  8
0
  6
Continuous
 62
     7
370
    25
100
AcDbSpline
210
0.0
220
0.0
230
1.0
 70
     8
 71
     3
 72
    12
 73
     8
 74
     0
 42
0.00000001
 43
0.00000001
 40
0.0
 40
0.0
 40
0.0
 40
0.0
 40
0.1136795755991084
 40
0.3337611844340364
 40
0.597687959585365
 40
0.8517298450314311
 40
1.0
 40
1.0
 40
1.0
 40
1.0
 10
98.89905390782499
 20
134.7244782238549
 30
0.0
 10
98.91428125394238
 20
134.6916386294049
 30
0.0
 10
98.95898846760973
 20
134.5952221721638
 30
0.0
 10
99.09176546711845
 20
134.4599490895631
 30
0.0
 10
99.2810145645896
 20
134.3370336066658
 30
0.0
 10
99.47864400452188
 20
134.2589373552716
 30
0.0
 10
99.61059776543031
 20
134.2497370884776
 30
0.0
 10
99.65922868524672
 20
134.2463463746876
 30
0.0
  0
SPLINE
  5
227
330
1F
100
AcDbEntity
  8
0
  6
Continuous
 62
     7
370
    25
100
AcDbSpline
210
0.0
220
0.0
230
1.0
 70
     8
 71
     3
 72
    12
 73
     8
 74
     0
 42
0.00000001
 43
0.00000001
 40
0.0
 40
0.0
 40
0.0
 40
0.0
 40
0.0693096036056641
 40
0.2377323827339518
 40
0.4635700605075038
 40
0.7649789831149819
 40
1.0
 40
1.0
 40
1.0
 40
1.0
 10
99.65905433036272
 20
137.3729631315626
 30
0.0
 10
99.63637051935285
 20
137.3728672554545
 30
0.0
 10
99.55856490281026
 20
137.3725383997917
 30
0.0
 10
99.41268818853615
 20
137.3324003805987
 30
0.0
 10
99.21571364864934
 20
137.2480505228169
 30
0.0
 10
99.02181501191393
 20
137.1076266640018
 30
0.0
 10
98.93485627133869
 20
136.9613534714505
 30
0.0
 10
98.89675785413182
 20
136.8972681698565
 30
0.0
  0
SPLINE
  5
228
330
1F
100
AcDbEntity
  8
0
  6
Continuous
 62
     7
370
    25
100
AcDbSpline
210
0.0
220
0.0
230
1.0
 70
     8
 71
     3
 72
    10
 73
     6
 74
     0
 42
0.00000001
 43
0.00000001
 40
0.0
 40
0.0
 40
0.0
 40
0.0
 40
0.2265293646106021
 40
0.6303271171209671
 40
1.0
 40
1.0
 40
1.0
 40
1.0
 10
98.89397200543772
 20
136.8978428663716
 30
0.0
 10
98.86719048383519
 20
136.8370738903781
 30
0.0
 10
98.79266981702078
 20
136.6679817573815
 30
0.0
 10
98.71583521742352
 20
136.3555661349164
 30
0.0
 10
98.70416341336352
 20
136.0952663238077
 30
0.0
 10
98.69858498639054
 20
135.9708585219045
 30
0.0
  0
SPLINE
  5
229
330
1F
100
AcDbEntity
  8
0
  6
Continuous
 62
     7
370
    25
100
AcDbSpline
210
0.0
220
0.0
230
1.0
 70
     8
 71
     3
 72
    10
 73
     6
 74
     0
 42
0.00000001
 43
0.00000001
 40
0.0
 40
0.0
 40
0.0
 40
0.0
 40
0.2019710802053616
 40
0.5883434680994738
 40
1.0
 40
1.0
 40
1.0
 40
1.0
 10
98.69858498639054
 20
135.6479673332383
 30
0.0
 10
98.70032980820542
 20
135.5801432935016
 30
0.0
 10
98.7054124889374
 20
135.3825712910217
 30
0.0
 10
98.7578002820073
 20
135.0539143770051
 30
0.0
 10
98.847632703488
 20
134.8342796978034
 30
0.0
 10
98.8939720054377
 20
134.7209829887712
 30
0.0
  0
LINE
  5
22A
330
1F
100
AcDbEntity
  8
0
  6
Continuous
 62
     7
370
    25
100
AcDbLine
 10
98.6985849864
 20
135.9708585219
 30
0.0
 11
98.6985849864
 21
135.6479673332
 31
0.0
  0
ARC
  5
22B
330
1F
100
AcDbEntity
  8
0
  6
Continuous
 62
     7
370
    25
100
AcDbCircle
 10
154.1985849864
 20
135.8094129276
 30
0.0
 40
8.993770368365603
100
AcDbArc
 50
200.7374776943
 51
90.0
  0
ARC
  5
22C
330
1F
100
AcDbEntity
  8
0
  6
Continuous
 62
     7
370
    25
100
AcDbCircle
 10
154.1985849864
 20
135.8094129276
 30
0.0
 40
8.993770368365608
100
AcDbArc
 50
90.0
 51
159.2564072406
  0
LINE
  5
22D
330
1F
100
AcDbEntity
  8
0
  6
Continuous
 62
     7
370
    25
100
AcDbLine
 10
137.6985849864
 20
130.6544471253
 30
0.0
 11
137.6985849864
 21
122.3094129276
 31
0.0
  0
LINE
  5
22E
330
1F
100
AcDbEntity
  8
0
  6
Continuous
 62
     7
370
    25
100
AcDbLine
 10
137.6985849864
 20
149.3094129276
 30
0.0
 11
137.6985849864
 21
140.6975298458
 31
0.0
  0
LINE
  5
22F
330
1F
100
AcDbEntity
  8
0
  6
Continuous
 62
     7
370
    25
100
AcDbLine
 10
137.6985849864
 20
130.9212960094
 30
0.0
 11
137.6985849864
 21
130.6544471253
 31
0.0
  0
LINE
  5
230
330
1F
100
AcDbEntity
  8
0
  6
Continuous
 62
     7
370
    25
100
AcDbLine
 10
137.1985849864
 20
130.8453717846
 30
0.0
 11
137.1985849864
 21
130.9490737872
 31
0.0
  0
LINE
  5
231
330
1F
100
AcDbEntity
  8
0
  6
Continuous
 62
     7
370
    25
100
AcDbLine
 10
137.1985849864
 20
140.669752068
 30
0.0
 11
137.1985849864
 21
148.8094129276
 31
0.0
  0
LINE
  5
232
330
1F
100
AcDbEntity
  8
0
  6
Continuous
 62
     7
370
    25
100
AcDbLine
 10
137.1985849864
 20
122.8094129276
 30
0.0
 11
137.1985849864
 21
130.8453717846
 31
0.0
  0
LINE
  5
233
330
1F
100
AcDbEntity
  8
0
  6
Continuous
 62
     7
370
    25
100
AcDbLine
 10
130.1985849864
 20
145.2827150031
 30
0.0
 11
130.1985849864
 21
146.0594129276
 31
0.0
  0
LINE
  5
234
330
1F
100
AcDbEntity
  8
0
  6
Continuous
 62
     7
370
    25
100
AcDbLine
 10
130.1985849864
 20
125.5594129276
 30
0.0
 11
130.1985849864
 21
132.3923180061
 31
0.0
  0
LINE
  5
235
330
1F
100
AcDbEntity
  8
0
  6
Continuous
 62
     7
370
    25
100
AcDbLine
 10
130.1985849864
 20
139.2179985125
 30
0.0
 11
130.1985849864
 21
145.2827150031
 31
0.0
  0
LINE
  5
236
330
1F
100
AcDbEntity
  8
0
  6
Continuous
 62
     7
370
    25
100
AcDbLine
 10
110.1985849864
 20
145.2827150031
 30
0.0
 11
110.1985849864
 21
146.0594129276
 31
0.0
  0
LINE
  5
237
330
1F
100
AcDbEntity
  8
0
  6
Continuous
 62
     7
370
    25
100
AcDbLine
 10
110.1985849864
 20
125.5594129276
 30
0.0
 11
110.1985849864
 21
133.8594080072
 31
0.0
  0
LINE
  5
238
330
1F
100
AcDbEntity
  8
0
  6
Continuous
 62
     7
370
    25
100
AcDbLine
 10
110.1985849864
 20
137.7594178479
 30
0.0
 11
110.1985849864
 21
145.2827150031
 31
0.0
  0
LINE
  5
239
330
1F
100
AcDbEntity
  8
0
  6
Continuous
 62
     7
370
    25
100
AcDbLine
 10
115.1985849864
 20
145.2827150031
 30
0.0
 11
115.1985849864
 21
146.0594129276
 31
0.0
  0
LINE
  5
23A
330
1F
100
AcDbEntity
  8
0
  6
Continuous
 62
     7
370
    25
100
AcDbLine
 10
115.1985849864
 20
125.5594129276
 30
0.0
 11
115.1985849864
 21
133.7284783994
 31
0.0
  0
LINE
  5
23B
330
1F
100
AcDbEntity
  8
0
  6
Continuous
 62
     7
370
    25
100
AcDbLine
 10
115.1985849864
 20
137.8903474557
 30
0.0
 11
115.1985849864
 21
145.2827150031
 31
0.0
  0
LINE
  5
23C
330
1F
100
AcDbEntity
  8
0
  6
Continuous
 62
     7
370
    25
100
AcDbLine
 10
125.1985849864
 20
145.2827150031
 30
0.0
 11
125.1985849864
 21
146.0594129276
 31
0.0
  0
LINE
  5
23D
330
1F
100
AcDbEntity
  8
0
  6
Continuous
 62
     7
370
    25
100
AcDbLine
 10
125.1985849864
 20
125.5594129276
 30
0.0
 11
125.1985849864
 21
133.4666191837
 31
0.0
  0
LINE
  5
23E
330
1F
100
AcDbEntity
  8
0
  6
Continuous
 62
     7
370
    25
100
AcDbLine
 10
125.1985849864
 20
138.1522066714
 30
0.0
 11
125.1985849864
 21
145.2827150031
 31
0.0
  0
LINE
  5
23F
330
1F
100
AcDbEntity
  8
0
  6
Continuous
 62
     7
370
    25
100
AcDbLine
 10
120.1985849864
 20
145.2827150031
 30
0.0
 11
120.1985849864
 21
146.0594129276
 31
0.0
  0
LINE
  5
240
330
1F
100
AcDbEntity
  8
0
  6
Continuous
 62
     7
370
    25
100
AcDbLine
 10
120.1985849864
 20
125.5594129276
 30
0.0
 11
120.1985849864
 21
133.5975487915
 31
0.0
  0
LINE
  5
241
330
1F
100
AcDbEntity
  8
0
  6
Continuous
 62
     7
370
    25
100
AcDbLine
 10
120.1985849864
 20
138.0212770636
 30
0.0
 11
120.1985849864
 21
145.2827150031
 31
0.0
  0
LINE
  5
242
330
1F
100
AcDbEntity
  8
0
  6
Continuous
 62
     7
370
    25
100
AcDbLine
 10
102.1985849864
 20
143.9505458922
 30
0.0
 11
102.1985849864
 21
144.6180218183
 31
0.0
  0
LINE
  5
243
330
1F
100
AcDbEntity
  8
0
  6
Continuous
 62
     7
370
    25
100
AcDbLine
 10
102.1985849864
 20
127.0008040368
 30
0.0
 11
102.1985849864
 21
134.1094178267
 31
0.0
  0
LINE
  5
244
330
1F
100
AcDbEntity
  8
0
  6
Continuous
 62
     7
370
    25
100
AcDbLine
 10
102.1985849864
 20
137.5094080284
 30
0.0
 11
102.1985849864
 21
143.9505458922
 31
0.0
  0
LINE
  5
245
330
1F
100
AcDbEntity
  8
0
  6
Continuous
 62
     7
370
    25
100
AcDbLine
 10
165.7552093134
 20
144.5415375259
 30
0.0
 11
156.3521646666
 21
144.5415375259
 31
0.0
  0
LINE
  5
246
330
1F
100
AcDbEntity
  8
0
  6
Continuous
 62
     7
370
    25
100
AcDbLine
 10
152.0450053062
 20
144.5415375259
 30
0.0
 11
142.6419606594
 21
144.5415375259
 31
0.0
  0
LINE
  5
247
330
1F
100
AcDbEntity
  8
0
  6
Continuous
 62
     7
370
    25
100
AcDbLine
 10
142.6419606594
 20
144.5415375259
 30
0.0
 11
142.6419606594
 21
149.8094129276
 31
0.0
  0
LINE
  5
248
330
1F
100
AcDbEntity
  8
0
  6
Continuous
 62
     7
370
    25
100
AcDbLine
 10
165.7552093134
 20
149.8094129276
 30
0.0
 11
142.6419606594
 21
149.8094129276
 31
0.0
  0
LINE
  5
249
330
1F
100
AcDbEntity
  8
0
  6
Continuous
 62
     7
370
    25
100
AcDbLine
 10
165.7552093134
 20
149.8094129276
 30
0.0
 11
165.7552093134
 21
144.5415375259
 31
0.0
  0
LINE
  5
24A
330
1F
100
AcDbEntity
  8
0
  6
Continuous
 62
     7
370
    25
100
AcDbLine
 10
167.1985849864
 20
149.8094129276
 30
0.0
 11
167.1985849864
 21
135.8094129276
 31
0.0
  0
SPLINE
  5
24B
330
1F
100
AcDbEntity
  8
0
  6
Continuous
 62
     7
370
    25
100
AcDbSpline
210
0.0
220
0.0
230
1.0
 70
     8
 71
     3
 72
    12
 73
     8
 74
     0
 42
0.00000001
 43
0.00000001
 40
0.0
 40
0.0
 40
0.0
 40
0.0
 40
0.2500000000000001
 40
0.2500000000000001
 40
0.5000000000000001
 40
0.5000000000000001
 40
1.0
 40
1.0
 40
1.0
 40
1.0
 10
165.7552093134165
 20
144.5415375258579
 30
0.0
 10
165.9718643544612
 20
143.8324604483844
 30
0.0
 10
166.172077878327
 20
143.1150053994011
 30
0.0
 10
166.5271165415445
 20
141.6698463893024
 30
0.0
 10
166.6813001341046
 20
140.9447796849684
 30
0.0
 10
167.0599581928364
 20
138.7606380119787
 30
0.0
 10
167.1985849863905
 20
137.2924131179882
 30
0.0
 10
167.1985849863905
 20
135.8094129275714
 30
0.0
  0
SPLINE
  5
24C
330
1F
100
AcDbEntity
  8
0
  6
Continuous
 62
     7
370
    25
100
AcDbSpline
210
0.0
220
0.0
230
1.0
 70
    24
 71
     3
 72
    12
 73
     8
 74
     0
 42
0.00000001
 43
0.00000001
 40
0.0
 40
0.0
 40
0.0
 40
0.0
 40
0.25
 40
0.25
 40
0.5
 40
0.5
 40
1.0
 40
1.0
 40
1.0
 40
1.0
 10
167.1985849863905
 20
149.8094129275714
 30
0.0
 10
167.1985849863905
 20
149.8094129275714
 30
0.0
 10
167.163775621426
 20
149.8094129275714
 30
0.0
 10
167.0287354413186
 20
149.8094129275714
 30
0.0
 10
166.9290719726854
 20
149.8094129275714
 30
0.0
 10
166.5483770563335
 20
149.8094129275714
 30
0.0
 10
166.1863928333885
 20
149.8094129275714
 30
0.0
 10
165.7552093134165
 20
149.8094129275714
 30
0.0
  0
SPLINE
  5
24D
330
1F
100
AcDbEntity
  8
0
  6
Continuous
 62
     7
370
    25
100
AcDbSpline
210
0.0
220
0.0
230
1.0
 70
     8
 71
     3
 72
     9
 73
     5
 74
     0
 42
0.00000001
 43
0.00000001
 40
0.0
 40
0.0
 40
0.0
 40
0.0
 40
0.4494293696496634
 40
0.9999999999999999
 40
0.9999999999999999
 40
0.9999999999999999
 40
0.9999999999999999
 10
141.7697909238289
 20
140.923707953404
 30
0.0
 10
141.867135444464
 20
141.4735846102656
 30
0.0
 10
142.0837312595328
 20
142.697084216645
 30
0.0
 10
142.4437467202317
 20
143.886616169018
 30
0.0
 10
142.6419606593646
 20
144.5415375258579
 30
0.0
  0
LINE
  5
24E
330
1F
100
AcDbEntity
  8
0
  6
Continuous
 62
     7
370
    25
100
AcDbLine
 10
141.1985849864
 20
140.8919742902
 30
0.0
 11
141.1985849864
 21
149.8094129276
 31
0.0
  0
SPLINE
  5
24F
330
1F
100
AcDbEntity
  8
0
  6
Continuous
 62
     7
370
    25
100
AcDbSpline
210
0.0
220
0.0
230
1.0
 70
    24
 71
     3
 72
    14
 73
    10
 74
     0
 42
0.00000001
 43
0.00000001
 40
0.0
 40
0.0
 40
0.0
 40
0.0
 40
0.125
 40
0.125
 40
0.25
 40
0.25
 40
0.5
 40
0.5
 40
1.0
 40
1.0
 40
1.0
 40
1.0
 10
141.1985849863905
 20
149.8094129275714
 30
0.0
 10
141.1985849863905
 20
149.8094129275714
 30
0.0
 10
141.2071133432107
 20
149.8094129275714
 30
0.0
 10
141.2413002765987
 20
149.8094129275714
 30
0.0
 10
141.2670478096398
 20
149.8094129275714
 30
0.0
 10
141.3683597522723
 20
149.8094129275714
 30
0.0
 10
141.4680777862895
 20
149.8094129275714
 30
0.0
 10
141.8489057675226
 20
149.8094129275714
 30
0.0
 10
142.2109225466812
 20
149.8094129275714
 30
0.0
 10
142.6419606593646
 20
149.8094129275714
 30
0.0
  0
SPLINE
  5
250
330
1F
100
AcDbEntity
  8
0
  6
Continuous
 62
     7
370
    25
100
AcDbSpline
210
0.0
220
0.0
230
1.0
 70
     8
 71
     3
 72
    12
 73
     8
 74
     0
 42
0.00000001
 43
0.00000001
 40
0.0
 40
0.0
 40
0.0
 40
0.0
 40
0.25
 40
0.25
 40
0.5
 40
0.5
 40
1.0
 40
1.0
 40
1.0
 40
1.0
 10
167.1985849863905
 20
135.8094129275714
 30
0.0
 10
167.1985849863905
 20
135.0667562232844
 30
0.0
 10
167.1637756214302
 20
134.3165754117397
 30
0.0
 10
167.0287354413214
 20
132.8327409501417
 30
0.0
 10
166.9290719726862
 20
132.0987080820991
 30
0.0
 10
166.5483770563297
 20
129.9166505572749
 30
0.0
 10
166.1863928333836
 20
128.4884825886882
 30
0.0
 10
165.7552093134165
 20
127.0772883292849
 30
0.0
  0
LINE
  5
251
330
1F
100
AcDbEntity
  8
0
  6
Continuous
 62
     7
370
    25
100
AcDbLine
 10
165.7552093134
 20
127.0772883293
 30
0.0
 11
156.3521646666
 21
127.0772883293
 31
0.0
  0
LINE
  5
252
330
1F
100
AcDbEntity
  8
0
  6
Continuous
 62
     7
370
    25
100
AcDbLine
 10
152.0450053062
 20
127.0772883293
 30
0.0
 11
142.6419606594
 21
127.0772883293
 31
0.0
  0
SPLINE
  5
253
330
1F
100
AcDbEntity
  8
0
  6
Continuous
 62
     7
370
    25
100
AcDbSpline
210
0.0
220
0.0
230
1.0
 70
     8
 71
     3
 72
     9
 73
     5
 74
     0
 42
0.00000001
 43
0.00000001
 40
0.0
 40
0.0
 40
0.0
 40
0.0
 40
0.9656021239381652
 40
1.0
 40
1.0
 40
1.0
 40
1.0
 10
142.6419606593646
 20
127.0772883292849
 30
0.0
 10
142.2965905661947
 20
128.2319080811462
 30
0.0
 10
141.9389172713584
 20
129.4276591293649
 30
0.0
 10
141.7314302564158
 20
130.6554134163859
 30
0.0
 10
141.7242931437914
 20
130.6976455561852
 30
0.0
  0
LINE
  5
254
330
1F
100
AcDbEntity
  8
0
  6
Continuous
 62
     7
370
    25
100
AcDbLine
 10
142.6419606594
 20
121.8094129276
 30
0.0
 11
142.6419606594
 21
127.0772883293
 31
0.0
  0
SPLINE
  5
255
330
1F
100
AcDbEntity
  8
0
  6
Continuous
 62
     7
370
    25
100
AcDbSpline
210
0.0
220
0.0
230
1.0
 70
    24
 71
     3
 72
    14
 73
    10
 74
     0
 42
0.00000001
 43
0.00000001
 40
0.0
 40
0.0
 40
0.0
 40
0.0
 40
0.125
 40
0.125
 40
0.2500000000000001
 40
0.2500000000000001
 40
0.5
 40
0.5
 40
1.0
 40
1.0
 40
1.0
 40
1.0
 10
141.1985849863905
 20
121.8094129275714
 30
0.0
 10
141.1985849863905
 20
121.8094129275714
 30
0.0
 10
141.2071133432107
 20
121.8094129275714
 30
0.0
 10
141.2413002765987
 20
121.8094129275714
 30
0.0
 10
141.2670478096398
 20
121.8094129275714
 30
0.0
 10
141.3683597522723
 20
121.8094129275714
 30
0.0
 10
141.4680777862895
 20
121.8094129275714
 30
0.0
 10
141.8489057675226
 20
121.8094129275714
 30
0.0
 10
142.2109225466812
 20
121.8094129275714
 30
0.0
 10
142.6419606593646
 20
121.8094129275714
 30
0.0
  0
LINE
  5
256
330
1F
100
AcDbEntity
  8
0
  6
Continuous
 62
     7
370
    25
100
AcDbLine
 10
141.1985849864
 20
121.8094129276
 30
0.0
 11
141.1985849864
 21
130.7268515649
 31
0.0
  0
LINE
  5
257
330
1F
100
AcDbEntity
  8
0
  6
Continuous
 62
     7
370
    25
100
AcDbLine
 10
165.7552093134
 20
127.0772883293
 30
0.0
 11
165.7552093134
 21
121.8094129276
 31
0.0
  0
SPLINE
  5
258
330
1F
100
AcDbEntity
  8
0
  6
Continuous
 62
     7
370
    25
100
AcDbSpline
210
0.0
220
0.0
230
1.0
 70
    24
 71
     3
 72
    12
 73
     8
 74
     0
 42
0.00000001
 43
0.00000001
 40
0.0
 40
0.0
 40
0.0
 40
0.0
 40
0.25
 40
0.25
 40
0.5
 40
0.5
 40
1.0
 40
1.0
 40
1.0
 40
1.0
 10
167.1985849863905
 20
121.8094129275714
 30
0.0
 10
167.1985849863905
 20
121.8094129275714
 30
0.0
 10
167.163775621426
 20
121.8094129275714
 30
0.0
 10
167.0287354413186
 20
121.8094129275714
 30
0.0
 10
166.9290719726854
 20
121.8094129275714
 30
0.0
 10
166.5483770563335
 20
121.8094129275714
 30
0.0
 10
166.1863928333885
 20
121.8094129275714
 30
0.0
 10
165.7552093134165
 20
121.8094129275714
 30
0.0
  0
LINE
  5
259
330
1F
100
AcDbEntity
  8
0
  6
Continuous
 62
     7
370
    25
100
AcDbLine
 10
167.1985849864
 20
135.8094129276
 30
0.0
 11
167.1985849864
 21
121.8094129276
 31
0.0
  0
LINE
  5
25A
330
1F
100
AcDbEntity
  8
0
  6
Continuous
 62
     7
370
    25
100
AcDbLine
 10
165.7552093134
 20
121.8094129276
 30
0.0
 11
142.6419606594
 21
121.8094129276
 31
0.0
  0
LINE
  5
25B
330
1F
100
AcDbEntity
  8
0
  6
Continuous
 62
     7
370
    25
100
AcDbLine
 10
180.5934086474
 20
122.805313667
 30
0.0
 11
180.5934086474
 21
148.8135121882
 31
0.0
  0
LINE
  5
25C
330
1F
100
AcDbEntity
  8
0
  6
Continuous
 62
     7
370
    25
100
AcDbLine
 10
183.1985849864
 20
147.3094129276
 30
0.0
 11
183.1985849864
 21
124.3094129276
 31
0.0
  0
LINE
  5
25D
330
1F
100
AcDbEntity
  8
0
  6
Continuous
 62
     7
370
    25
100
AcDbLine
 10
151.9611009648
 20
134.8341403826
 30
0.0
 11
151.9283054378
 21
134.8528844218
 31
0.0
  0
SPLINE
  5
25E
330
1F
100
AcDbEntity
  8
0
  6
Continuous
 62
     7
370
    25
100
AcDbSpline
210
0.0
220
0.0
230
1.0
 70
     8
 71
     3
 72
    15
 73
    11
 74
     0
 42
0.00000001
 43
0.00000001
 40
0.0
 40
0.0
 40
0.0
 40
0.0
 40
0.1241930067305288
 40
0.2496556654892302
 40
0.374370385315121
 40
0.4998404796364201
 40
0.6240146704162363
 40
0.7475381382242062
 40
0.8745858500551823
 40
1.0
 40
1.0
 40
1.0
 40
1.0
 10
152.7413906865211
 20
135.1065800331572
 30
0.0
 10
152.7258302914114
 20
135.0707328304133
 30
0.0
 10
152.6945504238998
 20
134.9986719512015
 30
0.0
 10
152.6171140644115
 20
134.9087964378586
 30
0.0
 10
152.5237600606726
 20
134.8364726600642
 30
0.0
 10
152.4165344546516
 20
134.7875452415597
 30
0.0
 10
152.3021485439307
 20
134.7612171881049
 30
0.0
 10
152.1844777810453
 20
134.7603580941023
 30
0.0
 10
152.0675940558201
 20
134.7817408547319
 30
0.0
 10
151.9964452049254
 20
134.8167493811927
 30
0.0
 10
151.961100964842
 20
134.8341403825741
 30
0.0
  0
LINE
  5
25F
330
1F
100
AcDbEntity
  8
0
  6
Continuous
 62
     7
370
    25
100
AcDbLine
 10
153.7332447312
 20
137.8801592491
 30
0.0
 11
152.7413906865
 21
135.1065800332
 31
0.0
  0
SPLINE
  5
260
330
1F
100
AcDbEntity
  8
0
  6
Continuous
 62
     7
370
    25
100
AcDbSpline
210
0.0
220
0.0
230
1.0
 70
     8
 71
     3
 72
    15
 73
    11
 74
     0
 42
0.00000001
 43
0.00000001
 40
0.0
 40
0.0
 40
0.0
 40
0.0
 40
0.1233025178081761
 40
0.2485158700387114
 40
0.3756924668130948
 40
0.499999088042933
 40
0.6243057092728392
 40
0.751482306047304
 40
0.8766757256079954
 40
1.0
 40
1.0
 40
1.0
 40
1.0
 10
154.6639252447422
 20
137.8801592490705
 30
0.0
 10
154.6397742727799
 20
137.9208043850063
 30
0.0
 10
154.5910980582451
 20
138.0027245395942
 30
0.0
 10
154.47574740004
 20
138.0925434954066
 30
0.0
 10
154.3425877777781
 20
138.1501176435678
 30
0.0
 10
154.1985851344093
 20
138.1692763392379
 30
0.0
 10
154.0545816057108
 20
138.1501182363528
 30
0.0
 10
153.9214317327453
 20
138.0925441226143
 30
0.0
 10
153.8060693752109
 20
138.0027385604676
 30
0.0
 10
153.7573975895397
 20
137.9208136289428
 30
0.0
 10
153.7332447312229
 20
137.8801592490707
 30
0.0
  0
LINE
  5
261
330
1F
100
AcDbEntity
  8
0
  6
Continuous
 62
     7
370
    25
100
AcDbLine
 10
155.6555481511
 20
135.1072263787
 30
0.0
 11
154.6639252447
 21
137.8801592491
 31
0.0
  0
SPLINE
  5
262
330
1F
100
AcDbEntity
  8
0
  6
Continuous
 62
     7
370
    25
100
AcDbSpline
210
0.0
220
0.0
230
1.0
 70
     8
 71
     3
 72
    15
 73
    11
 74
     0
 42
0.00000001
 43
0.00000001
 40
0.0
 40
0.0
 40
0.0
 40
0.0
 40
0.1253320172137762
 40
0.2522975129251759
 40
0.3758847553984063
 40
0.5001929511416491
 40
0.6255758307380151
 40
0.7502289462456483
 40
0.8757444935777824
 40
1.0
 40
1.0
 40
1.0
 40
1.0
 10
156.428249915656
 20
134.8305305281162
 30
0.0
 10
156.3929989990281
 20
134.8138562196335
 30
0.0
 10
156.3220377331737
 20
134.7802902829042
 30
0.0
 10
156.2060508423853
 20
134.7605086666501
 30
0.0
 10
156.0894544761449
 20
134.7625814469966
 30
0.0
 10
155.9763338695634
 20
134.7896594733472
 30
0.0
 10
155.870458155224
 20
134.8388722890544
 30
0.0
 10
155.7783490706048
 20
134.9109580529283
 30
0.0
 10
155.7019174067364
 20
135.0002455744277
 30
0.0
 10
155.6709524992371
 20
135.0716862448648
 30
0.0
 10
155.6555481511159
 20
135.1072263787228
 30
0.0
  0
LINE
  5
263
330
1F
100
AcDbEntity
  8
0
  6
Continuous
 62
     7
370
    25
100
AcDbLine
 10
156.4688645381
 20
134.8528844218
 30
0.0
 11
156.4282499157
 21
134.8305305281
 31
0.0
  0
LINE
  5
264
330
1F
100
AcDbEntity
  8
0
  6
Continuous
 62
     7
370
    25
100
AcDbLine
 10
155.8418813416
 20
133.6574733183
 30
0.0
 11
156.4688645381
 21
134.8528844218
 31
0.0
  0
SPLINE
  5
265
330
1F
100
AcDbEntity
  8
0
  6
Continuous
 62
     7
370
    25
100
AcDbSpline
210
0.0
220
0.0
230
1.0
 70
     8
 71
     3
 72
    15
 73
    11
 74
     0
 42
0.00000001
 43
0.00000001
 40
0.0
 40
0.0
 40
0.0
 40
0.0
 40
0.124633218643857
 40
0.2519059530189797
 40
0.3765391000744913
 40
0.4994035903146549
 40
0.6264494152300148
 40
0.7526064410610425
 40
0.8746804377363274
 40
1.0
 40
1.0
 40
1.0
 40
1.0
 10
155.736652852847
 20
133.6393561516188
 30
0.0
 10
155.7406673285152
 20
133.6362509167661
 30
0.0
 10
155.7487812994938
 20
133.6299746835643
 30
0.0
 10
155.7632198913304
 20
133.6243616700844
 30
0.0
 10
155.7783533412635
 20
133.6218253174576
 30
0.0
 10
155.7937158835452
 20
133.6227107210255
 30
0.0
 10
155.8086464623819
 20
133.6268417915411
 30
0.0
 10
155.8221483624112
 20
133.634332491487
 30
0.0
 10
155.8338340172976
 20
133.6444710734013
 30
0.0
 10
155.8391755416384
 20
133.6531014957441
 30
0.0
 10
155.8418813416401
 20
133.6574733183364
 30
0.0
  0
SPLINE
  5
266
330
1F
100
AcDbEntity
  8
0
  6
Continuous
 62
     7
370
    25
100
AcDbSpline
210
0.0
220
0.0
230
1.0
 70
     8
 71
     3
 72
    11
 73
     7
 74
     0
 42
0.00000001
 43
0.00000001
 40
0.0
 40
0.0
 40
0.0
 40
0.0
 40
0.2506252605986012
 40
0.4999999999996215
 40
0.7493747394010043
 40
1.0
 40
1.0
 40
1.0
 40
1.0
 10
152.6605171231181
 20
133.6393561516187
 30
0.0
 10
152.8902448172914
 20
133.8022104435797
 30
0.0
 10
153.3485539550544
 20
134.1271064488186
 30
0.0
 10
154.1985849879905
 20
134.2608383957557
 30
0.0
 10
155.0486160209208
 20
134.1271064488134
 30
0.0
 10
155.506925158677
 20
133.802210443578
 30
0.0
 10
155.736652852847
 20
133.6393561516188
 30
0.0
  0
SPLINE
  5
267
330
1F
100
AcDbEntity
  8
0
  6
Continuous
 62
     7
370
    25
100
AcDbSpline
210
0.0
220
0.0
230
1.0
 70
     8
 71
     3
 72
    15
 73
    11
 74
     0
 42
0.00000001
 43
0.00000001
 40
0.0
 40
0.0
 40
0.0
 40
0.0
 40
0.1253191957979125
 40
0.2473928354984055
 40
0.37344924164897
 40
0.500595004607996
 40
0.6235484391777584
 40
0.7480947836179481
 40
0.8753671458153865
 40
1.0
 40
1.0
 40
1.0
 40
1.0
 10
152.5552886343249
 20
133.6574733183364
 30
0.0
 10
152.5579944306573
 20
133.6531014900525
 30
0.0
 10
152.5633359477545
 20
133.6444710564737
 30
0.0
 10
152.5750185203436
 20
133.6343352789739
 30
0.0
 10
152.5885195003309
 20
133.6268431631003
 30
0.0
 10
152.6034535291809
 20
133.6227107178081
 30
0.0
 10
152.61882054037
 20
133.6218227760346
 30
0.0
 10
152.6339532768082
 20
133.6243637182921
 30
0.0
 10
152.6483887065899
 20
133.6299744965593
 30
0.0
 10
152.6565026574191
 20
133.6362508548681
 30
0.0
 10
152.6605171231181
 20
133.6393561516187
 30
0.0
  0
LINE
  5
268
330
1F
100
AcDbEntity
  8
0
  6
Continuous
 62
     7
370
    25
100
AcDbLine
 10
151.9283054378
 20
134.8528844218
 30
0.0
 11
152.5552886343
 21
133.6574733183
 31
0.0
  0
SPLINE
  5
269
330
1F
100
AcDbEntity
  8
0
  6
Continuous
 62
     7
370
    25
100
AcDbSpline
210
0.0
220
0.0
230
1.0
 70
     8
 71
     3
 72
    15
 73
    11
 74
     0
 42
0.00000001
 43
0.00000001
 40
0.0
 40
0.0
 40
0.0
 40
0.0
 40
0.1233867499278388
 40
0.2487396502211601
 40
0.3739317114754985
 40
0.4999973617625659
 40
0.6259591330513601
 40
0.7512551380600303
 40
0.8765613478174267
 40
1.0
 40
1.0
 40
1.0
 40
1.0
 10
154.1357021215844
 20
135.8308223857142
 30
0.0
 10
154.1385803227763
 20
135.8368371817972
 30
0.0
 10
154.144382588888
 20
135.8489626188858
 30
0.0
 10
154.1599119936087
 20
135.8623538792359
 30
0.0
 10
154.1782665754822
 20
135.8712315908159
 30
0.0
 10
154.1985793919651
 20
135.8739882541123
 30
0.0
 10
154.2188978096802
 20
135.8712335729117
 30
0.0
 10
154.2372506788443
 20
135.8623578746223
 30
0.0
 10
154.2527887832398
 20
135.8489675073685
 30
0.0
 10
154.2585893452711
 20
135.8368404098225
 30
0.0
 10
154.2614678511966
 20
135.8308223857142
 30
0.0
  0
LINE
  5
26A
330
1F
100
AcDbEntity
  8
0
  6
Continuous
 62
     7
370
    25
100
AcDbLine
 10
153.8965885959
 20
135.1925683564
 30
0.0
 11
154.1357021216
 21
135.8308223857
 31
0.0
  0
SPLINE
  5
26B
330
1F
100
AcDbEntity
  8
0
  6
Continuous
 62
     7
370
    25
100
AcDbSpline
210
0.0
220
0.0
230
1.0
 70
     8
 71
     3
 72
    15
 73
    11
 74
     0
 42
0.00000001
 43
0.00000001
 40
0.0
 40
0.0
 40
0.0
 40
0.0
 40
0.126158522421064
 40
0.2513121451548799
 40
0.3762846848783793
 40
0.499306278334087
 40
0.6261594278645742
 40
0.7521171342021308
 40
0.875819692269278
 40
1.0
 40
1.0
 40
1.0
 40
1.0
 10
153.9594714607128
 20
135.1075040030917
 30
0.0
 10
153.9542403642241
 20
135.107826309684
 30
0.0
 10
153.9438198388814
 20
135.1084683555765
 30
0.0
 10
153.929033288367
 20
135.1139165959517
 30
0.0
 10
153.9158429357415
 20
135.1221391985373
 30
0.0
 10
153.9049723609003
 20
135.1333958048499
 30
0.0
 10
153.8969647735717
 20
135.146916550191
 30
0.0
 10
153.892798146539
 20
135.1620534377678
 30
0.0
 10
153.8921770950274
 20
135.1777425693389
 30
0.0
 10
153.8951162073822
 20
135.1876200816976
 30
0.0
 10
153.8965885958649
 20
135.1925683564416
 30
0.0
  0
LINE
  5
26C
330
1F
100
AcDbEntity
  8
0
  6
Continuous
 62
     7
370
    25
100
AcDbLine
 10
154.4376985149
 20
135.1075040031
 30
0.0
 11
153.9594714607
 21
135.1075040031
 31
0.0
  0
SPLINE
  5
26D
330
1F
100
AcDbEntity
  8
0
  6
Continuous
 62
     7
370
    25
100
AcDbSpline
210
0.0
220
0.0
230
1.0
 70
     8
 71
     3
 72
    15
 73
    11
 74
     0
 42
0.00000001
 43
0.00000001
 40
0.0
 40
0.0
 40
0.0
 40
0.0
 40
0.1241186784437694
 40
0.2478474916628983
 40
0.3736574149478942
 40
0.5005082335853297
 40
0.6234527658309919
 40
0.7484986612277521
 40
0.8736976492452766
 40
1.0
 40
1.0
 40
1.0
 40
1.0
 10
154.5005813796421
 20
135.1925683566647
 30
0.0
 10
154.502052452251
 20
135.1876225110066
 30
0.0
 10
154.5049899767293
 20
135.1777463549284
 30
0.0
 10
154.5043732422292
 20
135.1620649593027
 30
0.0
 10
154.5002112806346
 20
135.1469324272225
 30
0.0
 10
154.4922125328362
 20
135.133417519608
 30
0.0
 10
154.4813464412994
 20
135.1221574584121
 30
0.0
 10
154.4681587234748
 20
135.1139277459785
 30
0.0
 10
154.4533642768996
 20
135.1084681755935
 30
0.0
 10
154.4429356859922
 20
135.1078263325365
 30
0.0
 10
154.4376985148778
 20
135.1075040030917
 30
0.0
  0
LINE
  5
26E
330
1F
100
AcDbEntity
  8
0
  6
Continuous
 62
     7
370
    25
100
AcDbLine
 10
154.2614678512
 20
135.8308223857
 30
0.0
 11
154.5005813796
 21
135.1925683567
 31
0.0
  0
CIRCLE
  5
26F
330
1F
100
AcDbEntity
  8
0
  6
Continuous
 62
     7
370
    25
100
AcDbCircle
 10
154.1985849864
 20
135.8094129276
 30
0.0
 40
4.499999999999972
  0
LINE
  5
270
330
1F
100
AcDbEntity
  8
0
  6
Continuous
 62
     7
370
    25
100
AcDbLine
 10
140.8985849864
 20
134.7969966929
 30
0.0
 11
140.8985849864
 21
136.8218291622
 31
0.0
  0
SPLINE
  5
271
330
1F
100
AcDbEntity
  8
0
  6
Continuous
 62
     7
370
    25
100
AcDbSpline
210
0.0
220
0.0
230
1.0
 70
     8
 71
     3
 72
    11
 73
     7
 74
     0
 42
0.00000001
 43
0.00000001
 40
0.0
 40
0.0
 40
0.0
 40
0.0
 40
0.2561894651307283
 40
0.5096044939206908
 40
0.7692742066553652
 40
1.0
 40
1.0
 40
1.0
 40
1.0
 10
140.8985849863905
 20
134.796996692938
 30
0.0
 10
140.8229888540967
 20
134.7374846522896
 30
0.0
 10
140.672615267422
 20
134.6191050641932
 30
0.0
 10
140.3734024814667
 20
134.4484675220578
 30
0.0
 10
140.04588274658
 20
134.2968436111571
 30
0.0
 10
139.8097043657662
 20
134.2174075754859
 30
0.0
 10
139.6985849863905
 20
134.180033777963
 30
0.0
  0
LINE
  5
272
330
1F
100
AcDbEntity
  8
0
  6
Continuous
 62
     7
370
    25
100
AcDbLine
 10
139.6985849864
 20
137.4387920772
 30
0.0
 11
139.6985849864
 21
134.180033778
 31
0.0
  0
SPLINE
  5
273
330
1F
100
AcDbEntity
  8
0
  6
Continuous
 62
     7
370
    25
100
AcDbSpline
210
0.0
220
0.0
230
1.0
 70
     8
 71
     3
 72
    11
 73
     7
 74
     0
 42
0.00000001
 43
0.00000001
 40
0.0
 40
0.0
 40
0.0
 40
0.0
 40
0.230737480522408
 40
0.4903955403005858
 40
0.7438105520730638
 40
1.0
 40
1.0
 40
1.0
 40
1.0
 10
139.6985849863905
 20
137.4387920771798
 30
0.0
 10
139.809710220147
 20
137.4014168862668
 30
0.0
 10
140.0458890972224
 20
137.3219819071723
 30
0.0
 10
140.3734067381735
 20
137.1703552274086
 30
0.0
 10
140.672615334836
 20
136.9997209224602
 30
0.0
 10
140.8229888766494
 20
136.8813412468489
 30
0.0
 10
140.8985849863905
 20
136.8218291622049
 30
0.0
  0
LINE
  5
274
330
1F
100
AcDbEntity
  8
0
  6
Continuous
 62
     7
370
    25
100
AcDbLine
 10
139.0933567729
 20
134.0332525078
 30
0.0
 11
104.8166189751
 21
134.9308204754
 31
0.0
  0
LINE
  5
275
330
1F
100
AcDbEntity
  8
0
  6
Continuous
 62
     7
370
    25
100
AcDbLine
 10
104.8166189751
 20
134.9308204754
 30
0.0
 11
104.8166189751
 21
136.6880053797
 31
0.0
  0
LINE
  5
276
330
1F
100
AcDbEntity
  8
0
  6
Continuous
 62
     7
370
    25
100
AcDbLine
 10
104.8166189751
 20
136.6880053797
 30
0.0
 11
139.0933567729
 21
137.5855733473
 31
0.0
  0
ELLIPSE
  5
277
330
1F
100
AcDbEntity
  8
0
  6
Continuous
 62
     7
370
    25
100
AcDbEllipse
 10
139.0985849864
 20
136.7851616909
 30
0.0
 11
0.9988086229566022
 21
0.06103964413861718
 31
0.0
210
0.0
220
0.0
230
1.0
 40
0.7994627403
 41
0.8784769082855948
 42
1.52720625440984
  0
ELLIPSE
  5
278
330
1F
100
AcDbEntity
  8
0
  6
Continuous
 62
     7
370
    25
100
AcDbEllipse
 10
139.0985849864
 20
134.8336641642
 30
0.0
 11
0.9988086229566022
 21
-0.06103964413861718
 31
0.0
210
0.0
220
0.0
230
1.0
 40
0.7994627403
 41
4.755979052769755
 42
5.404708398893972
  0
SPLINE
  5
279
330
1F
100
AcDbEntity
  8
0
  6
Continuous
 62
     7
370
    25
100
AcDbSpline
210
0.0
220
0.0
230
1.0
 70
    24
 71
     3
 72
    11
 73
     7
 74
     0
 42
0.00000001
 43
0.00000001
 40
0.0
 40
0.0
 40
0.0
 40
0.0
 40
0.2500000000000026
 40
0.5000000000000006
 40
0.7499999999999989
 40
1.0
 40
1.0
 40
1.0
 40
1.0
 10
104.7983013904554
 20
137.3875257168849
 30
0.0
 10
104.7986292517112
 20
137.3750052006623
 30
0.0
 10
104.7992849742228
 20
137.3499641682172
 30
0.0
 10
104.8035439433621
 20
137.1873206985946
 30
0.0
 10
104.8095357990239
 20
136.9585009625401
 30
0.0
 10
104.8142579164349
 20
136.7781705739939
 30
0.0
 10
104.8166189751404
 20
136.6880053797207
 30
0.0
  0
LINE
  5
27A
330
1F
100
AcDbEntity
  8
0
  6
Continuous
 62
     7
370
    25
100
AcDbLine
 10
139.0750391882
 20
138.2850936845
 30
0.0
 11
104.7983013905
 21
137.3875257169
 31
0.0
  0
SPLINE
  5
27B
330
1F
100
AcDbEntity
  8
0
  6
Continuous
 62
     7
370
    25
100
AcDbSpline
210
0.0
220
0.0
230
1.0
 70
    24
 71
     3
 72
    11
 73
     7
 74
     0
 42
0.00000001
 43
0.00000001
 40
0.0
 40
0.0
 40
0.0
 40
0.0
 40
0.2499999999999985
 40
0.4999999999999984
 40
0.7499999999999983
 40
1.0
 40
1.0
 40
1.0
 40
1.0
 10
139.075039188193
 20
138.285093684504
 30
0.0
 10
139.0753670494489
 20
138.2725731682814
 30
0.0
 10
139.0760227719605
 20
138.2475321358363
 30
0.0
 10
139.0802817410998
 20
138.0848886662137
 30
0.0
 10
139.0862735967616
 20
137.8560689301593
 30
0.0
 10
139.0909957141726
 20
137.675738541613
 30
0.0
 10
139.0933567728781
 20
137.5855733473399
 30
0.0
  0
LINE
  5
27C
330
1F
100
AcDbEntity
  8
0
  6
Continuous
 62
     7
370
    25
100
AcDbLine
 10
104.7983013905
 20
134.2313001383
 30
0.0
 11
139.0750391882
 21
133.3337321706
 31
0.0
  0
SPLINE
  5
27D
330
1F
100
AcDbEntity
  8
0
  6
Continuous
 62
     7
370
    25
100
AcDbSpline
210
0.0
220
0.0
230
1.0
 70
    24
 71
     3
 72
    11
 73
     7
 74
     0
 42
0.00000001
 43
0.00000001
 40
0.0
 40
0.0
 40
0.0
 40
0.0
 40
0.2499999999999985
 40
0.4999999999999984
 40
0.7499999999999983
 40
1.0
 40
1.0
 40
1.0
 40
1.0
 10
104.7983013904554
 20
134.231300138258
 30
0.0
 10
104.7986292517112
 20
134.2438206544805
 30
0.0
 10
104.7992849742228
 20
134.2688616869257
 30
0.0
 10
104.8035439433621
 20
134.4315051565482
 30
0.0
 10
104.8095357990239
 20
134.6603248926027
 30
0.0
 10
104.8142579164349
 20
134.8406552811489
 30
0.0
 10
104.8166189751404
 20
134.9308204754221
 30
0.0
  0
SPLINE
  5
27E
330
1F
100
AcDbEntity
  8
0
  6
Continuous
 62
     7
370
    25
100
AcDbSpline
210
0.0
220
0.0
230
1.0
 70
    24
 71
     3
 72
    11
 73
     7
 74
     0
 42
0.00000001
 43
0.00000001
 40
0.0
 40
0.0
 40
0.0
 40
0.0
 40
0.2500000000000006
 40
0.4999999999999992
 40
0.7499999999999969
 40
1.0
 40
1.0
 40
1.0
 40
1.0
 10
139.0933567728781
 20
134.0332525078029
 30
0.0
 10
139.0909957141726
 20
133.9430873135298
 30
0.0
 10
139.0862735967616
 20
133.7627569249835
 30
0.0
 10
139.0802817410998
 20
133.5339371889291
 30
0.0
 10
139.0760227719605
 20
133.3712937193065
 30
0.0
 10
139.0753670494489
 20
133.3462526868614
 30
0.0
 10
139.075039188193
 20
133.3337321706388
 30
0.0
  0
ELLIPSE
  5
27F
330
1F
100
AcDbEntity
  8
0
  6
Continuous
 62
     7
370
    25
100
AcDbEllipse
 10
104.8166189751
 20
136.708961298
 30
0.0
 11
1.49999997144873
 21
0.02095282558968847
 31
0.0
210
0.0
220
0.0
230
0.9999999999999998
 40
0.0139678873
 41
3.842044658398685
 42
4.712193869245414
  0
ELLIPSE
  5
280
330
1F
100
AcDbEntity
  8
0
  6
Continuous
 62
     7
370
    25
100
AcDbEllipse
 10
104.8166189751
 20
134.9098645571
 30
0.0
 11
1.49999997144873
 21
-0.02095282558966005
 31
0.0
210
0.0
220
0.0
230
1.0
 40
0.0139678873
 41
1.570991437934171
 42
2.441140648780724
  0
SPLINE
  5
281
330
1F
100
AcDbEntity
  8
0
  6
Continuous
 62
     7
370
    25
100
AcDbSpline
210
0.0
220
0.0
230
1.0
 70
     8
 71
     3
 72
     9
 73
     5
 74
     0
 42
0.00000001
 43
0.00000001
 40
0.0
 40
0.0
 40
0.0
 40
0.0
 40
0.5600029565045049
 40
1.0
 40
1.0
 40
1.0
 40
1.0
 10
103.6699812596919
 20
134.9393888409475
 30
0.0
 10
103.6618335003388
 20
134.9393832028812
 30
0.0
 10
103.647284006879
 20
134.939373134959
 30
0.0
 10
103.6333393639385
 20
134.9394953115624
 30
0.0
 10
103.627203762272
 20
134.9395490689067
 30
0.0
  0
ELLIPSE
  5
282
330
1F
100
AcDbEntity
  8
0
  6
Continuous
 62
     7
370
    25
100
AcDbEllipse
 10
104.8166189751
 20
134.892275395
 30
0.0
 11
1.499999872704151
 21
-0.0430792567095466
 31
0.0
210
0.0
220
0.0
230
1.0
 40
0.0143449667
 41
2.486833182542676
 42
2.678357024933804
  0
LINE
  5
283
330
1F
100
AcDbEntity
  8
0
  6
Continuous
 62
     7
370
    25
100
AcDbLine
 10
103.4749781886
 20
136.6783963021
 30
0.0
 11
103.4749781886
 21
134.9404295531
 31
0.0
  0
ELLIPSE
  5
284
330
1F
100
AcDbEntity
  8
0
  6
Continuous
 62
     7
370
    25
100
AcDbEllipse
 10
104.8166189751
 20
136.7265504601
 30
0.0
 11
1.499999872704151
 21
0.04307925670957503
 31
0.0
210
0.0
220
0.0
230
1.0
 40
0.0143449667
 41
3.604828282244299
 42
3.796352124635644
  0
SPLINE
  5
285
330
1F
100
AcDbEntity
  8
0
  6
Continuous
 62
     7
370
    25
100
AcDbSpline
210
0.0
220
0.0
230
1.0
 70
     8
 71
     3
 72
     9
 73
     5
 74
     0
 42
0.00000001
 43
0.00000001
 40
0.0
 40
0.0
 40
0.0
 40
0.0
 40
0.5599925069634957
 40
0.9999999999999999
 40
0.9999999999999999
 40
0.9999999999999999
 40
0.9999999999999999
 10
103.627203762272
 20
136.6792767862361
 30
0.0
 10
103.635026572129
 20
136.6793425313875
 30
0.0
 10
103.6489960623626
 20
136.6794599350144
 30
0.0
 10
103.6635690402331
 20
136.6794440178618
 30
0.0
 10
103.6699812596919
 20
136.6794370141953
 30
0.0
  0
ELLIPSE
  5
286
330
1F
100
AcDbEntity
  8
0
  6
Continuous
 62
     7
370
    25
100
AcDbEllipse
 10
104.7983013905
 20
134.2103442199
 30
0.0
 11
0.7999998117959422
 21
-0.02096310677475799
 31
0.0
210
0.0
220
0.0
230
1.0
 40
0.026176936
 41
1.571482264229186
 42
2.441631475076685
  0
SPLINE
  5
287
330
1F
100
AcDbEntity
  8
0
  6
Continuous
 62
     7
370
    25
100
AcDbSpline
210
0.0
220
0.0
230
1.0
 70
     8
 71
     3
 72
    12
 73
     8
 74
     0
 42
0.00000001
 43
0.00000001
 40
0.0
 40
0.0
 40
0.0
 40
0.0
 40
0.2198609600791264
 40
0.4397396970008128
 40
0.6583291451397731
 40
0.8791239516843589
 40
1.0
 40
1.0
 40
1.0
 40
1.0
 10
104.1867612755495
 20
134.2398685037834
 30
0.0
 10
104.1268462128206
 20
134.2505404984275
 30
0.0
 10
104.0070112429346
 20
134.271885350599
 30
0.0
 10
103.8502762546601
 20
134.4000037458661
 30
0.0
 10
103.733707930874
 20
134.5829416819311
 30
0.0
 10
103.6774512390797
 20
134.7744908538183
 30
0.0
 10
103.6719333678634
 20
134.8962965255033
 30
0.0
 10
103.6699812596919
 20
134.9393888409475
 30
0.0
  0
ELLIPSE
  5
288
330
1F
100
AcDbEntity
  8
0
  6
Continuous
 62
     7
370
    25
100
AcDbEllipse
 10
104.7983013905
 20
137.4084816352
 30
0.0
 11
0.7999998117959422
 21
0.02096310677475799
 31
0.0
210
0.0
220
0.0
230
1.0
 40
0.026176936
 41
3.841553832102595
 42
4.7117030429504
  0
SPLINE
  5
289
330
1F
100
AcDbEntity
  8
0
  6
Continuous
 62
     7
370
    25
100
AcDbSpline
210
0.0
220
0.0
230
1.0
 70
     8
 71
     3
 72
    12
 73
     8
 74
     0
 42
0.00000001
 43
0.00000001
 40
0.0
 40
0.0
 40
0.0
 40
0.0
 40
0.2198610998683205
 40
0.4397399767664977
 40
0.6583294271823363
 40
0.8791242261983233
 40
1.0
 40
1.0
 40
1.0
 40
1.0
 10
103.6699812596919
 20
136.6794370141953
 30
0.0
 10
103.6760842095873
 20
136.7581279239145
 30
0.0
 10
103.6882906028364
 20
136.9155161059638
 30
0.0
 10
103.7808145439347
 20
137.1247978544488
 30
0.0
 10
103.9165984913565
 20
137.2834471751131
 30
0.0
 10
104.0610263547198
 20
137.3635472378284
 30
0.0
 10
104.1539033663686
 20
137.3749302751301
 30
0.0
 10
104.1867612755495
 20
137.3789573513595
 30
0.0
  0
ELLIPSE
  5
28A
330
1F
100
AcDbEntity
  8
0
  6
Continuous
 62
     7
370
    25
100
AcDbEllipse
 10
139.0985849864
 20
136.7851616909
 30
0.0
 11
1.557390436637235
 21
0.09517594847730494
 31
0.0
210
0.0
220
0.0
230
1.0
 40
0.9613560848
 41
0.8784769082856434
 42
1.527206254409877
  0
SPLINE
  5
28B
330
1F
100
AcDbEntity
  8
0
  6
Continuous
 62
     7
370
    25
100
AcDbSpline
210
0.0
220
0.0
230
1.0
 70
    24
 71
     3
 72
    10
 73
     6
 74
     0
 42
0.00000001
 43
0.00000001
 40
0.0
 40
0.0
 40
0.0
 40
0.0
 40
0.2808335173386667
 40
0.5616510917414076
 40
1.0
 40
1.0
 40
1.0
 40
1.0
 10
140.0222729900256
 20
137.9984159954041
 30
0.0
 10
140.0040648703807
 20
137.9669359926091
 30
0.0
 10
139.9676496647671
 20
137.9039777741407
 30
0.0
 10
139.8578665799667
 20
137.7141738908309
 30
0.0
 10
139.7589046272329
 20
137.5430786536826
 30
0.0
 10
139.6985849863905
 20
137.4387920771798
 30
0.0
  0
SPLINE
  5
28C
330
1F
100
AcDbEntity
  8
0
  6
Continuous
 62
     7
370
    25
100
AcDbSpline
210
0.0
220
0.0
230
1.0
 70
     8
 71
     3
 72
    11
 73
     7
 74
     0
 42
0.00000001
 43
0.00000001
 40
0.0
 40
0.0
 40
0.0
 40
0.0
 40
0.2561894651307132
 40
0.5096044939206589
 40
0.7692742066444711
 40
1.0
 40
1.0
 40
1.0
 40
1.0
 10
140.8985849863905
 20
136.8218291622049
 30
0.0
 10
140.8542199957737
 20
136.9353366975261
 30
0.0
 10
140.7659704708391
 20
137.1611225239029
 30
0.0
 10
140.5561583839146
 20
137.4863248596624
 30
0.0
 10
140.308650514423
 20
137.7762812175916
 30
0.0
 10
140.1139006836848
 20
137.92734303877
 30
0.0
 10
140.0222729900256
 20
137.9984159954041
 30
0.0
  0
SPLINE
  5
28D
330
1F
100
AcDbEntity
  8
0
  6
Continuous
 62
     7
370
    25
100
AcDbSpline
210
0.0
220
0.0
230
1.0
 70
    24
 71
     3
 72
    10
 73
     6
 74
     0
 42
0.00000001
 43
0.00000001
 40
0.0
 40
0.0
 40
0.0
 40
0.0
 40
0.280833517338673
 40
0.5616510917414113
 40
1.0
 40
1.0
 40
1.0
 40
1.0
 10
139.6985849863905
 20
134.180033777963
 30
0.0
 10
139.736935435353
 20
134.1137297188906
 30
0.0
 10
139.8136341561205
 20
133.9811253648315
 30
0.0
 10
139.9387885061625
 20
133.7647461139271
 30
0.0
 10
139.9906575725158
 20
133.6750697285767
 30
0.0
 10
140.0222729900256
 20
133.6204098597387
 30
0.0
  0
ELLIPSE
  5
28E
330
1F
100
AcDbEntity
  8
0
  6
Continuous
 62
     7
370
    25
100
AcDbEllipse
 10
139.0985849864
 20
134.8336641642
 30
0.0
 11
1.557390436637235
 21
-0.09517594847733335
 31
0.0
210
0.0
220
0.0
230
1.0
 40
0.9613560848
 41
4.755979052769742
 42
5.404708398893993
  0
SPLINE
  5
28F
330
1F
100
AcDbEntity
  8
0
  6
Continuous
 62
     7
370
    25
100
AcDbSpline
210
0.0
220
0.0
230
1.0
 70
     8
 71
     3
 72
    11
 73
     7
 74
     0
 42
0.00000001
 43
0.00000001
 40
0.0
 40
0.0
 40
0.0
 40
0.0
 40
0.2307374805226516
 40
0.4903955403005857
 40
0.7438105520730655
 40
1.0
 40
1.0
 40
1.0
 40
1.0
 10
140.0222729900256
 20
133.6204098597387
 30
0.0
 10
140.113904994785
 20
133.6914868779289
 30
0.0
 10
140.3086541373217
 20
133.8425496903482
 30
0.0
 10
140.5561617045597
 20
134.1325057195037
 30
0.0
 10
140.7659704339538
 20
134.4577033800524
 30
0.0
 10
140.8542199834341
 20
134.6834891739465
 30
0.0
 10
140.8985849863905
 20
134.796996692938
 30
0.0
  0
LINE
  5
290
330
1F
100
AcDbEntity
  8
0
  6
Continuous
 62
     7
370
    25
100
AcDbLine
 10
141.1985984417
 20
138.4148695977
 30
0.0
 11
139.0750391882
 21
138.2850936845
 31
0.0
  0
SPLINE
  5
291
330
1F
100
AcDbEntity
  8
0
  6
Continuous
 62
     7
370
    25
100
AcDbSpline
210
0.0
220
0.0
230
1.0
 70
     8
 71
     3
 72
    13
 73
     9
 74
     0
 42
0.00000001
 43
0.00000001
 40
0.0
 40
0.0
 40
0.0
 40
0.0
 40
0.1035746466401555
 40
0.2111076158583393
 40
0.3219769626223817
 40
0.4454462032504118
 40
0.7113049728010379
 40
1.0
 40
1.0
 40
1.0
 40
1.0
 10
143.2985849863905
 20
136.9684990472716
 30
0.0
 10
143.2913288216301
 20
137.0668418257204
 30
0.0
 10
143.2765391825386
 20
137.2672857583688
 30
0.0
 10
143.1502665729766
 20
137.5502278085987
 30
0.0
 10
142.9537191848459
 20
137.8084860336177
 30
0.0
 10
142.5898675117586
 20
138.1115813833727
 30
0.0
 10
141.9922801250233
 20
138.3771110496562
 30
0.0
 10
141.4703236414635
 20
138.401942565071
 30
0.0
 10
141.1985984416702
 20
138.4148695976873
 30
0.0
  0
LINE
  5
292
330
1F
100
AcDbEntity
  8
0
  6
Continuous
 62
     7
370
    25
100
AcDbLine
 10
140.8985849864
 20
136.8218291622
 30
0.0
 11
143.2985849864
 21
136.9684990473
 31
0.0
  0
LINE
  5
293
330
1F
100
AcDbEntity
  8
0
  6
Continuous
 62
     7
370
    25
100
AcDbLine
 10
143.2985849864
 20
134.6503268079
 30
0.0
 11
140.8985849864
 21
134.7969966929
 31
0.0
  0
SPLINE
  5
294
330
1F
100
AcDbEntity
  8
0
  6
Continuous
 62
     7
370
    25
100
AcDbSpline
210
0.0
220
0.0
230
1.0
 70
     8
 71
     3
 72
    13
 73
     9
 74
     0
 42
0.00000001
 43
0.00000001
 40
0.0
 40
0.0
 40
0.0
 40
0.0
 40
0.288694968291485
 40
0.5545536835943152
 40
0.6780091910936104
 40
0.7888922083801199
 40
0.8964194071406489
 40
1.0
 40
1.0
 40
1.0
 40
1.0
 10
141.1985984416702
 20
133.2039562574555
 30
0.0
 10
141.4703236322463
 20
133.2168832629383
 30
0.0
 10
141.9922800981008
 20
133.2417147262323
 30
0.0
 10
142.5898555062041
 20
133.5072393276648
 30
0.0
 10
142.9537096863836
 20
133.8103303242691
 30
0.0
 10
143.1502571779493
 20
134.0685820783897
 30
0.0
 10
143.2765404670555
 20
134.3515334445579
 30
0.0
 10
143.2913289690266
 20
134.551978107249
 30
0.0
 10
143.2985849863905
 20
134.6503268078712
 30
0.0
  0
LINE
  5
295
330
1F
100
AcDbEntity
  8
0
  6
Continuous
 62
     7
370
    25
100
AcDbLine
 10
139.0750391882
 20
133.3337321706
 30
0.0
 11
141.1985984417
 21
133.2039562575
 31
0.0
  0
SPLINE
  5
296
330
1F
100
AcDbEntity
  8
0
  6
Continuous
 62
     7
370
    25
100
AcDbSpline
210
0.0
220
0.0
230
1.0
 70
     8
 71
     3
 72
    12
 73
     8
 74
     0
 42
0.00000001
 43
0.00000001
 40
0.0
 40
0.0
 40
0.0
 40
0.0
 40
0.2225634137434412
 40
0.446206317369527
 40
0.6680851268156953
 40
0.8917990985568368
 40
1.0
 40
1.0
 40
1.0
 40
1.0
 10
104.144645692517
 20
137.3780121154874
 30
0.0
 10
104.0829491268822
 20
137.3656590079206
 30
0.0
 10
103.9592567513778
 20
137.3408928770336
 30
0.0
 10
103.8000904095843
 20
137.2083089490358
 30
0.0
 10
103.6840085215673
 20
137.0219515455412
 30
0.0
 10
103.6322934708395
 20
136.8338607341879
 30
0.0
 10
103.6284550490625
 20
136.7172807012995
 30
0.0
 10
103.627203762272
 20
136.6792767862361
 30
0.0
  0
SPLINE
  5
297
330
1F
100
AcDbEntity
  8
0
  6
Continuous
 62
     7
370
    25
100
AcDbSpline
210
0.0
220
0.0
230
1.0
 70
     8
 71
     3
 72
    12
 73
     8
 74
     0
 42
0.00000001
 43
0.00000001
 40
0.0
 40
0.0
 40
0.0
 40
0.0
 40
0.2225634137435263
 40
0.4462063173695687
 40
0.6680851268158023
 40
0.8917990985569296
 40
1.0
 40
1.0
 40
1.0
 40
1.0
 10
103.627203762272
 20
134.9395490689067
 30
0.0
 10
103.6327903283746
 20
134.8610454088642
 30
0.0
 10
103.6439905568641
 20
134.7036573258075
 30
0.0
 10
103.7380413345512
 20
134.4943057881801
 30
0.0
 10
103.8775323979492
 20
134.33554649371
 30
0.0
 10
104.0227564977856
 20
134.2576976233934
 30
0.0
 10
104.1146796665156
 20
134.24496458256
 30
0.0
 10
104.144645692517
 20
134.2408137396554
 30
0.0
  0
ELLIPSE
  5
298
330
1F
100
AcDbEntity
  8
0
  6
Continuous
 62
     7
370
    25
100
AcDbEllipse
 10
104.7790004727
 20
134.1935400658
 30
0.0
 11
0.7999991634988818
 21
-0.04310148564323413
 31
0.0
210
0.0
220
0.0
230
1.0
 40
0.0268411366
 41
2.487867318783658
 42
2.679391161175109
  0
SPLINE
  5
299
330
1F
100
AcDbEntity
  8
0
  6
Continuous
 62
     7
370
    25
100
AcDbSpline
210
0.0
220
0.0
230
1.0
 70
     8
 71
     3
 72
    11
 73
     7
 74
     0
 42
0.00000001
 43
0.00000001
 40
0.0
 40
0.0
 40
0.0
 40
0.0
 40
0.2499999999999989
 40
0.4999999999999977
 40
0.7499999999999992
 40
1.0
 40
1.0
 40
1.0
 40
1.0
 10
104.0634587199136
 20
134.2416942238014
 30
0.0
 10
103.9852236115813
 20
134.256693528968
 30
0.0
 10
103.8287533949168
 20
134.2866921393011
 30
0.0
 10
103.6354272435003
 20
134.4502118420978
 30
0.0
 10
103.5010508112213
 20
134.6757914561801
 30
0.0
 10
103.4836690628342
 20
134.8522168540952
 30
0.0
 10
103.4749781886406
 20
134.9404295530527
 30
0.0
  0
SPLINE
  5
29A
330
1F
100
AcDbEntity
  8
0
  6
Continuous
 62
     7
370
    25
100
AcDbSpline
210
0.0
220
0.0
230
1.0
 70
     8
 71
     3
 72
    11
 73
     7
 74
     0
 42
0.00000001
 43
0.00000001
 40
0.0
 40
0.0
 40
0.0
 40
0.0
 40
0.2499999999999988
 40
0.5000000000000019
 40
0.7499999999999991
 40
1.0
 40
1.0
 40
1.0
 40
1.0
 10
104.0634587199136
 20
137.3771316313414
 30
0.0
 10
103.9852236115813
 20
137.3621323261748
 30
0.0
 10
103.8287533949168
 20
137.3321337158417
 30
0.0
 10
103.6354272435003
 20
137.1686140130451
 30
0.0
 10
103.5010508112213
 20
136.9430343989627
 30
0.0
 10
103.4836690628342
 20
136.7666090010476
 30
0.0
 10
103.4749781886406
 20
136.6783963020901
 30
0.0
  0
ELLIPSE
  5
29B
330
1F
100
AcDbEntity
  8
0
  6
Continuous
 62
     7
370
    25
100
AcDbEllipse
 10
104.7790004727
 20
137.4252857894
 30
0.0
 11
0.7999991634988818
 21
0.04310148564320571
 31
0.0
210
0.0
220
0.0
230
0.9999999999999999
 40
0.0268411366
 41
3.603794146007214
 42
3.795317988398133
  0
LINE
  5
29C
330
1F
100
AcDbEntity
  8
0
  6
Continuous
 62
     7
370
    25
100
AcDbLine
 10
143.2985849864
 20
136.9684990473
 30
0.0
 11
143.2985849864
 21
134.6503268079
 31
0.0
  0
LINE
  5
29D
330
1F
100
AcDbEntity
  8
0
  6
Continuous
 62
     7
370
    25
100
AcDbLine
 10
103.9643163644
 20
137.59565359
 30
0.0
 11
125.5918645331
 21
138.1619908701
 31
0.0
  0
SPLINE
  5
29E
330
1F
100
AcDbEntity
  8
0
  6
Continuous
 62
     7
370
    25
100
AcDbSpline
210
0.0
220
0.0
230
1.0
 70
     8
 71
     3
 72
     9
 73
     5
 74
     0
 42
0.00000001
 43
0.00000001
 40
0.0
 40
0.0
 40
0.0
 40
0.0
 40
0.5600012771711208
 40
0.9999999999999999
 40
0.9999999999999999
 40
0.9999999999999999
 40
0.9999999999999999
 10
125.5918645331094
 20
138.1619908700685
 30
0.0
 10
126.0692946696344
 20
138.1501564577235
 30
0.0
 10
126.9218465404744
 20
138.1290236267327
 30
0.0
 10
127.7787357451178
 20
138.1080628973203
 30
0.0
 10
128.1557659007668
 20
138.0988402031492
 30
0.0
  0
SPLINE
  5
29F
330
1F
100
AcDbEntity
  8
0
  6
Continuous
 62
     7
370
    25
100
AcDbSpline
210
0.0
220
0.0
230
1.0
 70
     8
 71
     3
 72
     9
 73
     5
 74
     0
 42
0.00000001
 43
0.00000001
 40
0.0
 40
0.0
 40
0.0
 40
0.0
 40
0.5599999095970982
 40
1.0
 40
1.0
 40
1.0
 40
1.0
 10
128.1557659007668
 20
138.0988402031492
 30
0.0
 10
128.2498953914292
 20
138.096542793252
 30
0.0
 10
128.4179837947474
 20
138.0924402749161
 30
0.0
 10
128.5862263144432
 20
138.0883438817231
 30
0.0
 10
128.6602530383189
 20
138.0865414683478
 30
0.0
  0
LINE
  5
2A0
330
1F
100
AcDbEntity
  8
0
  6
Continuous
 62
     7
370
    25
100
AcDbLine
 10
128.6602530383
 20
138.0865414683
 30
0.0
 11
141.1985984417
 21
138.4148695977
 31
0.0
  0
LINE
  5
2A1
330
1F
100
AcDbEntity
  8
0
  6
Continuous
 62
     7
370
    25
100
AcDbLine
 10
104.1867612755
 20
137.3789573514
 30
0.0
 11
103.9643163644
 21
137.59565359
 31
0.0
  0
LINE
  5
2A2
330
1F
100
AcDbEntity
  8
0
  6
Continuous
 62
     7
370
    25
100
AcDbLine
 10
141.1985984417
 20
133.2039562575
 30
0.0
 11
128.6602530383
 21
133.5322843868
 31
0.0
  0
SPLINE
  5
2A3
330
1F
100
AcDbEntity
  8
0
  6
Continuous
 62
     7
370
    25
100
AcDbSpline
210
0.0
220
0.0
230
1.0
 70
     8
 71
     3
 72
     9
 73
     5
 74
     0
 42
0.00000001
 43
0.00000001
 40
0.0
 40
0.0
 40
0.0
 40
0.0
 40
0.5600000882143262
 40
1.0
 40
1.0
 40
1.0
 40
1.0
 10
128.6602530383189
 20
133.5322843867951
 30
0.0
 10
128.5660406227872
 20
133.529990270654
 30
0.0
 10
128.3978041929822
 20
133.5258936353331
 30
0.0
 10
128.2297220353137
 20
133.5217908688738
 30
0.0
 10
128.1557659007668
 20
133.5199856519936
 30
0.0
  0
SPLINE
  5
2A4
330
1F
100
AcDbEntity
  8
0
  6
Continuous
 62
     7
370
    25
100
AcDbSpline
210
0.0
220
0.0
230
1.0
 70
     8
 71
     3
 72
     9
 73
     5
 74
     0
 42
0.00000001
 43
0.00000001
 40
0.0
 40
0.0
 40
0.0
 40
0.0
 40
0.5599987526606142
 40
1.0
 40
1.0
 40
1.0
 40
1.0
 10
128.1557659007668
 20
133.5199856519936
 30
0.0
 10
127.6759996428796
 20
133.5082440654712
 30
0.0
 10
126.8192722740993
 20
133.4872768999792
 30
0.0
 10
125.9669065256267
 20
133.466136699607
 30
0.0
 10
125.5918645331094
 20
133.4568349850743
 30
0.0
  0
LINE
  5
2A5
330
1F
100
AcDbEntity
  8
0
  6
Continuous
 62
     7
370
    25
100
AcDbLine
 10
125.5918645331
 20
133.4568349851
 30
0.0
 11
103.9643163644
 21
134.0231722652
 31
0.0
  0
LINE
  5
2A6
330
1F
100
AcDbEntity
  8
0
  6
Continuous
 62
     7
370
    25
100
AcDbLine
 10
103.9643163644
 20
134.0231722652
 30
0.0
 11
104.1867612755
 21
134.2398685038
 31
0.0
  0
LINE
  5
2A7
330
1F
100
AcDbEntity
  8
0
  6
Continuous
 62
     7
370
    25
100
AcDbLine
 10
99.6579888957
 20
134.2416942238
 30
0.0
 11
104.0634587199
 21
134.2416942238
 31
0.0
  0
SPLINE
  5
2A8
330
1F
100
AcDbEntity
  8
0
  6
Continuous
 62
     7
370
    25
100
AcDbSpline
210
0.0
220
0.0
230
1.0
 70
     8
 71
     3
 72
    12
 73
     8
 74
     0
 42
0.00000001
 43
0.00000001
 40
0.0
 40
0.0
 40
0.0
 40
0.0
 40
0.139683458618249
 40
0.3831896274038307
 40
0.55131692930133
 40
0.8194729461607051
 40
0.9999999999999999
 40
0.9999999999999999
 40
0.9999999999999999
 40
0.9999999999999999
 10
98.89602804548534
 20
134.9404295530527
 30
0.0
 10
98.90626942623162
 20
134.8907146325742
 30
0.0
 10
98.93436431241993
 20
134.7543331165164
 30
0.0
 10
99.04151467377471
 20
134.5744170073043
 30
0.0
 10
99.22185176118771
 20
134.3960755789194
 30
0.0
 10
99.43030790575669
 20
134.275555354368
 30
0.0
 10
99.59266480646062
 20
134.251409341061
 30
0.0
 10
99.65798889570901
 20
134.2416942238014
 30
0.0
  0
LINE
  5
2A9
330
1F
100
AcDbEntity
  8
0
  6
Continuous
 62
     7
370
    25
100
AcDbLine
 10
103.4749781886
 20
134.9404295531
 30
0.0
 11
98.8960280455
 21
134.9404295531
 31
0.0
  0
LINE
  5
2AA
330
1F
100
AcDbEntity
  8
0
  6
Continuous
 62
     7
370
    25
100
AcDbLine
 10
98.8960280455
 20
136.6783963021
 30
0.0
 11
103.4749781886
 21
136.6783963021
 31
0.0
  0
SPLINE
  5
2AB
330
1F
100
AcDbEntity
  8
0
  6
Continuous
 62
     7
370
    25
100
AcDbSpline
210
0.0
220
0.0
230
1.0
 70
     8
 71
     3
 72
    13
 73
     9
 74
     0
 42
0.00000001
 43
0.00000001
 40
0.0
 40
0.0
 40
0.0
 40
0.0
 40
0.1143463544469914
 40
0.2890454840074685
 40
0.5294852105593209
 40
0.7014879056604271
 40
0.9335094878266192
 40
1.0
 40
1.0
 40
1.0
 40
1.0
 10
99.65798889570902
 20
137.3771316313414
 30
0.0
 10
99.61678769500007
 20
137.3722970398363
 30
0.0
 10
99.51263902267722
 20
137.3600761269063
 30
0.0
 10
99.32527952829737
 20
137.2874280318653
 30
0.0
 10
99.14325179828859
 20
137.1569157654585
 30
0.0
 10
98.99096821707423
 20
136.9700481662888
 30
0.0
 10
98.91846494019424
 20
136.8086747615322
 30
0.0
 10
98.90011525087553
 20
136.7021284106803
 30
0.0
 10
98.89602804548534
 20
136.6783963020901
 30
0.0
  0
LINE
  5
2AC
330
1F
100
AcDbEntity
  8
0
  6
Continuous
 62
     7
370
    25
100
AcDbLine
 10
104.0634587199
 20
137.3771316313
 30
0.0
 11
99.6579888957
 21
137.3771316313
 31
0.0
  0
ELLIPSE
  5
2AD
330
1F
100
AcDbEntity
  8
0
  6
Continuous
 62
     7
370
    25
100
AcDbEllipse
 10
99.2513713909
 20
135.9839514827
 30
0.0
 11
0.008721666502694349
 21
1.000418978703749
 31
0.0
210
0.0
220
0.0
230
0.9999999999999999
 40
0.499714557
 41
0.8079180407726494
 42
1.588240544501514
  0
ELLIPSE
  5
2AE
330
1F
100
AcDbEntity
  8
0
  6
Continuous
 62
     7
370
    25
100
AcDbEllipse
 10
99.2513713909
 20
135.6348743725
 30
0.0
 11
-0.008721666502680138
 21
1.000418978703721
 31
0.0
210
0.0
220
0.0
230
1.0
 40
0.499714557
 41
1.553352109088314
 42
2.333674612817175
  0
LINE
  5
2AF
330
1F
100
AcDbEntity
  8
0
  6
Continuous
 62
     7
370
    25
100
AcDbLine
 10
98.7513713909
 20
135.9708585219
 30
0.0
 11
98.7513713909
 21
135.6479673332
 31
0.0
  0
LINE
  5
2B0
330
1F
100
AcDbEntity
  8
0
  6
Continuous
 62
     7
370
    25
100
AcDbLine
 10
103.9654442216
 20
137.5525824597
 30
0.0
 11
103.9643163644
 21
137.59565359
 31
0.0
  0
LINE
  5
2B1
330
1F
100
AcDbEntity
  8
0
  6
Continuous
 62
     7
370
    25
100
AcDbLine
 10
103.9654442216
 20
134.0662433955
 30
0.0
 11
103.9643163644
 21
134.0231722652
 31
0.0
  0
ELLIPSE
  5
2B2
330
1F
100
AcDbEntity
  8
0
  6
Continuous
 62
     7
370
    25
100
AcDbEllipse
 10
67.7475777869
 20
135.647085203
 30
0.0
 11
36.18915845259203
 21
1.947628334984216
 31
0.0
210
0.0
220
0.0
230
1.0
 40
0.0007414247
 41
0.0282885576640062
 42
0.4911607830429365
  0
LINE
  5
2B3
330
1F
100
AcDbEntity
  8
0
  6
Continuous
 62
     7
370
    25
100
AcDbLine
 10
103.9222163101
 20
137.5946932267
 30
0.0
 11
104.1446456925
 21
137.3780121155
 31
0.0
  0
LINE
  5
2B4
330
1F
100
AcDbEntity
  8
0
  6
Continuous
 62
     7
370
    25
100
AcDbLine
 10
104.1446456925
 20
134.2408137397
 30
0.0
 11
103.9222163101
 21
134.0241326284
 31
0.0
  0
ELLIPSE
  5
2B5
330
1F
100
AcDbEntity
  8
0
  6
Continuous
 62
     7
370
    25
100
AcDbEllipse
 10
67.7475777869
 20
135.9717406522
 30
0.0
 11
36.18915845257634
 21
-1.947628334983392
 31
0.0
210
0.0
220
0.0
230
1.0
 40
0.0007414247
 41
5.792024524150753
 42
6.25489674954798
  0
LINE
  5
2B6
330
1F
100
AcDbEntity
  8
0
  6
Continuous
 62
     7
370
    25
100
AcDbLine
 10
131.7664605643
 20
138.6743613397
 30
0.0
 11
132.4171140304
 21
138.9084564736
 31
0.0
  0
SPLINE
  5
2B7
330
1F
100
AcDbEntity
  8
0
  6
Continuous
 62
     7
370
    25
100
AcDbSpline
210
0.0
220
0.0
230
1.0
 70
     8
 71
     3
 72
    10
 73
     6
 74
     0
 42
0.00000001
 43
0.00000001
 40
0.0
 40
0.0
 40
0.0
 40
0.0
 40
0.2383396858856107
 40
0.571650633368965
 40
1.0
 40
1.0
 40
1.0
 40
1.0
 10
131.7685607243077
 20
138.6679353696262
 30
0.0
 10
131.5242944692076
 20
138.5933371671993
 30
0.0
 10
130.9384291362072
 20
138.4144156019254
 30
0.0
 10
129.9018743352017
 20
138.1780714896704
 30
0.0
 10
129.1071802396021
 20
138.1194881134849
 30
0.0
 10
128.6602530383191
 20
138.0865414683478
 30
0.0
  0
SPLINE
  5
2B8
330
1F
100
AcDbEntity
  8
0
  6
Continuous
 62
     7
370
    25
100
AcDbSpline
210
0.0
220
0.0
230
1.0
 70
     8
 71
     3
 72
    11
 73
     7
 74
     0
 42
0.00000001
 43
0.00000001
 40
0.0
 40
0.0
 40
0.0
 40
0.0
 40
0.2506671725023491
 40
0.5010414677145718
 40
0.7508849997170934
 40
1.0
 40
1.0
 40
1.0
 40
1.0
 10
125.5918645331094
 20
138.1619908700685
 30
0.0
 10
126.06755254567
 20
138.1888654367237
 30
0.0
 10
127.0183727811572
 20
138.2425831700299
 30
0.0
 10
128.4190453983694
 20
138.5280486336838
 30
0.0
 10
129.7826111596212
 20
138.9495767803035
 30
0.0
 10
130.6352787061771
 20
139.3659338580004
 30
0.0
 10
131.0609899874905
 20
139.5738084343769
 30
0.0
  0
SPLINE
  5
2B9
330
1F
100
AcDbEntity
  8
0
  6
Continuous
 62
     7
370
    25
100
AcDbSpline
210
0.0
220
0.0
230
1.0
 70
     8
 71
     3
 72
     9
 73
     5
 74
     0
 42
0.00000001
 43
0.00000001
 40
0.0
 40
0.0
 40
0.0
 40
0.0
 40
0.501325902198991
 40
1.0
 40
1.0
 40
1.0
 40
1.0
 10
131.0609899580487
 20
139.5738084877411
 30
0.0
 10
131.2850656588827
 20
139.6988511452112
 30
0.0
 10
131.7320317937886
 20
139.9482750367788
 30
0.0
 10
132.1460770734841
 20
140.2500431452
 30
0.0
 10
132.352550729785
 20
140.4005270844121
 30
0.0
  0
LINE
  5
2BA
330
1F
100
AcDbEntity
  8
0
  6
Continuous
 62
     7
370
    25
100
AcDbLine
 10
134.4183311898
 20
140.5152935237
 30
0.0
 11
132.3523774549
 21
140.4005183162
 31
0.0
  0
SPLINE
  5
2BB
330
1F
100
AcDbEntity
  8
0
  6
Continuous
 62
     7
370
    25
100
AcDbSpline
210
0.0
220
0.0
230
1.0
 70
     8
 71
     3
 72
    14
 73
    10
 74
     0
 42
0.00000001
 43
0.00000001
 40
0.0
 40
0.0
 40
0.0
 40
0.0
 40
0.0829413618596697
 40
0.1664594845668882
 40
0.2437726390188662
 40
0.3161479456895724
 40
0.4353725718192331
 40
0.6486290670514194
 40
0.9999999999999999
 40
0.9999999999999999
 40
0.9999999999999999
 40
0.9999999999999999
 10
134.4183311769442
 20
140.5152935189087
 30
0.0
 10
134.4641304782192
 20
140.5134783293263
 30
0.0
 10
134.5560475617202
 20
140.5098353276261
 30
0.0
 10
134.6065925942565
 20
140.4281741951385
 30
0.0
 10
134.5656876978163
 20
140.2948907148537
 30
0.0
 10
134.4300866517118
 20
140.1065642586161
 30
0.0
 10
134.113178380967
 20
139.8082971789538
 30
0.0
 10
133.4361897707338
 20
139.3502700201684
 30
0.0
 10
132.8080229545204
 20
139.0779344914906
 30
0.0
 10
132.4171110907957
 20
138.9084585078408
 30
0.0
  0
LINE
  5
2BC
330
1F
100
AcDbEntity
  8
0
  6
Continuous
 62
     7
370
    25
100
AcDbLine
 10
132.3523774549
 20
131.2183075389
 30
0.0
 11
134.4183311898
 21
131.1035323314
 31
0.0
  0
SPLINE
  5
2BD
330
1F
100
AcDbEntity
  8
0
  6
Continuous
 62
     7
370
    25
100
AcDbSpline
210
0.0
220
0.0
230
1.0
 70
     8
 71
     3
 72
     9
 73
     5
 74
     0
 42
0.00000001
 43
0.00000001
 40
0.0
 40
0.0
 40
0.0
 40
0.0
 40
0.4986740982738611
 40
1.0
 40
1.0
 40
1.0
 40
1.0
 10
132.3525505285594
 20
131.2182985888955
 30
0.0
 10
132.1460768874896
 20
131.3687825251745
 30
0.0
 10
131.73203163873
 20
131.6705506274279
 30
0.0
 10
131.2850655367851
 20
131.9199745190502
 30
0.0
 10
131.0609898526866
 20
132.0450171764297
 30
0.0
  0
SPLINE
  5
2BE
330
1F
100
AcDbEntity
  8
0
  6
Continuous
 62
     7
370
    25
100
AcDbSpline
210
0.0
220
0.0
230
1.0
 70
     8
 71
     3
 72
    11
 73
     7
 74
     0
 42
0.00000001
 43
0.00000001
 40
0.0
 40
0.0
 40
0.0
 40
0.0
 40
0.249115000282908
 40
0.4989585322854286
 40
0.7493328274976518
 40
1.0
 40
1.0
 40
1.0
 40
1.0
 10
131.0609899874905
 20
132.0450174207659
 30
0.0
 10
130.6352787061771
 20
132.2528919971424
 30
0.0
 10
129.7826111596212
 20
132.6692490748394
 30
0.0
 10
128.4190453983694
 20
133.090777221459
 30
0.0
 10
127.0183727811572
 20
133.3762426851129
 30
0.0
 10
126.06755254567
 20
133.4299604184191
 30
0.0
 10
125.5918645331094
 20
133.4568349850743
 30
0.0
  0
SPLINE
  5
2BF
330
1F
100
AcDbEntity
  8
0
  6
Continuous
 62
     7
370
    25
100
AcDbSpline
210
0.0
220
0.0
230
1.0
 70
     8
 71
     3
 72
    10
 73
     6
 74
     0
 42
0.00000001
 43
0.00000001
 40
0.0
 40
0.0
 40
0.0
 40
0.0
 40
0.428349366631063
 40
0.7616603141144168
 40
1.0
 40
1.0
 40
1.0
 40
1.0
 10
128.6602530383191
 20
133.5322843867951
 30
0.0
 10
129.1071802396021
 20
133.4993377416579
 30
0.0
 10
129.9018743352017
 20
133.4407543654725
 30
0.0
 10
130.9384291362073
 20
133.2044102532175
 30
0.0
 10
131.5242944692077
 20
133.0254886879437
 30
0.0
 10
131.7685607243077
 20
132.9508904855169
 30
0.0
  0
LINE
  5
2C0
330
1F
100
AcDbEntity
  8
0
  6
Continuous
 62
     7
370
    25
100
AcDbLine
 10
131.7664605643
 20
132.9444645151
 30
0.0
 11
132.4171140303
 21
132.7103693813
 31
0.0
  0
SPLINE
  5
2C1
330
1F
100
AcDbEntity
  8
0
  6
Continuous
 62
     7
370
    25
100
AcDbSpline
210
0.0
220
0.0
230
1.0
 70
     8
 71
     3
 72
    15
 73
    11
 74
     0
 42
0.00000001
 43
0.00000001
 40
0.0
 40
0.0
 40
0.0
 40
0.0
 40
0.2091652517822444
 40
0.4176299509274903
 40
0.5931463878153087
 40
0.6923603779431098
 40
0.7731125739307014
 40
0.8543366880968429
 40
0.9261517123972135
 40
0.9999999999999999
 40
0.9999999999999999
 40
0.9999999999999999
 40
0.9999999999999999
 10
132.417111090705
 20
132.7103673470706
 30
0.0
 10
132.6506953028004
 20
132.6126697145812
 30
0.0
 10
133.1170813884606
 20
132.4176016661619
 30
0.0
 10
133.7407315356397
 20
132.0683218128094
 30
0.0
 10
134.2005811649404
 20
131.7354316258659
 30
0.0
 10
134.4624655357102
 20
131.47381353983
 30
0.0
 10
134.5829355162254
 20
131.2932195269162
 30
0.0
 10
134.601728743135
 20
131.1711253636059
 30
0.0
 10
134.5406905418286
 20
131.1070753742874
 30
0.0
 10
134.4594954233172
 20
131.1047242882495
 30
0.0
 10
134.4183311769093
 20
131.103532336236
 30
0.0
  0
SPLINE
  5
2C2
330
1F
100
AcDbEntity
  8
0
  6
Continuous
 62
     7
370
    25
100
AcDbSpline
210
0.0
220
0.0
230
1.0
 70
    24
 71
     3
 72
    11
 73
     7
 74
     0
 42
0.00000001
 43
0.00000001
 40
0.0
 40
0.0
 40
0.0
 40
0.0
 40
0.2499999999999989
 40
0.4999999999999996
 40
0.749999999999999
 40
1.0
 40
1.0
 40
1.0
 40
1.0
 10
141.1855144526094
 20
132.7042988737669
 30
0.0
 10
141.1872009231134
 20
132.768702583962
 30
0.0
 10
141.1905738641212
 20
132.8975100043521
 30
0.0
 10
141.1948537610225
 20
133.0609526729624
 30
0.0
 10
141.1978958818363
 20
133.1771265798357
 30
0.0
 10
141.1983642550589
 20
133.1950130315822
 30
0.0
 10
141.1985984416702
 20
133.2039562574555
 30
0.0
  0
LINE
  5
2C3
330
1F
100
AcDbEntity
  8
0
  6
Continuous
 62
     7
370
    25
100
AcDbLine
 10
131.7685607243
 20
132.9508904855
 30
0.0
 11
141.1855144526
 21
132.7042988738
 31
0.0
  0
LINE
  5
2C4
330
1F
100
AcDbEntity
  8
0
  6
Continuous
 62
     7
370
    25
100
AcDbLine
 10
141.1855144526
 20
138.9145269814
 30
0.0
 11
131.7685607243
 21
138.6679353696
 31
0.0
  0
SPLINE
  5
2C5
330
1F
100
AcDbEntity
  8
0
  6
Continuous
 62
     7
370
    25
100
AcDbSpline
210
0.0
220
0.0
230
1.0
 70
    24
 71
     3
 72
    11
 73
     7
 74
     0
 42
0.00000001
 43
0.00000001
 40
0.0
 40
0.0
 40
0.0
 40
0.0
 40
0.2500000000000009
 40
0.5000000000000002
 40
0.7500000000000007
 40
0.9999999999999999
 40
0.9999999999999999
 40
0.9999999999999999
 40
0.9999999999999999
 10
141.1985984416702
 20
138.4148695976873
 30
0.0
 10
141.1983642550589
 20
138.4238128235606
 30
0.0
 10
141.1978958818363
 20
138.4416992753071
 30
0.0
 10
141.1948537610225
 20
138.5578731821804
 30
0.0
 10
141.1905738641212
 20
138.7213158507907
 30
0.0
 10
141.1872009231134
 20
138.8501232711809
 30
0.0
 10
141.1855144526094
 20
138.914526981376
 30
0.0
  0
ELLIPSE
  5
2C6
330
1F
100
AcDbEntity
  8
0
  6
Continuous
 62
     7
370
    25
100
AcDbEllipse
 10
141.1985849864
 20
134.7053280148
 30
0.0
 11
2.497021557391577
 21
-0.1525991103465856
 31
2.131628207280301E-14
210
-8.504919643681410E-15
220
5.197564944337115E-16
230
1.0
 40
0.7994627403
 41
4.75597905276978
 42
6.332003616895592
  0
SPLINE
  5
2C7
330
1F
100
AcDbEntity
  8
0
  6
Continuous
 62
     7
370
    25
100
AcDbSpline
210
0.0
220
0.0
230
1.0
 70
    24
 71
     3
 72
    11
 73
     7
 74
     0
 42
0.00000001
 43
0.00000001
 40
0.0
 40
0.0
 40
0.0
 40
0.0
 40
0.2500000000000007
 40
0.5000000000000022
 40
0.7500000000000036
 40
1.0
 40
1.0
 40
1.0
 40
1.0
 10
143.2985849863905
 20
134.6503268078712
 30
0.0
 10
143.3238449245947
 20
134.6503268078712
 30
0.0
 10
143.374364801003
 20
134.6503268078712
 30
0.0
 10
143.4732234102034
 20
134.6503268078712
 30
0.0
 10
143.5826106900268
 20
134.6503268078712
 30
0.0
 10
143.6599268876026
 20
134.6503268078712
 30
0.0
 10
143.6985849863905
 20
134.6503268078712
 30
0.0
  0
ELLIPSE
  5
2C8
330
1F
100
AcDbEntity
  8
0
  6
Continuous
 62
     7
370
    25
100
AcDbEllipse
 10
141.1985849864
 20
136.9134978404
 30
0.0
 11
2.497021557391577
 21
0.1525991103465856
 31
2.131628207280301E-14
210
-8.504919643681424E-15
220
-5.197564944334701E-16
230
1.0
 40
0.7994627403
 41
6.234366997463598
 42
7.810391561589415
  0
SPLINE
  5
2C9
330
1F
100
AcDbEntity
  8
0
  6
Continuous
 62
     7
370
    25
100
AcDbSpline
210
0.0
220
0.0
230
1.0
 70
    24
 71
     3
 72
    11
 73
     7
 74
     0
 42
0.00000001
 43
0.00000001
 40
0.0
 40
0.0
 40
0.0
 40
0.0
 40
0.2499999999999994
 40
0.4999999999999963
 40
0.7500000000000001
 40
0.9999999999999999
 40
0.9999999999999999
 40
0.9999999999999999
 40
0.9999999999999999
 10
143.6985849863905
 20
136.9684990472716
 30
0.0
 10
143.6599268876026
 20
136.9684990472716
 30
0.0
 10
143.5826106900268
 20
136.9684990472716
 30
0.0
 10
143.4732234102034
 20
136.9684990472716
 30
0.0
 10
143.374364801003
 20
136.9684990472716
 30
0.0
 10
143.3238449245947
 20
136.9684990472716
 30
0.0
 10
143.2985849863905
 20
136.9684990472716
 30
0.0
  0
LINE
  5
2CA
330
1F
100
AcDbEntity
  8
0
  6
Continuous
 62
     7
370
    25
100
AcDbLine
 10
143.8354066609
 20
132.0826745033
 30
0.0
 11
132.4196773774
 21
132.7168816858
 31
0.0
  0
LINE
  5
2CB
330
1F
100
AcDbEntity
  8
0
  6
Continuous
 62
     7
370
    25
100
AcDbLine
 10
143.7522016315
 20
130.5849839735
 30
0.0
 11
143.8354066609
 21
132.0826745033
 31
0.0
  0
LINE
  5
2CC
330
1F
100
AcDbEntity
  8
0
  6
Continuous
 62
     7
370
    25
100
AcDbLine
 10
134.41852362
 20
131.1035216408
 30
0.0
 11
143.7522016315
 21
130.5849839735
 31
0.0
  0
LINE
  5
2CD
330
1F
100
AcDbEntity
  8
0
  6
Continuous
 62
     7
370
    25
100
AcDbLine
 10
143.6985849864
 20
134.6503268079
 30
0.0
 11
143.6985849864
 21
136.9684990473
 31
0.0
  0
LINE
  5
2CE
330
1F
100
AcDbEntity
  8
0
  6
Continuous
 62
     7
370
    25
100
AcDbLine
 10
143.7522016315
 20
141.0338418816
 30
0.0
 11
134.41852362
 21
140.5153042143
 31
0.0
  0
LINE
  5
2CF
330
1F
100
AcDbEntity
  8
0
  6
Continuous
 62
     7
370
    25
100
AcDbLine
 10
143.8354066609
 20
139.5361513518
 30
0.0
 11
143.7522016315
 21
141.0338418816
 31
0.0
  0
LINE
  5
2D0
330
1F
100
AcDbEntity
  8
0
  6
Continuous
 62
     7
370
    25
100
AcDbLine
 10
132.4196773774
 20
138.9019441694
 30
0.0
 11
143.8354066609
 21
139.5361513518
 31
0.0
  0
LINE
  5
2D1
330
1F
100
AcDbEntity
  8
0
  6
Continuous
 62
     7
370
    25
100
AcDbLine
 10
144.1985849864
 20
132.4458528288
 30
0.0
 11
143.8354066609
 21
132.0826745033
 31
0.0
  0
LINE
  5
2D2
330
1F
100
AcDbEntity
  8
0
  6
Continuous
 62
     7
370
    25
100
AcDbLine
 10
143.8354066609
 20
139.5361513518
 30
0.0
 11
144.1985849864
 21
139.1729730263
 31
0.0
  0
LINE
  5
2D3
330
1F
100
AcDbEntity
  8
0
  6
Continuous
 62
     7
370
    25
100
AcDbLine
 10
144.1985849864
 20
132.4458528288
 30
0.0
 11
144.1985849864
 21
139.1729730263
 31
0.0
  0
LINE
  5
2D4
330
1F
100
AcDbEntity
  8
0
  6
Continuous
 62
     7
370
    25
100
AcDbLine
 10
144.1985849864
 20
139.8993296773
 30
0.0
 11
143.8354066609
 21
139.5361513518
 31
0.0
  0
LINE
  5
2D5
330
1F
100
AcDbEntity
  8
0
  6
Continuous
 62
     7
370
    25
100
AcDbLine
 10
144.1985849864
 20
139.1729730263
 30
0.0
 11
144.1985849864
 21
139.8993296773
 31
0.0
  0
ARC
  5
2D6
330
1F
100
AcDbEntity
  8
0
  6
Continuous
 62
     7
370
    25
100
AcDbCircle
 10
143.8354066609
 20
139.5361513518
 30
0.0
 40
1.500000000000036
100
AcDbArc
 50
75.9883675978
 51
93.1798301199
  0
LINE
  5
2D7
330
1F
100
AcDbEntity
  8
0
  6
Continuous
 62
     7
370
    25
100
AcDbLine
 10
144.1985849864
 20
139.8993296773
 30
0.0
 11
144.1985849864
 21
140.9915212374
 31
0.0
  0
ARC
  5
2D8
330
1F
100
AcDbEntity
  8
0
  6
Continuous
 62
     7
370
    25
100
AcDbCircle
 10
143.8354066609
 20
132.0826745033
 30
0.0
 40
1.500000000000036
100
AcDbArc
 50
266.8201698801
 51
284.0116324022
  0
LINE
  5
2D9
330
1F
100
AcDbEntity
  8
0
  6
Continuous
 62
     7
370
    25
100
AcDbLine
 10
143.8354066609
 20
132.0826745033
 30
0.0
 11
144.1985849864
 21
131.7194961779
 31
0.0
  0
LINE
  5
2DA
330
1F
100
AcDbEntity
  8
0
  6
Continuous
 62
     7
370
    25
100
AcDbLine
 10
144.1985849864
 20
130.6273046178
 30
0.0
 11
144.1985849864
 21
131.7194961779
 31
0.0
  0
LINE
  5
2DB
330
1F
100
AcDbEntity
  8
0
  6
Continuous
 62
     7
370
    25
100
AcDbLine
 10
144.1985849864
 20
131.7194961779
 30
0.0
 11
144.1985849864
 21
132.4458528288
 31
0.0
  0
SPLINE
  5
2DC
330
1F
100
AcDbEntity
  8
0
  6
Continuous
 62
     7
370
    25
100
AcDbSpline
210
0.0
220
0.0
230
1.0
 70
    24
 71
     3
 72
     9
 73
     5
 74
     0
 42
0.00000001
 43
0.00000001
 40
0.0
 40
0.0
 40
0.0
 40
0.0
 40
0.53896659133331
 40
1.0
 40
1.0
 40
1.0
 40
1.0
 10
132.3525515251899
 20
140.400527986813
 30
0.0
 10
132.3066255834124
 20
140.3979765456031
 30
0.0
 10
132.2214144728983
 20
140.393242595019
 30
0.0
 10
132.2339956650614
 20
140.3939415501392
 30
0.0
 10
132.2397960149694
 20
140.3942637918008
 30
0.0
  0
SPLINE
  5
2DD
330
1F
100
AcDbEntity
  8
0
  6
Continuous
 62
     7
370
    25
100
AcDbSpline
210
0.0
220
0.0
230
1.0
 70
    24
 71
     3
 72
     9
 73
     5
 74
     0
 42
0.00000001
 43
0.00000001
 40
0.0
 40
0.0
 40
0.0
 40
0.0
 40
0.4490009010282568
 40
1.0
 40
1.0
 40
1.0
 40
1.0
 10
132.2458940861348
 20
131.2242232816106
 30
0.0
 10
132.2375085335431
 20
131.2246891456435
 30
0.0
 10
132.2188325073425
 20
131.2257267026547
 30
0.0
 10
132.305047269128
 20
131.2209369936666
 30
0.0
 10
132.3525515251899
 20
131.2182978683298
 30
0.0
  0
SPLINE
  5
2DE
330
1F
100
AcDbEntity
  8
0
  6
Continuous
 62
     7
370
    25
100
AcDbSpline
210
0.0
220
0.0
230
1.0
 70
     8
 71
     3
 72
     9
 73
     5
 74
     0
 42
0.00000001
 43
0.00000001
 40
0.0
 40
0.0
 40
0.0
 40
0.0
 40
0.540774756067758
 40
1.0
 40
1.0
 40
1.0
 40
1.0
 10
103.9643163643685
 20
137.595653589988
 30
0.0
 10
103.956560322321
 20
137.5956830904009
 30
0.0
 10
103.9422178591043
 20
137.5957376425273
 30
0.0
 10
103.9278993552963
 20
137.5951333973924
 30
0.0
 10
103.9213239368923
 20
137.5948559127729
 30
0.0
  0
LINE
  5
2DF
330
1F
100
AcDbEntity
  8
0
  6
Continuous
 62
     7
370
    25
100
AcDbLine
 10
103.9643163644
 20
134.0231722652
 30
0.0
 11
103.9213239369
 21
134.0239699424
 31
0.0
  0
CIRCLE
  5
2E0
330
1F
100
AcDbEntity
  8
0
  6
Continuous
 62
     7
370
    25
100
AcDbCircle
 10
154.1985849864
 20
135.8094129276
 30
0.0
 40
7.558608890731335
  0
CIRCLE
  5
2E1
330
1F
100
AcDbEntity
  8
0
  6
Continuous
 62
     7
370
    25
100
AcDbCircle
 10
154.1985849864
 20
135.8094129276
 30
0.0
 40
8.0547478290882
  0
CIRCLE
  5
2E2
330
1F
100
AcDbEntity
  8
0
  6
Continuous
 62
     7
370
    25
100
AcDbCircle
 10
154.1985849864
 20
135.8094129276
 30
0.0
 40
5.5
  0
SPLINE
  5
2E3
330
1F
100
AcDbEntity
  8
0
  6
Continuous
 62
     7
370
    25
100
AcDbSpline
210
0.0
220
0.0
230
1.0
 70
     8
 71
     3
 72
    11
 73
     7
 74
     0
 42
0.00000001
 43
0.00000001
 40
0.0
 40
0.0
 40
0.0
 40
0.0
 40
0.2920574028183094
 40
0.5665622171831318
 40
0.8065682389915578
 40
1.0
 40
1.0
 40
1.0
 40
1.0
 10
146.0823793793372
 20
134.3296472217804
 30
0.0
 10
146.1140399156527
 20
134.1620466863568
 30
0.0
 10
146.1754581967133
 20
133.8369183724212
 30
0.0
 10
146.2553705559779
 20
133.436314706555
 30
0.0
 10
146.2944693697054
 20
133.1784745105498
 30
0.0
 10
146.2790530067758
 20
133.1278290822682
 30
0.0
 10
146.2721730937916
 20
133.1052273738618
 30
0.0
  0
ARC
  5
2E4
330
1F
100
AcDbEntity
  8
0
  6
Continuous
 62
     7
370
    25
100
AcDbCircle
 10
154.1985849864
 20
135.8094129276
 30
0.0
 40
8.249999999999973
100
AcDbArc
 50
169.6671934996
 51
190.3328065004
  0
SPLINE
  5
2E5
330
1F
100
AcDbEntity
  8
0
  6
Continuous
 62
     7
370
    25
100
AcDbSpline
210
0.0
220
0.0
230
1.0
 70
     8
 71
     3
 72
    12
 73
     8
 74
     0
 42
0.00000001
 43
0.00000001
 40
0.0
 40
0.0
 40
0.0
 40
0.0
 40
0.1882084234719069
 40
0.3759134198095928
 40
0.5768476463044282
 40
0.8018243756979397
 40
1.0
 40
1.0
 40
1.0
 40
1.0
 10
146.272173093795
 20
138.5135984812777
 30
0.0
 10
146.2790446851645
 20
138.491995286765
 30
0.0
 10
146.2927694875064
 20
138.4488466827958
 30
0.0
 10
146.2669447875483
 20
138.2553068250132
 30
0.0
 10
146.2158649929067
 20
137.9804777669742
 30
0.0
 10
146.1486249912385
 20
137.6447376296048
 30
0.0
 10
146.1035087441183
 20
137.402585929592
 30
0.0
 10
146.0823793793372
 20
137.2891786333624
 30
0.0
  0
ARC
  5
2E6
330
1F
100
AcDbEntity
  8
0
  6
Continuous
 62
     7
370
    25
100
AcDbCircle
 10
154.1985849864
 20
135.8094129276
 30
0.0
 40
8.986048245082024
100
AcDbArc
 50
200.7364869057
 51
159.2635130943
  0
LINE
  5
2E7
330
1F
100
AcDbEntity
  8
0
  6
Continuous
 62
     7
370
    25
100
AcDbLine
 10
146.2721730938
 20
133.1052273739
 30
0.0
 11
144.5425134421
 21
131.3755677222
 31
0.0
  0
LINE
  5
2E8
330
1F
100
AcDbEntity
  8
0
  6
Continuous
 62
     7
370
    25
100
AcDbLine
 10
144.5425134421
 20
140.243258133
 30
0.0
 11
146.2721730938
 21
138.5135984813
 31
0.0
  0
ARC
  5
2E9
330
1F
100
AcDbEntity
  8
0
  6
Continuous
 62
     7
370
    25
100
AcDbCircle
 10
143.8354066609
 20
139.5361513518
 30
0.0
 40
1.000000000000016
100
AcDbArc
 50
45.0
 51
68.7044833353
  0
ARC
  5
2EA
330
1F
100
AcDbEntity
  8
0
  6
Continuous
 62
     7
370
    25
100
AcDbCircle
 10
143.8354066609
 20
132.0826745033
 30
0.0
 40
1.000000000000016
100
AcDbArc
 50
291.2955166647
 51
315.0
  0
LINE
  5
2EB
330
1F
100
AcDbEntity
  8
0
  6
Continuous
 62
     7
370
    25
100
AcDbLine
 10
102.6365676191
 20
144.4090897004
 30
0.0
 11
102.6365676191
 21
137.5318881274
 31
0.0
  0
LINE
  5
2EC
330
1F
100
AcDbEntity
  8
0
  6
Continuous
 62
     7
370
    25
100
AcDbLine
 10
102.6365676191
 20
134.0869377278
 30
0.0
 11
102.6365676191
 21
126.5046650985
 31
0.0
  0
LINE
  5
2ED
330
1F
100
AcDbEntity
  8
0
  6
Continuous
 62
     7
370
    25
100
AcDbLine
 10
102.6365676191
 20
145.1141607567
 30
0.0
 11
102.6365676191
 21
144.4090897004
 31
0.0
  0
LINE
  5
2EE
330
1F
100
AcDbEntity
  8
0
  6
Continuous
 62
     7
370
    25
100
AcDbLine
 10
131.04791314
 20
132.0213152403
 30
0.0
 11
131.0609899875
 21
132.0450174208
 31
0.0
  0
ARC
  5
2EF
330
1F
100
AcDbEntity
  8
0
  6
Continuous
 62
     7
370
    25
100
AcDbCircle
 10
99.1344606641
 20
134.8284185507
 30
0.0
 40
0.2634323029662953
100
AcDbArc
 50
154.8367757974
 51
203.835419306
  0
ARC
  5
2F0
330
1F
100
AcDbEntity
  8
0
  6
Continuous
 62
     7
370
    25
100
AcDbCircle
 10
99.1342632233
 20
136.7903673293
 30
0.0
 40
0.2632366062599423
100
AcDbArc
 50
155.9348488627
 51
205.173621768
  0
LINE
  5
2F1
330
1F
100
AcDbEntity
  8
0
  6
Continuous
 62
     7
370
    25
100
AcDbLine
 10
98.7513713909
 20
135.9708585219
 30
0.0
 11
98.6985850739
 21
135.9708585219
 31
0.0
  0
LINE
  5
2F2
330
1F
100
AcDbEntity
  8
0
  6
Continuous
 62
     7
370
    25
100
AcDbLine
 10
98.7513713909
 20
135.6479673332
 30
0.0
 11
98.6985850539
 21
135.6479673332
 31
0.0
  0
LINE
  5
2F3
330
1F
100
AcDbEntity
  8
0
  6
Continuous
 62
     7
370
    25
100
AcDbLine
 10
144.5425134421
 20
131.3755677222
 30
0.0
 11
144.1985849864
 21
131.7194961779
 31
0.0
  0
LINE
  5
2F4
330
1F
100
AcDbEntity
  8
0
  6
Continuous
 62
     7
370
    25
100
AcDbLine
 10
144.1985849864
 20
132.4458528288
 30
0.0
 11
146.0823793793
 21
134.3296472218
 31
0.0
  0
LINE
  5
2F5
330
1F
100
AcDbEntity
  8
0
  6
Continuous
 62
     7
370
    25
100
AcDbLine
 10
146.0823793793
 20
137.2891786334
 30
0.0
 11
144.1985849864
 21
139.1729730263
 31
0.0
  0
LINE
  5
2F6
330
1F
100
AcDbEntity
  8
0
  6
Continuous
 62
     7
370
    25
100
AcDbLine
 10
144.5425134421
 20
140.243258133
 30
0.0
 11
144.1985849864
 21
139.8993296773
 31
0.0
  0
INSERT
  5
302
330
1F
100
AcDbEntity
  8
0
  6
Continuous
 62
     7
370
    18
100
AcDbBlockReference
  2
SW_CENTERMARKSYMBOL_1
 10
154.1985849864
 20
135.8094129276
 30
0.0
  0
LINE
  5
303
330
1F
100
AcDbEntity
  8
0
  6
Continuous
 62
     7
370
    18
100
AcDbLine
 10
167.6985849864
 20
123.2665379276
 30
0.0
 11
182.1758790265
 21
123.7189533663
 31
0.0
  0
LINE
  5
304
330
1F
100
AcDbEntity
  8
0
  6
Continuous
 62
     7
370
    18
100
AcDbLine
 10
182.1758790265
 20
147.8998724888
 30
0.0
 11
167.6985849864
 21
148.3522879276
 31
0.0
  0
ENDSEC
  0
SECTION
  2
OBJECTS
  0
DICTIONARY
  5
C
330
0
100
AcDbDictionary
281
     1
  3
ACAD_GROUP
350
D
  3
ACAD_LAYOUT
350
1A
  3
ACAD_MLINESTYLE
350
17
  3
ACAD_PLOTSETTINGS
350
19
  3
ACAD_PLOTSTYLENAME
350
E
  3
ACAD_SCALELIST
350
47
  3
DWGPROPS
350
305
  0
DICTIONARY
  5
D
102
{ACAD_REACTORS
330
C
102
}
330
C
100
AcDbDictionary
281
     1
  0
DICTIONARY
  5
1A
102
{ACAD_REACTORS
330
C
102
}
330
C
100
AcDbDictionary
281
     1
  3
Layout1
350
1E
  3
Layout2
350
26
  3
Model
350
22
  0
DICTIONARY
  5
17
102
{ACAD_REACTORS
330
C
102
}
330
C
100
AcDbDictionary
281
     1
  3
Standard
350
18
  0
DICTIONARY
  5
19
102
{ACAD_REACTORS
330
C
102
}
330
C
100
AcDbDictionary
281
     1
  0
ACDBDICTIONARYWDFLT
  5
E
102
{ACAD_REACTORS
330
C
102
}
330
C
100
AcDbDictionary
281
     1
  3
Normal
350
F
100
AcDbDictionaryWithDefault
340
F
  0
DICTIONARY
  5
47
102
{ACAD_REACTORS
330
C
102
}
330
C
100
AcDbDictionary
281
     1
  3
A0
350
48
  3
A1
350
49
  3
A2
350
4A
  3
A3
350
4B
  3
A4
350
4C
  3
A5
350
4D
  3
A6
350
4E
  3
A7
350
4F
  3
A8
350
50
  3
A9
350
51
  3
B0
350
52
  3
B1
350
53
  3
B2
350
54
  3
B3
350
55
  3
B4
350
56
  3
B5
350
57
  3
B6
350
58
  0
XRECORD
  5
305
102
{ACAD_REACTORS
330
C
102
}
330
C
100
AcDbXrecord
280
     1
  1
DWGPROPS COOKIE
  2

  3

  4

  6

  7

  8
user28
  9

300
=
301
=
302
=
303
=
304
=
305
=
306
=
307
=
308
=
309
=
 40
0.0
 41
2460299.035520486
 42
2460299.035521377
  1

 90
        0
  0
LAYOUT
  5
1E
102
{ACAD_REACTORS
330
1A
102
}
330
1A
100
AcDbPlotSettings
  1

  2
none_device
  4

  6

 40
0.0
 41
0.0
 42
0.0
 43
0.0
 44
0.0
 45
0.0
 46
0.0
 47
0.0
 48
0.0
 49
0.0
140
0.0
141
0.0
142
1.0
143
1.0
 70
   688
 72
     1
 73
     0
 74
     5
  7

 75
    16
147
1.0
148
0.0
149
0.0
100
AcDbLayout
  1
Layout1
 70
     1
 71
     1
 10
0.0
 20
0.0
 11
420.0
 21
297.0
 12
0.0
 22
0.0
 32
0.0
 14
1.0000000000E+20
 24
1.0000000000E+20
 34
1.0000000000E+20
 15
-1.0000000000E+20
 25
-1.0000000000E+20
 35
-1.0000000000E+20
146
0.0
 13
0.0
 23
0.0
 33
0.0
 16
1.0
 26
0.0
 36
0.0
 17
0.0
 27
1.0
 37
0.0
 76
     0
330
1B
  0
LAYOUT
  5
26
102
{ACAD_REACTORS
330
1A
102
}
330
1A
100
AcDbPlotSettings
  1

  2
none_device
  4

  6

 40
0.0
 41
0.0
 42
0.0
 43
0.0
 44
0.0
 45
0.0
 46
0.0
 47
0.0
 48
0.0
 49
0.0
140
0.0
141
0.0
142
1.0
143
1.0
 70
   688
 72
     1
 73
     0
 74
     5
  7

 75
    16
147
1.0
148
0.0
149
0.0
100
AcDbLayout
  1
Layout2
 70
     1
 71
     2
 10
0.0
 20
0.0
 11
0.0
 21
0.0
 12
0.0
 22
0.0
 32
0.0
 14
0.0
 24
0.0
 34
0.0
 15
0.0
 25
0.0
 35
0.0
146
0.0
 13
0.0
 23
0.0
 33
0.0
 16
1.0
 26
0.0
 36
0.0
 17
0.0
 27
1.0
 37
0.0
 76
     0
330
23
  0
LAYOUT
  5
22
102
{ACAD_REACTORS
330
1A
102
}
330
1A
100
AcDbPlotSettings
  1

  2
none_device
  4
Letter_(8.50_x_11.00_Inches)
  6

 40
6.35
 41
6.35
 42
6.35000508
 43
6.35000508
 44
215.9
 45
279.4
 46
0.0
 47
0.0
 48
0.0
 49
0.0
140
0.0
141
0.0
142
1.0
143
1.0
 70
  1712
 72
     1
 73
     0
 74
     0
  7

 75
     0
147
1.0
148
0.0
149
0.0
100
AcDbLayout
  1
Model
 70
     1
 71
     0
 10
0.0
 20
0.0
 11
431.8
 21
279.4
 12
0.0
 22
0.0
 32
0.0
 14
0.0
 24
0.0
 34
0.0
 15
431.8
 25
279.4
 35
0.0
146
0.0
 13
0.0
 23
0.0
 33
0.0
 16
1.0
 26
0.0
 36
0.0
 17
0.0
 27
1.0
 37
0.0
 76
     0
330
1F
331
29
  0
MLINESTYLE
  5
18
102
{ACAD_REACTORS
330
17
102
}
330
17
100
AcDbMlineStyle
  2
Standard
 70
     0
  3

 62
   256
 51
90.0
 52
90.0
 71
     2
 49
0.5
 62
   256
  6
BYLAYER
 49
-0.5
 62
   256
  6
BYLAYER
  0
ACDBPLACEHOLDER
  5
F
102
{ACAD_REACTORS
330
E
102
}
330
E
  0
SCALE
  5
48
102
{ACAD_REACTORS
330
47
102
}
330
47
100
AcDbScale
 70
     0
300
1:1
140
1.0
141
1.0
290
     1
  0
SCALE
  5
49
102
{ACAD_REACTORS
330
47
102
}
330
47
100
AcDbScale
 70
     0
300
1:2
140
1.0
141
2.0
290
     0
  0
SCALE
  5
4A
102
{ACAD_REACTORS
330
47
102
}
330
47
100
AcDbScale
 70
     0
300
1:4
140
1.0
141
4.0
290
     0
  0
SCALE
  5
4B
102
{ACAD_REACTORS
330
47
102
}
330
47
100
AcDbScale
 70
     0
300
1:5
140
1.0
141
5.0
290
     0
  0
SCALE
  5
4C
102
{ACAD_REACTORS
330
47
102
}
330
47
100
AcDbScale
 70
     0
300
1:8
140
1.0
141
8.0
290
     0
  0
SCALE
  5
4D
102
{ACAD_REACTORS
330
47
102
}
330
47
100
AcDbScale
 70
     0
300
1:10
140
1.0
141
10.0
290
     0
  0
SCALE
  5
4E
102
{ACAD_REACTORS
330
47
102
}
330
47
100
AcDbScale
 70
     0
300
1:16
140
1.0
141
16.0
290
     0
  0
SCALE
  5
4F
102
{ACAD_REACTORS
330
47
102
}
330
47
100
AcDbScale
 70
     0
300
1:20
140
1.0
141
20.0
290
     0
  0
SCALE
  5
50
102
{ACAD_REACTORS
330
47
102
}
330
47
100
AcDbScale
 70
     0
300
1:30
140
1.0
141
30.0
290
     0
  0
SCALE
  5
51
102
{ACAD_REACTORS
330
47
102
}
330
47
100
AcDbScale
 70
     0
300
1:40
140
1.0
141
40.0
290
     0
  0
SCALE
  5
52
102
{ACAD_REACTORS
330
47
102
}
330
47
100
AcDbScale
 70
     0
300
1:50
140
1.0
141
50.0
290
     0
  0
SCALE
  5
53
102
{ACAD_REACTORS
330
47
102
}
330
47
100
AcDbScale
 70
     0
300
1:100
140
1.0
141
100.0
290
     0
  0
SCALE
  5
54
102
{ACAD_REACTORS
330
47
102
}
330
47
100
AcDbScale
 70
     0
300
2:1
140
2.0
141
1.0
290
     0
  0
SCALE
  5
55
102
{ACAD_REACTORS
330
47
102
}
330
47
100
AcDbScale
 70
     0
300
4:1
140
4.0
141
1.0
290
     0
  0
SCALE
  5
56
102
{ACAD_REACTORS
330
47
102
}
330
47
100
AcDbScale
 70
     0
300
8:1
140
8.0
141
1.0
290
     0
  0
SCALE
  5
57
102
{ACAD_REACTORS
330
47
102
}
330
47
100
AcDbScale
 70
     0
300
10:1
140
10.0
141
1.0
290
     0
  0
SCALE
  5
58
102
{ACAD_REACTORS
330
47
102
}
330
47
100
AcDbScale
 70
     0
300
100:1
140
100.0
141
1.0
290
     0
  0
ENDSEC
  0
EOF
