  0
SECTION
  2
HEADER
  9
$ACADVER
  1
AC1015
  9
$ACADMAINTVER
 70
     6
  9
$DWGCODEPAGE
  3
DOS932
  9
$INSBASE
 10
0.0
 20
0.0
 30
0.0
  9
$EXTMIN
 10
0.0
 20
0.0
 30
0.0
  9
$EXTMAX
 10
431.8
 20
279.4
 30
0.0
  9
$LIMMIN
 10
0.0
 20
0.0
  9
$LIMMAX
 10
431.8
 20
279.4
  9
$ORTHOMODE
 70
     0
  9
$REGENMODE
 70
     1
  9
$FILLMODE
 70
     1
  9
$QTEXTMODE
 70
     0
  9
$MIRRTEXT
 70
     1
  9
$LTSCALE
 40
1.0
  9
$ATTMODE
 70
     1
  9
$TEXTSIZE
 40
3.5
  9
$TRACEWID
 40
1.0
  9
$TEXTSTYLE
  7
Standard
  9
$CLAYER
  8
0
  9
$CELTYPE
  6
ByLayer
  9
$CECOLOR
 62
   256
  9
$CELTSCALE
 40
1.0
  9
$DISPSILH
 70
     0
  9
$DIMSCALE
 40
1.0
  9
$DIMASZ
 40
3.556
  9
$DIMEXO
 40
1.0
  9
$DIMDLI
 40
3.75
  9
$DIMRND
 40
0.0
  9
$DIMDLE
 40
0.0
  9
$DIMEXE
 40
1.0
  9
$DIMTP
 40
0.0
  9
$DIMTM
 40
0.0
  9
$DIMTXT
 40
3.5
  9
$DIMCEN
 40
2.5
  9
$DIMTSZ
 40
0.0
  9
$DIMTOL
 70
     0
  9
$DIMLIM
 70
     0
  9
$DIMTIH
 70
     1
  9
$DIMTOH
 70
     1
  9
$DIMSE1
 70
     0
  9
$DIMSE2
 70
     0
  9
$DIMTAD
 70
     1
  9
$DIMZIN
 70
     0
  9
$DIMBLK
  1

  9
$DIMASO
 70
     1
  9
$DIMSHO
 70
     1
  9
$DIMPOST
  1

  9
$DIMAPOST
  1

  9
$DIMALT
 70
     0
  9
$DIMALTD
 70
     3
  9
$DIMALTF
 40
0.0393700787
  9
$DIMLFAC
 40
1.0
  9
$DIMTOFL
 70
     1
  9
$DIMTVP
 40
0.0
  9
$DIMTIX
 70
     0
  9
$DIMSOXD
 70
     0
  9
$DIMSAH
 70
     0
  9
$DIMBLK1
  1

  9
$DIMBLK2
  1

  9
$DIMSTYLE
  2
ISO-25
  9
$DIMCLRD
 70
     0
  9
$DIMCLRE
 70
     0
  9
$DIMCLRT
 70
     0
  9
$DIMTFAC
 40
1.0
  9
$DIMGAP
 40
1.524
  9
$DIMJUST
 70
     0
  9
$DIMSD1
 70
     0
  9
$DIMSD2
 70
     0
  9
$DIMTOLJ
 70
     0
  9
$DIMTZIN
 70
     0
  9
$DIMALTZ
 70
     0
  9
$DIMALTTZ
 70
     0
  9
$DIMUPT
 70
     0
  9
$DIMDEC
 70
     3
  9
$DIMTDEC
 70
     3
  9
$DIMALTU
 70
     2
  9
$DIMALTTD
 70
     3
  9
$DIMTXSTY
  7
Standard
  9
$DIMAUNIT
 70
     0
  9
$DIMADEC
 70
     2
  9
$DIMALTRND
 40
0.0
  9
$DIMAZIN
 70
     0
  9
$DIMDSEP
 70
    44
  9
$DIMATFIT
 70
     3
  9
$DIMFRAC
 70
     0
  9
$DIMLDRBLK
  1

  9
$DIMLUNIT
 70
     2
  9
$DIMLWD
 70
    -2
  9
$DIMLWE
 70
    -2
  9
$DIMTMOVE
 70
     0
  9
$LUNITS
 70
     2
  9
$LUPREC
 70
     3
  9
$SKETCHINC
 40
1.0
  9
$FILLETRAD
 40
0.0
  9
$AUNITS
 70
     0
  9
$AUPREC
 70
     2
  9
$MENU
  1
.
  9
$ELEVATION
 40
0.0
  9
$PELEVATION
 40
0.0
  9
$THICKNESS
 40
0.0
  9
$LIMCHECK
 70
     0
  9
$CHAMFERA
 40
0.0
  9
$CHAMFERB
 40
0.0
  9
$CHAMFERC
 40
0.0
  9
$CHAMFERD
 40
0.0
  9
$SKPOLY
 70
     0
  9
$TDCREATE
 40
2460299.408974583
  9
$TDUCREATE
 40
2460299.033974583
  9
$TDUPDATE
 40
2460299.408975706
  9
$TDUUPDATE
 40
2460299.033975706
  9
$TDINDWG
 40
0.0000000116
  9
$TDUSRTIMER
 40
0.0000000116
  9
$USRTIMER
 70
     1
  9
$ANGBASE
 50
0.0
  9
$ANGDIR
 70
     0
  9
$PDMODE
 70
     0
  9
$PDSIZE
 40
-1.0
  9
$PLINEWID
 40
0.0
  9
$SPLFRAME
 70
     0
  9
$SPLINETYPE
 70
     6
  9
$SPLINESEGS
 70
     8
  9
$HANDSEED
  5
301
  9
$SURFTAB1
 70
     6
  9
$SURFTAB2
 70
     6
  9
$SURFTYPE
 70
     6
  9
$SURFU
 70
     6
  9
$SURFV
 70
     6
  9
$UCSBASE
  2

  9
$UCSNAME
  2

  9
$UCSORG
 10
0.0
 20
0.0
 30
0.0
  9
$UCSXDIR
 10
1.0
 20
0.0
 30
0.0
  9
$UCSYDIR
 10
0.0
 20
1.0
 30
0.0
  9
$UCSORTHOREF
  2

  9
$UCSORTHOVIEW
 70
     0
  9
$UCSORGTOP
 10
0.0
 20
0.0
 30
0.0
  9
$UCSORGBOTTOM
 10
0.0
 20
0.0
 30
0.0
  9
$UCSORGLEFT
 10
0.0
 20
0.0
 30
0.0
  9
$UCSORGRIGHT
 10
0.0
 20
0.0
 30
0.0
  9
$UCSORGFRONT
 10
0.0
 20
0.0
 30
0.0
  9
$UCSORGBACK
 10
0.0
 20
0.0
 30
0.0
  9
$PUCSBASE
  2

  9
$PUCSNAME
  2

  9
$PUCSORG
 10
0.0
 20
0.0
 30
0.0
  9
$PUCSXDIR
 10
1.0
 20
0.0
 30
0.0
  9
$PUCSYDIR
 10
0.0
 20
1.0
 30
0.0
  9
$PUCSORTHOREF
  2

  9
$PUCSORTHOVIEW
 70
     0
  9
$PUCSORGTOP
 10
0.0
 20
0.0
 30
0.0
  9
$PUCSORGBOTTOM
 10
0.0
 20
0.0
 30
0.0
  9
$PUCSORGLEFT
 10
0.0
 20
0.0
 30
0.0
  9
$PUCSORGRIGHT
 10
0.0
 20
0.0
 30
0.0
  9
$PUCSORGFRONT
 10
0.0
 20
0.0
 30
0.0
  9
$PUCSORGBACK
 10
0.0
 20
0.0
 30
0.0
  9
$USERI1
 70
     0
  9
$USERI2
 70
     0
  9
$USERI3
 70
     0
  9
$USERI4
 70
     0
  9
$USERI5
 70
     0
  9
$USERR1
 40
0.0
  9
$USERR2
 40
0.0
  9
$USERR3
 40
0.0
  9
$USERR4
 40
0.0
  9
$USERR5
 40
0.0
  9
$WORLDVIEW
 70
     1
  9
$SHADEDGE
 70
     3
  9
$SHADEDIF
 70
    70
  9
$TILEMODE
 70
     1
  9
$MAXACTVP
 70
    64
  9
$PINSBASE
 10
0.0
 20
0.0
 30
0.0
  9
$PLIMCHECK
 70
     0
  9
$PEXTMIN
 10
1.0000000000E+20
 20
1.0000000000E+20
 30
1.0000000000E+20
  9
$PEXTMAX
 10
-1.0000000000E+20
 20
-1.0000000000E+20
 30
-1.0000000000E+20
  9
$PLIMMIN
 10
0.0
 20
0.0
  9
$PLIMMAX
 10
420.0
 20
297.0
  9
$UNITMODE
 70
     0
  9
$VISRETAIN
 70
     1
  9
$PLINEGEN
 70
     0
  9
$PSLTSCALE
 70
     1
  9
$TREEDEPTH
 70
  3020
  9
$CMLSTYLE
  2
Standard
  9
$CMLJUST
 70
     0
  9
$CMLSCALE
 40
20.0
  9
$PROXYGRAPHICS
 70
     1
  9
$MEASUREMENT
 70
     1
  9
$CELWEIGHT
370
    -1
  9
$ENDCAPS
280
     0
  9
$JOINSTYLE
280
     0
  9
$LWDISPLAY
290
     1
  9
$INSUNITS
 70
     4
  9
$HYPERLINKBASE
  1

  9
$STYLESHEET
  1

  9
$XEDIT
290
     1
  9
$CEPSNTYPE
380
     0
  9
$PSTYLEMODE
290
     1
  9
$FINGERPRINTGUID
  2
{5fd2e033-e975-476d-aba0-5c319ffbc986}
  9
$VERSIONGUID
  2
{FAEB1C32-E019-11D5-929B-00C0DF256EC4}
  9
$EXTNAMES
290
     1
  9
$PSVPSCALE
 40
0.0
  9
$OLESTARTUP
290
     0
  0
ENDSEC
  0
SECTION
  2
CLASSES
  0
CLASS
  1
ACDBDICTIONARYWDFLT
  2
AcDbDictionaryWithDefault
  3
ObjectDBX Classes
 90
        0
280
     0
281
     0
  0
CLASS
  1
VISUALSTYLE
  2
AcDbVisualStyle
  3
ObjectDBX Classes
 90
     4095
280
     0
281
     0
  0
CLASS
  1
MATERIAL
  2
AcDbMaterial
  3
ObjectDBX Classes
 90
     1153
280
     0
281
     0
  0
CLASS
  1
SCALE
  2
AcDbScale
  3
ObjectDBX Classes
 90
     1153
280
     0
281
     0
  0
CLASS
  1
TABLESTYLE
  2
AcDbTableStyle
  3
ObjectDBX Classes
 90
     4095
280
     0
281
     0
  0
CLASS
  1
MLEADERSTYLE
  2
AcDbMLeaderStyle
  3
ACDB_MLEADERSTYLE_CLASS
 90
     4095
280
     0
281
     0
  0
CLASS
  1
SUN
  2
AcDbSun
  3
SCENEOE
 90
     1153
280
     0
281
     0
  0
CLASS
  1
ACDBPLACEHOLDER
  2
AcDbPlaceHolder
  3
ObjectDBX Classes
 90
        0
280
     0
281
     0
  0
CLASS
  1
LAYOUT
  2
AcDbLayout
  3
ObjectDBX Classes
 90
        0
280
     0
281
     0
  0
ENDSEC
  0
SECTION
  2
TABLES
  0
TABLE
  2
VPORT
  5
8
330
0
100
AcDbSymbolTable
 70
     1
  0
VPORT
  5
29
330
8
100
AcDbSymbolTableRecord
100
AcDbViewportTableRecord
  2
*Active
 70
     0
 10
0.0
 20
0.0
 11
1.0
 21
1.0
 12
215.9
 22
139.7
 13
0.0
 23
0.0
 14
10.0
 24
10.0
 15
10.0
 25
10.0
 16
0.0
 26
0.0
 36
1.0
 17
0.0
 27
0.0
 37
0.0
 40
279.4
 41
1.5454545455
 42
50.0
 43
0.0
 44
0.0
 50
0.0
 51
0.0
 71
     0
 72
  2000
 73
     1
 74
     3
 75
     0
 76
     0
 77
     0
 78
     0
281
     0
 65
     1
110
0.0
120
0.0
130
0.0
111
1.0
121
0.0
131
0.0
112
0.0
122
1.0
132
0.0
 79
     0
146
0.0
  0
ENDTAB
  0
TABLE
  2
LTYPE
  5
5
330
0
100
AcDbSymbolTable
 70
     6
  0
LTYPE
  5
14
330
5
100
AcDbSymbolTableRecord
100
AcDbLinetypeTableRecord
  2
ByBlock
 70
     0
  3

 72
    65
 73
     0
 40
0.0
  0
LTYPE
  5
15
330
5
100
AcDbSymbolTableRecord
100
AcDbLinetypeTableRecord
  2
ByLayer
 70
     0
  3

 72
    65
 73
     0
 40
0.0
  0
LTYPE
  5
16
330
5
100
AcDbSymbolTableRecord
100
AcDbLinetypeTableRecord
  2
Continuous
 70
     0
  3
Solid line
 72
    65
 73
     0
 40
0.0
  0
LTYPE
  5
5E
330
5
100
AcDbSymbolTableRecord
100
AcDbLinetypeTableRecord
  2
HIDDEN
 70
     0
  3
Hidden __ __ __ __ __ __ __ __ __ __ __ __ __ __
 72
    65
 73
     2
 40
1.905
 49
1.27
 74
     0
 49
-0.635
 74
     0
  0
LTYPE
  5
5F
330
5
100
AcDbSymbolTableRecord
100
AcDbLinetypeTableRecord
  2
PHANTOM
 70
     0
  3
Phantom ______  __  __  ______  __  __  ______
 72
    65
 73
     6
 40
12.7
 49
6.35
 74
     0
 49
-1.27
 74
     0
 49
1.27
 74
     0
 49
-1.27
 74
     0
 49
1.27
 74
     0
 49
-1.27
 74
     0
  0
LTYPE
  5
60
330
5
100
AcDbSymbolTableRecord
100
AcDbLinetypeTableRecord
  2
CENTER
 70
     0
  3
Center ____ _ ____ _ ____ _ ____ _ ____ _ ____
 72
    65
 73
     4
 40
10.16
 49
6.35
 74
     0
 49
-1.27
 74
     0
 49
1.27
 74
     0
 49
-1.27
 74
     0
  0
LTYPE
  5
61
330
5
100
AcDbSymbolTableRecord
100
AcDbLinetypeTableRecord
  2
CENTERX2
 70
     0
  3
Center (2x) ________  __  ________  __  _____
 72
    65
 73
     4
 40
20.32
 49
12.7
 74
     0
 49
-2.54
 74
     0
 49
2.54
 74
     0
 49
-2.54
 74
     0
  0
LTYPE
  5
62
330
5
100
AcDbSymbolTableRecord
100
AcDbLinetypeTableRecord
  2
DOT2
 70
     0
  3
Dot (.5x) ........................................
 72
    65
 73
     2
 40
0.635
 49
0.0
 74
     0
 49
-0.635
 74
     0
  0
ENDTAB
  0
TABLE
  2
LAYER
  5
2
330
0
100
AcDbSymbolTable
 70
     1
  0
LAYER
  5
10
330
2
100
AcDbSymbolTableRecord
100
AcDbLayerTableRecord
  2
0
 70
     0
 62
     7
  6
Continuous
370
    -3
390
F
  0
ENDTAB
  0
TABLE
  2
STYLE
  5
3
330
0
100
AcDbSymbolTable
 70
     2
  0
STYLE
  5
11
330
3
100
AcDbSymbolTableRecord
100
AcDbTextStyleTableRecord
  2
Standard
 70
     0
 40
0.0
 41
1.0
 50
0.0
 71
     0
 42
3.5
  3
txt
  4
bigfont
  0
STYLE
  5
63
330
3
100
AcDbSymbolTableRecord
100
AcDbTextStyleTableRecord
  2
SLDTEXTSTYLE0
 70
     0
 40
0.0
 41
0.7
 50
0.0
 71
     0
 42
3.5
  3
TXT
  4
bigfont
  0
ENDTAB
  0
TABLE
  2
VIEW
  5
6
330
0
100
AcDbSymbolTable
 70
     0
  0
ENDTAB
  0
TABLE
  2
UCS
  5
7
330
0
100
AcDbSymbolTable
 70
     0
  0
ENDTAB
  0
TABLE
  2
APPID
  5
9
330
0
100
AcDbSymbolTable
 70
     1
  0
APPID
  5
12
330
9
100
AcDbSymbolTableRecord
100
AcDbRegAppTableRecord
  2
ACAD
 70
     0
  0
ENDTAB
  0
TABLE
  2
DIMSTYLE
  5
A
330
0
100
AcDbSymbolTable
 70
     1
100
AcDbDimStyleTable
  0
DIMSTYLE
105
27
330
A
100
AcDbSymbolTableRecord
100
AcDbDimStyleTableRecord
  2
ISO-25
 70
     0
 41
2.5
 42
0.625
 43
3.75
 44
1.25
 73
     0
 74
     0
 77
     1
 78
     8
140
2.5
141
2.5
143
0.0393700787
147
0.625
171
     3
172
     1
178
     0
271
     2
272
     2
274
     3
278
    44
283
     0
284
     8
340
11
  0
ENDTAB
  0
TABLE
  2
BLOCK_RECORD
  5
1
330
0
100
AcDbSymbolTable
 70
     3
  0
BLOCK_RECORD
  5
1F
330
1
100
AcDbSymbolTableRecord
100
AcDbBlockTableRecord
  2
*Model_Space
340
22
  0
BLOCK_RECORD
  5
1B
330
1
100
AcDbSymbolTableRecord
100
AcDbBlockTableRecord
  2
*Paper_Space
340
1E
  0
BLOCK_RECORD
  5
23
330
1
100
AcDbSymbolTableRecord
100
AcDbBlockTableRecord
  2
*Paper_Space0
340
26
  0
BLOCK_RECORD
  5
1FA
330
1
100
AcDbSymbolTableRecord
100
AcDbBlockTableRecord
  2
SW_CENTERMARKSYMBOL_0
340
0
102
{BLKREFS
331
205
102
}
  0
BLOCK_RECORD
  5
2F2
330
1
100
AcDbSymbolTableRecord
100
AcDbBlockTableRecord
  2
SW_CENTERMARKSYMBOL_1
340
0
102
{BLKREFS
331
2FD
102
}
  0
ENDTAB
  0
ENDSEC
  0
SECTION
  2
BLOCKS
  0
BLOCK
  5
20
330
1F
100
AcDbEntity
  8
0
100
AcDbBlockBegin
  2
*Model_Space
 70
     0
 10
0.0
 20
0.0
 30
0.0
  3
*Model_Space
  1

  0
ENDBLK
  5
21
330
1F
100
AcDbEntity
  8
0
100
AcDbBlockEnd
  0
BLOCK
  5
1C
330
1B
100
AcDbEntity
 67
     1
  8
0
100
AcDbBlockBegin
  2
*Paper_Space
 70
     0
 10
0.0
 20
0.0
 30
0.0
  3
*Paper_Space
  1

  0
ENDBLK
  5
1D
330
1B
100
AcDbEntity
 67
     1
  8
0
100
AcDbBlockEnd
  0
BLOCK
  5
24
330
23
100
AcDbEntity
  8
0
100
AcDbBlockBegin
  2
*Paper_Space0
 70
     0
 10
0.0
 20
0.0
 30
0.0
  3
*Paper_Space0
  1

  0
ENDBLK
  5
25
330
23
100
AcDbEntity
  8
0
100
AcDbBlockEnd
  0
BLOCK
  5
1FB
330
1FA
100
AcDbEntity
  8
0
100
AcDbBlockBegin
  2
SW_CENTERMARKSYMBOL_0
 70
     0
 10
0.0
 20
0.0
 30
0.0
  3
SW_CENTERMARKSYMBOL_0
  1

  0
LINE
  5
1FD
330
1FA
100
AcDbEntity
  8
0
  6
Continuous
 62
     0
370
    18
100
AcDbLine
 10
0.0
 20
0.0
 30
0.0
 11
0.0
 21
2.5
 31
0.0
  0
LINE
  5
1FE
330
1FA
100
AcDbEntity
  8
0
  6
Continuous
 62
     0
370
    18
100
AcDbLine
 10
0.0
 20
0.0
 30
0.0
 11
-2.5
 21
0.0
 31
0.0
  0
LINE
  5
1FF
330
1FA
100
AcDbEntity
  8
0
  6
Continuous
 62
     0
370
    18
100
AcDbLine
 10
0.0
 20
0.0
 30
0.0
 11
0.0
 21
-2.5
 31
0.0
  0
LINE
  5
200
330
1FA
100
AcDbEntity
  8
0
  6
Continuous
 62
     0
370
    18
100
AcDbLine
 10
0.0
 20
0.0
 30
0.0
 11
2.5
 21
0.0
 31
0.0
  0
LINE
  5
201
330
1FA
100
AcDbEntity
  8
0
  6
Continuous
 62
     0
370
    18
100
AcDbLine
 10
0.0
 20
5.0
 30
0.0
 11
0.0
 21
40.9882765989
 31
0.0
  0
LINE
  5
202
330
1FA
100
AcDbEntity
  8
0
  6
Continuous
 62
     0
370
    18
100
AcDbLine
 10
-5.0
 20
0.0
 30
0.0
 11
-15.0
 21
0.0
 31
0.0
  0
LINE
  5
203
330
1FA
100
AcDbEntity
  8
0
  6
Continuous
 62
     0
370
    18
100
AcDbLine
 10
0.0
 20
-5.0
 30
0.0
 11
0.0
 21
-15.0
 31
0.0
  0
LINE
  5
204
330
1FA
100
AcDbEntity
  8
0
  6
Continuous
 62
     0
370
    18
100
AcDbLine
 10
5.0
 20
0.0
 30
0.0
 11
15.0
 21
0.0
 31
0.0
  0
ENDBLK
  5
1FC
330
1FA
100
AcDbEntity
  8
0
100
AcDbBlockEnd
  0
BLOCK
  5
2F3
330
2F2
100
AcDbEntity
  8
0
100
AcDbBlockBegin
  2
SW_CENTERMARKSYMBOL_1
 70
     0
 10
0.0
 20
0.0
 30
0.0
  3
SW_CENTERMARKSYMBOL_1
  1

  0
LINE
  5
2F5
330
2F2
100
AcDbEntity
  8
0
  6
Continuous
 62
     0
370
    18
100
AcDbLine
 10
0.0
 20
0.0
 30
0.0
 11
0.0
 21
2.5
 31
0.0
  0
LINE
  5
2F6
330
2F2
100
AcDbEntity
  8
0
  6
Continuous
 62
     0
370
    18
100
AcDbLine
 10
0.0
 20
0.0
 30
0.0
 11
-2.5
 21
0.0
 31
0.0
  0
LINE
  5
2F7
330
2F2
100
AcDbEntity
  8
0
  6
Continuous
 62
     0
370
    18
100
AcDbLine
 10
0.0
 20
0.0
 30
0.0
 11
0.0
 21
-2.5
 31
0.0
  0
LINE
  5
2F8
330
2F2
100
AcDbEntity
  8
0
  6
Continuous
 62
     0
370
    18
100
AcDbLine
 10
0.0
 20
0.0
 30
0.0
 11
2.5
 21
0.0
 31
0.0
  0
LINE
  5
2F9
330
2F2
100
AcDbEntity
  8
0
  6
Continuous
 62
     0
370
    18
100
AcDbLine
 10
0.0
 20
5.0
 30
0.0
 11
0.0
 21
14.214368828
 31
0.0
  0
LINE
  5
2FA
330
2F2
100
AcDbEntity
  8
0
  6
Continuous
 62
     0
370
    18
100
AcDbLine
 10
-5.0
 20
0.0
 30
0.0
 11
-57.1646442295
 21
0.0
 31
0.0
  0
LINE
  5
2FB
330
2F2
100
AcDbEntity
  8
0
  6
Continuous
 62
     0
370
    18
100
AcDbLine
 10
0.0
 20
-5.0
 30
0.0
 11
0.0
 21
-13.9865429876
 31
0.0
  0
LINE
  5
2FC
330
2F2
100
AcDbEntity
  8
0
  6
Continuous
 62
     0
370
    18
100
AcDbLine
 10
5.0
 20
0.0
 30
0.0
 11
29.3015875929
 21
0.0
 31
0.0
  0
ENDBLK
  5
2F4
330
2F2
100
AcDbEntity
  8
0
100
AcDbBlockEnd
  0
ENDSEC
  0
SECTION
  2
ENTITIES
  0
MTEXT
  5
64
330
1F
100
AcDbEntity
  8
0
  6
Continuous
 62
     7
370
     0
100
AcDbMText
 10
168.336702799
 20
108.9794659333
 30
0.0
 40
4.2333333333
 41
0.0
 71
     1
 72
     1
  1
エースボールZERO　BH-0440
  7
SLDTEXTSTYLE0
 73
     1
 44
1.0
  0
LINE
  5
65
330
1F
100
AcDbEntity
  8
0
  6
Continuous
 62
     7
370
    25
100
AcDbLine
 10
136.4930270543
 20
67.8461638342
 30
0.0
 11
136.2430270543
 21
67.5961638342
 31
0.0
  0
LINE
  5
66
330
1F
100
AcDbEntity
  8
0
  6
Continuous
 62
     7
370
    25
100
AcDbLine
 10
136.2430270543
 20
44.0961638342
 30
0.0
 11
136.4930270543
 21
43.8461638342
 31
0.0
  0
LINE
  5
67
330
1F
100
AcDbEntity
  8
0
  6
Continuous
 62
     7
370
    25
100
AcDbLine
 10
139.2430270543
 20
67.8461638342
 30
0.0
 11
136.4930270543
 21
67.8461638342
 31
0.0
  0
LINE
  5
68
330
1F
100
AcDbEntity
  8
0
  6
Continuous
 62
     7
370
    25
100
AcDbLine
 10
136.4930270543
 20
43.8461638342
 30
0.0
 11
139.2430270543
 21
43.8461638342
 31
0.0
  0
LINE
  5
69
330
1F
100
AcDbEntity
  8
0
  6
Continuous
 62
     7
370
    25
100
AcDbLine
 10
125.2430270543
 20
62.1961638342
 30
0.0
 11
120.7430270543
 21
61.4461638342
 31
0.0
  0
LINE
  5
6A
330
1F
100
AcDbEntity
  8
0
  6
Continuous
 62
     7
370
    25
100
AcDbLine
 10
120.7430270543
 20
50.2461638342
 30
0.0
 11
125.2430270543
 21
49.4961638342
 31
0.0
  0
LINE
  5
6B
330
1F
100
AcDbEntity
  8
0
  6
Continuous
 62
     7
370
    25
100
AcDbLine
 10
129.7430270543
 20
62.1961638342
 30
0.0
 11
125.2430270543
 21
61.4461638342
 31
0.0
  0
LINE
  5
6C
330
1F
100
AcDbEntity
  8
0
  6
Continuous
 62
     7
370
    25
100
AcDbLine
 10
125.2430270543
 20
50.2461638342
 30
0.0
 11
129.7430270543
 21
49.4961638342
 31
0.0
  0
LINE
  5
6D
330
1F
100
AcDbEntity
  8
0
  6
Continuous
 62
     7
370
    25
100
AcDbLine
 10
111.7430270543
 20
62.1961638342
 30
0.0
 11
107.6608275606
 21
61.5157972519
 31
0.0
  0
LINE
  5
6E
330
1F
100
AcDbEntity
  8
0
  6
Continuous
 62
     7
370
    25
100
AcDbLine
 10
107.6608275606
 20
50.1765304165
 30
0.0
 11
111.7430270543
 21
49.4961638342
 31
0.0
  0
LINE
  5
6F
330
1F
100
AcDbEntity
  8
0
  6
Continuous
 62
     7
370
    25
100
AcDbLine
 10
116.2430270543
 20
62.1961638342
 30
0.0
 11
111.7430270543
 21
61.4461638342
 31
0.0
  0
LINE
  5
70
330
1F
100
AcDbEntity
  8
0
  6
Continuous
 62
     7
370
    25
100
AcDbLine
 10
111.7430270543
 20
50.2461638342
 30
0.0
 11
116.2430270543
 21
49.4961638342
 31
0.0
  0
LINE
  5
71
330
1F
100
AcDbEntity
  8
0
  6
Continuous
 62
     7
370
    25
100
AcDbLine
 10
129.7430270543
 20
49.4961638342
 30
0.0
 11
136.2430270543
 21
49.4961638342
 31
0.0
  0
LINE
  5
72
330
1F
100
AcDbEntity
  8
0
  6
Continuous
 62
     7
370
    25
100
AcDbLine
 10
136.2430270543
 20
62.1961638342
 30
0.0
 11
129.7430270543
 21
62.1961638342
 31
0.0
  0
LINE
  5
73
330
1F
100
AcDbEntity
  8
0
  6
Continuous
 62
     7
370
    25
100
AcDbLine
 10
120.7430270543
 20
62.1961638342
 30
0.0
 11
116.2430270543
 21
61.4461638342
 31
0.0
  0
LINE
  5
74
330
1F
100
AcDbEntity
  8
0
  6
Continuous
 62
     7
370
    25
100
AcDbLine
 10
116.2430270543
 20
50.2461638342
 30
0.0
 11
120.7430270543
 21
49.4961638342
 31
0.0
  0
ARC
  5
75
330
1F
100
AcDbEntity
  8
0
  6
Continuous
 62
     7
370
    25
100
AcDbCircle
 10
107.7430270543
 20
50.6697273784
 30
0.0
 40
0.5
100
AcDbArc
 50
180.0
 51
260.537677792
  0
ARC
  5
76
330
1F
100
AcDbEntity
  8
0
  6
Continuous
 62
     7
370
    25
100
AcDbCircle
 10
107.7430270543
 20
61.02260029
 30
0.0
 40
0.5
100
AcDbArc
 50
99.462322208
 51
180.0
  0
ARC
  5
77
330
1F
100
AcDbEntity
  8
0
  6
Continuous
 62
     7
370
    25
100
AcDbCircle
 10
152.2430270543
 20
72.5461638342
 30
0.0
 40
20.6
100
AcDbArc
 50
90.5484900279
 51
93.3558231766
  0
ARC
  5
78
330
1F
100
AcDbEntity
  8
0
  6
Continuous
 62
     7
370
    25
100
AcDbCircle
 10
152.2430270543
 20
72.5461638342
 30
0.0
 40
20.59999999999998
100
AcDbArc
 50
86.6441768145
 51
89.4395452544
  0
ARC
  5
79
330
1F
100
AcDbEntity
  8
0
  6
Continuous
 62
     7
370
    25
100
AcDbCircle
 10
160.2367974227
 20
85.033743139
 30
0.0
 40
0.9999999999999971
100
AcDbArc
 50
354.2894068625
 51
7.1250163489
  0
LINE
  5
7A
330
1F
100
AcDbEntity
  8
0
  6
Continuous
 62
     7
370
    25
100
AcDbLine
 10
143.8363991977
 20
79.1124424005
 30
0.0
 11
144.0630270543
 21
76.8461638342
 31
0.0
  0
LINE
  5
7B
330
1F
100
AcDbEntity
  8
0
  6
Continuous
 62
     7
370
    25
100
AcDbLine
 10
160.2880518683
 20
75.4964119747
 30
0.0
 11
161.2318346129
 21
84.93423942
 31
0.0
  0
LINE
  5
7C
330
1F
100
AcDbEntity
  8
0
  6
Continuous
 62
     7
370
    25
100
AcDbLine
 10
161.2290752994
 20
85.1577778736
 30
0.0
 11
160.2977748834
 21
92.6081812015
 31
0.0
  0
LINE
  5
7D
330
1F
100
AcDbEntity
  8
0
  6
Continuous
 62
     7
370
    25
100
AcDbLine
 10
144.1882792252
 20
92.6081812015
 30
0.0
 11
143.9930270543
 21
91.0461638342
 31
0.0
  0
ARC
  5
7E
330
1F
100
AcDbEntity
  8
0
  6
Continuous
 62
     7
370
    25
100
AcDbCircle
 10
144.6844181636
 20
92.5461638342
 30
0.0
 40
0.5000000000000299
100
AcDbArc
 50
90.0
 51
172.8749836511
  0
ARC
  5
7F
330
1F
100
AcDbEntity
  8
0
  6
Continuous
 62
     7
370
    25
100
AcDbCircle
 10
159.801635945
 20
92.5461638342
 30
0.0
 40
0.5000000000000017
100
AcDbArc
 50
7.1250163489
 51
90.0
  0
ARC
  5
80
330
1F
100
AcDbEntity
  8
0
  6
Continuous
 62
     7
370
    25
100
AcDbCircle
 10
159.7905332732
 20
75.5461638342
 30
0.0
 40
0.5
100
AcDbArc
 50
270.0
 51
354.2894068625
  0
LINE
  5
81
330
1F
100
AcDbEntity
  8
0
  6
Continuous
 62
     7
370
    25
100
AcDbLine
 10
146.7430270543
 20
74.5461638342
 30
0.0
 11
146.7430270543
 21
75.0461638342
 31
0.0
  0
LINE
  5
82
330
1F
100
AcDbEntity
  8
0
  6
Continuous
 62
     7
370
    25
100
AcDbLine
 10
144.7430270543
 20
75.0493985662
 30
0.0
 11
144.7430270543
 21
74.5461638342
 31
0.0
  0
LINE
  5
83
330
1F
100
AcDbEntity
  8
0
  6
Continuous
 62
     7
370
    25
100
AcDbLine
 10
164.7430270543
 20
45.1549138342
 30
0.0
 11
177.0466357813
 21
45.5394016069
 31
0.0
  0
LINE
  5
84
330
1F
100
AcDbEntity
  8
0
  6
Continuous
 62
     7
370
    25
100
AcDbLine
 10
177.0466357813
 20
66.1529260615
 30
0.0
 11
164.7430270543
 21
66.5374138342
 31
0.0
  0
LINE
  5
85
330
1F
100
AcDbEntity
  8
0
  6
Continuous
 62
     7
370
    25
100
AcDbLine
 10
177.0466357813
 20
45.5394016069
 30
0.0
 11
179.7430270543
 21
47.0961638342
 31
0.0
  0
LINE
  5
86
330
1F
100
AcDbEntity
  8
0
  6
Continuous
 62
     7
370
    25
100
AcDbLine
 10
179.7430270543
 20
64.5961638342
 30
0.0
 11
177.0466357813
 21
66.1529260615
 31
0.0
  0
ARC
  5
87
330
1F
100
AcDbEntity
  8
0
  6
Continuous
 62
     7
370
    25
100
AcDbCircle
 10
160.7430270543
 20
68.5961638342
 30
0.0
 40
0.25
100
AcDbArc
 50
180.0
 51
270.0
  0
ARC
  5
88
330
1F
100
AcDbEntity
  8
0
  6
Continuous
 62
     7
370
    25
100
AcDbCircle
 10
143.7430270543
 20
68.5961638342
 30
0.0
 40
0.25
100
AcDbArc
 50
270.0
 51
0.0
  0
LINE
  5
89
330
1F
100
AcDbEntity
  8
0
  6
Continuous
 62
     7
370
    25
100
AcDbLine
 10
160.4930270543
 20
68.5961638342
 30
0.0
 11
160.4930270543
 21
74.0461638342
 31
0.0
  0
LINE
  5
8A
330
1F
100
AcDbEntity
  8
0
  6
Continuous
 62
     7
370
    25
100
AcDbLine
 10
143.9930270543
 20
74.0461638342
 30
0.0
 11
143.9930270543
 21
68.5961638342
 31
0.0
  0
LINE
  5
8B
330
1F
100
AcDbEntity
  8
0
  6
Continuous
 62
     7
370
    25
100
AcDbLine
 10
160.4930270543
 20
74.0461638342
 30
0.0
 11
159.9930270543
 21
74.5461638342
 31
0.0
  0
LINE
  5
8C
330
1F
100
AcDbEntity
  8
0
  6
Continuous
 62
     7
370
    25
100
AcDbLine
 10
144.4930270543
 20
74.5461638342
 30
0.0
 11
143.9930270543
 21
74.0461638342
 31
0.0
  0
LINE
  5
8D
330
1F
100
AcDbEntity
  8
0
  6
Continuous
 62
     7
370
    25
100
AcDbLine
 10
147.2430270543
 20
75.0461638342
 30
0.0
 11
147.2430270543
 21
74.5461638342
 31
0.0
  0
LINE
  5
8E
330
1F
100
AcDbEntity
  8
0
  6
Continuous
 62
     7
370
    25
100
AcDbLine
 10
157.2430270543
 20
74.5461638342
 30
0.0
 11
157.2430270543
 21
75.0461638342
 31
0.0
  0
LINE
  5
8F
330
1F
100
AcDbEntity
  8
0
  6
Continuous
 62
     7
370
    25
100
AcDbLine
 10
136.2430270543
 20
47.2241537868
 30
0.0
 11
136.2430270543
 21
67.5961638342
 31
0.0
  0
LINE
  5
90
330
1F
100
AcDbEntity
  8
0
  6
Continuous
 62
     7
370
    25
100
AcDbLine
 10
136.2430270543
 20
44.0961638342
 30
0.0
 11
136.2430270543
 21
47.2241537868
 31
0.0
  0
LINE
  5
91
330
1F
100
AcDbEntity
  8
0
  6
Continuous
 62
     7
370
    25
100
AcDbLine
 10
136.4930270543
 20
47.0407067645
 30
0.0
 11
136.4930270543
 21
43.8461638342
 31
0.0
  0
LINE
  5
92
330
1F
100
AcDbEntity
  8
0
  6
Continuous
 62
     7
370
    25
100
AcDbLine
 10
136.4930270543
 20
67.8461638342
 30
0.0
 11
136.4930270543
 21
47.0407067645
 31
0.0
  0
LINE
  5
93
330
1F
100
AcDbEntity
  8
0
  6
Continuous
 62
     7
370
    25
100
AcDbLine
 10
125.2430270543
 20
60.1602168137
 30
0.0
 11
125.2430270543
 21
62.1961638342
 31
0.0
  0
LINE
  5
94
330
1F
100
AcDbEntity
  8
0
  6
Continuous
 62
     7
370
    25
100
AcDbLine
 10
125.2430270543
 20
49.4961638342
 30
0.0
 11
125.2430270543
 21
60.1602168137
 31
0.0
  0
LINE
  5
95
330
1F
100
AcDbEntity
  8
0
  6
Continuous
 62
     7
370
    25
100
AcDbLine
 10
129.7430270543
 20
60.1602168137
 30
0.0
 11
129.7430270543
 21
62.1961638342
 31
0.0
  0
LINE
  5
96
330
1F
100
AcDbEntity
  8
0
  6
Continuous
 62
     7
370
    25
100
AcDbLine
 10
129.7430270543
 20
49.4961638342
 30
0.0
 11
129.7430270543
 21
60.1602168137
 31
0.0
  0
LINE
  5
97
330
1F
100
AcDbEntity
  8
0
  6
Continuous
 62
     7
370
    25
100
AcDbLine
 10
111.7430270543
 20
60.1602168137
 30
0.0
 11
111.7430270543
 21
62.1961638342
 31
0.0
  0
LINE
  5
98
330
1F
100
AcDbEntity
  8
0
  6
Continuous
 62
     7
370
    25
100
AcDbLine
 10
111.7430270543
 20
49.4961638342
 30
0.0
 11
111.7430270543
 21
60.1602168137
 31
0.0
  0
LINE
  5
99
330
1F
100
AcDbEntity
  8
0
  6
Continuous
 62
     7
370
    25
100
AcDbLine
 10
116.2430270543
 20
60.1602168137
 30
0.0
 11
116.2430270543
 21
62.1961638342
 31
0.0
  0
LINE
  5
9A
330
1F
100
AcDbEntity
  8
0
  6
Continuous
 62
     7
370
    25
100
AcDbLine
 10
116.2430270543
 20
49.4961638342
 30
0.0
 11
116.2430270543
 21
60.1602168137
 31
0.0
  0
LINE
  5
9B
330
1F
100
AcDbEntity
  8
0
  6
Continuous
 62
     7
370
    25
100
AcDbLine
 10
120.7430270543
 20
60.1602168137
 30
0.0
 11
120.7430270543
 21
62.1961638342
 31
0.0
  0
LINE
  5
9C
330
1F
100
AcDbEntity
  8
0
  6
Continuous
 62
     7
370
    25
100
AcDbLine
 10
120.7430270543
 20
49.4961638342
 30
0.0
 11
120.7430270543
 21
60.1602168137
 31
0.0
  0
LINE
  5
9D
330
1F
100
AcDbEntity
  8
0
  6
Continuous
 62
     7
370
    25
100
AcDbLine
 10
107.2430270543
 20
59.362923065
 30
0.0
 11
107.2430270543
 21
61.02260029
 31
0.0
  0
LINE
  5
9E
330
1F
100
AcDbEntity
  8
0
  6
Continuous
 62
     7
370
    25
100
AcDbLine
 10
107.2430270543
 20
50.6697273784
 30
0.0
 11
107.2430270543
 21
59.362923065
 31
0.0
  0
ARC
  5
9F
330
1F
100
AcDbEntity
  8
0
  6
Continuous
 62
     7
370
    25
100
AcDbCircle
 10
151.1760753851
 20
90.747239885
 30
0.0
 40
2.367678303597728
100
AcDbArc
 50
93.3632881502
 51
99.4868245016
  0
ARC
  5
A0
330
1F
100
AcDbEntity
  8
0
  6
Continuous
 62
     7
370
    25
100
AcDbCircle
 10
153.30998241
 20
90.7472811357
 30
0.0
 40
2.367636907665305
100
AcDbArc
 50
80.5187694298
 51
86.636742268
  0
SPLINE
  5
A1
330
1F
100
AcDbEntity
  8
0
  6
Continuous
 62
     7
370
    25
100
AcDbSpline
210
0.0
220
0.0
230
1.0
 70
     8
 71
     3
 72
    15
 73
    11
 74
     0
 42
0.00000001
 43
0.00000001
 40
0.0
 40
0.0
 40
0.0
 40
0.0
 40
0.1233867499278388
 40
0.2487396502211602
 40
0.3739317114754985
 40
0.4999973617625659
 40
0.6259591330513601
 40
0.7512551380600303
 40
0.8765613478174267
 40
1.0
 40
1.0
 40
1.0
 40
1.0
 10
152.1801441894803
 20
93.14605673152523
 30
0.0
 10
152.1830223906722
 20
93.14605739059738
 30
0.0
 10
152.1888246567838
 20
93.14605871924388
 30
0.0
 10
152.2043540615045
 20
93.14606266887101
 30
0.0
 10
152.222708643378
 20
93.14606445122041
 30
0.0
 10
152.2430214598609
 20
93.14606600479837
 30
0.0
 10
152.263339877576
 20
93.14606445066343
 30
0.0
 10
152.2816927467401
 20
93.14606267378286
 30
0.0
 10
152.2972308511356
 20
93.14605870626471
 30
0.0
 10
152.3030314131669
 20
93.14605738646875
 30
0.0
 10
152.3059099190925
 20
93.14605673152523
 30
0.0
  0
ARC
  5
A2
330
1F
100
AcDbEntity
  8
0
  6
Continuous
 62
     7
370
    25
100
AcDbCircle
 10
152.1810386171
 20
90.6017073187
 30
0.0
 40
2.544349570049589
100
AcDbArc
 50
90.0201414662
 51
95.4127462175
  0
SPLINE
  5
A3
330
1F
100
AcDbEntity
  8
0
  6
Continuous
 62
     7
370
    25
100
AcDbSpline
210
0.0
220
0.0
230
1.0
 70
     8
 71
     3
 72
    15
 73
    11
 74
     0
 42
0.00000001
 43
0.00000001
 40
0.0
 40
0.0
 40
0.0
 40
0.0
 40
0.1261585224210644
 40
0.2513121451548802
 40
0.3762846848783791
 40
0.4993062783340883
 40
0.6261594278645745
 40
0.7521171342021309
 40
0.8758196922692798
 40
1.0
 40
1.0
 40
1.0
 40
1.0
 10
152.0039135286086
 20
93.1328136001145
 30
0.0
 10
151.9986824321199
 20
93.13276267436403
 30
0.0
 10
151.9882619067773
 20
93.13266122850567
 30
0.0
 10
151.9734753562629
 20
93.13265704686843
 30
0.0
 10
151.9602850036374
 20
93.13275638568904
 30
0.0
 10
151.9494144287961
 20
93.13297692789213
 30
0.0
 10
151.9414068414676
 20
93.13330079529358
 30
0.0
 10
151.9372402144349
 20
93.13372066514106
 30
0.0
 10
151.9366191629233
 20
93.13419938220679
 30
0.0
 10
151.939558275278
 20
93.13454067145237
 30
0.0
 10
151.9410306637608
 20
93.13471164496198
 30
0.0
  0
ARC
  5
A4
330
1F
100
AcDbEntity
  8
0
  6
Continuous
 62
     7
370
    25
100
AcDbCircle
 10
152.2430270543
 20
72.5461638342
 30
0.0
 40
20.58803836847347
100
AcDbArc
 50
89.3345405821
 51
90.66545941
  0
SPLINE
  5
A5
330
1F
100
AcDbEntity
  8
0
  6
Continuous
 62
     7
370
    25
100
AcDbSpline
210
0.0
220
0.0
230
1.0
 70
     8
 71
     3
 72
    15
 73
    11
 74
     0
 42
0.00000001
 43
0.00000001
 40
0.0
 40
0.0
 40
0.0
 40
0.0
 40
0.1241186784437694
 40
0.2478474916628981
 40
0.373657414947894
 40
0.5005082335853294
 40
0.6234527658309922
 40
0.7484986612277523
 40
0.8736976492452768
 40
1.0
 40
1.0
 40
1.0
 40
1.0
 10
152.5450234475379
 20
93.13471164492867
 30
0.0
 10
152.5464945201468
 20
93.1345407646502
 30
0.0
 10
152.5494320446251
 20
93.13419954083982
 30
0.0
 10
152.5488153101251
 20
93.1337210045523
 30
0.0
 10
152.5446533485305
 20
93.13330121468042
 30
0.0
 10
152.5366546007321
 20
93.132977426834
 30
0.0
 10
152.5257885091952
 20
93.13275672862832
 30
0.0
 10
152.5126007913706
 20
93.13265713671814
 30
0.0
 10
152.4978063447954
 20
93.13266105111676
 30
0.0
 10
152.4873777538881
 20
93.13276260192215
 30
0.0
 10
152.4821405827736
 20
93.13281360008189
 30
0.0
  0
ARC
  5
A6
330
1F
100
AcDbEntity
  8
0
  6
Continuous
 62
     7
370
    25
100
AcDbCircle
 10
152.3050154913
 20
90.6017072664
 30
0.0
 40
2.544349622292683
100
AcDbArc
 50
84.5872538302
 51
89.9798585321
  0
SPLINE
  5
A7
330
1F
100
AcDbEntity
  8
0
  6
Continuous
 62
     7
370
    25
100
AcDbSpline
210
0.0
220
0.0
230
1.0
 70
     8
 71
     3
 72
    13
 73
     9
 74
     0
 42
0.00000001
 43
0.00000001
 40
0.0
 40
0.0
 40
0.0
 40
0.0
 40
0.1374692963454099
 40
0.2749820892813126
 40
0.4163021045260215
 40
0.5576318202769774
 40
0.777008491451321
 40
1.0
 40
1.0
 40
1.0
 40
1.0
 10
132.7188262869303
 20
84.32253643624702
 30
0.0
 10
133.204154178294
 20
84.23629602681811
 30
0.0
 10
134.174963523374
 20
84.06378792067599
 30
0.0
 10
135.5956558911837
 20
83.66480584735301
 30
0.0
 10
136.9877522161999
 20
83.16449643588072
 30
0.0
 10
138.5921114004415
 20
82.435675964278
 30
0.0
 10
140.3829792760739
 20
81.41945701407634
 30
0.0
 10
141.6196426392888
 20
80.4318737277728
 30
0.0
 10
142.2430270542864
 20
79.93404703741689
 30
0.0
  0
ELLIPSE
  5
A8
330
1F
100
AcDbEntity
  8
0
  6
Continuous
 62
     7
370
    25
100
AcDbEllipse
 10
254.7569225267
 20
77.6679865525
 30
0.0
 11
171.000000000001
 21
0.0
 31
0.0
210
0.0
220
0.0
230
1.0
 40
0.0555555556
 41
2.292395939553286
 42
2.365524293035123
  0
LINE
  5
A9
330
1F
100
AcDbEntity
  8
0
  6
Continuous
 62
     7
370
    25
100
AcDbLine
 10
141.7966436994
 20
84.8001116248
 30
0.0
 11
142.2430270543
 21
84.762649659
 31
0.0
  0
LINE
  5
AA
330
1F
100
AcDbEntity
  8
0
  6
Continuous
 62
     7
370
    25
100
AcDbLine
 10
142.2430270543
 20
79.9340470374
 30
0.0
 11
142.2430270543
 21
84.762649659
 31
0.0
  0
SPLINE
  5
AB
330
1F
100
AcDbEntity
  8
0
  6
Continuous
 62
     7
370
    25
100
AcDbSpline
210
0.0
220
0.0
230
1.0
 70
     8
 71
     3
 72
    11
 73
     7
 74
     0
 42
0.00000001
 43
0.00000001
 40
0.0
 40
0.0
 40
0.0
 40
0.0
 40
0.2795638428677817
 40
0.5590315779132448
 40
0.7794196683689383
 40
0.9999999999999999
 40
0.9999999999999999
 40
0.9999999999999999
 40
0.9999999999999999
 10
129.8066991002089
 20
84.54616383422075
 30
0.0
 10
129.6831257544327
 20
84.58468268616883
 30
0.0
 10
129.4360215446443
 20
84.66170714814167
 30
0.0
 10
129.182265636721
 20
85.19450504593136
 30
0.0
 10
129.0656471957406
 20
85.82224161279775
 30
0.0
 10
129.0921665817758
 20
86.22322442896639
 30
0.0
 10
129.1054320553863
 20
86.423803241731
 30
0.0
  0
SPLINE
  5
AC
330
1F
100
AcDbEntity
  8
0
  6
Continuous
 62
     7
370
    25
100
AcDbSpline
210
0.0
220
0.0
230
1.0
 70
     8
 71
     3
 72
     9
 73
     5
 74
     0
 42
0.00000001
 43
0.00000001
 40
0.0
 40
0.0
 40
0.0
 40
0.0
 40
0.4986740982738612
 40
1.0
 40
1.0
 40
1.0
 40
1.0
 10
130.3969925964552
 20
86.45360426716144
 30
0.0
 10
130.1905189553854
 20
86.45506934641809
 30
0.0
 10
129.7764737066258
 20
86.45800729579568
 30
0.0
 10
129.3295076046809
 20
86.43522401686398
 30
0.0
 10
129.1054319205824
 20
86.42380216900928
 30
0.0
  0
SPLINE
  5
AD
330
1F
100
AcDbEntity
  8
0
  6
Continuous
 62
     7
370
    25
100
AcDbSpline
210
0.0
220
0.0
230
1.0
 70
     8
 71
     3
 72
    13
 73
     9
 74
     0
 42
0.00000001
 43
0.00000001
 40
0.0
 40
0.0
 40
0.0
 40
0.0
 40
0.3327087167328941
 40
0.5628656559531299
 40
0.69871241253847
 40
0.8016200683166478
 40
0.9052998751809794
 40
1.0
 40
1.0
 40
1.0
 40
1.0
 10
132.3877933367259
 20
84.37071087307163
 30
0.0
 10
132.0254025063987
 20
84.45649644798978
 30
0.0
 10
131.4123216276453
 20
84.60162566002778
 30
0.0
 10
130.7627763029829
 20
85.05199235645507
 30
0.0
 10
130.4200792873848
 20
85.45173350506094
 30
0.0
 10
130.2711556762411
 20
85.8076257514725
 30
0.0
 10
130.2589829568144
 20
86.15505959850672
 30
0.0
 10
130.3523995506346
 20
86.35713846968581
 30
0.0
 10
130.3969935930857
 20
86.45360434786996
 30
0.0
  0
SPLINE
  5
AE
330
1F
100
AcDbEntity
  8
0
  6
Continuous
 62
     7
370
    25
100
AcDbSpline
210
0.0
220
0.0
230
1.0
 70
     8
 71
     3
 72
     9
 73
     5
 74
     0
 42
0.00000001
 43
0.00000001
 40
0.0
 40
0.0
 40
0.0
 40
0.0
 40
0.5551829690770672
 40
1.0
 40
1.0
 40
1.0
 40
1.0
 10
129.8066991002089
 20
84.54616383422075
 30
0.0
 10
130.3367219739301
 20
84.53316481372968
 30
0.0
 10
131.2914034091375
 20
84.50975087415466
 30
0.0
 10
132.0502468502949
 20
84.41351723480295
 30
0.0
 10
132.3877933367259
 20
84.37071087307163
 30
0.0
  0
LINE
  5
AF
330
1F
100
AcDbEntity
  8
0
  6
Continuous
 62
     7
370
    25
100
AcDbLine
 10
142.2430270543
 20
90.0461638342
 30
0.0
 11
141.7966436994
 21
90.0461638342
 31
0.0
  0
ARC
  5
B0
330
1F
100
AcDbEntity
  8
0
  6
Continuous
 62
     7
370
    25
100
AcDbCircle
 10
148.6194561129
 20
90.4200099881
 30
0.0
 40
6.833046917561727
100
AcDbArc
 50
170.513808076
 51
183.1363032674
  0
ARC
  5
B1
330
1F
100
AcDbEntity
  8
0
  6
Continuous
 62
     7
370
    25
100
AcDbCircle
 10
141.875459188
 20
90.7559138858
 30
0.0
 40
0.7902621394877565
100
AcDbArc
 50
62.2819181136
 51
89.6817467964
  0
LINE
  5
B2
330
1F
100
AcDbEntity
  8
0
  6
Continuous
 62
     7
370
    25
100
AcDbLine
 10
142.2430270543
 20
90.0461638342
 30
0.0
 11
142.2430270543
 21
91.4554909814
 31
0.0
  0
LINE
  5
B3
330
1F
100
AcDbEntity
  8
0
  6
Continuous
 62
     7
370
    25
100
AcDbLine
 10
141.7966436994
 20
90.0461638342
 30
0.0
 11
141.7966436994
 21
84.8001116248
 31
0.0
  0
LINE
  5
B4
330
1F
100
AcDbEntity
  8
0
  6
Continuous
 62
     7
370
    25
100
AcDbLine
 10
142.2430270543
 20
84.762649659
 30
0.0
 11
142.2430270543
 21
90.0461638342
 31
0.0
  0
LINE
  5
B5
330
1F
100
AcDbEntity
  8
0
  6
Continuous
 62
     7
370
    25
100
AcDbLine
 10
141.8798487288
 20
91.5461638342
 30
0.0
 11
130.4641194453
 21
91.5461638342
 31
0.0
  0
LINE
  5
B6
330
1F
100
AcDbEntity
  8
0
  6
Continuous
 62
     7
370
    25
100
AcDbLine
 10
132.4629656879
 20
90.0461638342
 30
0.0
 11
141.7966436994
 21
90.0461638342
 31
0.0
  0
SPLINE
  5
B7
330
1F
100
AcDbEntity
  8
0
  6
Continuous
 62
     7
370
    25
100
AcDbSpline
210
0.0
220
0.0
230
1.0
 70
     8
 71
     3
 72
    15
 73
    11
 74
     0
 42
0.00000001
 43
0.00000001
 40
0.0
 40
0.0
 40
0.0
 40
0.0
 40
0.2070474010410781
 40
0.417596863024684
 40
0.5931232720441638
 40
0.6923428991082528
 40
0.773099683107911
 40
0.8543284120985949
 40
0.9261475166372038
 40
1.0
 40
1.0
 40
1.0
 40
1.0
 10
130.4615531586009
 20
91.54614910811475
 30
0.0
 10
130.6926423955657
 20
91.54229886927342
 30
0.0
 10
131.1587295811574
 20
91.53453326751293
 30
0.0
 10
131.7833273804644
 20
91.44788330477547
 30
0.0
 10
132.2450065708951
 20
91.27793279523286
 30
0.0
 10
132.5069102698789
 20
91.04856793788433
 30
0.0
 10
132.62737692601
 20
90.81077447260499
 30
0.0
 10
132.6461709642058
 20
90.54886149533174
 30
0.0
 10
132.5851325722057
 20
90.28331909331636
 30
0.0
 10
132.503937478591
 20
90.12602147030263
 30
0.0
 10
132.4627732448051
 20
90.04627482750162
 30
0.0
  0
LINE
  5
B8
330
1F
100
AcDbEntity
  8
0
  6
Continuous
 62
     7
370
    25
100
AcDbLine
 10
130.3968195227
 20
86.4537047536
 30
0.0
 11
132.4627732576
 21
90.0462748401
 31
0.0
  0
ARC
  5
B9
330
1F
100
AcDbEntity
  8
0
  6
Continuous
 62
     7
370
    25
100
AcDbCircle
 10
129.8066991003
 20
65.473156587
 30
0.0
 40
19.07300724724771
100
AcDbArc
 50
81.2175477188
 51
82.2224666688
  0
SPLINE
  5
BA
330
1F
100
AcDbEntity
  8
0
  6
Continuous
 62
     7
370
    25
100
AcDbSpline
210
0.0
220
0.0
230
1.0
 70
     8
 71
     3
 72
    11
 73
     7
 74
     0
 42
0.00000001
 43
0.00000001
 40
0.0
 40
0.0
 40
0.0
 40
0.0
 40
0.2491150002829079
 40
0.4989585322854286
 40
0.7493328274976518
 40
1.0
 40
1.0
 40
1.0
 40
1.0
 10
129.1054320553863
 20
86.42380324173098
 30
0.0
 10
128.6797207740729
 20
86.39755013376215
 30
0.0
 10
127.827053227517
 20
86.34496714114758
 30
0.0
 10
126.4634874662652
 20
86.26064611092107
 30
0.0
 10
125.062814849053
 20
86.17391284210935
 30
0.0
 10
124.1119946135658
 20
86.11493527668175
 30
0.0
 10
123.6363066010052
 20
86.08542925668257
 30
0.0
  0
SPLINE
  5
BB
330
1F
100
AcDbEntity
  8
0
  6
Continuous
 62
     7
370
    25
100
AcDbSpline
210
0.0
220
0.0
230
1.0
 70
     8
 71
     3
 72
     9
 73
     5
 74
     0
 42
0.00000001
 43
0.00000001
 40
0.0
 40
0.0
 40
0.0
 40
0.0
 40
0.5599987526606142
 40
1.0
 40
1.0
 40
1.0
 40
1.0
 10
126.2002079686626
 20
91.05925230837457
 30
0.0
 10
125.7204417107754
 20
90.13141100852526
 30
0.0
 10
124.8637143419952
 20
88.47454785402527
 30
0.0
 10
124.0113485935225
 20
86.81543915411481
 30
0.0
 10
123.6363066010052
 20
86.08542925668257
 30
0.0
  0
SPLINE
  5
BC
330
1F
100
AcDbEntity
  8
0
  6
Continuous
 62
     7
370
    25
100
AcDbSpline
210
0.0
220
0.0
230
1.0
 70
     8
 71
     3
 72
     9
 73
     5
 74
     0
 42
0.00000001
 43
0.00000001
 40
0.0
 40
0.0
 40
0.0
 40
0.0
 40
0.5600000882143319
 40
1.0
 40
1.0
 40
1.0
 40
1.0
 10
126.7046951062147
 20
92.03307536006669
 30
0.0
 10
126.6104826906831
 20
91.85131648923492
 30
0.0
 10
126.442246260878
 20
91.52674712816327
 30
0.0
 10
126.2741641032095
 20
91.20209792786646
 30
0.0
 10
126.2002079686626
 20
91.05925230837457
 30
0.0
  0
SPLINE
  5
BD
330
1F
100
AcDbEntity
  8
0
  6
Continuous
 62
     7
370
    25
100
AcDbSpline
210
0.0
220
0.0
230
1.0
 70
     8
 71
     3
 72
    10
 73
     6
 74
     0
 42
0.00000001
 43
0.00000001
 40
0.0
 40
0.0
 40
0.0
 40
0.0
 40
0.428349366631063
 40
0.7616603141144169
 40
1.0
 40
1.0
 40
1.0
 40
1.0
 10
126.7046951062149
 20
92.0330753600669
 30
0.0
 10
127.151622307498
 20
91.93127909724375
 30
0.0
 10
127.9463164030976
 20
91.75027223798921
 30
0.0
 10
128.9828712041031
 20
91.57660985503611
 30
0.0
 10
129.5687365371035
 20
91.55512257714032
 30
0.0
 10
129.8130027922035
 20
91.54616383422066
 30
0.0
  0
LINE
  5
BE
330
1F
100
AcDbEntity
  8
0
  6
Continuous
 62
     7
370
    25
100
AcDbLine
 10
129.8109026322
 20
91.5461638342
 30
0.0
 11
130.4615560982
 21
91.5461638342
 31
0.0
  0
LINE
  5
BF
330
1F
100
AcDbEntity
  8
0
  6
Continuous
 62
     7
370
    25
100
AcDbLine
 10
142.2430270543
 20
91.5461638342
 30
0.0
 11
141.8798487288
 21
91.5461638342
 31
0.0
  0
LINE
  5
C0
330
1F
100
AcDbEntity
  8
0
  6
Continuous
 62
     7
370
    25
100
AcDbLine
 10
142.2430270543
 20
91.4554909814
 30
0.0
 11
142.2430270543
 21
91.5461638342
 31
0.0
  0
SPLINE
  5
C1
330
1F
100
AcDbEntity
  8
0
  6
Continuous
 62
     7
370
    25
100
AcDbSpline
210
0.0
220
0.0
230
1.0
 70
    24
 71
     3
 72
    11
 73
     7
 74
     0
 42
0.00000001
 43
0.00000001
 40
0.0
 40
0.0
 40
0.0
 40
0.0
 40
0.2799857774483057
 40
0.5599458358671288
 40
0.779998565900937
 40
0.9999999999999999
 40
0.9999999999999999
 40
0.9999999999999999
 40
0.9999999999999999
 10
123.6755585681874
 20
84.54616383422075
 30
0.0
 10
124.2728825552714
 20
84.54616383422075
 30
0.0
 10
125.4674756602479
 20
84.54616383422075
 30
0.0
 10
127.0948374157305
 20
84.54616383422075
 30
0.0
 10
128.5505669852286
 20
84.54616383422075
 30
0.0
 10
129.3880209351364
 20
84.54616383422075
 30
0.0
 10
129.8066991002089
 20
84.54616383422075
 30
0.0
  0
SPLINE
  5
C2
330
1F
100
AcDbEntity
  8
0
  6
Continuous
 62
     7
370
    25
100
AcDbSpline
210
0.0
220
0.0
230
1.0
 70
     8
 71
     3
 72
    11
 73
     7
 74
     0
 42
0.00000001
 43
0.00000001
 40
0.0
 40
0.0
 40
0.0
 40
0.0
 40
0.2500000000000001
 40
0.4999999999999997
 40
0.75
 40
1.0
 40
1.0
 40
1.0
 40
1.0
 10
123.6755585681874
 20
84.54616383422075
 30
0.0
 10
123.6703275344273
 20
84.56948536652905
 30
0.0
 10
123.659865466907
 20
84.61612843114565
 30
0.0
 10
123.6467509790398
 20
84.97410949951237
 30
0.0
 10
123.6377266355459
 20
85.4843024375543
 30
0.0
 10
123.6367799458521
 20
85.88505365030649
 30
0.0
 10
123.6363066010052
 20
86.08542925668257
 30
0.0
  0
SPLINE
  5
C3
330
1F
100
AcDbEntity
  8
0
  6
Continuous
 62
     7
370
    25
100
AcDbSpline
210
0.0
220
0.0
230
1.0
 70
     8
 71
     3
 72
    11
 73
     7
 74
     0
 42
0.00000001
 43
0.00000001
 40
0.0
 40
0.0
 40
0.0
 40
0.0
 40
0.2499999999999989
 40
0.4999999999999996
 40
0.749999999999999
 40
1.0
 40
1.0
 40
1.0
 40
1.0
 10
139.2299565205053
 20
91.54616383422074
 30
0.0
 10
139.2316429910092
 20
91.55342614387288
 30
0.0
 10
139.2350159320171
 20
91.56795076317717
 30
0.0
 10
139.2392958289183
 20
91.67992296676967
 30
0.0
 10
139.2423379497321
 20
91.84043454479463
 30
0.0
 10
139.2428063229547
 20
91.96886175497606
 30
0.0
 10
139.243040509566
 20
92.0330753600668
 30
0.0
  0
SPLINE
  5
C4
330
1F
100
AcDbEntity
  8
0
  6
Continuous
 62
     7
370
    25
100
AcDbSpline
210
0.0
220
0.0
230
1.0
 70
     8
 71
     3
 72
    13
 73
     9
 74
     0
 42
0.00000001
 43
0.00000001
 40
0.0
 40
0.0
 40
0.0
 40
0.0
 40
0.2886949682914851
 40
0.554553683594315
 40
0.6780091910936104
 40
0.7888922083801199
 40
0.8964194071406489
 40
1.0
 40
1.0
 40
1.0
 40
1.0
 10
139.243040509566
 20
92.0330753600668
 30
0.0
 10
139.5147657001422
 20
91.99444520618883
 30
0.0
 10
140.0367221659967
 20
91.92024060796656
 30
0.0
 10
140.6342975740999
 20
91.83717788843795
 30
0.0
 10
140.9981517542794
 20
91.78819695782934
 30
0.0
 10
141.1946992458451
 20
91.76217999805786
 30
0.0
 10
141.3209825349513
 20
91.74682118771362
 30
0.0
 10
141.3357710369224
 20
91.74638020402615
 30
0.0
 10
141.3430270542864
 20
91.74616383422077
 30
0.0
  0
SPLINE
  5
C5
330
1F
100
AcDbEntity
  8
0
  6
Continuous
 62
     7
370
    25
100
AcDbSpline
210
0.0
220
0.0
230
1.0
 70
     8
 71
     3
 72
    11
 73
     7
 74
     0
 42
0.00000001
 43
0.00000001
 40
0.0
 40
0.0
 40
0.0
 40
0.0
 40
0.2500000000000007
 40
0.5000000000000022
 40
0.7500000000000036
 40
1.0
 40
1.0
 40
1.0
 40
1.0
 10
141.3430270542864
 20
91.74616383422077
 30
0.0
 10
141.3682869924905
 20
91.71678616438899
 30
0.0
 10
141.4188068688988
 20
91.65803082472544
 30
0.0
 10
141.5176654780992
 20
91.59544068184645
 30
0.0
 10
141.6270527579227
 20
91.55390788021353
 30
0.0
 10
141.7043689554985
 20
91.54874518288501
 30
0.0
 10
141.7430270542864
 20
91.54616383422076
 30
0.0
  0
LINE
  5
C6
330
1F
100
AcDbEntity
  8
0
  6
Continuous
 62
     7
370
    25
100
AcDbLine
 10
139.2430405096
 20
92.0330753601
 30
0.0
 11
126.7046951062
 21
92.0330753601
 31
0.0
  0
LINE
  5
C7
330
1F
100
AcDbEntity
  8
0
  6
Continuous
 62
     7
370
    25
100
AcDbLine
 10
141.3430270543
 20
91.7461638342
 30
0.0
 11
138.9430270543
 21
94.9461638342
 31
0.0
  0
LINE
  5
C8
330
1F
100
AcDbEntity
  8
0
  6
Continuous
 62
     7
370
    25
100
AcDbLine
 10
137.1194812561
 20
94.864487698
 30
0.0
 11
139.2430405096
 21
92.0330753601
 31
0.0
  0
ELLIPSE
  5
C9
330
1F
100
AcDbEntity
  8
0
  6
Continuous
 62
     7
370
    25
100
AcDbEllipse
 10
137.1430270543
 20
94.8461638342
 30
0.0
 11
1.56006363488487
 21
0.4198716740992979
 31
0.0
210
0.0
220
0.0
230
1.0
 40
0.0147408623
 41
0.9331929812046255
 42
1.581922327328501
  0
SPLINE
  5
CA
330
1F
100
AcDbEntity
  8
0
  6
Continuous
 62
     7
370
    25
100
AcDbSpline
210
0.0
220
0.0
230
1.0
 70
     8
 71
     3
 72
    11
 73
     7
 74
     0
 42
0.00000001
 43
0.00000001
 40
0.0
 40
0.0
 40
0.0
 40
0.0
 40
0.2307374805226512
 40
0.4903955403005855
 40
0.7438105520730652
 40
0.9999999999999999
 40
0.9999999999999999
 40
0.9999999999999999
 40
0.9999999999999999
 10
138.0667150579214
 20
95.11457982937408
 30
0.0
 10
138.1583470626809
 20
95.13329567977851
 30
0.0
 10
138.3530962052176
 20
95.17307322068989
 30
0.0
 10
138.6006037724555
 20
95.15575323213129
 30
0.0
 10
138.8104125018496
 20
95.08476833980514
 30
0.0
 10
138.8986620513299
 20
94.99253272200143
 30
0.0
 10
138.9430270542864
 20
94.94616383422076
 30
0.0
  0
LINE
  5
CB
330
1F
100
AcDbEntity
  8
0
  6
Continuous
 62
     7
370
    25
100
AcDbLine
 10
123.636306601
 20
86.0854292567
 30
0.0
 11
102.0087584323
 21
86.0854292567
 31
0.0
  0
LINE
  5
CC
330
1F
100
AcDbEntity
  8
0
  6
Continuous
 62
     7
370
    25
100
AcDbLine
 10
102.0087584323
 20
86.0854292567
 30
0.0
 11
102.2312033434
 21
94.5802576932
 31
0.0
  0
ARC
  5
CD
330
1F
100
AcDbEntity
  8
0
  6
Continuous
 62
     7
370
    25
100
AcDbCircle
 10
102.8427434584
 20
94.064487698
 30
0.0
 40
0.8000000000000023
100
AcDbArc
 50
90.0
 51
139.8558773282
  0
LINE
  5
CE
330
1F
100
AcDbEntity
  8
0
  6
Continuous
 62
     7
370
    25
100
AcDbLine
 10
102.8427434584
 20
94.864487698
 30
0.0
 11
137.1194812561
 21
94.864487698
 31
0.0
  0
SPLINE
  5
CF
330
1F
100
AcDbEntity
  8
0
  6
Continuous
 62
     7
370
    25
100
AcDbSpline
210
0.0
220
0.0
230
1.0
 70
     8
 71
     3
 72
    11
 73
     7
 74
     0
 42
0.00000001
 43
0.00000001
 40
0.0
 40
0.0
 40
0.0
 40
0.0
 40
0.249999999999998
 40
0.4999999999999973
 40
0.7500000000000001
 40
1.0
 40
1.0
 40
1.0
 40
1.0
 10
102.8427434583512
 20
94.86448769803627
 30
0.0
 10
102.843071319607
 20
94.95438674516328
 30
0.0
 10
102.8437270421187
 20
95.1341848394173
 30
0.0
 10
102.8479860112579
 20
95.35890104865227
 30
0.0
 10
102.8539778669198
 20
95.51566213368174
 30
0.0
 10
102.8586999843308
 20
95.53599660070775
 30
0.0
 10
102.8610610430363
 20
95.54616383422076
 30
0.0
  0
LINE
  5
D0
330
1F
100
AcDbEntity
  8
0
  6
Continuous
 62
     7
370
    25
100
AcDbLine
 10
137.1377988408
 20
95.5461638342
 30
0.0
 11
102.861061043
 21
95.5461638342
 31
0.0
  0
SPLINE
  5
D1
330
1F
100
AcDbEntity
  8
0
  6
Continuous
 62
     7
370
    25
100
AcDbSpline
210
0.0
220
0.0
230
1.0
 70
     8
 71
     3
 72
    11
 73
     7
 74
     0
 42
0.00000001
 43
0.00000001
 40
0.0
 40
0.0
 40
0.0
 40
0.0
 40
0.2499999999999988
 40
0.5000000000000004
 40
0.7499999999999976
 40
1.0
 40
1.0
 40
1.0
 40
1.0
 10
137.1377988407739
 20
95.54616383422076
 30
0.0
 10
137.1354377820684
 20
95.53599660070776
 30
0.0
 10
137.1307156646574
 20
95.51566213368176
 30
0.0
 10
137.1247238089956
 20
95.35890104865224
 30
0.0
 10
137.1204648398563
 20
95.13418483941732
 30
0.0
 10
137.1198091173447
 20
94.95438674516329
 30
0.0
 10
137.1194812560889
 20
94.86448769803627
 30
0.0
  0
LINE
  5
D2
330
1F
100
AcDbEntity
  8
0
  6
Continuous
 62
     7
370
    25
100
AcDbLine
 10
137.7430270543
 20
95.5461638342
 30
0.0
 11
137.1377988408
 21
95.5461638342
 31
0.0
  0
SPLINE
  5
D3
330
1F
100
AcDbEntity
  8
0
  6
Continuous
 62
     7
370
    25
100
AcDbSpline
210
0.0
220
0.0
230
1.0
 70
     8
 71
     3
 72
    10
 73
     6
 74
     0
 42
0.00000001
 43
0.00000001
 40
0.0
 40
0.0
 40
0.0
 40
0.0
 40
0.2808335173386708
 40
0.5616510917414125
 40
1.0
 40
1.0
 40
1.0
 40
1.0
 10
137.7430270542864
 20
95.54616383422076
 30
0.0
 10
137.7813775032488
 20
95.53858922595285
 30
0.0
 10
137.8580762240163
 20
95.52344043942799
 30
0.0
 10
137.9832305740584
 20
95.3898095063683
 30
0.0
 10
138.0350996404116
 20
95.21880879201005
 30
0.0
 10
138.0667150579214
 20
95.11457982937407
 30
0.0
  0
LINE
  5
D4
330
1F
100
AcDbEntity
  8
0
  6
Continuous
 62
     7
370
    25
100
AcDbLine
 10
102.0087584323
 20
86.0854292567
 30
0.0
 11
101.9657660048
 21
86.0225421718
 31
0.0
  0
ELLIPSE
  5
D5
330
1F
100
AcDbEntity
  8
0
  6
Continuous
 62
     7
370
    25
100
AcDbEllipse
 10
97.7430270543
 20
86.0461638342
 30
0.0
 11
0.5000325503427945
 21
1.499994860148007
 31
0.0
210
0.0
220
0.0
230
1.0
 40
0.0078530307
 41
2.363888000156765
 42
3.144210503886046
  0
SPLINE
  5
D6
330
1F
100
AcDbEntity
  8
0
  6
Continuous
 62
     7
370
    25
100
AcDbSpline
210
0.0
220
0.0
230
1.0
 70
     8
 71
     3
 72
    12
 73
     8
 74
     0
 42
0.00000001
 43
0.00000001
 40
0.0
 40
0.0
 40
0.0
 40
0.0
 40
0.0715202026166142
 40
0.1260836237049476
 40
0.3855387013103047
 40
0.8475626424815554
 40
1.0
 40
1.0
 40
1.0
 40
1.0
 10
97.71759844128579
 20
85.37447178386995
 30
0.0
 10
97.70314430650693
 20
85.37136313600513
 30
0.0
 10
97.67766297922086
 20
85.3658828720618
 30
0.0
 10
97.6111912515747
 20
85.32629432664139
 30
0.0
 10
97.50648686444165
 20
85.21986019365912
 30
0.0
 10
97.41965830559532
 20
85.08935317795088
 30
0.0
 10
97.38666173888546
 20
85.00184346398754
 30
0.0
 10
97.37847585403453
 20
84.98013379800499
 30
0.0
  0
ELLIPSE
  5
D7
330
1F
100
AcDbEntity
  8
0
  6
Continuous
 62
     7
370
    25
100
AcDbEllipse
 10
65.8188902137
 20
86.0461638342
 30
0.0
 11
36.17607470647086
 21
0.04043410480177556
 31
0.0
210
0.0
220
0.0
230
1.0
 40
0.0414488012
 41
5.791928562280354
 42
6.243021298617577
  0
ELLIPSE
  5
D8
330
1F
100
AcDbEntity
  8
0
  6
Continuous
 62
     7
370
    25
100
AcDbEllipse
 10
102.0480103994
 20
86.0461638342
 30
0.0
 11
0.03725061189165046
 21
1.499998630535856
 31
0.0
210
0.0
220
0.0
230
1.0
 40
0.0544129722
 41
1.585352277991072
 42
1.587896030767898
  0
LINE
  5
D9
330
1F
100
AcDbEntity
  8
0
  6
Continuous
 62
     7
370
    25
100
AcDbLine
 10
97.2430270543
 20
84.5461638342
 30
0.0
 11
123.6755585682
 21
84.5461638342
 31
0.0
  0
SPLINE
  5
DA
330
1F
100
AcDbEntity
  8
0
  6
Continuous
 62
     7
370
    25
100
AcDbSpline
210
0.0
220
0.0
230
1.0
 70
     8
 71
     3
 72
    11
 73
     7
 74
     0
 42
0.00000001
 43
0.00000001
 40
0.0
 40
0.0
 40
0.0
 40
0.0
 40
0.2561894651307314
 40
0.509604493920692
 40
0.769274206655365
 40
1.0
 40
1.0
 40
1.0
 40
1.0
 10
138.9430270542864
 20
94.94616383422076
 30
0.0
 10
138.8674309219925
 20
95.03417419920918
 30
0.0
 10
138.7170573353178
 20
95.2092418097638
 30
0.0
 10
138.4178445493625
 20
95.39942937946537
 30
0.0
 10
138.0903248144758
 20
95.52342818019105
 30
0.0
 10
137.854146433662
 20
95.5388894660702
 30
0.0
 10
137.7430270542864
 20
95.54616383422075
 30
0.0
  0
LINE
  5
DB
330
1F
100
AcDbEntity
  8
0
  6
Continuous
 62
     7
370
    25
100
AcDbLine
 10
102.2159581193
 20
94.5389740688
 30
0.0
 11
102.1890877604
 21
94.5524092483
 31
0.0
  0
LINE
  5
DC
330
1F
100
AcDbEntity
  8
0
  6
Continuous
 62
     7
370
    25
100
AcDbLine
 10
102.2159581193
 20
94.5389740688
 30
0.0
 11
101.9940301131
 21
86.0638854381
 31
0.0
  0
SPLINE
  5
DD
330
1F
100
AcDbEntity
  8
0
  6
Continuous
 62
     7
370
    25
100
AcDbSpline
210
0.0
220
0.0
230
1.0
 70
     8
 71
     3
 72
     9
 73
     5
 74
     0
 42
0.00000001
 43
0.00000001
 40
0.0
 40
0.0
 40
0.0
 40
0.0
 40
0.8673350121727758
 40
1.0
 40
1.0
 40
1.0
 40
1.0
 10
101.966658377962
 20
86.05817383008332
 30
0.0
 10
101.9664209923321
 20
86.04897540670811
 30
0.0
 10
101.9661472969012
 20
86.03837001980905
 30
0.0
 10
101.9658914103926
 20
86.02776439520765
 30
0.0
 10
101.965857463212
 20
86.02635740014901
 30
0.0
  0
LINE
  5
DE
330
1F
100
AcDbEntity
  8
0
  6
Continuous
 62
     7
370
    25
100
AcDbLine
 10
102.1890877604
 20
94.5524092483
 30
0.0
 11
101.966658378
 21
86.0581738301
 31
0.0
  0
ARC
  5
DF
330
1F
100
AcDbEntity
  8
0
  6
Continuous
 62
     7
370
    25
100
AcDbCircle
 10
106.4417652764
 20
86.0511678821
 30
0.0
 40
8.750371682203586
100
AcDbArc
 50
182.878079786
 51
184.4353064954
  0
ELLIPSE
  5
E0
330
1F
100
AcDbEntity
  8
0
  6
Continuous
 62
     7
370
    25
100
AcDbEllipse
 10
65.7920198548
 20
86.0595990137
 30
0.0
 11
36.18915847374971
 21
0.02692057091444156
 31
0.0
210
0.0
220
0.0
230
1.0
 40
0.0276225703
 41
5.791964074121232
 42
6.25483629951347
  0
ARC
  5
E1
330
1F
100
AcDbEntity
  8
0
  6
Continuous
 62
     7
370
    25
100
AcDbCircle
 10
102.8234425406
 20
94.0649730854
 30
0.0
 40
0.8000000000000103
100
AcDbArc
 50
142.4614409777
 51
153.4349488229
  0
LINE
  5
E2
330
1F
100
AcDbEntity
  8
0
  6
Continuous
 62
     7
370
    25
100
AcDbLine
 10
97.7024309636
 20
85.6118043134
 30
0.0
 11
102.1079007878
 21
94.4227439618
 31
0.0
  0
SPLINE
  5
E3
330
1F
100
AcDbEntity
  8
0
  6
Continuous
 62
     7
370
    25
100
AcDbSpline
210
0.0
220
0.0
230
1.0
 70
     8
 71
     3
 72
    12
 73
     8
 74
     0
 42
0.00000001
 43
0.00000001
 40
0.0
 40
0.0
 40
0.0
 40
0.0
 40
0.139683458618249
 40
0.3831896274038307
 40
0.55131692930133
 40
0.8194729461607051
 40
0.9999999999999999
 40
0.9999999999999999
 40
0.9999999999999999
 40
0.9999999999999999
 10
96.94047011338117
 20
85.55908394116021
 30
0.0
 10
96.95071149412745
 20
85.57239631482116
 30
0.0
 10
96.97880638031576
 20
85.60891576782913
 30
0.0
 10
97.08595674167054
 20
85.64658782842051
 30
0.0
 10
97.26629382908354
 20
85.670955149182
 30
0.0
 10
97.47474997365252
 20
85.66983811441804
 30
0.0
 10
97.63710687435645
 20
85.62845482604048
 30
0.0
 10
97.70243096360484
 20
85.61180431342508
 30
0.0
  0
LWPOLYLINE
  5
E4
330
1F
100
AcDbEntity
  8
0
  6
Continuous
 62
     7
370
    25
100
AcDbPolyline
 90
        9
 70
   128
 43
0.0
 10
96.9404701134
 20
85.5590839412
 10
96.9176196236
 20
85.4827534636
 10
96.9205247496
 20
85.3983534643
 10
96.9490263146
 20
85.3105083638
 10
97.0015626691
 20
85.2240313454
 10
97.0752552563
 20
85.1436606331
 10
97.1660663331
 20
85.0737998757
 10
97.2690202053
 20
85.0182768637
 10
97.378475854
 20
84.980133798
  0
SPLINE
  5
E5
330
1F
100
AcDbEntity
  8
0
  6
Continuous
 62
     7
370
    25
100
AcDbSpline
210
0.0
220
0.0
230
1.0
 70
    24
 71
     3
 72
    11
 73
     7
 74
     0
 42
0.00000001
 43
0.00000001
 40
0.0
 40
0.0
 40
0.0
 40
0.0
 40
0.2499999999999991
 40
0.4999999999999979
 40
0.7499999999999996
 40
1.0
 40
1.0
 40
1.0
 40
1.0
 10
102.1079007878094
 20
94.4227439618342
 30
0.0
 10
102.0296656794771
 20
94.46186151600034
 30
0.0
 10
101.8731954628126
 20
94.54009662433259
 30
0.0
 10
101.6798693113961
 20
94.63675970004081
 30
0.0
 10
101.5454928791172
 20
94.70394791618031
 30
0.0
 10
101.52811113073
 20
94.7126387903739
 30
0.0
 10
101.5194202565364
 20
94.7169842274707
 30
0.0
  0
LINE
  5
E6
330
1F
100
AcDbEntity
  8
0
  6
Continuous
 62
     7
370
    25
100
AcDbLine
 10
101.5194202565
 20
94.7169842275
 30
0.0
 11
96.9404701134
 21
85.5590839412
 31
0.0
  0
LINE
  5
E7
330
1F
100
AcDbEntity
  8
0
  6
Continuous
 62
     7
370
    25
100
AcDbLine
 10
102.0966358994
 20
94.6908763281
 30
0.0
 11
101.7144233276
 21
95.0132325751
 31
0.0
  0
SPLINE
  5
E8
330
1F
100
AcDbEntity
  8
0
  6
Continuous
 62
     7
370
    25
100
AcDbSpline
210
0.0
220
0.0
230
1.0
 70
     8
 71
     3
 72
    12
 73
     8
 74
     0
 42
0.00000001
 43
0.00000001
 40
0.0
 40
0.0
 40
0.0
 40
0.0
 40
0.2198609600791294
 40
0.4397396970008148
 40
0.6583291451397767
 40
0.87912395168436
 40
1.0
 40
1.0
 40
1.0
 40
1.0
 10
102.2312033434453
 20
94.58025769315124
 30
0.0
 10
102.1712882807165
 20
94.63074590927914
 30
0.0
 10
102.0514533108305
 20
94.73172642375609
 30
0.0
 10
101.8947183225559
 20
94.86338941670613
 30
0.0
 10
101.7781499987698
 20
94.96095073947922
 30
0.0
 10
101.7218933069755
 20
95.00761013095591
 30
0.0
 10
101.7163754357593
 20
95.01176327795724
 30
0.0
 10
101.7144233275878
 20
95.01323257506134
 30
0.0
  0
SPLINE
  5
E9
330
1F
100
AcDbEntity
  8
0
  6
Continuous
 62
     7
370
    25
100
AcDbSpline
210
0.0
220
0.0
230
1.0
 70
     8
 71
     3
 72
    12
 73
     8
 74
     0
 42
0.00000001
 43
0.00000001
 40
0.0
 40
0.0
 40
0.0
 40
0.0
 40
0.0006864401058021
 40
0.2840613788817195
 40
0.5703177902163796
 40
0.8469872112136485
 40
1.0
 40
1.0
 40
1.0
 40
1.0
 10
102.1939315787558
 20
94.60958138064889
 30
0.0
 10
102.1938908609987
 20
94.6096156752858
 30
0.0
 10
102.1770411138374
 20
94.62380741869714
 30
0.0
 10
102.1478121777242
 20
94.64833969854524
 30
0.0
 10
102.1145661320255
 20
94.6761692832923
 30
0.0
 10
102.0988839089156
 20
94.68917014626504
 30
0.0
 10
102.0973036811096
 20
94.69036295915112
 30
0.0
 10
102.0967409511245
 20
94.69078772801993
 30
0.0
  0
SPLINE
  5
EA
330
1F
100
AcDbEntity
  8
0
  6
Continuous
 62
     7
370
    25
100
AcDbSpline
210
0.0
220
0.0
230
1.0
 70
     8
 71
     3
 72
    12
 73
     8
 74
     0
 42
0.00000001
 43
0.00000001
 40
0.0
 40
0.0
 40
0.0
 40
0.0
 40
0.2225634137435274
 40
0.446206317369568
 40
0.6680851268158019
 40
0.8917990985569294
 40
1.0
 40
1.0
 40
1.0
 40
1.0
 10
101.6716458301679
 20
94.96010663954135
 30
0.0
 10
101.6772323962704
 20
94.95467956692762
 30
0.0
 10
101.6884326247599
 20
94.94379909900019
 30
0.0
 10
101.782483402447
 20
94.86850566797989
 30
0.0
 10
101.9219744658451
 20
94.75902712322656
 30
0.0
 10
102.0671985656814
 20
94.6463124826801
 30
0.0
 10
102.1591217344115
 20
94.57549502523588
 30
0.0
 10
102.1890877604129
 20
94.55240924827186
 30
0.0
  0
LINE
  5
EB
330
1F
100
AcDbEntity
  8
0
  6
Continuous
 62
     7
370
    25
100
AcDbLine
 10
102.0681175678
 20
94.6554590378
 30
0.0
 11
101.6716458302
 21
94.9601066395
 31
0.0
  0
ARC
  5
EC
330
1F
100
AcDbEntity
  8
0
  6
Continuous
 62
     7
370
    25
100
AcDbCircle
 10
102.861061043
 20
94.0461638342
 30
0.0
 40
1.5
100
AcDbArc
 50
90.0
 51
139.8558773282
  0
ARC
  5
ED
330
1F
100
AcDbEntity
  8
0
  6
Continuous
 62
     7
370
    25
100
AcDbCircle
 10
102.861061043
 20
94.0461638342
 30
0.0
 40
1.500000000000007
100
AcDbArc
 50
142.4614409777
 51
153.4349488229
  0
LINE
  5
EE
330
1F
100
AcDbEntity
  8
0
  6
Continuous
 62
     7
370
    25
100
AcDbLine
 10
96.7958134588
 20
85.269770632
 30
0.0
 11
96.9404701134
 21
85.5590839412
 31
0.0
  0
ARC
  5
EF
330
1F
100
AcDbEntity
  8
0
  6
Continuous
 62
     7
370
    25
100
AcDbCircle
 10
97.2430270543
 20
85.0461638342
 30
0.0
 40
0.5
100
AcDbArc
 50
153.4349488229
 51
270.0
  0
SPLINE
  5
F0
330
1F
100
AcDbEntity
  8
0
  6
Continuous
 62
     7
370
    25
100
AcDbSpline
210
0.0
220
0.0
230
1.0
 70
     8
 71
     3
 72
     9
 73
     5
 74
     0
 42
0.00000001
 43
0.00000001
 40
0.0
 40
0.0
 40
0.0
 40
0.0
 40
0.5600029565045499
 40
1.0
 40
1.0
 40
1.0
 40
1.0
 10
101.7144233275878
 20
95.01323257506134
 30
0.0
 10
101.7062755682346
 20
95.00344611290137
 30
0.0
 10
101.6917260747748
 20
94.9859703798784
 30
0.0
 10
101.6777814318343
 20
94.96800941221261
 30
0.0
 10
101.6716458301679
 20
94.96010663954135
 30
0.0
  0
LINE
  5
F1
330
1F
100
AcDbEntity
  8
0
  6
Continuous
 62
     7
370
    25
100
AcDbLine
 10
143.8369661992
 20
84.93423942
 30
0.0
 11
143.8391063144
 21
85.1577778736
 31
0.0
  0
SPLINE
  5
F2
330
1F
100
AcDbEntity
  8
0
  6
Continuous
 62
     7
370
    25
100
AcDbSpline
210
0.0
220
0.0
230
1.0
 70
     8
 71
     3
 72
    10
 73
     6
 74
     0
 42
0.00000001
 43
0.00000001
 40
0.0
 40
0.0
 40
0.0
 40
0.0
 40
0.3536466237081646
 40
0.7182931081305524
 40
1.0
 40
1.0
 40
1.0
 40
1.0
 10
143.9882541630756
 20
82.98797077350652
 30
0.0
 10
143.9507471287663
 20
82.54443312338795
 30
0.0
 10
143.8745664375207
 20
81.6435619827674
 30
0.0
 10
143.9130028401339
 20
80.26555268795614
 30
0.0
 10
143.9759849594669
 20
79.34751865665125
 30
0.0
 10
144.0034351093871
 20
78.94740236875784
 30
0.0
  0
LINE
  5
F3
330
1F
100
AcDbEntity
  8
0
  6
Continuous
 62
     7
370
    25
100
AcDbLine
 10
143.8369661992
 20
84.93423942
 30
0.0
 11
143.9882541631
 21
82.9879707735
 31
0.0
  0
LINE
  5
F4
330
1F
100
AcDbEntity
  8
0
  6
Continuous
 62
     7
370
    25
100
AcDbLine
 10
144.0630270543
 20
76.8461638342
 30
0.0
 11
144.1243818471
 21
76.8461638342
 31
0.0
  0
LWPOLYLINE
  5
F5
330
1F
100
AcDbEntity
  8
0
  6
Continuous
 62
     7
370
    25
100
AcDbPolyline
 90
        3
 70
   128
 43
0.0
 10
144.2603943896
 20
75.4964119747
 10
144.2190956174
 20
75.9062131193
 10
144.1243818471
 20
76.8461638342
  0
SPLINE
  5
F6
330
1F
100
AcDbEntity
  8
0
  6
Continuous
 62
     7
370
    25
100
AcDbSpline
210
0.0
220
0.0
230
1.0
 70
     8
 71
     3
 72
    11
 73
     7
 74
     0
 42
0.00000001
 43
0.00000001
 40
0.0
 40
0.0
 40
0.0
 40
0.0
 40
0.2920574028183094
 40
0.5665622171831318
 40
0.8065682389915578
 40
1.0
 40
1.0
 40
1.0
 40
1.0
 10
144.126821447233
 20
91.04616383422079
 30
0.0
 10
144.1584819835485
 20
91.02933203817209
 30
0.0
 10
144.2199002646091
 20
90.9966800334754
 30
0.0
 10
144.2998126238737
 20
90.74128814643443
 30
0.0
 10
144.3389114376012
 20
90.40556522985976
 30
0.0
 10
144.3234950746716
 20
90.15706353503869
 30
0.0
 10
144.3166151616875
 20
90.04616383420866
 30
0.0
  0
LINE
  5
F7
330
1F
100
AcDbEntity
  8
0
  6
Continuous
 62
     7
370
    25
100
AcDbLine
 10
144.3166151617
 20
90.0461638342
 30
0.0
 11
143.8391063144
 21
85.1577778736
 31
0.0
  0
LINE
  5
F8
330
1F
100
AcDbEntity
  8
0
  6
Continuous
 62
     7
370
    25
100
AcDbLine
 10
144.6844181636
 20
93.0461638342
 30
0.0
 11
159.801635945
 21
93.0461638342
 31
0.0
  0
LINE
  5
F9
330
1F
100
AcDbEntity
  8
0
  6
Continuous
 62
     7
370
    25
100
AcDbLine
 10
159.7905332732
 20
75.0461638342
 30
0.0
 11
144.7620611992
 21
75.0461638342
 31
0.0
  0
SPLINE
  5
FA
330
1F
100
AcDbEntity
  8
0
  6
Continuous
 62
     7
370
    25
100
AcDbSpline
210
0.0
220
0.0
230
1.0
 70
     8
 71
     3
 72
    12
 73
     8
 74
     0
 42
0.00000001
 43
0.00000001
 40
0.0
 40
0.0
 40
0.0
 40
0.0
 40
0.2316347876629375
 40
0.46330664808196
 40
0.6939442291381526
 40
0.9227406525226395
 40
1.0
 40
1.0
 40
1.0
 40
1.0
 10
144.762061199198
 20
75.04616383422075
 30
0.0
 10
144.7050078815493
 20
75.05175329925103
 30
0.0
 10
144.5908921149648
 20
75.062933123896
 30
0.0
 10
144.4390387844867
 20
75.15025618985166
 30
0.0
 10
144.3248714016028
 20
75.27856636363371
 30
0.0
 10
144.2731170692355
 20
75.40324579033152
 30
0.0
 10
144.2629587182485
 20
75.47763379908483
 30
0.0
 10
144.260394389641
 20
75.49641197471026
 30
0.0
  0
SPLINE
  5
FB
330
1F
100
AcDbEntity
  8
0
  6
Continuous
 62
     7
370
    25
100
AcDbSpline
210
0.0
220
0.0
230
1.0
 70
     8
 71
     3
 72
     9
 73
     5
 74
     0
 42
0.00000001
 43
0.00000001
 40
0.0
 40
0.0
 40
0.0
 40
0.0
 40
0.4474581094010271
 40
1.0
 40
1.0
 40
1.0
 40
1.0
 10
142.2430270542864
 20
80.57847565339785
 30
0.0
 10
142.5166776559647
 20
80.35054271003094
 30
0.0
 10
143.1282446293393
 20
79.84114766594064
 30
0.0
 10
143.6919591966224
 20
79.26548184810045
 30
0.0
 10
144.0034351093871
 20
78.94740236875784
 30
0.0
  0
SPLINE
  5
FC
330
1F
100
AcDbEntity
  8
0
  6
Continuous
 62
     7
370
    25
100
AcDbSpline
210
0.0
220
0.0
230
1.0
 70
     8
 71
     3
 72
     9
 73
     5
 74
     0
 42
0.00000001
 43
0.00000001
 40
0.0
 40
0.0
 40
0.0
 40
0.0
 40
0.7210175706402088
 40
0.9999999999999999
 40
0.9999999999999999
 40
0.9999999999999999
 40
0.9999999999999999
 10
142.5869555099838
 20
84.74396397045564
 30
0.0
 10
142.5180222909876
 20
84.80721478336494
 30
0.0
 10
142.4224168275381
 20
84.89493915442726
 30
0.0
 10
142.2821570638903
 20
84.93974834077122
 30
0.0
 10
142.2430270542864
 20
84.9522493164351
 30
0.0
  0
ARC
  5
FD
330
1F
100
AcDbEntity
  8
0
  6
Continuous
 62
     7
370
    25
100
AcDbCircle
 10
135.5208007154
 20
77.6679865525
 30
0.0
 40
10.00000000000004
100
AcDbArc
 50
32.1405798582
 51
45.0397956095
  0
LINE
  5
FE
330
1F
100
AcDbEntity
  8
0
  6
Continuous
 62
     7
370
    25
100
AcDbLine
 10
142.58695551
 20
90.0461638342
 30
0.0
 11
142.58695551
 21
84.7439639705
 31
0.0
  0
LINE
  5
FF
330
1F
100
AcDbEntity
  8
0
  6
Continuous
 62
     7
370
    25
100
AcDbLine
 10
144.3166151617
 20
90.0461638342
 30
0.0
 11
142.58695551
 21
90.0461638342
 31
0.0
  0
LINE
  5
100
330
1F
100
AcDbEntity
  8
0
  6
Continuous
 62
     7
370
    25
100
AcDbLine
 10
142.2430270543
 20
91.0461638342
 30
0.0
 11
144.1268214472
 21
91.0461638342
 31
0.0
  0
ARC
  5
101
330
1F
100
AcDbEntity
  8
0
  6
Continuous
 62
     7
370
    25
100
AcDbCircle
 10
104.6304863799
 20
97.7555090553
 30
0.0
 40
4.021945305514627
100
AcDbArc
 50
230.4243196696
 51
233.1058614851
  0
LINE
  5
102
330
1F
100
AcDbEntity
  8
0
  6
Continuous
 62
     7
370
    25
100
AcDbLine
 10
163.155313814
 20
64.581866439
 30
0.0
 11
140.8307402946
 21
64.581866439
 31
0.0
  0
LINE
  5
103
330
1F
100
AcDbEntity
  8
0
  6
Continuous
 62
     7
370
    25
100
AcDbLine
 10
140.8307402946
 20
64.581866439
 30
0.0
 11
140.8307402946
 21
68.3461638342
 31
0.0
  0
LINE
  5
104
330
1F
100
AcDbEntity
  8
0
  6
Continuous
 62
     7
370
    25
100
AcDbLine
 10
163.155313814
 20
68.3461638342
 30
0.0
 11
140.8307402946
 21
68.3461638342
 31
0.0
  0
LINE
  5
105
330
1F
100
AcDbEntity
  8
0
  6
Continuous
 62
     7
370
    25
100
AcDbLine
 10
163.155313814
 20
68.3461638342
 30
0.0
 11
163.155313814
 21
64.581866439
 31
0.0
  0
SPLINE
  5
106
330
1F
100
AcDbEntity
  8
0
  6
Continuous
 62
     7
370
    25
100
AcDbSpline
210
0.0
220
0.0
230
1.0
 70
     8
 71
     3
 72
    12
 73
     8
 74
     0
 42
0.00000001
 43
0.00000001
 40
0.0
 40
0.0
 40
0.0
 40
0.0
 40
0.2499999999999999
 40
0.2499999999999999
 40
0.4999999999999998
 40
0.4999999999999998
 40
1.0
 40
1.0
 40
1.0
 40
1.0
 10
163.1553138140149
 20
47.11046122939269
 30
0.0
 10
163.3887647888663
 20
47.81633707694716
 30
0.0
 10
163.6056116580071
 20
48.52903877150688
 30
0.0
 10
163.9945953092109
 20
49.9728222058576
 30
0.0
 10
164.1649591093793
 20
50.69782978128951
 30
0.0
 10
164.585610942718
 20
52.88343274783531
 30
0.0
 10
164.7430270542864
 20
54.35531831853788
 30
0.0
 10
164.7430270542864
 20
55.84616383422075
 30
0.0
  0
LINE
  5
107
330
1F
100
AcDbEntity
  8
0
  6
Continuous
 62
     7
370
    25
100
AcDbLine
 10
163.155313814
 20
47.1104612294
 30
0.0
 11
140.8307402946
 21
47.1104612294
 31
0.0
  0
SPLINE
  5
108
330
1F
100
AcDbEntity
  8
0
  6
Continuous
 62
     7
370
    25
100
AcDbSpline
210
0.0
220
0.0
230
1.0
 70
     8
 71
     3
 72
    10
 73
     6
 74
     0
 42
0.00000001
 43
0.00000001
 40
0.0
 40
0.0
 40
0.0
 40
0.0
 40
0.5
 40
0.5
 40
1.0
 40
1.0
 40
1.0
 40
1.0
 10
140.8307402945578
 20
47.11046122939269
 30
0.0
 10
140.363737395664
 20
48.52251816030446
 30
0.0
 10
139.9613336485375
 20
49.96930108418232
 30
0.0
 10
139.4005750779457
 20
52.8826307306575
 30
0.0
 10
139.2430270542864
 20
54.35458918651348
 30
0.0
 10
139.2430270542864
 20
55.84616383422075
 30
0.0
  0
SPLINE
  5
109
330
1F
100
AcDbEntity
  8
0
  6
Continuous
 62
     7
370
    25
100
AcDbSpline
210
0.0
220
0.0
230
1.0
 70
     8
 71
     3
 72
    12
 73
     8
 74
     0
 42
0.00000001
 43
0.00000001
 40
0.0
 40
0.0
 40
0.0
 40
0.0
 40
0.2500000000000001
 40
0.2500000000000001
 40
0.5000000000000001
 40
0.5000000000000001
 40
1.0
 40
1.0
 40
1.0
 40
1.0
 10
139.2430270542864
 20
55.84616383422075
 30
0.0
 10
139.2430270542864
 20
56.59151004649507
 30
0.0
 10
139.282420139656
 20
57.3433368963641
 30
0.0
 10
139.4330515424214
 20
58.82403735753937
 30
0.0
 10
139.5439319715931
 20
59.5570089621414
 30
0.0
 10
139.9651193775575
 20
61.73755308309739
 30
0.0
 10
140.3628071230372
 20
63.16699668210661
 30
0.0
 10
140.8307402945578
 20
64.58186643904882
 30
0.0
  0
SPLINE
  5
10A
330
1F
100
AcDbEntity
  8
0
  6
Continuous
 62
     7
370
    25
100
AcDbSpline
210
0.0
220
0.0
230
1.0
 70
     8
 71
     3
 72
    12
 73
     8
 74
     0
 42
0.00000001
 43
0.00000001
 40
0.0
 40
0.0
 40
0.0
 40
0.0
 40
0.2500000000000001
 40
0.2500000000000001
 40
0.5
 40
0.5
 40
1.0
 40
1.0
 40
1.0
 40
1.0
 10
164.7430270542864
 20
55.84616383422075
 30
0.0
 10
164.7430270542864
 20
56.59099118266951
 30
0.0
 10
164.7036775287356
 20
57.34281566025128
 30
0.0
 10
164.5530180193619
 20
58.82397846157758
 30
0.0
 10
164.4421098366571
 20
59.55709737202617
 30
0.0
 10
164.0208608116623
 20
61.73788630599378
 30
0.0
 10
163.6231683230499
 20
63.16723453054017
 30
0.0
 10
163.1553138140149
 20
64.58186643904881
 30
0.0
  0
LINE
  5
10B
330
1F
100
AcDbEntity
  8
0
  6
Continuous
 62
     7
370
    25
100
AcDbLine
 10
163.155313814
 20
43.3461638342
 30
0.0
 11
140.8307402946
 21
43.3461638342
 31
0.0
  0
LINE
  5
10C
330
1F
100
AcDbEntity
  8
0
  6
Continuous
 62
     7
370
    25
100
AcDbLine
 10
140.8307402946
 20
43.3461638342
 30
0.0
 11
140.8307402946
 21
47.1104612294
 31
0.0
  0
LINE
  5
10D
330
1F
100
AcDbEntity
  8
0
  6
Continuous
 62
     7
370
    25
100
AcDbLine
 10
163.155313814
 20
47.1104612294
 30
0.0
 11
163.155313814
 21
43.3461638342
 31
0.0
  0
LINE
  5
10E
330
1F
100
AcDbEntity
  8
0
  6
Continuous
 62
     7
370
    25
100
AcDbLine
 10
164.7430270543
 20
55.8461638342
 30
0.0
 11
164.7430270543
 21
43.3461638342
 31
0.0
  0
SPLINE
  5
10F
330
1F
100
AcDbEntity
  8
0
  6
Continuous
 62
     7
370
    25
100
AcDbSpline
210
0.0
220
0.0
230
1.0
 70
    24
 71
     3
 72
    12
 73
     8
 74
     0
 42
0.00000001
 43
0.00000001
 40
0.0
 40
0.0
 40
0.0
 40
0.0
 40
0.25
 40
0.25
 40
0.5
 40
0.5
 40
1.0
 40
1.0
 40
1.0
 40
1.0
 10
164.7430270542864
 20
43.34616383422075
 30
0.0
 10
164.7430270542864
 20
43.34616383422075
 30
0.0
 10
164.7036775287356
 20
43.34616383422075
 30
0.0
 10
164.5530180193619
 20
43.34616383422075
 30
0.0
 10
164.4421098366571
 20
43.34616383422075
 30
0.0
 10
164.0208608116623
 20
43.34616383422075
 30
0.0
 10
163.6231683230499
 20
43.34616383422074
 30
0.0
 10
163.1553138140149
 20
43.34616383422074
 30
0.0
  0
SPLINE
  5
110
330
1F
100
AcDbEntity
  8
0
  6
Continuous
 62
     7
370
    25
100
AcDbSpline
210
0.0
220
0.0
230
1.0
 70
    24
 71
     3
 72
    12
 73
     8
 74
     0
 42
0.00000001
 43
0.00000001
 40
0.0
 40
0.0
 40
0.0
 40
0.0
 40
0.2500000000000001
 40
0.2500000000000001
 40
0.5000000000000001
 40
0.5000000000000001
 40
1.0
 40
1.0
 40
1.0
 40
1.0
 10
139.2430270542864
 20
43.34616383422075
 30
0.0
 10
139.2430270542864
 20
43.34616383422075
 30
0.0
 10
139.282420139656
 20
43.34616383422075
 30
0.0
 10
139.4330515424214
 20
43.34616383422075
 30
0.0
 10
139.5439319715931
 20
43.34616383422074
 30
0.0
 10
139.9651193775574
 20
43.34616383422074
 30
0.0
 10
140.3628071230371
 20
43.34616383422074
 30
0.0
 10
140.8307402945578
 20
43.34616383422074
 30
0.0
  0
LINE
  5
111
330
1F
100
AcDbEntity
  8
0
  6
Continuous
 62
     7
370
    25
100
AcDbLine
 10
139.2430270543
 20
43.3461638342
 30
0.0
 11
139.2430270543
 21
55.8461638342
 31
0.0
  0
LINE
  5
112
330
1F
100
AcDbEntity
  8
0
  6
Continuous
 62
     7
370
    25
100
AcDbLine
 10
139.2430270543
 20
55.8461638342
 30
0.0
 11
139.2430270543
 21
68.3461638342
 31
0.0
  0
SPLINE
  5
113
330
1F
100
AcDbEntity
  8
0
  6
Continuous
 62
     7
370
    25
100
AcDbSpline
210
0.0
220
0.0
230
1.0
 70
    24
 71
     3
 72
    12
 73
     8
 74
     0
 42
0.00000001
 43
0.00000001
 40
0.0
 40
0.0
 40
0.0
 40
0.0
 40
0.2500000000000001
 40
0.2500000000000001
 40
0.5000000000000001
 40
0.5000000000000001
 40
1.0
 40
1.0
 40
1.0
 40
1.0
 10
139.2430270542864
 20
68.34616383422075
 30
0.0
 10
139.2430270542864
 20
68.34616383422075
 30
0.0
 10
139.282420139656
 20
68.34616383422075
 30
0.0
 10
139.4330515424214
 20
68.34616383422075
 30
0.0
 10
139.5439319715931
 20
68.34616383422075
 30
0.0
 10
139.9651193775575
 20
68.34616383422075
 30
0.0
 10
140.3628071230372
 20
68.34616383422075
 30
0.0
 10
140.8307402945578
 20
68.34616383422075
 30
0.0
  0
SPLINE
  5
114
330
1F
100
AcDbEntity
  8
0
  6
Continuous
 62
     7
370
    25
100
AcDbSpline
210
0.0
220
0.0
230
1.0
 70
    24
 71
     3
 72
    12
 73
     8
 74
     0
 42
0.00000001
 43
0.00000001
 40
0.0
 40
0.0
 40
0.0
 40
0.0
 40
0.2500000000000001
 40
0.2500000000000001
 40
0.5000000000000001
 40
0.5000000000000001
 40
1.0
 40
1.0
 40
1.0
 40
1.0
 10
164.7430270542864
 20
68.34616383422075
 30
0.0
 10
164.7430270542864
 20
68.34616383422075
 30
0.0
 10
164.7036775287356
 20
68.34616383422075
 30
0.0
 10
164.5530180193619
 20
68.34616383422075
 30
0.0
 10
164.4421098366572
 20
68.34616383422075
 30
0.0
 10
164.0208608116623
 20
68.34616383422075
 30
0.0
 10
163.6231683230499
 20
68.34616383422075
 30
0.0
 10
163.1553138140149
 20
68.34616383422075
 30
0.0
  0
LINE
  5
115
330
1F
100
AcDbEntity
  8
0
  6
Continuous
 62
     7
370
    25
100
AcDbLine
 10
164.7430270543
 20
68.3461638342
 30
0.0
 11
164.7430270543
 21
55.8461638342
 31
0.0
  0
LINE
  5
116
330
1F
100
AcDbEntity
  8
0
  6
Continuous
 62
     7
370
    25
100
AcDbLine
 10
177.0466357813
 20
45.5394016069
 30
0.0
 11
177.0466357813
 21
66.1529260615
 31
0.0
  0
LINE
  5
117
330
1F
100
AcDbEntity
  8
0
  6
Continuous
 62
     7
370
    25
100
AcDbLine
 10
179.7430270543
 20
64.5961638342
 30
0.0
 11
179.7430270543
 21
47.0961638342
 31
0.0
  0
LINE
  5
118
330
1F
100
AcDbEntity
  8
0
  6
Continuous
 62
     7
370
    25
100
AcDbLine
 10
152.2430270543
 20
74.0461638342
 30
0.0
 11
143.9930270543
 21
74.0461638342
 31
0.0
  0
LINE
  5
119
330
1F
100
AcDbEntity
  8
0
  6
Continuous
 62
     7
370
    25
100
AcDbLine
 10
160.4930270543
 20
74.0461638342
 30
0.0
 11
152.2430270543
 21
74.0461638342
 31
0.0
  0
LINE
  5
11A
330
1F
100
AcDbEntity
  8
0
  6
Continuous
 62
     7
370
    25
100
AcDbLine
 10
152.2430270543
 20
74.5461638342
 30
0.0
 11
159.9930270543
 21
74.5461638342
 31
0.0
  0
LINE
  5
11B
330
1F
100
AcDbEntity
  8
0
  6
Continuous
 62
     7
370
    25
100
AcDbLine
 10
144.4930270543
 20
74.5461638342
 30
0.0
 11
152.2430270543
 21
74.5461638342
 31
0.0
  0
LINE
  5
11C
330
1F
100
AcDbEntity
  8
0
  6
Continuous
 62
     7
370
    25
100
AcDbLine
 10
107.6608275606
 20
59.6979904387
 30
0.0
 11
107.6608275606
 21
50.1765304165
 31
0.0
  0
LINE
  5
11D
330
1F
100
AcDbEntity
  8
0
  6
Continuous
 62
     7
370
    25
100
AcDbLine
 10
107.6608275606
 20
61.5157972519
 30
0.0
 11
107.6608275606
 21
59.6979904387
 31
0.0
  0
LINE
  5
11E
330
1F
100
AcDbEntity
  8
0
  6
Continuous
 62
     7
370
    25
100
AcDbLine
 10
152.1801441895
 20
93.1341061697
 30
0.0
 11
152.1801441895
 21
93.1460567315
 31
0.0
  0
LINE
  5
11F
330
1F
100
AcDbEntity
  8
0
  6
Continuous
 62
     7
370
    25
100
AcDbLine
 10
152.3059099191
 20
93.1341061697
 30
0.0
 11
152.3059099191
 21
93.1460567315
 31
0.0
  0
LINE
  5
120
330
1F
100
AcDbEntity
  8
0
  6
Continuous
 62
     7
370
    25
100
AcDbLine
 10
143.8391063144
 20
85.1577778736
 30
0.0
 11
161.2290752994
 21
85.1577778736
 31
0.0
  0
LINE
  5
121
330
1F
100
AcDbEntity
  8
0
  6
Continuous
 62
     7
370
    25
100
AcDbLine
 10
161.2318346129
 20
84.93423942
 30
0.0
 11
143.8369661992
 21
84.93423942
 31
0.0
  0
LINE
  5
122
330
1F
100
AcDbEntity
  8
0
  6
Continuous
 62
     7
370
    25
100
AcDbLine
 10
144.2603943896
 20
75.4964119747
 30
0.0
 11
160.2880518683
 21
75.4964119747
 31
0.0
  0
LINE
  5
123
330
1F
100
AcDbEntity
  8
0
  6
Continuous
 62
     7
370
    25
100
AcDbLine
 10
160.2977748834
 20
92.6081812015
 30
0.0
 11
144.1882792252
 21
92.6081812015
 31
0.0
  0
LINE
  5
124
330
1F
100
AcDbEntity
  8
0
  6
Continuous
 62
     7
370
    25
100
AcDbLine
 10
142.2430270543
 20
90.0461638342
 30
0.0
 11
142.58695551
 21
90.0461638342
 31
0.0
  0
ARC
  5
125
330
1F
100
AcDbEntity
  8
0
  6
Continuous
 62
     7
370
    25
100
AcDbCircle
 10
141.4810817911
 20
90.1008284173
 30
0.0
 40
1.107223960533172
100
AcDbArc
 50
357.1701084939
 51
46.5155082001
  0
LINE
  5
126
330
1F
100
AcDbEntity
  8
0
  6
Continuous
 62
     7
370
    25
100
AcDbLine
 10
101.9940301131
 20
86.0638854381
 30
0.0
 11
102.2159575495
 21
94.5389523097
 31
0.0
  0
LINE
  5
127
330
1F
100
AcDbEntity
  8
0
  6
Continuous
 62
     7
370
    25
100
AcDbLine
 10
143.9930270543
 20
68.5961638342
 30
0.0
 11
160.4930270543
 21
68.5961638342
 31
0.0
  0
LINE
  5
128
330
1F
100
AcDbEntity
  8
0
  6
Continuous
 62
     7
370
    18
100
AcDbLine
 10
165.2430270543
 20
46.0775388342
 30
0.0
 11
178.7075029355
 21
46.4983037055
 31
0.0
  0
LINE
  5
129
330
1F
100
AcDbEntity
  8
0
  6
Continuous
 62
     7
370
    18
100
AcDbLine
 10
178.7075029355
 20
65.1940239629
 30
0.0
 11
165.2430270543
 21
65.6147888342
 31
0.0
  0
LINE
  5
12A
330
1F
100
AcDbEntity
  8
0
  6
CENTERX2
 62
     7
370
    18
100
AcDbLine
 10
105.2430270543
 20
55.8461638342
 30
0.0
 11
181.6688477389
 21
55.8461638342
 31
0.0
  0
LINE
  5
12B
330
1F
100
AcDbEntity
  8
0
  6
CENTERX2
 62
     7
370
    18
100
AcDbLine
 10
152.2430270543
 20
41.3295523011
 30
0.0
 11
152.2430270543
 21
95.2467140984
 31
0.0
  0
SPLINE
  5
12C
330
1F
100
AcDbEntity
  8
0
  6
Continuous
 62
     7
370
    25
100
AcDbSpline
210
0.0
220
0.0
230
1.0
 70
     8
 71
     3
 72
     9
 73
     5
 74
     0
 42
0.00000001
 43
0.00000001
 40
0.0
 40
0.0
 40
0.0
 40
0.0
 40
0.4993165458323629
 40
1.0
 40
1.0
 40
1.0
 40
1.0
 10
223.3116440850225
 20
95.53373126297248
 30
0.0
 10
223.2885134673753
 20
95.5370822986201
 30
0.0
 10
223.2421889106581
 20
95.54379354357204
 30
0.0
 10
223.1956295175298
 20
95.53946637426635
 30
0.0
 10
223.1723179997544
 20
95.53729983219164
 30
0.0
  0
SPLINE
  5
12D
330
1F
100
AcDbEntity
  8
0
  6
Continuous
 62
     7
370
    25
100
AcDbSpline
210
0.0
220
0.0
230
1.0
 70
     8
 71
     3
 72
     9
 73
     5
 74
     0
 42
0.00000001
 43
0.00000001
 40
0.0
 40
0.0
 40
0.0
 40
0.0
 40
0.5006834545219033
 40
1.0
 40
1.0
 40
1.0
 40
1.0
 10
221.4323845278743
 20
95.53729983211923
 30
0.0
 10
221.4090730132233
 20
95.53946637278452
 30
0.0
 10
221.3625136263682
 20
95.54379353927209
 30
0.0
 10
221.3161890761117
 20
95.5370822929174
 30
0.0
 10
221.2930584617067
 20
95.53373125657174
 30
0.0
  0
LINE
  5
12E
330
1F
100
AcDbEntity
  8
0
  6
Continuous
 62
     7
370
    25
100
AcDbLine
 10
219.8264967718
 20
94.8782142237
 30
0.0
 11
219.6957194172
 21
92.0249527336
 31
0.0
  0
LINE
  5
12F
330
1F
100
AcDbEntity
  8
0
  6
Continuous
 62
     7
370
    25
100
AcDbLine
 10
224.9089831631
 20
92.0249527336
 30
0.0
 11
224.7782058084
 21
94.8782142237
 31
0.0
  0
LINE
  5
130
330
1F
100
AcDbEntity
  8
0
  6
Continuous
 62
     7
370
    25
100
AcDbLine
 10
220.3493773099
 20
95.5233151147
 30
0.0
 11
220.3009463669
 21
95.5021106007
 31
0.0
  0
SPLINE
  5
131
330
1F
100
AcDbEntity
  8
0
  6
Continuous
 62
     7
370
    25
100
AcDbSpline
210
0.0
220
0.0
230
1.0
 70
     8
 71
     3
 72
     9
 73
     5
 74
     0
 42
0.00000001
 43
0.00000001
 40
0.0
 40
0.0
 40
0.0
 40
0.0
 40
0.0503631419175414
 40
1.0
 40
1.0
 40
1.0
 40
1.0
 10
219.8828590958919
 20
95.11672239216155
 30
0.0
 10
219.8809630152978
 20
95.11355233479756
 30
0.0
 10
219.8433148360555
 20
95.0506083395799
 30
0.0
 10
219.8367743930402
 20
94.975460740886
 30
0.0
 10
219.8305633472847
 20
94.90409781136988
 30
0.0
  0
SPLINE
  5
132
330
1F
100
AcDbEntity
  8
0
  6
Continuous
 62
     7
370
    25
100
AcDbSpline
210
0.0
220
0.0
230
1.0
 70
     8
 71
     3
 72
    11
 73
     7
 74
     0
 42
0.00000001
 43
0.00000001
 40
0.0
 40
0.0
 40
0.0
 40
0.0
 40
0.2436788845968631
 40
0.491588446668192
 40
0.7437897073051962
 40
0.9999999999999999
 40
0.9999999999999999
 40
0.9999999999999999
 40
0.9999999999999999
 10
224.7741392329615
 20
94.90409781136988
 30
0.0
 10
224.762835276133
 20
94.97321716326671
 30
0.0
 10
224.7400311066716
 20
95.11265589588358
 30
0.0
 10
224.6268663077671
 20
95.29730978842352
 30
0.0
 10
224.4645827149568
 20
95.44793829423273
 30
0.0
 10
224.3254434750384
 20
95.49805777039555
 30
0.0
 10
224.2553252703059
 20
95.52331511471283
 30
0.0
  0
SPLINE
  5
133
330
1F
100
AcDbEntity
  8
0
  6
Continuous
 62
     7
370
    25
100
AcDbSpline
210
0.0
220
0.0
230
1.0
 70
     8
 71
     3
 72
    10
 73
     6
 74
     0
 42
0.00000001
 43
0.00000001
 40
0.0
 40
0.0
 40
0.0
 40
0.0
 40
0.2663464296502981
 40
0.5214744039517447
 40
1.0
 40
1.0
 40
1.0
 40
1.0
 10
225.257118487038
 20
91.56940961228705
 30
0.0
 10
225.2119370231215
 20
91.58839567802657
 30
0.0
 10
225.1234771290036
 20
91.62556812042763
 30
0.0
 10
224.9768927896041
 20
91.75513523854353
 30
0.0
 10
224.9228686728271
 20
91.88561462998642
 30
0.0
 10
224.8876314386249
 20
91.97071982279894
 30
0.0
  0
SPLINE
  5
134
330
1F
100
AcDbEntity
  8
0
  6
Continuous
 62
     7
370
    25
100
AcDbSpline
210
0.0
220
0.0
230
1.0
 70
     8
 71
     3
 72
    10
 73
     6
 74
     0
 42
0.00000001
 43
0.00000001
 40
0.0
 40
0.0
 40
0.0
 40
0.0
 40
0.4785255960482541
 40
0.7336535703497082
 40
1.0
 40
1.0
 40
1.0
 40
1.0
 10
219.7170711416213
 20
91.97071982279891
 30
0.0
 10
219.6818339074191
 20
91.8856146299864
 30
0.0
 10
219.6278097906421
 20
91.75513523854353
 30
0.0
 10
219.4812254512426
 20
91.6255681204276
 30
0.0
 10
219.3927655571247
 20
91.58839567802657
 30
0.0
 10
219.3475840932082
 20
91.56940961228705
 30
0.0
  0
ARC
  5
135
330
1F
100
AcDbEntity
  8
0
  6
Continuous
 62
     7
370
    25
100
AcDbCircle
 10
218.5756128659
 20
90.0461638342
 30
0.0
 40
1.5
100
AcDbArc
 50
90.0
 51
180.0
  0
LINE
  5
136
330
1F
100
AcDbEntity
  8
0
  6
Continuous
 62
     7
370
    25
100
AcDbLine
 10
217.0756128659
 20
90.0461638342
 30
0.0
 11
217.0756128659
 21
84.793209202
 31
0.0
  0
ARC
  5
137
330
1F
100
AcDbEntity
  8
0
  6
Continuous
 62
     7
370
    25
100
AcDbCircle
 10
226.0290897143
 20
90.0461638342
 30
0.0
 40
1.5
100
AcDbArc
 50
0.0
 51
90.0
  0
LINE
  5
138
330
1F
100
AcDbEntity
  8
0
  6
Continuous
 62
     7
370
    25
100
AcDbLine
 10
227.5290897143
 20
84.793209202
 30
0.0
 11
227.5290897143
 21
90.0461638342
 31
0.0
  0
LINE
  5
139
330
1F
100
AcDbEntity
  8
0
  6
Continuous
 62
     7
370
    25
100
AcDbLine
 10
213.3135437315
 20
84.93423942
 30
0.0
 11
214.1223512901
 21
76.8461638342
 31
0.0
  0
LINE
  5
13A
330
1F
100
AcDbEntity
  8
0
  6
Continuous
 62
     7
370
    25
100
AcDbLine
 10
230.3473761042
 20
75.4964119747
 30
0.0
 11
231.2911588487
 21
84.93423942
 31
0.0
  0
ARC
  5
13B
330
1F
100
AcDbEntity
  8
0
  6
Continuous
 62
     7
370
    25
100
AcDbCircle
 10
230.2961216585
 20
85.033743139
 30
0.0
 40
1.000000000000025
100
AcDbArc
 50
354.2894068625
 51
7.1250163489
  0
ARC
  5
13C
330
1F
100
AcDbEntity
  8
0
  6
Continuous
 62
     7
370
    25
100
AcDbCircle
 10
214.3085809218
 20
85.033743139
 30
0.0
 40
1.000000000000025
100
AcDbArc
 50
172.8749836511
 51
185.7105931375
  0
LINE
  5
13D
330
1F
100
AcDbEntity
  8
0
  6
Continuous
 62
     7
370
    25
100
AcDbLine
 10
231.2883995352
 20
85.1577778736
 30
0.0
 11
230.3570991192
 21
92.6081812015
 31
0.0
  0
LINE
  5
13E
330
1F
100
AcDbEntity
  8
0
  6
Continuous
 62
     7
370
    25
100
AcDbLine
 10
214.247603461
 20
92.6081812015
 30
0.0
 11
213.316303045
 21
85.1577778736
 31
0.0
  0
ARC
  5
13F
330
1F
100
AcDbEntity
  8
0
  6
Continuous
 62
     7
370
    25
100
AcDbCircle
 10
214.7437423994
 20
92.5461638342
 30
0.0
 40
0.5
100
AcDbArc
 50
90.0
 51
172.8749836511
  0
ARC
  5
140
330
1F
100
AcDbEntity
  8
0
  6
Continuous
 62
     7
370
    25
100
AcDbCircle
 10
229.8609601809
 20
92.5461638342
 30
0.0
 40
0.5000000000000017
100
AcDbArc
 50
7.1250163489
 51
90.0
  0
ARC
  5
141
330
1F
100
AcDbEntity
  8
0
  6
Continuous
 62
     7
370
    25
100
AcDbCircle
 10
229.8498575091
 20
75.5461638342
 30
0.0
 40
0.5
100
AcDbArc
 50
270.0
 51
354.2894068625
  0
LINE
  5
142
330
1F
100
AcDbEntity
  8
0
  6
Continuous
 62
     7
370
    25
100
AcDbLine
 10
223.3023512901
 20
74.5461638342
 30
0.0
 11
223.3023512901
 21
75.0173726806
 31
0.0
  0
LINE
  5
143
330
1F
100
AcDbEntity
  8
0
  6
Continuous
 62
     7
370
    25
100
AcDbLine
 10
221.3023512901
 20
76.3461638342
 30
0.0
 11
221.3023512901
 21
74.5461638342
 31
0.0
  0
ARC
  5
144
330
1F
100
AcDbEntity
  8
0
  6
Continuous
 62
     7
370
    25
100
AcDbCircle
 10
221.5023512901
 20
76.3461638342
 30
0.0
 40
0.2000000000000028
100
AcDbArc
 50
90.0
 51
180.0
  0
ARC
  5
145
330
1F
100
AcDbEntity
  8
0
  6
Continuous
 62
     7
370
    25
100
AcDbCircle
 10
223.1023512901
 20
76.3461638342
 30
0.0
 40
0.2000000000000028
100
AcDbArc
 50
0.0
 51
90.0
  0
ARC
  5
146
330
1F
100
AcDbEntity
  8
0
  6
Continuous
 62
     7
370
    25
100
AcDbCircle
 10
230.8023512901
 20
68.5961638342
 30
0.0
 40
0.25
100
AcDbArc
 50
180.0
 51
270.0
  0
ARC
  5
147
330
1F
100
AcDbEntity
  8
0
  6
Continuous
 62
     7
370
    25
100
AcDbCircle
 10
213.8023512901
 20
68.5961638342
 30
0.0
 40
0.25
100
AcDbArc
 50
270.0
 51
0.0
  0
LINE
  5
148
330
1F
100
AcDbEntity
  8
0
  6
Continuous
 62
     7
370
    25
100
AcDbLine
 10
230.5523512901
 20
68.5961638342
 30
0.0
 11
230.5523512901
 21
74.0461638342
 31
0.0
  0
LINE
  5
149
330
1F
100
AcDbEntity
  8
0
  6
Continuous
 62
     7
370
    25
100
AcDbLine
 10
214.0523512901
 20
74.0461638342
 30
0.0
 11
214.0523512901
 21
68.5961638342
 31
0.0
  0
LINE
  5
14A
330
1F
100
AcDbEntity
  8
0
  6
Continuous
 62
     7
370
    25
100
AcDbLine
 10
230.5523512901
 20
74.0461638342
 30
0.0
 11
230.0523512901
 21
74.5461638342
 31
0.0
  0
LINE
  5
14B
330
1F
100
AcDbEntity
  8
0
  6
Continuous
 62
     7
370
    25
100
AcDbLine
 10
214.5523512901
 20
74.5461638342
 30
0.0
 11
214.0523512901
 21
74.0461638342
 31
0.0
  0
LINE
  5
14C
330
1F
100
AcDbEntity
  8
0
  6
Continuous
 62
     7
370
    25
100
AcDbLine
 10
217.3023512901
 20
76.8461638342
 30
0.0
 11
217.3023512901
 21
74.5461638342
 31
0.0
  0
LINE
  5
14D
330
1F
100
AcDbEntity
  8
0
  6
Continuous
 62
     7
370
    25
100
AcDbLine
 10
227.3023512901
 20
74.5461638342
 30
0.0
 11
227.3023512901
 21
75.0461638342
 31
0.0
  0
CIRCLE
  5
14E
330
1F
100
AcDbEntity
  8
0
  6
Continuous
 62
     7
370
    25
100
AcDbCircle
 10
222.3023512901
 20
55.8461638342
 30
0.0
 40
5.176436455808481
  0
CIRCLE
  5
14F
330
1F
100
AcDbEntity
  8
0
  6
Continuous
 62
     7
370
    25
100
AcDbCircle
 10
222.3023512901
 20
55.8461638342
 30
0.0
 40
5.66963341772454
  0
CIRCLE
  5
150
330
1F
100
AcDbEntity
  8
0
  6
Continuous
 62
     7
370
    25
100
AcDbCircle
 10
222.3023512901
 20
55.8461638342
 30
0.0
 40
4.599999999999976
  0
CIRCLE
  5
151
330
1F
100
AcDbEntity
  8
0
  6
Continuous
 62
     7
370
    25
100
AcDbCircle
 10
222.3023512901
 20
55.8461638342
 30
0.0
 40
4.499999999999991
  0
CIRCLE
  5
152
330
1F
100
AcDbEntity
  8
0
  6
Continuous
 62
     7
370
    25
100
AcDbCircle
 10
222.3023512901
 20
55.8461638342
 30
0.0
 40
6.350000000000001
  0
CIRCLE
  5
153
330
1F
100
AcDbEntity
  8
0
  6
Continuous
 62
     7
370
    25
100
AcDbCircle
 10
222.3023512901
 20
55.8461638342
 30
0.0
 40
11.75000000000001
  0
CIRCLE
  5
154
330
1F
100
AcDbEntity
  8
0
  6
Continuous
 62
     7
370
    25
100
AcDbCircle
 10
222.3023512901
 20
55.8461638342
 30
0.0
 40
11.99999999999999
  0
ELLIPSE
  5
155
330
1F
100
AcDbEntity
  8
0
  6
Continuous
 62
     7
370
    25
100
AcDbEllipse
 10
222.127812735
 20
86.269770632
 30
0.0
 11
0.7234244958980298
 21
-0.7001325129304662
 31
0.0
210
0.0
220
0.0
230
1.0
 40
0.9869902583
 41
4.70764954536257
 42
5.487972049091407
  0
LINE
  5
156
330
1F
100
AcDbEntity
  8
0
  6
Continuous
 62
     7
370
    25
100
AcDbLine
 10
222.1409056958
 20
85.269770632
 30
0.0
 11
222.1409056958
 21
84.5461638342
 31
0.0
  0
ELLIPSE
  5
157
330
1F
100
AcDbEntity
  8
0
  6
Continuous
 62
     7
370
    25
100
AcDbEllipse
 10
222.127812735
 20
86.0461638342
 30
0.0
 11
1.074619436156752
 21
-1.056020081253678
 31
0.0
210
0.0
220
0.0
230
0.9999999999999999
 40
0.9913091236
 41
4.713099434383474
 42
5.493421938112304
  0
LWPOLYLINE
  5
158
330
1F
100
AcDbEntity
  8
0
  6
Continuous
 62
     7
370
    25
100
AcDbPolyline
 90
        9
 70
   128
 43
0.0
 10
221.4333679156
 20
85.5590839412
 10
221.3476390335
 20
85.4827534636
 10
221.2666073836
 20
85.3983534643
 10
221.1947128287
 20
85.3105083638
 10
221.1358945946
 20
85.2240313454
 10
221.0933754328
 20
85.1436606331
 10
221.0694850411
 20
85.0737998757
 10
221.065532415
 20
85.0182768637
 10
221.0817341256
 20
84.980133798
  0
ELLIPSE
  5
159
330
1F
100
AcDbEntity
  8
0
  6
Continuous
 62
     7
370
    25
100
AcDbEllipse
 10
222.4768898452
 20
86.269770632
 30
0.0
 11
0.7234244958980298
 21
0.7001325129304662
 31
0.0
210
0.0
220
0.0
230
1.0
 40
0.9869902583
 41
3.93680591167801
 42
4.717128415406837
  0
LWPOLYLINE
  5
15A
330
1F
100
AcDbEntity
  8
0
  6
Continuous
 62
     7
370
    25
100
AcDbPolyline
 90
        9
 70
   128
 43
0.0
 10
223.1713346646
 20
85.5590839412
 10
223.2570635467
 20
85.4827534636
 10
223.3380951966
 20
85.3983534643
 10
223.4099897515
 20
85.3105083638
 10
223.4688079857
 20
85.2240313454
 10
223.5113271474
 20
85.1436606331
 10
223.5352175391
 20
85.0737998757
 10
223.5391701652
 20
85.0182768637
 10
223.5229684547
 20
84.980133798
  0
ELLIPSE
  5
15B
330
1F
100
AcDbEntity
  8
0
  6
Continuous
 62
     7
370
    25
100
AcDbEllipse
 10
222.4768898452
 20
86.0461638342
 30
0.0
 11
1.074619436156752
 21
1.056020081253678
 31
0.0
210
0.0
220
0.0
230
0.9999999999999999
 40
0.9913091236
 41
3.931356022657103
 42
4.711678526385933
  0
LINE
  5
15C
330
1F
100
AcDbEntity
  8
0
  6
Continuous
 62
     7
370
    25
100
AcDbLine
 10
222.4637968845
 20
85.269770632
 30
0.0
 11
222.4637968845
 21
84.5461638342
 31
0.0
  0
LINE
  5
15D
330
1F
100
AcDbEntity
  8
0
  6
Continuous
 62
     7
370
    25
100
AcDbLine
 10
222.1409056958
 20
85.269770632
 30
0.0
 11
222.4637968845
 21
85.269770632
 31
0.0
  0
LINE
  5
15E
330
1F
100
AcDbEntity
  8
0
  6
Continuous
 62
     7
370
    25
100
AcDbLine
 10
222.4637968845
 20
84.5461638342
 30
0.0
 11
222.1409056958
 21
84.5461638342
 31
0.0
  0
LINE
  5
15F
330
1F
100
AcDbEntity
  8
0
  6
Continuous
 62
     7
370
    25
100
AcDbLine
 10
221.4333679156
 20
85.5590839412
 30
0.0
 11
221.4333679156
 21
94.7169842275
 31
0.0
  0
LINE
  5
160
330
1F
100
AcDbEntity
  8
0
  6
Continuous
 62
     7
370
    25
100
AcDbLine
 10
221.4333679156
 20
94.7169842275
 30
0.0
 11
223.1713346646
 21
94.7169842275
 31
0.0
  0
LINE
  5
161
330
1F
100
AcDbEntity
  8
0
  6
Continuous
 62
     7
370
    25
100
AcDbLine
 10
223.1713346646
 20
94.7169842275
 30
0.0
 11
223.1713346646
 21
85.5590839412
 31
0.0
  0
SPLINE
  5
162
330
1F
100
AcDbEntity
  8
0
  6
Continuous
 62
     7
370
    25
100
AcDbSpline
210
0.0
220
0.0
230
1.0
 70
     8
 71
     3
 72
    11
 73
     7
 74
     0
 42
0.00000001
 43
0.00000001
 40
0.0
 40
0.0
 40
0.0
 40
0.0
 40
0.2499999999999991
 40
0.4999999999999979
 40
0.7499999999999996
 40
1.0
 40
1.0
 40
1.0
 40
1.0
 10
223.8700699938931
 20
94.4227439618342
 30
0.0
 10
223.8550706887266
 20
94.46186151600034
 30
0.0
 10
223.8250720783934
 20
94.54009662433259
 30
0.0
 10
223.6615523755967
 20
94.63675970004081
 30
0.0
 10
223.4359727615144
 20
94.70394791618031
 30
0.0
 10
223.2595473635993
 20
94.7126387903739
 30
0.0
 10
223.1713346646418
 20
94.7169842274707
 30
0.0
  0
LINE
  5
163
330
1F
100
AcDbEntity
  8
0
  6
Continuous
 62
     7
370
    25
100
AcDbLine
 10
223.8700699939
 20
85.6118043134
 30
0.0
 11
223.8700699939
 21
94.4227439618
 31
0.0
  0
SPLINE
  5
164
330
1F
100
AcDbEntity
  8
0
  6
Continuous
 62
     7
370
    25
100
AcDbSpline
210
0.0
220
0.0
230
1.0
 70
     8
 71
     3
 72
    12
 73
     8
 74
     0
 42
0.00000001
 43
0.00000001
 40
0.0
 40
0.0
 40
0.0
 40
0.0
 40
0.139683458618249
 40
0.3831896274038307
 40
0.55131692930133
 40
0.8194729461607051
 40
0.9999999999999999
 40
0.9999999999999999
 40
0.9999999999999999
 40
0.9999999999999999
 10
223.1713346646418
 20
85.55908394116021
 30
0.0
 10
223.2210495851203
 20
85.57239631482116
 30
0.0
 10
223.3574311011781
 20
85.60891576782913
 30
0.0
 10
223.5373472103902
 20
85.64658782842051
 30
0.0
 10
223.7156886387751
 20
85.670955149182
 30
0.0
 10
223.8362088633266
 20
85.66983811441804
 30
0.0
 10
223.8603548766335
 20
85.62845482604048
 30
0.0
 10
223.8700699938931
 20
85.61180431342508
 30
0.0
  0
ARC
  5
165
330
1F
100
AcDbEntity
  8
0
  6
Continuous
 62
     7
370
    25
100
AcDbCircle
 10
223.3718158132
 20
85.5969513277
 30
0.0
 40
0.4984755156839528
100
AcDbArc
 50
333.4921832491
 51
1.7074848132
  0
SPLINE
  5
166
330
1F
100
AcDbEntity
  8
0
  6
Continuous
 62
     7
370
    25
100
AcDbSpline
210
0.0
220
0.0
230
1.0
 70
     8
 71
     3
 72
    12
 73
     8
 74
     0
 42
0.00000001
 43
0.00000001
 40
0.0
 40
0.0
 40
0.0
 40
0.0
 40
0.0715202026166142
 40
0.1260836237049476
 40
0.3855387013103047
 40
0.8475626424815554
 40
1.0
 40
1.0
 40
1.0
 40
1.0
 10
223.817888332332
 20
85.37447178386995
 30
0.0
 10
223.8159522866268
 20
85.37136313600513
 30
0.0
 10
223.8125392138273
 20
85.3658828720618
 30
0.0
 10
223.7903567633221
 20
85.32629432664139
 30
0.0
 10
223.7273432885557
 20
85.21986019365912
 30
0.0
 10
223.6302969630837
 20
85.08935317795088
 30
0.0
 10
223.5443022698655
 20
85.00184346398754
 30
0.0
 10
223.5229684546639
 20
84.98013379800499
 30
0.0
  0
SPLINE
  5
167
330
1F
100
AcDbEntity
  8
0
  6
Continuous
 62
     7
370
    25
100
AcDbSpline
210
0.0
220
0.0
230
1.0
 70
     8
 71
     3
 72
    11
 73
     7
 74
     0
 42
0.00000001
 43
0.00000001
 40
0.0
 40
0.0
 40
0.0
 40
0.0
 40
0.249999999999999
 40
0.4999999999999998
 40
0.7499999999999988
 40
1.0
 40
1.0
 40
1.0
 40
1.0
 10
220.7346325863531
 20
94.42274396183417
 30
0.0
 10
220.7496318915197
 20
94.46186151600031
 30
0.0
 10
220.7796305018528
 20
94.54009662433256
 30
0.0
 10
220.9431502046495
 20
94.63675970004078
 30
0.0
 10
221.1687298187318
 20
94.70394791618031
 30
0.0
 10
221.3451552166469
 20
94.7126387903739
 30
0.0
 10
221.4333679156044
 20
94.7169842274707
 30
0.0
  0
SPLINE
  5
168
330
1F
100
AcDbEntity
  8
0
  6
Continuous
 62
     7
370
    25
100
AcDbSpline
210
0.0
220
0.0
230
1.0
 70
     8
 71
     3
 72
    13
 73
     9
 74
     0
 42
0.00000001
 43
0.00000001
 40
0.0
 40
0.0
 40
0.0
 40
0.0
 40
0.1143463544469914
 40
0.2890454840074685
 40
0.5294852105593209
 40
0.7014879056604271
 40
0.9335094878266192
 40
1.0
 40
1.0
 40
1.0
 40
1.0
 10
220.7346325863531
 20
85.61180431342508
 30
0.0
 10
220.7394671778582
 20
85.62319114518306
 30
0.0
 10
220.7516880907882
 20
85.65197485510292
 30
0.0
 10
220.8243361858293
 20
85.6722250325518
 30
0.0
 10
220.9548484522361
 20
85.66436770580619
 30
0.0
 10
221.1417160514057
 20
85.63184028947822
 30
0.0
 10
221.3030894561623
 20
85.59471893452634
 30
0.0
 10
221.4096358070142
 20
85.56557537140736
 30
0.0
 10
221.4333679156044
 20
85.55908394116021
 30
0.0
  0
LINE
  5
169
330
1F
100
AcDbEntity
  8
0
  6
Continuous
 62
     7
370
    25
100
AcDbLine
 10
220.7346325864
 20
94.4227439618
 30
0.0
 11
220.7346325864
 21
85.6118043134
 31
0.0
  0
SPLINE
  5
16A
330
1F
100
AcDbEntity
  8
0
  6
Continuous
 62
     7
370
    25
100
AcDbSpline
210
0.0
220
0.0
230
1.0
 70
     8
 71
     3
 72
    11
 73
     7
 74
     0
 42
0.00000001
 43
0.00000001
 40
0.0
 40
0.0
 40
0.0
 40
0.0
 40
0.3325271082490199
 40
0.7778992719027311
 40
0.9254453528959206
 40
1.0
 40
1.0
 40
1.0
 40
1.0
 10
221.0817341255823
 20
84.98013379800499
 30
0.0
 10
221.0365033024361
 20
85.02807034613316
 30
0.0
 10
220.9306923068204
 20
85.14021099560622
 30
0.0
 10
220.8429323323429
 20
85.27557121362344
 30
0.0
 10
220.7953194404051
 20
85.3605718474019
 30
0.0
 10
220.7889517504768
 20
85.37097848846804
 30
0.0
 10
220.7868142479142
 20
85.37447178386995
 30
0.0
  0
ARC
  5
16B
330
1F
100
AcDbEntity
  8
0
  6
Continuous
 62
     7
370
    25
100
AcDbCircle
 10
221.232886767
 20
85.5969513277
 30
0.0
 40
0.4984755156839528
100
AcDbArc
 50
178.2925151868
 51
206.5078167509
  0
LINE
  5
16C
330
1F
100
AcDbEntity
  8
0
  6
Continuous
 62
     7
370
    25
100
AcDbLine
 10
221.4487454987
 20
84.5461638342
 30
0.0
 11
222.1409056958
 21
84.5461638342
 31
0.0
  0
SPLINE
  5
16D
330
1F
100
AcDbEntity
  8
0
  6
Continuous
 62
     7
370
    25
100
AcDbSpline
210
0.0
220
0.0
230
1.0
 70
     8
 71
     3
 72
    11
 73
     7
 74
     0
 42
0.00000001
 43
0.00000001
 40
0.0
 40
0.0
 40
0.0
 40
0.0
 40
0.2500000000000002
 40
0.4999999999999996
 40
0.7499999999999999
 40
1.0
 40
1.0
 40
1.0
 40
1.0
 10
219.949773347626
 20
86.08542925668257
 30
0.0
 10
219.967849658044
 20
85.88505365030647
 30
0.0
 10
220.0040022788801
 20
85.4843024375543
 30
0.0
 10
220.3486280530806
 20
84.97410949951237
 30
0.0
 10
220.8494501392008
 20
84.61612843114567
 30
0.0
 10
221.2489803788615
 20
84.56948536652907
 30
0.0
 10
221.4487454986919
 20
84.54616383422075
 30
0.0
  0
LINE
  5
16E
330
1F
100
AcDbEntity
  8
0
  6
Continuous
 62
     7
370
    25
100
AcDbLine
 10
220.5161106277
 20
86.0854292567
 30
0.0
 11
219.9497733476
 21
86.0854292567
 31
0.0
  0
SPLINE
  5
16F
330
1F
100
AcDbEntity
  8
0
  6
Continuous
 62
     7
370
    25
100
AcDbSpline
210
0.0
220
0.0
230
1.0
 70
     8
 71
     3
 72
     9
 73
     5
 74
     0
 42
0.00000001
 43
0.00000001
 40
0.0
 40
0.0
 40
0.0
 40
0.0
 40
0.5407747560677784
 40
1.0
 40
1.0
 40
1.0
 40
1.0
 10
220.5161106277065
 20
86.08542925668259
 30
0.0
 10
220.5160811272936
 20
86.07409530288187
 30
0.0
 10
220.5160265751672
 20
86.05313656974295
 30
0.0
 10
220.5166308203021
 20
86.032170376875
 30
0.0
 10
220.5169083049216
 20
86.02254217184088
 30
0.0
  0
ELLIPSE
  5
170
330
1F
100
AcDbEntity
  8
0
  6
Continuous
 62
     7
370
    25
100
AcDbEllipse
 10
222.0150827788
 20
86.0461638342
 30
0.0
 11
-0.399986139932679
 21
1.44582663936005
 31
0.0
210
0.0
220
0.0
230
1.0
 40
0.9987379186
 41
1.314426961368738
 42
1.316970714136486
  0
ELLIPSE
  5
171
330
1F
100
AcDbEntity
  8
0
  6
Continuous
 62
     7
370
    25
100
AcDbEllipse
 10
222.9637756785
 20
86.0461638342
 30
0.0
 11
2.447559743737003
 21
-0.02501587584980314
 31
0.0
210
0.0
220
0.0
230
1.0
 40
0.6127700831
 41
3.171475350442053
 42
3.622568086779214
  0
LINE
  5
172
330
1F
100
AcDbEntity
  8
0
  6
Continuous
 62
     7
370
    25
100
AcDbLine
 10
224.0885919525
 20
86.0854292567
 30
0.0
 11
224.0877942753
 21
86.0225421718
 31
0.0
  0
LINE
  5
173
330
1F
100
AcDbEntity
  8
0
  6
Continuous
 62
     7
370
    25
100
AcDbLine
 10
224.6549292326
 20
86.0854292567
 30
0.0
 11
224.0885919525
 21
86.0854292567
 31
0.0
  0
SPLINE
  5
174
330
1F
100
AcDbEntity
  8
0
  6
Continuous
 62
     7
370
    25
100
AcDbSpline
210
0.0
220
0.0
230
1.0
 70
     8
 71
     3
 72
    11
 73
     7
 74
     0
 42
0.00000001
 43
0.00000001
 40
0.0
 40
0.0
 40
0.0
 40
0.0
 40
0.2500000000000001
 40
0.4999999999999997
 40
0.75
 40
1.0
 40
1.0
 40
1.0
 40
1.0
 10
223.1559570815543
 20
84.54616383422075
 30
0.0
 10
223.3557222013847
 20
84.56948536652905
 30
0.0
 10
223.7552524410455
 20
84.61612843114565
 30
0.0
 10
224.2560745271656
 20
84.97410949951237
 30
0.0
 10
224.6007003013661
 20
85.4843024375543
 30
0.0
 10
224.6368529222022
 20
85.88505365030649
 30
0.0
 10
224.6549292326202
 20
86.08542925668257
 30
0.0
  0
LINE
  5
175
330
1F
100
AcDbEntity
  8
0
  6
Continuous
 62
     7
370
    25
100
AcDbLine
 10
222.4637968845
 20
84.5461638342
 30
0.0
 11
223.1559570816
 21
84.5461638342
 31
0.0
  0
ELLIPSE
  5
176
330
1F
100
AcDbEntity
  8
0
  6
Continuous
 62
     7
370
    25
100
AcDbEllipse
 10
221.6409269018
 20
86.0461638342
 30
0.0
 11
2.447559743736974
 21
0.02501587584978892
 31
0.0
210
0.0
220
0.0
230
1.0
 40
0.6127700831
 41
5.802209873990217
 42
6.253302610327363
  0
ELLIPSE
  5
177
330
1F
100
AcDbEntity
  8
0
  6
Continuous
 62
     7
370
    25
100
AcDbEllipse
 10
222.5896198015
 20
86.0461638342
 30
0.0
 11
0.3999861399325653
 21
1.445826639360092
 31
0.0
210
0.0
220
0.0
230
1.0
 40
0.9987379186
 41
4.96621459303393
 42
4.96875834581076
  0
ELLIPSE
  5
178
330
1F
100
AcDbEntity
  8
0
  6
Continuous
 62
     7
370
    25
100
AcDbEllipse
 10
220.6864784283
 20
94.0649730854
 30
0.0
 11
0.02159772760037981
 21
0.7999991561933228
 31
0.0
210
0.0
220
0.0
230
1.0
 40
0.0537988877
 41
5.177489007048614
 42
5.36901284944044
  0
ELLIPSE
  5
179
330
1F
100
AcDbEntity
  8
0
  6
Continuous
 62
     7
370
    25
100
AcDbEllipse
 10
222.4646790147
 20
86.0595990137
 30
0.0
 11
1.947791790405574
 21
-0.01776981143132161
 31
0.0
210
0.0
220
0.0
230
0.9999999999999999
 40
0.513320833
 41
3.160788584408937
 42
3.623660809788578
  0
LINE
  5
17A
330
1F
100
AcDbEntity
  8
0
  6
Continuous
 62
     7
370
    25
100
AcDbLine
 10
220.517070991
 20
86.0581738301
 30
0.0
 11
220.7337521022
 21
94.5524092483
 31
0.0
  0
ELLIPSE
  5
17B
330
1F
100
AcDbEntity
  8
0
  6
Continuous
 62
     7
370
    25
100
AcDbEllipse
 10
223.9182241519
 20
94.0649730854
 30
0.0
 11
-0.02159772760037981
 21
0.7999991561933228
 31
0.0
210
0.0
220
0.0
230
1.0
 40
0.0537988877
 41
0.9141724577391849
 42
1.105696300131255
  0
LINE
  5
17C
330
1F
100
AcDbEntity
  8
0
  6
Continuous
 62
     7
370
    25
100
AcDbLine
 10
223.870950478
 20
94.5524092483
 30
0.0
 11
224.0876315892
 21
86.0581738301
 31
0.0
  0
ELLIPSE
  5
17D
330
1F
100
AcDbEntity
  8
0
  6
Continuous
 62
     7
370
    25
100
AcDbEllipse
 10
222.1400235655
 20
86.0595990137
 30
0.0
 11
1.947791790405546
 21
0.01776981143127898
 31
0.0
210
0.0
220
0.0
230
0.9999999999999999
 40
0.513320833
 41
5.801117150980883
 42
6.263989376373029
  0
LINE
  5
17E
330
1F
100
AcDbEntity
  8
0
  6
Continuous
 62
     7
370
    25
100
AcDbLine
 10
220.5168506559
 20
86.0263574001
 30
0.0
 11
220.517070991
 21
86.0581738301
 31
0.0
  0
SPLINE
  5
17F
330
1F
100
AcDbEntity
  8
0
  6
Continuous
 62
     7
370
    25
100
AcDbSpline
210
0.0
220
0.0
230
1.0
 70
     8
 71
     3
 72
     9
 73
     5
 74
     0
 42
0.00000001
 43
0.00000001
 40
0.0
 40
0.0
 40
0.0
 40
0.0
 40
0.8673350121727758
 40
1.0
 40
1.0
 40
1.0
 40
1.0
 10
224.0876315892485
 20
86.05817383008332
 30
0.0
 10
224.0878023214358
 20
86.04897540670811
 30
0.0
 10
224.0879991683113
 20
86.03837001980905
 30
0.0
 10
224.0878691705461
 20
86.02776439520765
 30
0.0
 10
224.0878519243942
 20
86.02635740014901
 30
0.0
  0
ELLIPSE
  5
180
330
1F
100
AcDbEntity
  8
0
  6
Continuous
 62
     7
370
    25
100
AcDbEllipse
 10
221.4028029196
 20
94.0461638342
 30
0.0
 11
0.0209600052571659
 21
1.499999971448744
 31
0.0
210
0.0
220
0.0
230
1.0
 40
0.013963099
 41
5.413231207420207
 42
6.283380418268021
  0
LINE
  5
181
330
1F
100
AcDbEntity
  8
0
  6
Continuous
 62
     7
370
    25
100
AcDbLine
 10
223.1809437423
 20
95.5461638342
 30
0.0
 11
221.423758838
 21
95.5461638342
 31
0.0
  0
ELLIPSE
  5
182
330
1F
100
AcDbEntity
  8
0
  6
Continuous
 62
     7
370
    25
100
AcDbEllipse
 10
223.2018996606
 20
94.0461638342
 30
0.0
 11
-0.0209600052571659
 21
1.499999971448744
 31
0.0
210
0.0
220
0.0
230
1.0
 40
0.013963099
 41
6.282990196092133
 42
7.153139406940038
  0
SPLINE
  5
183
330
1F
100
AcDbEntity
  8
0
  6
Continuous
 62
     7
370
    25
100
AcDbSpline
210
0.0
220
0.0
230
1.0
 70
     8
 71
     3
 72
     9
 73
     5
 74
     0
 42
0.00000001
 43
0.00000001
 40
0.0
 40
0.0
 40
0.0
 40
0.0
 40
0.5600029565045499
 40
1.0
 40
1.0
 40
1.0
 40
1.0
 10
223.1723753767471
 20
95.01323257506134
 30
0.0
 10
223.1723810148133
 20
95.00344611290137
 30
0.0
 10
223.1723910827355
 20
94.9859703798784
 30
0.0
 10
223.1722689061321
 20
94.96800941221261
 30
0.0
 10
223.1722151487878
 20
94.96010663954135
 30
0.0
  0
ELLIPSE
  5
184
330
1F
100
AcDbEntity
  8
0
  6
Continuous
 62
     7
370
    25
100
AcDbEllipse
 10
223.2194888227
 20
94.0461638342
 30
0.0
 11
-0.02155295842285909
 21
1.499999872388898
 31
0.0
210
0.0
220
0.0
230
0.9999999999999998
 40
0.0287076702
 41
0.9152123852431806
 42
1.106736227634701
  0
ELLIPSE
  5
185
330
1F
100
AcDbEntity
  8
0
  6
Continuous
 62
     7
370
    25
100
AcDbEllipse
 10
221.3852137576
 20
94.0461638342
 30
0.0
 11
0.02155295842280225
 21
1.499999872388898
 31
0.0
210
0.0
220
0.0
230
1.0
 40
0.0287076702
 41
5.176449079545305
 42
5.367972921936886
  0
SPLINE
  5
186
330
1F
100
AcDbEntity
  8
0
  6
Continuous
 62
     7
370
    25
100
AcDbSpline
210
0.0
220
0.0
230
1.0
 70
     8
 71
     3
 72
     9
 73
     5
 74
     0
 42
0.00000001
 43
0.00000001
 40
0.0
 40
0.0
 40
0.0
 40
0.0
 40
0.5599925069633377
 40
1.0
 40
1.0
 40
1.0
 40
1.0
 10
221.4324874314584
 20
94.96010663954134
 30
0.0
 10
221.432421686307
 20
94.9701542338442
 30
0.0
 10
221.4323042826801
 20
94.98809660660443
 30
0.0
 10
221.4323201998327
 20
95.0055520494257
 30
0.0
 10
221.4323272034992
 20
95.01323257506135
 30
0.0
  0
SPLINE
  5
187
330
1F
100
AcDbEntity
  8
0
  6
Continuous
 62
     7
370
    25
100
AcDbSpline
210
0.0
220
0.0
230
1.0
 70
     8
 71
     3
 72
    12
 73
     8
 74
     0
 42
0.00000001
 43
0.00000001
 40
0.0
 40
0.0
 40
0.0
 40
0.0
 40
0.2225634137434379
 40
0.4462063173695244
 40
0.6680851268156933
 40
0.8917990985568367
 40
1.0
 40
1.0
 40
1.0
 40
1.0
 10
220.7337521022071
 20
94.55240924827187
 30
0.0
 10
220.7461052097739
 20
94.59999519157819
 30
0.0
 10
220.7708713406609
 20
94.69539788227266
 30
0.0
 10
220.9034552686587
 20
94.81961661484561
 30
0.0
 10
221.0898126721533
 20
94.91150641595006
 30
0.0
 10
221.2779034835066
 20
94.95396199496017
 30
0.0
 10
221.394483516395
 20
94.9585960004753
 30
0.0
 10
221.4324874314584
 20
94.96010663954134
 30
0.0
  0
SPLINE
  5
188
330
1F
100
AcDbEntity
  8
0
  6
Continuous
 62
     7
370
    25
100
AcDbSpline
210
0.0
220
0.0
230
1.0
 70
     8
 71
     3
 72
    12
 73
     8
 74
     0
 42
0.00000001
 43
0.00000001
 40
0.0
 40
0.0
 40
0.0
 40
0.0
 40
0.2225634137435274
 40
0.446206317369568
 40
0.6680851268158019
 40
0.8917990985569294
 40
1.0
 40
1.0
 40
1.0
 40
1.0
 10
223.1722151487878
 20
94.96010663954135
 30
0.0
 10
223.2507188088304
 20
94.95467956692762
 30
0.0
 10
223.408106891887
 20
94.94379909900019
 30
0.0
 10
223.6174584295144
 20
94.86850566797989
 30
0.0
 10
223.7762177239845
 20
94.75902712322656
 30
0.0
 10
223.8540665943011
 20
94.6463124826801
 30
0.0
 10
223.8667996351345
 20
94.57549502523588
 30
0.0
 10
223.8709504780391
 20
94.55240924827186
 30
0.0
  0
SPLINE
  5
189
330
1F
100
AcDbEntity
  8
0
  6
Continuous
 62
     7
370
    25
100
AcDbSpline
210
0.0
220
0.0
230
1.0
 70
     8
 71
     3
 72
    12
 73
     8
 74
     0
 42
0.00000001
 43
0.00000001
 40
0.0
 40
0.0
 40
0.0
 40
0.0
 40
0.2198609600791294
 40
0.4397396970008148
 40
0.6583291451397767
 40
0.87912395168436
 40
1.0
 40
1.0
 40
1.0
 40
1.0
 10
223.8718957139112
 20
94.58025769315124
 30
0.0
 10
223.8612237192671
 20
94.63074590927914
 30
0.0
 10
223.8398788670955
 20
94.73172642375609
 30
0.0
 10
223.7117604718285
 20
94.86338941670613
 30
0.0
 10
223.5288225357634
 20
94.96095073947922
 30
0.0
 10
223.3372733638763
 20
95.00761013095591
 30
0.0
 10
223.2154676921913
 20
95.01176327795724
 30
0.0
 10
223.1723753767471
 20
95.01323257506134
 30
0.0
  0
SPLINE
  5
18A
330
1F
100
AcDbEntity
  8
0
  6
Continuous
 62
     7
370
    25
100
AcDbSpline
210
0.0
220
0.0
230
1.0
 70
     8
 71
     3
 72
    12
 73
     8
 74
     0
 42
0.00000001
 43
0.00000001
 40
0.0
 40
0.0
 40
0.0
 40
0.0
 40
0.2198610998683202
 40
0.4397399767664986
 40
0.6583294271823332
 40
0.8791242261983154
 40
1.0
 40
1.0
 40
1.0
 40
1.0
 10
221.4323272034992
 20
95.01323257506135
 30
0.0
 10
221.35363629378
 20
95.00840878171174
 30
0.0
 10
221.1962481117307
 20
94.99876080498115
 30
0.0
 10
220.9869663632458
 20
94.9215866673194
 30
0.0
 10
220.8283170425814
 20
94.80771915810725
 30
0.0
 10
220.7482169798661
 20
94.68623858860362
 30
0.0
 10
220.7368339425644
 20
94.60795334535915
 30
0.0
 10
220.7328068663351
 20
94.58025769315124
 30
0.0
  0
LINE
  5
18B
330
1F
100
AcDbEntity
  8
0
  6
Continuous
 62
     7
370
    25
100
AcDbLine
 10
223.3084333998
 20
95.5212294559
 30
0.0
 11
223.1809437423
 21
95.5461638342
 31
0.0
  0
ELLIPSE
  5
18C
330
1F
100
AcDbEntity
  8
0
  6
Continuous
 62
     7
370
    25
100
AcDbEllipse
 10
223.9014199978
 20
94.064487698
 30
0.0
 11
-0.02097028290367575
 21
0.7999998117962832
 31
0.0
210
0.0
220
0.0
230
1.0
 40
0.0261679535
 41
6.282499370390492
 42
7.1526485812377
  0
ELLIPSE
  5
18D
330
1F
100
AcDbEntity
  8
0
  6
Continuous
 62
     7
370
    25
100
AcDbEllipse
 10
220.7032825825
 20
94.064487698
 30
0.0
 11
0.02097028290364733
 21
0.7999998117962832
 31
0.0
210
0.0
220
0.0
230
0.9999999999999999
 40
0.0261679535
 41
5.413722033122003
 42
6.283871243969204
  0
SPLINE
  5
18E
330
1F
100
AcDbEntity
  8
0
  6
Continuous
 62
     7
370
    25
100
AcDbSpline
210
0.0
220
0.0
230
1.0
 70
     8
 71
     3
 72
    11
 73
     7
 74
     0
 42
0.00000001
 43
0.00000001
 40
0.0
 40
0.0
 40
0.0
 40
0.0
 40
0.2499999999999963
 40
0.4999999999999995
 40
0.7500000000000014
 40
1.0
 40
1.0
 40
1.0
 40
1.0
 10
220.7242385008097
 20
94.86448769803627
 30
0.0
 10
220.7367590170322
 20
94.95438674516326
 30
0.0
 10
220.7618000494774
 20
95.13418483941729
 30
0.0
 10
220.9244435191
 20
95.35890104865227
 30
0.0
 10
221.1532632551544
 20
95.51566213368174
 30
0.0
 10
221.3335936437007
 20
95.53599660070775
 30
0.0
 10
221.4237588379737
 20
95.54616383422075
 30
0.0
  0
LINE
  5
18F
330
1F
100
AcDbEntity
  8
0
  6
Continuous
 62
     7
370
    25
100
AcDbLine
 10
224.0869374308
 20
86.0853859167
 30
0.0
 11
224.0885919525
 21
86.0854292567
 31
0.0
  0
LINE
  5
190
330
1F
100
AcDbEntity
  8
0
  6
Continuous
 62
     7
370
    25
100
AcDbLine
 10
220.5177651494
 20
86.0853859167
 30
0.0
 11
220.5161106277
 21
86.0854292567
 31
0.0
  0
SPLINE
  5
191
330
1F
100
AcDbEntity
  8
0
  6
Continuous
 62
     7
370
    25
100
AcDbSpline
210
0.0
220
0.0
230
1.0
 70
     8
 71
     3
 72
     9
 73
     5
 74
     0
 42
0.00000001
 43
0.00000001
 40
0.0
 40
0.0
 40
0.0
 40
0.0
 40
0.5600012771711205
 40
0.9999999999999999
 40
0.9999999999999999
 40
0.9999999999999999
 40
0.9999999999999999
 10
219.949773347626
 20
86.08542925668257
 30
0.0
 10
219.9616077599711
 20
87.01447889611073
 30
0.0
 10
219.9827405909618
 20
88.67349232572526
 30
0.0
 10
220.0037013203743
 20
90.33027156089186
 30
0.0
 10
220.0129240145453
 20
91.05925230837458
 30
0.0
  0
SPLINE
  5
192
330
1F
100
AcDbEntity
  8
0
  6
Continuous
 62
     7
370
    25
100
AcDbSpline
210
0.0
220
0.0
230
1.0
 70
     8
 71
     3
 72
     9
 73
     5
 74
     0
 42
0.00000001
 43
0.00000001
 40
0.0
 40
0.0
 40
0.0
 40
0.0
 40
0.5599999095971039
 40
1.0
 40
1.0
 40
1.0
 40
1.0
 10
220.0129240145453
 20
91.05925230837457
 30
0.0
 10
220.0152214244425
 20
91.24105402312338
 30
0.0
 10
220.0193239427784
 20
91.5656999947265
 30
0.0
 10
220.0234203359715
 20
91.89026620028099
 30
0.0
 10
220.0252227493467
 20
92.03307536006669
 30
0.0
  0
LINE
  5
193
330
1F
100
AcDbEntity
  8
0
  6
Continuous
 62
     7
370
    25
100
AcDbLine
 10
220.0252227493
 20
92.0330753601
 30
0.0
 11
219.69689462
 21
92.0330753601
 31
0.0
  0
LINE
  5
194
330
1F
100
AcDbEntity
  8
0
  6
Continuous
 62
     7
370
    25
100
AcDbLine
 10
219.69689462
 20
92.0330753601
 30
0.0
 11
219.8266705332
 21
94.864487698
 31
0.0
  0
LINE
  5
195
330
1F
100
AcDbEntity
  8
0
  6
Continuous
 62
     7
370
    25
100
AcDbLine
 10
219.8266705332
 20
94.864487698
 30
0.0
 11
220.7242385008
 21
94.864487698
 31
0.0
  0
LINE
  5
196
330
1F
100
AcDbEntity
  8
0
  6
Continuous
 62
     7
370
    25
100
AcDbLine
 10
220.7328068663
 20
94.5802576932
 30
0.0
 11
220.5161106277
 21
86.0854292567
 31
0.0
  0
LINE
  5
197
330
1F
100
AcDbEntity
  8
0
  6
Continuous
 62
     7
370
    25
100
AcDbLine
 10
224.9078079602
 20
92.0330753601
 30
0.0
 11
224.5794798309
 21
92.0330753601
 31
0.0
  0
SPLINE
  5
198
330
1F
100
AcDbEntity
  8
0
  6
Continuous
 62
     7
370
    25
100
AcDbSpline
210
0.0
220
0.0
230
1.0
 70
     8
 71
     3
 72
     9
 73
     5
 74
     0
 42
0.00000001
 43
0.00000001
 40
0.0
 40
0.0
 40
0.0
 40
0.0
 40
0.5600000882143319
 40
1.0
 40
1.0
 40
1.0
 40
1.0
 10
224.5794798308995
 20
92.03307536006669
 30
0.0
 10
224.5817739470406
 20
91.85131648923492
 30
0.0
 10
224.5858705823615
 20
91.52674712816327
 30
0.0
 10
224.5899733488207
 20
91.20209792786646
 30
0.0
 10
224.5917785657009
 20
91.05925230837457
 30
0.0
  0
SPLINE
  5
199
330
1F
100
AcDbEntity
  8
0
  6
Continuous
 62
     7
370
    25
100
AcDbSpline
210
0.0
220
0.0
230
1.0
 70
     8
 71
     3
 72
     9
 73
     5
 74
     0
 42
0.00000001
 43
0.00000001
 40
0.0
 40
0.0
 40
0.0
 40
0.0
 40
0.5599987526606142
 40
1.0
 40
1.0
 40
1.0
 40
1.0
 10
224.5917785657009
 20
91.05925230837457
 30
0.0
 10
224.6035201522233
 20
90.13141100852526
 30
0.0
 10
224.6244873177154
 20
88.47454785402527
 30
0.0
 10
224.6456275180875
 20
86.81543915411481
 30
0.0
 10
224.6549292326202
 20
86.08542925668257
 30
0.0
  0
LINE
  5
19A
330
1F
100
AcDbEntity
  8
0
  6
Continuous
 62
     7
370
    25
100
AcDbLine
 10
224.0885919525
 20
86.0854292567
 30
0.0
 11
223.8718957139
 21
94.5802576932
 31
0.0
  0
LINE
  5
19B
330
1F
100
AcDbEntity
  8
0
  6
Continuous
 62
     7
370
    25
100
AcDbLine
 10
223.8804640794
 20
94.864487698
 30
0.0
 11
224.7780320471
 21
94.864487698
 31
0.0
  0
LINE
  5
19C
330
1F
100
AcDbEntity
  8
0
  6
Continuous
 62
     7
370
    25
100
AcDbLine
 10
224.7780320471
 20
94.864487698
 30
0.0
 11
224.9078079602
 21
92.0330753601
 31
0.0
  0
LINE
  5
19D
330
1F
100
AcDbEntity
  8
0
  6
Continuous
 62
     7
370
    25
100
AcDbLine
 10
221.423758838
 20
95.5461638342
 30
0.0
 11
220.5261908704
 21
95.5461638342
 31
0.0
  0
SPLINE
  5
19E
330
1F
100
AcDbEntity
  8
0
  6
Continuous
 62
     7
370
    25
100
AcDbSpline
210
0.0
220
0.0
230
1.0
 70
     8
 71
     3
 72
    11
 73
     7
 74
     0
 42
0.00000001
 43
0.00000001
 40
0.0
 40
0.0
 40
0.0
 40
0.0
 40
0.2499999999999982
 40
0.4999999999999978
 40
0.750000000000001
 40
1.0
 40
1.0
 40
1.0
 40
1.0
 10
219.8266705331905
 20
94.86448769803627
 30
0.0
 10
219.8391910494131
 20
94.95438674516328
 30
0.0
 10
219.8642320818582
 20
95.1341848394173
 30
0.0
 10
220.0268755514808
 20
95.35890104865226
 30
0.0
 10
220.2556952875352
 20
95.51566213368176
 30
0.0
 10
220.4360256760815
 20
95.53599660070776
 30
0.0
 10
220.5261908703546
 20
95.54616383422075
 30
0.0
  0
LINE
  5
19F
330
1F
100
AcDbEntity
  8
0
  6
Continuous
 62
     7
370
    25
100
AcDbLine
 10
224.0785117099
 20
95.5461638342
 30
0.0
 11
223.1809437423
 21
95.5461638342
 31
0.0
  0
SPLINE
  5
1A0
330
1F
100
AcDbEntity
  8
0
  6
Continuous
 62
     7
370
    25
100
AcDbSpline
210
0.0
220
0.0
230
1.0
 70
     8
 71
     3
 72
    11
 73
     7
 74
     0
 42
0.00000001
 43
0.00000001
 40
0.0
 40
0.0
 40
0.0
 40
0.0
 40
0.2499999999999988
 40
0.5000000000000004
 40
0.7499999999999976
 40
1.0
 40
1.0
 40
1.0
 40
1.0
 10
224.0785117098916
 20
95.54616383422076
 30
0.0
 10
224.1686769041648
 20
95.53599660070776
 30
0.0
 10
224.349007292711
 20
95.51566213368176
 30
0.0
 10
224.5778270287655
 20
95.35890104865224
 30
0.0
 10
224.740470498388
 20
95.13418483941732
 30
0.0
 10
224.7655115308332
 20
94.95438674516329
 30
0.0
 10
224.7780320470557
 20
94.86448769803627
 30
0.0
  0
LINE
  5
1A1
330
1F
100
AcDbEntity
  8
0
  6
Continuous
 62
     7
370
    25
100
AcDbLine
 10
219.437402878
 20
91.5461638342
 30
0.0
 11
219.2033077441
 21
91.5461638342
 31
0.0
  0
SPLINE
  5
1A2
330
1F
100
AcDbEntity
  8
0
  6
Continuous
 62
     7
370
    25
100
AcDbSpline
210
0.0
220
0.0
230
1.0
 70
     8
 71
     3
 72
    10
 73
     6
 74
     0
 42
0.00000001
 43
0.00000001
 40
0.0
 40
0.0
 40
0.0
 40
0.0
 40
0.2383396858856107
 40
0.571650633368965
 40
1.0
 40
1.0
 40
1.0
 40
1.0
 10
219.4438288480684
 20
91.54616383422066
 30
0.0
 10
219.5184270504953
 20
91.55512257714031
 30
0.0
 10
219.6973486157691
 20
91.57660985503603
 30
0.0
 10
219.9336927280241
 20
91.75027223798914
 30
0.0
 10
219.9922761042096
 20
91.93127909724372
 30
0.0
 10
220.0252227493467
 20
92.03307536006689
 30
0.0
  0
SPLINE
  5
1A3
330
1F
100
AcDbEntity
  8
0
  6
Continuous
 62
     7
370
    25
100
AcDbSpline
210
0.0
220
0.0
230
1.0
 70
     8
 71
     3
 72
    11
 73
     7
 74
     0
 42
0.00000001
 43
0.00000001
 40
0.0
 40
0.0
 40
0.0
 40
0.0
 40
0.2506671725023492
 40
0.5010414677145718
 40
0.7508849997170933
 40
1.0
 40
1.0
 40
1.0
 40
1.0
 10
219.949773347626
 20
86.08542925668257
 30
0.0
 10
219.9228987809708
 20
86.11493527668175
 30
0.0
 10
219.8691810476647
 20
86.17391284210935
 30
0.0
 10
219.5837155840107
 20
86.26064611092106
 30
0.0
 10
219.1621874373911
 20
86.34496714114758
 30
0.0
 10
218.7458303596941
 20
86.39755013376214
 30
0.0
 10
218.5379557833176
 20
86.42380324173098
 30
0.0
  0
SPLINE
  5
1A4
330
1F
100
AcDbEntity
  8
0
  6
Continuous
 62
     7
370
    25
100
AcDbSpline
210
0.0
220
0.0
230
1.0
 70
     8
 71
     3
 72
     9
 73
     5
 74
     0
 42
0.00000001
 43
0.00000001
 40
0.0
 40
0.0
 40
0.0
 40
0.0
 40
0.501325902198991
 40
1.0
 40
1.0
 40
1.0
 40
1.0
 10
218.5379557299534
 20
86.42380300744375
 30
0.0
 10
218.4129130724833
 20
86.43522485455637
 30
0.0
 10
218.1634891809158
 20
86.45800813198632
 30
0.0
 10
217.8617210724945
 20
86.45507017807883
 30
0.0
 10
217.7112371332825
 20
86.45360509656463
 30
0.0
  0
LINE
  5
1A5
330
1F
100
AcDbEntity
  8
0
  6
Continuous
 62
     7
370
    25
100
AcDbLine
 10
217.596470694
 20
90.0462748401
 30
0.0
 11
217.7112459015
 21
86.4537047535
 31
0.0
  0
SPLINE
  5
1A6
330
1F
100
AcDbEntity
  8
0
  6
Continuous
 62
     7
370
    25
100
AcDbSpline
210
0.0
220
0.0
230
1.0
 70
     8
 71
     3
 72
    14
 73
    10
 74
     0
 42
0.00000001
 43
0.00000001
 40
0.0
 40
0.0
 40
0.0
 40
0.0
 40
0.0829413618596714
 40
0.1664594845668882
 40
0.2437726390188662
 40
0.3161479456895724
 40
0.4353725718192331
 40
0.6486290670514194
 40
1.0
 40
1.0
 40
1.0
 40
1.0
 10
217.5964706987858
 20
90.04627482748145
 30
0.0
 10
217.5982858883682
 20
90.13613873507133
 30
0.0
 10
217.6019288900684
 20
90.31649144936466
 30
0.0
 10
217.683590022556
 20
90.60437616015055
 30
0.0
 10
217.8168735028408
 20
90.8559021875773
 30
0.0
 10
218.0051999590784
 20
91.08985151747834
 30
0.0
 10
218.3034670387408
 20
91.3306624879863
 30
0.0
 10
218.7614941975261
 20
91.52260409122569
 30
0.0
 10
219.0338297262039
 20
91.53711739484856
 30
0.0
 10
219.2033057098537
 20
91.54614910811578
 30
0.0
  0
LINE
  5
1A7
330
1F
100
AcDbEntity
  8
0
  6
Continuous
 62
     7
370
    25
100
AcDbLine
 10
226.8934566788
 20
86.4537047536
 30
0.0
 11
227.0082318863
 21
90.0462748401
 31
0.0
  0
SPLINE
  5
1A8
330
1F
100
AcDbEntity
  8
0
  6
Continuous
 62
     7
370
    25
100
AcDbSpline
210
0.0
220
0.0
230
1.0
 70
     8
 71
     3
 72
     9
 73
     5
 74
     0
 42
0.00000001
 43
0.00000001
 40
0.0
 40
0.0
 40
0.0
 40
0.0
 40
0.4986740982738612
 40
1.0
 40
1.0
 40
1.0
 40
1.0
 10
226.893465628799
 20
86.45360426716144
 30
0.0
 10
226.74298169252
 20
86.45506934641809
 30
0.0
 10
226.4412135902666
 20
86.45800729579568
 30
0.0
 10
226.1917896986444
 20
86.43522401686398
 30
0.0
 10
226.0667470412648
 20
86.42380216900928
 30
0.0
  0
SPLINE
  5
1A9
330
1F
100
AcDbEntity
  8
0
  6
Continuous
 62
     7
370
    25
100
AcDbSpline
210
0.0
220
0.0
230
1.0
 70
     8
 71
     3
 72
    11
 73
     7
 74
     0
 42
0.00000001
 43
0.00000001
 40
0.0
 40
0.0
 40
0.0
 40
0.0
 40
0.2491150002829079
 40
0.4989585322854286
 40
0.7493328274976518
 40
1.0
 40
1.0
 40
1.0
 40
1.0
 10
226.0667467969286
 20
86.42380324173098
 30
0.0
 10
225.8588722205521
 20
86.39755013376215
 30
0.0
 10
225.4425151428551
 20
86.34496714114758
 30
0.0
 10
225.0209869962355
 20
86.26064611092107
 30
0.0
 10
224.7355215325816
 20
86.17391284210935
 30
0.0
 10
224.6818037992754
 20
86.11493527668175
 30
0.0
 10
224.6549292326202
 20
86.08542925668257
 30
0.0
  0
SPLINE
  5
1AA
330
1F
100
AcDbEntity
  8
0
  6
Continuous
 62
     7
370
    25
100
AcDbSpline
210
0.0
220
0.0
230
1.0
 70
     8
 71
     3
 72
    10
 73
     6
 74
     0
 42
0.00000001
 43
0.00000001
 40
0.0
 40
0.0
 40
0.0
 40
0.0
 40
0.428349366631063
 40
0.7616603141144169
 40
1.0
 40
1.0
 40
1.0
 40
1.0
 10
224.5794798308995
 20
92.0330753600669
 30
0.0
 10
224.6124264760366
 20
91.93127909724375
 30
0.0
 10
224.6710098522221
 20
91.75027223798921
 30
0.0
 10
224.907353964477
 20
91.57660985503611
 30
0.0
 10
225.0862755297508
 20
91.55512257714032
 30
0.0
 10
225.1608737321777
 20
91.54616383422066
 30
0.0
  0
LINE
  5
1AB
330
1F
100
AcDbEntity
  8
0
  6
Continuous
 62
     7
370
    25
100
AcDbLine
 10
225.1672997026
 20
91.5461638342
 30
0.0
 11
225.4013948363
 21
91.5461638342
 31
0.0
  0
SPLINE
  5
1AC
330
1F
100
AcDbEntity
  8
0
  6
Continuous
 62
     7
370
    25
100
AcDbSpline
210
0.0
220
0.0
230
1.0
 70
     8
 71
     3
 72
    15
 73
    11
 74
     0
 42
0.00000001
 43
0.00000001
 40
0.0
 40
0.0
 40
0.0
 40
0.0
 40
0.2091652517822448
 40
0.4176299509274911
 40
0.5931463878153098
 40
0.6923603779431111
 40
0.7731125739307029
 40
0.8543366880968446
 40
0.9261517123972134
 40
1.0
 40
1.0
 40
1.0
 40
1.0
 10
225.4013968706239
 20
91.54614910811476
 30
0.0
 10
225.4990945031134
 20
91.54305761761627
 30
0.0
 10
225.6941625515327
 20
91.53688499088133
 30
0.0
 10
226.0434424048852
 20
91.44661153107113
 30
0.0
 10
226.3763325918286
 20
91.27800507896774
 30
0.0
 10
226.6379506778646
 20
91.04855637091477
 30
0.0
 10
226.8185446907784
 20
90.81077732765844
 30
0.0
 10
226.9406388540887
 20
90.54886083081993
 30
0.0
 10
227.0046888434071
 20
90.28331925608194
 30
0.0
 10
227.0070399294451
 20
90.12602152506037
 30
0.0
 10
227.0082318814585
 20
90.04627482750162
 30
0.0
  0
SPLINE
  5
1AD
330
1F
100
AcDbEntity
  8
0
  6
Continuous
 62
     7
370
    25
100
AcDbSpline
210
0.0
220
0.0
230
1.0
 70
     8
 71
     3
 72
    11
 73
     7
 74
     0
 42
0.00000001
 43
0.00000001
 40
0.0
 40
0.0
 40
0.0
 40
0.0
 40
0.279563842830426
 40
0.5590315778757569
 40
0.7794196683313495
 40
1.0
 40
1.0
 40
1.0
 40
1.0
 10
218.5379557833176
 20
86.42380324173098
 30
0.0
 10
218.5142066071907
 20
86.16653763155013
 30
0.0
 10
218.4667164193715
 20
85.65209485334081
 30
0.0
 10
218.8024035007897
 20
85.00958065410167
 30
0.0
 10
219.281118390053
 20
84.61790735290774
 30
0.0
 10
219.6330039607223
 20
84.57008528982976
 30
0.0
 10
219.809023448725
 20
84.54616383422075
 30
0.0
  0
SPLINE
  5
1AE
330
1F
100
AcDbEntity
  8
0
  6
Continuous
 62
     7
370
    25
100
AcDbSpline
210
0.0
220
0.0
230
1.0
 70
    24
 71
     3
 72
    11
 73
     7
 74
     0
 42
0.00000001
 43
0.00000001
 40
0.0
 40
0.0
 40
0.0
 40
0.0
 40
0.2799317596299056
 40
0.5599103390525024
 40
0.7799480709991913
 40
1.0
 40
1.0
 40
1.0
 40
1.0
 10
219.809023448725
 20
84.54616383422075
 30
0.0
 10
220.0765914061645
 20
84.54616383422075
 30
0.0
 10
220.6117720729371
 20
84.54616383422075
 30
0.0
 10
221.0856388665995
 20
84.54616383422075
 30
0.0
 10
221.3708886241483
 20
84.54616383422074
 30
0.0
 10
221.4227926490455
 20
84.54616383422075
 30
0.0
 10
221.4487454986919
 20
84.54616383422075
 30
0.0
  0
SPLINE
  5
1AF
330
1F
100
AcDbEntity
  8
0
  6
Continuous
 62
     7
370
    25
100
AcDbSpline
210
0.0
220
0.0
230
1.0
 70
     8
 71
     3
 72
    11
 73
     7
 74
     0
 42
0.00000001
 43
0.00000001
 40
0.0
 40
0.0
 40
0.0
 40
0.0
 40
0.2795638428677817
 40
0.5590315779132448
 40
0.7794196683689383
 40
0.9999999999999999
 40
0.9999999999999999
 40
0.9999999999999999
 40
0.9999999999999999
 10
224.7956791315212
 20
84.54616383422075
 30
0.0
 10
225.0196595470875
 20
84.58468268616883
 30
0.0
 10
225.4675433787419
 20
84.66170714814167
 30
0.0
 10
225.9274836138474
 20
85.19450504593136
 30
0.0
 10
226.1388580547467
 20
85.82224161279775
 30
0.0
 10
226.0907908678674
 20
86.22322442896639
 30
0.0
 10
226.0667467969286
 20
86.423803241731
 30
0.0
  0
SPLINE
  5
1B0
330
1F
100
AcDbEntity
  8
0
  6
Continuous
 62
     7
370
    25
100
AcDbSpline
210
0.0
220
0.0
230
1.0
 70
    24
 71
     3
 72
    11
 73
     7
 74
     0
 42
0.00000001
 43
0.00000001
 40
0.0
 40
0.0
 40
0.0
 40
0.0
 40
0.2799857774483057
 40
0.5599458358671288
 40
0.779998565900937
 40
0.9999999999999999
 40
0.9999999999999999
 40
0.9999999999999999
 40
0.9999999999999999
 10
223.1559570815543
 20
84.54616383422075
 30
0.0
 10
223.1937108011622
 20
84.54616383422075
 30
0.0
 10
223.2692147723838
 20
84.54616383422075
 30
0.0
 10
223.6507679226926
 20
84.54616383422075
 30
0.0
 10
224.1541986045057
 20
84.54616383422075
 30
0.0
 10
224.5818689066431
 20
84.54616383422075
 30
0.0
 10
224.7956791315212
 20
84.54616383422075
 30
0.0
  0
SPLINE
  5
1B1
330
1F
100
AcDbEntity
  8
0
  6
Continuous
 62
     7
370
    25
100
AcDbSpline
210
0.0
220
0.0
230
1.0
 70
     8
 71
     3
 72
    11
 73
     7
 74
     0
 42
0.00000001
 43
0.00000001
 40
0.0
 40
0.0
 40
0.0
 40
0.0
 40
0.2499999999999989
 40
0.4999999999999996
 40
0.749999999999999
 40
1.0
 40
1.0
 40
1.0
 40
1.0
 10
225.4074653439277
 20
91.54616383422074
 30
0.0
 10
225.3430616337326
 20
91.55342614387288
 30
0.0
 10
225.2142542133424
 20
91.56795076317717
 30
0.0
 10
225.0508115447321
 20
91.67992296676967
 30
0.0
 10
224.9346376378588
 20
91.84043454479463
 30
0.0
 10
224.9167511861123
 20
91.96886175497606
 30
0.0
 10
224.907807960239
 20
92.0330753600668
 30
0.0
  0
SPLINE
  5
1B2
330
1F
100
AcDbEntity
  8
0
  6
Continuous
 62
     7
370
    25
100
AcDbSpline
210
0.0
220
0.0
230
1.0
 70
     8
 71
     3
 72
    11
 73
     7
 74
     0
 42
0.00000001
 43
0.00000001
 40
0.0
 40
0.0
 40
0.0
 40
0.0
 40
0.2500000000000009
 40
0.5000000000000002
 40
0.7500000000000007
 40
0.9999999999999999
 40
0.9999999999999999
 40
0.9999999999999999
 40
0.9999999999999999
 10
219.6968946200072
 20
92.0330753600668
 30
0.0
 10
219.6879513941339
 20
91.96886175497606
 30
0.0
 10
219.6700649423874
 20
91.84043454479462
 30
0.0
 10
219.5538910355141
 20
91.67992296676967
 30
0.0
 10
219.3904483669038
 20
91.56795076317717
 30
0.0
 10
219.2616409465136
 20
91.55342614387288
 30
0.0
 10
219.1972372363186
 20
91.54616383422074
 30
0.0
  0
SPLINE
  5
1B3
330
1F
100
AcDbEntity
  8
0
  6
Continuous
 62
     7
370
    25
100
AcDbSpline
210
0.0
220
0.0
230
1.0
 70
     8
 71
     3
 72
     9
 73
     5
 74
     0
 42
0.00000001
 43
0.00000001
 40
0.0
 40
0.0
 40
0.0
 40
0.0
 40
0.5642319118445199
 40
1.0
 40
1.0
 40
1.0
 40
1.0
 10
217.6006362451237
 20
84.37071087307163
 30
0.0
 10
218.0760678563972
 20
84.42429284179894
 30
0.0
 10
218.9186852293126
 20
84.51925728390601
 30
0.0
 10
219.5387980642177
 20
84.53799746244648
 30
0.0
 10
219.809023448725
 20
84.54616383422075
 30
0.0
  0
SPLINE
  5
1B4
330
1F
100
AcDbEntity
  8
0
  6
Continuous
 62
     7
370
    25
100
AcDbSpline
210
0.0
220
0.0
230
1.0
 70
     8
 71
     3
 72
    13
 73
     9
 74
     0
 42
0.00000001
 43
0.00000001
 40
0.0
 40
0.0
 40
0.0
 40
0.0
 40
0.0926677825201017
 40
0.1856533156297215
 40
0.2733112842947874
 40
0.413548892575832
 40
0.6528449691515644
 40
1.0
 40
1.0
 40
1.0
 40
1.0
 10
217.7112362308815
 20
86.45360434786996
 30
0.0
 10
217.7136708983326
 20
86.35936963075116
 30
0.0
 10
217.7185485815193
 20
86.17057707302769
 30
0.0
 10
217.7184740943733
 20
85.85736666880683
 30
0.0
 10
217.712087037317
 20
85.51563253401376
 30
0.0
 10
217.6941723912201
 20
85.09877837711038
 30
0.0
 10
217.6571106504537
 20
84.6155497314475
 30
0.0
 10
217.6216358648999
 20
84.46175252109425
 30
0.0
 10
217.6006362451237
 20
84.37071087307163
 30
0.0
  0
SPLINE
  5
1B5
330
1F
100
AcDbEntity
  8
0
  6
Continuous
 62
     7
370
    25
100
AcDbSpline
210
0.0
220
0.0
230
1.0
 70
     8
 71
     3
 72
     9
 73
     5
 74
     0
 42
0.00000001
 43
0.00000001
 40
0.0
 40
0.0
 40
0.0
 40
0.0
 40
0.5551829690770672
 40
1.0
 40
1.0
 40
1.0
 40
1.0
 10
224.7956791315212
 20
84.54616383422075
 30
0.0
 10
225.1459335902693
 20
84.53316481372968
 30
0.0
 10
225.7768147200171
 20
84.50975087415466
 30
0.0
 10
226.626231351216
 20
84.41351723480295
 30
0.0
 10
227.0040663351225
 20
84.37071087307163
 30
0.0
  0
SPLINE
  5
1B6
330
1F
100
AcDbEntity
  8
0
  6
Continuous
 62
     7
370
    25
100
AcDbSpline
210
0.0
220
0.0
230
1.0
 70
     8
 71
     3
 72
    13
 73
     9
 74
     0
 42
0.00000001
 43
0.00000001
 40
0.0
 40
0.0
 40
0.0
 40
0.0
 40
0.3327087167328941
 40
0.5628656559531299
 40
0.69871241253847
 40
0.8016200683166478
 40
0.9052998751809794
 40
1.0
 40
1.0
 40
1.0
 40
1.0
 10
227.0040663351225
 20
84.37071087307163
 30
0.0
 10
226.9839335112154
 20
84.45649644798978
 30
0.0
 10
226.9498734623958
 20
84.60162566002778
 30
0.0
 10
226.9137876110256
 20
85.05199235645507
 30
0.0
 10
226.8947488879369
 20
85.45173350506094
 30
0.0
 10
226.8864753539845
 20
85.8076257514725
 30
0.0
 10
226.8857990917941
 20
86.15505959850672
 30
0.0
 10
226.8909889025619
 20
86.35713846968581
 30
0.0
 10
226.8934663493647
 20
86.45360434786996
 30
0.0
  0
SPLINE
  5
1B7
330
1F
100
AcDbEntity
  8
0
  6
Continuous
 62
     7
370
    25
100
AcDbSpline
210
0.0
220
0.0
230
1.0
 70
     8
 71
     3
 72
    13
 73
     9
 74
     0
 42
0.00000001
 43
0.00000001
 40
0.0
 40
0.0
 40
0.0
 40
0.0
 40
0.1400312919410834
 40
0.2800978778503041
 40
0.4240602241121907
 40
0.5680316995452359
 40
0.7822812815056388
 40
0.9999999999999999
 40
0.9999999999999999
 40
0.9999999999999999
 40
0.9999999999999999
 10
220.0281287586183
 20
79.9340470331493
 30
0.0
 10
219.939283138309
 20
80.25217265328992
 30
0.0
 10
219.7615695047349
 20
80.88850407504592
 30
0.0
 10
219.4073534857365
 20
81.72161216646937
 30
0.0
 10
219.0161775599234
 20
82.46390894117222
 30
0.0
 10
218.5414047966558
 20
83.2023673129684
 30
0.0
 10
218.0010546131347
 20
83.88552193765065
 30
0.0
 10
217.7225939937111
 20
84.17608709399025
 30
0.0
 10
217.5822455256679
 20
84.32253643624702
 30
0.0
  0
ELLIPSE
  5
1B8
330
1F
100
AcDbEntity
  8
0
  6
Continuous
 62
     7
370
    25
100
AcDbEllipse
 10
217.7440303694
 20
65.473156587
 30
0.0
 11
0.0
 21
19.07300724724768
 31
0.0
210
0.0
220
0.0
230
1.0
 40
0.0555555556
 41
0.1357435643135845
 42
0.1532827087060912
  0
ELLIPSE
  5
1B9
330
1F
100
AcDbEntity
  8
0
  6
Continuous
 62
     7
370
    25
100
AcDbEllipse
 10
226.8606722109
 20
65.473156587
 30
0.0
 11
0.0
 21
19.07300724724768
 31
0.0
210
0.0
220
0.0
230
1.0
 40
0.0555555556
 41
6.129902598473738
 42
6.147441742866246
  0
SPLINE
  5
1BA
330
1F
100
AcDbEntity
  8
0
  6
Continuous
 62
     7
370
    25
100
AcDbSpline
210
0.0
220
0.0
230
1.0
 70
     8
 71
     3
 72
    13
 73
     9
 74
     0
 42
0.00000001
 43
0.00000001
 40
0.0
 40
0.0
 40
0.0
 40
0.0
 40
0.1374692963454099
 40
0.2749820892813126
 40
0.4163021045260215
 40
0.5576318202769774
 40
0.777008491451321
 40
1.0
 40
1.0
 40
1.0
 40
1.0
 10
227.0224570545783
 20
84.32253643624702
 30
0.0
 10
226.9391785749624
 20
84.23629602681811
 30
0.0
 10
226.772595265629
 20
84.06378792067599
 30
0.0
 10
226.4268950924003
 20
83.66480584735301
 30
0.0
 10
226.0433307777089
 20
83.16449643588072
 30
0.0
 10
225.5680730621104
 20
82.435675964278
 30
0.0
 10
225.0219702941916
 20
81.41945701407634
 30
0.0
 10
224.7258459123988
 20
80.4318737277728
 30
0.0
 10
224.5765738226762
 20
79.93404703741689
 30
0.0
  0
LINE
  5
1BB
330
1F
100
AcDbEntity
  8
0
  6
Continuous
 62
     7
370
    25
100
AcDbLine
 10
220.0281287586
 20
79.9340470331
 30
0.0
 11
224.5765738227
 21
79.9340470374
 31
0.0
  0
LINE
  5
1BC
330
1F
100
AcDbEntity
  8
0
  6
Continuous
 62
     7
370
    25
100
AcDbLine
 10
217.0779223361
 20
90.0461638342
 30
0.0
 11
217.5964600034
 21
90.0461638342
 31
0.0
  0
ARC
  5
1BD
330
1F
100
AcDbEntity
  8
0
  6
Continuous
 62
     7
370
    25
100
AcDbCircle
 10
210.8023512901
 20
77.6679865525
 30
0.0
 40
9.500000000000004
100
AcDbArc
 50
44.4654416734
 51
48.6553876907
  0
LINE
  5
1BE
330
1F
100
AcDbEntity
  8
0
  6
Continuous
 62
     7
370
    25
100
AcDbLine
 10
217.0779223361
 20
84.8001116248
 30
0.0
 11
217.0779223361
 21
90.0461638342
 31
0.0
  0
LINE
  5
1BF
330
1F
100
AcDbEntity
  8
0
  6
Continuous
 62
     7
370
    25
100
AcDbLine
 10
227.5267802442
 20
90.0461638342
 30
0.0
 11
227.5267802442
 21
84.8001116248
 31
0.0
  0
ARC
  5
1C0
330
1F
100
AcDbEntity
  8
0
  6
Continuous
 62
     7
370
    25
100
AcDbCircle
 10
233.8023512901
 20
77.6679865525
 30
0.0
 40
9.500000000000021
100
AcDbArc
 50
131.3446123093
 51
135.5345583266
  0
LINE
  5
1C1
330
1F
100
AcDbEntity
  8
0
  6
Continuous
 62
     7
370
    25
100
AcDbLine
 10
227.0082425769
 20
90.0461638342
 30
0.0
 11
227.5267802442
 21
90.0461638342
 31
0.0
  0
ARC
  5
1C2
330
1F
100
AcDbEntity
  8
0
  6
Continuous
 62
     7
370
    25
100
AcDbCircle
 10
226.0279340889
 20
90.0473176804
 30
0.0
 40
1.498846599345437
100
AcDbArc
 50
359.9558924033
 51
89.9558243884
  0
LINE
  5
1C3
330
1F
100
AcDbEntity
  8
0
  6
Continuous
 62
     7
370
    25
100
AcDbLine
 10
226.0290897143
 20
91.5461638342
 30
0.0
 11
225.3948825319
 21
91.5461638342
 31
0.0
  0
ARC
  5
1C4
330
1F
100
AcDbEntity
  8
0
  6
Continuous
 62
     7
370
    25
100
AcDbCircle
 10
218.5767684913
 20
90.0473176804
 30
0.0
 40
1.49884659934548
100
AcDbArc
 50
90.0441756116
 51
180.0441075967
  0
LINE
  5
1C5
330
1F
100
AcDbEntity
  8
0
  6
Continuous
 62
     7
370
    25
100
AcDbLine
 10
219.2098200483
 20
91.5461638342
 30
0.0
 11
218.5756128659
 21
91.5461638342
 31
0.0
  0
LINE
  5
1C6
330
1F
100
AcDbEntity
  8
0
  6
Continuous
 62
     7
370
    25
100
AcDbLine
 10
219.7421503636
 20
91.9762290206
 30
0.0
 11
219.7043654054
 21
92.0236912075
 31
0.0
  0
LINE
  5
1C7
330
1F
100
AcDbEntity
  8
0
  6
Continuous
 62
     7
370
    25
100
AcDbLine
 10
224.9003371749
 20
92.0236912075
 30
0.0
 11
224.8625522166
 21
91.9762290206
 31
0.0
  0
ELLIPSE
  5
1C8
330
1F
100
AcDbEntity
  8
0
  6
Continuous
 62
     7
370
    25
100
AcDbEllipse
 10
223.2781000535
 20
94.8461638342
 30
0.0
 11
1.500207016110437
 21
0.02894030982645291
 31
0.0
210
0.0
220
0.0
230
1.0
 40
0.2796306798
 41
6.257897524076055
 42
6.352579567720649
  0
LINE
  5
1C9
330
1F
100
AcDbEntity
  8
0
  6
Continuous
 62
     7
370
    25
100
AcDbLine
 10
217.0857199776
 20
84.793209202
 30
0.0
 11
217.0779223361
 21
84.8001116248
 31
0.0
  0
LINE
  5
1CA
330
1F
100
AcDbEntity
  8
0
  6
Continuous
 62
     7
370
    25
100
AcDbLine
 10
227.5267802442
 20
84.8001116248
 30
0.0
 11
227.5189826027
 21
84.793209202
 31
0.0
  0
SPLINE
  5
1CB
330
1F
100
AcDbEntity
  8
0
  6
Continuous
 62
     7
370
    25
100
AcDbSpline
210
0.0
220
0.0
230
1.0
 70
     8
 71
     3
 72
     9
 73
     5
 74
     0
 42
0.00000001
 43
0.00000001
 40
0.0
 40
0.0
 40
0.0
 40
0.0
 40
0.0576289627817999
 40
1.0
 40
1.0
 40
1.0
 40
1.0
 10
224.064864840651
 20
79.93404703693676
 30
0.0
 10
224.0600087685552
 20
79.91654376391841
 30
0.0
 10
223.9757443316931
 20
79.61282021635708
 30
0.0
 10
223.9287862085218
 20
79.27024002191996
 30
0.0
 10
223.8845342332831
 20
78.94740236875784
 30
0.0
  0
SPLINE
  5
1CC
330
1F
100
AcDbEntity
  8
0
  6
Continuous
 62
     7
370
    25
100
AcDbSpline
210
0.0
220
0.0
230
1.0
 70
     8
 71
     3
 72
    10
 73
     6
 74
     0
 42
0.00000001
 43
0.00000001
 40
0.0
 40
0.0
 40
0.0
 40
0.0
 40
0.2746918501531821
 40
0.5573359346812419
 40
1.0
 40
1.0
 40
1.0
 40
1.0
 10
223.8845342332831
 20
78.94740236875784
 30
0.0
 10
223.5999134749288
 20
79.00062641192095
 30
0.0
 10
223.0224322853753
 20
79.10861531595026
 30
0.0
 10
221.9434143422086
 20
79.1504013891888
 30
0.0
 10
221.1837812977759
 20
79.02433944865828
 30
0.0
 10
220.7201683469631
 20
78.94740236875784
 30
0.0
  0
LINE
  5
1CD
330
1F
100
AcDbEntity
  8
0
  6
Continuous
 62
     7
370
    25
100
AcDbLine
 10
220.720168347
 20
78.9474023688
 30
0.0
 11
220.5049335612
 21
79.9340470336
 31
0.0
  0
LINE
  5
1CE
330
1F
100
AcDbEntity
  8
0
  6
Continuous
 62
     7
370
    25
100
AcDbLine
 10
214.1223512901
 20
76.8461638342
 30
0.0
 11
223.3023512901
 21
76.8461638342
 31
0.0
  0
LWPOLYLINE
  5
1CF
330
1F
100
AcDbEntity
  8
0
  6
Continuous
 62
     7
370
    25
100
AcDbPolyline
 90
        3
 70
   128
 43
0.0
 10
214.1837060829
 20
76.8461638342
 10
214.2771897591
 20
75.9184196448
 10
214.3197186255
 20
75.4964119747
  0
LINE
  5
1D0
330
1F
100
AcDbEntity
  8
0
  6
Continuous
 62
     7
370
    25
100
AcDbLine
 10
223.3023512901
 20
75.4964119747
 30
0.0
 11
223.3023512901
 21
76.8461638342
 31
0.0
  0
LINE
  5
1D1
330
1F
100
AcDbEntity
  8
0
  6
Continuous
 62
     7
370
    25
100
AcDbLine
 10
214.7437423994
 20
93.0461638342
 30
0.0
 11
219.7425259531
 21
93.0461638342
 31
0.0
  0
LINE
  5
1D2
330
1F
100
AcDbEntity
  8
0
  6
Continuous
 62
     7
370
    25
100
AcDbLine
 10
224.8621766272
 20
93.0461638342
 30
0.0
 11
229.8609601804
 21
93.0461638342
 31
0.0
  0
SPLINE
  5
1D3
330
1F
100
AcDbEntity
  8
0
  6
Continuous
 62
     7
370
    25
100
AcDbSpline
210
0.0
220
0.0
230
1.0
 70
     8
 71
     3
 72
    12
 73
     8
 74
     0
 42
0.00000001
 43
0.00000001
 40
0.0
 40
0.0
 40
0.0
 40
0.0
 40
0.2271543139929597
 40
0.4542742953683958
 40
0.6823371405829708
 40
0.9121899191033218
 40
1.0
 40
1.0
 40
1.0
 40
1.0
 10
214.3197186254777
 20
75.49641197471026
 30
0.0
 10
214.3308225706761
 20
75.44129216781589
 30
0.0
 10
214.3530287827974
 20
75.33106088495961
 30
0.0
 10
214.4535249943359
 20
75.1912068253712
 30
0.0
 10
214.5909872691663
 20
75.09095843628563
 30
0.0
 10
214.7219608525225
 20
75.0500297457109
 30
0.0
 10
214.7998538363373
 20
75.04700104422157
 30
0.0
 10
214.8213854350348
 20
75.04616383422075
 30
0.0
  0
LINE
  5
1D4
330
1F
100
AcDbEntity
  8
0
  6
Continuous
 62
     7
370
    25
100
AcDbLine
 10
229.8498575091
 20
75.0461638342
 30
0.0
 11
223.3023512901
 21
75.0461638342
 31
0.0
  0
SPLINE
  5
1D5
330
1F
100
AcDbEntity
  8
0
  6
Continuous
 62
     7
370
    25
100
AcDbSpline
210
0.0
220
0.0
230
1.0
 70
    24
 71
     3
 72
    12
 73
     8
 74
     0
 42
0.00000001
 43
0.00000001
 40
0.0
 40
0.0
 40
0.0
 40
0.0
 40
0.2316347876629375
 40
0.46330664808196
 40
0.6939442291381526
 40
0.9227406525226395
 40
1.0
 40
1.0
 40
1.0
 40
1.0
 10
223.3023512901231
 20
75.04616383422075
 30
0.0
 10
223.3023512901231
 20
75.05175329925103
 30
0.0
 10
223.3023512901231
 20
75.062933123896
 30
0.0
 10
223.3023512901231
 20
75.15025618985166
 30
0.0
 10
223.3023512901231
 20
75.27856636363371
 30
0.0
 10
223.3023512901231
 20
75.40324579033152
 30
0.0
 10
223.3023512901231
 20
75.47763379908483
 30
0.0
 10
223.3023512901231
 20
75.49641197471026
 30
0.0
  0
SPLINE
  5
1D6
330
1F
100
AcDbEntity
  8
0
  6
Continuous
 62
     7
370
    25
100
AcDbSpline
210
0.0
220
0.0
230
1.0
 70
     8
 71
     3
 72
    11
 73
     7
 74
     0
 42
0.00000001
 43
0.00000001
 40
0.0
 40
0.0
 40
0.0
 40
0.0
 40
0.2981995125517625
 40
0.5964325929955623
 40
0.8933636912282922
 40
1.0
 40
1.0
 40
1.0
 40
1.0
 10
216.3862715070235
 20
75.04616383422075
 30
0.0
 10
216.5022939986318
 20
75.05736059982637
 30
0.0
 10
216.7343520423343
 20
75.0797553914415
 30
0.0
 10
217.0362558925026
 20
75.25910431758561
 30
0.0
 10
217.2362030209224
 20
75.4572510111549
 30
0.0
 10
217.2885258179811
 20
75.60486743300642
 30
0.0
 10
217.3023512901231
 20
75.64387273934959
 30
0.0
  0
LINE
  5
1D7
330
1F
100
AcDbEntity
  8
0
  6
Continuous
 62
     7
370
    25
100
AcDbLine
 10
217.3023512901
 20
75.0461638342
 30
0.0
 11
216.386271507
 21
75.0461638342
 31
0.0
  0
LINE
  5
1D8
330
1F
100
AcDbEntity
  8
0
  6
Continuous
 62
     7
370
    25
100
AcDbLine
 10
214.821385435
 20
75.0461638342
 30
0.0
 11
216.386271507
 21
75.0461638342
 31
0.0
  0
LINE
  5
1D9
330
1F
100
AcDbEntity
  8
0
  6
Continuous
 62
     7
370
    25
100
AcDbLine
 10
221.5023512901
 20
76.5461638342
 30
0.0
 11
223.1023512901
 21
76.5461638342
 31
0.0
  0
ARC
  5
1DA
330
1F
100
AcDbEntity
  8
0
  6
Continuous
 62
     7
370
    25
100
AcDbCircle
 10
222.3023512901
 20
55.8461638342
 30
0.0
 40
15.25
100
AcDbArc
 50
124.9480137199
 51
145.0519862801
  0
SPLINE
  5
1DB
330
1F
100
AcDbEntity
  8
0
  6
Continuous
 62
     7
370
    25
100
AcDbSpline
210
0.0
220
0.0
230
1.0
 70
    24
 71
     3
 72
    10
 73
     6
 74
     0
 42
0.00000001
 43
0.00000001
 40
0.0
 40
0.0
 40
0.0
 40
0.0
 40
0.5
 40
0.5
 40
1.0
 40
1.0
 40
1.0
 40
1.0
 10
213.566648685295
 20
68.34616383422075
 30
0.0
 10
214.9787056162068
 20
68.34616383422075
 30
0.0
 10
216.4254885400847
 20
68.34616383422075
 30
0.0
 10
219.3388181865599
 20
68.34616383422075
 30
0.0
 10
220.8107766424158
 20
68.34616383422075
 30
0.0
 10
222.3023512901231
 20
68.34616383422075
 30
0.0
  0
ARC
  5
1DC
330
1F
100
AcDbEntity
  8
0
  6
Continuous
 62
     7
370
    25
100
AcDbCircle
 10
222.3023512901
 20
55.8461638342
 30
0.0
 40
12.5
100
AcDbArc
 50
90.0
 51
180.0
  0
SPLINE
  5
1DD
330
1F
100
AcDbEntity
  8
0
  6
Continuous
 62
     7
370
    25
100
AcDbSpline
210
0.0
220
0.0
230
1.0
 70
    24
 71
     3
 72
    12
 73
     8
 74
     0
 42
0.00000001
 43
0.00000001
 40
0.0
 40
0.0
 40
0.0
 40
0.0
 40
0.25
 40
0.25
 40
0.5
 40
0.5
 40
1.0
 40
1.0
 40
1.0
 40
1.0
 10
209.8023512901231
 20
55.84616383422075
 30
0.0
 10
209.8023512901231
 20
56.59151004649507
 30
0.0
 10
209.8023512901231
 20
57.3433368963641
 30
0.0
 10
209.8023512901231
 20
58.82403735753937
 30
0.0
 10
209.8023512901231
 20
59.5570089621414
 30
0.0
 10
209.8023512901231
 20
61.73755308309739
 30
0.0
 10
209.8023512901231
 20
63.16699668210661
 30
0.0
 10
209.8023512901231
 20
64.58186643904882
 30
0.0
  0
ARC
  5
1DE
330
1F
100
AcDbEntity
  8
0
  6
Continuous
 62
     7
370
    25
100
AcDbCircle
 10
222.3023512901
 20
55.8461638342
 30
0.0
 40
15.25
100
AcDbArc
 50
214.9480137199
 51
235.0519862801
  0
SPLINE
  5
1DF
330
1F
100
AcDbEntity
  8
0
  6
Continuous
 62
     7
370
    25
100
AcDbSpline
210
0.0
220
0.0
230
1.0
 70
    24
 71
     3
 72
    10
 73
     6
 74
     0
 42
0.00000001
 43
0.00000001
 40
0.0
 40
0.0
 40
0.0
 40
0.0
 40
0.4999999999999999
 40
0.4999999999999999
 40
1.0
 40
1.0
 40
1.0
 40
1.0
 10
209.8023512901231
 20
47.11046122939269
 30
0.0
 10
209.8023512901231
 20
48.52251816030446
 30
0.0
 10
209.8023512901231
 20
49.96930108418232
 30
0.0
 10
209.8023512901231
 20
52.8826307306575
 30
0.0
 10
209.8023512901231
 20
54.35458918651349
 30
0.0
 10
209.8023512901231
 20
55.84616383422075
 30
0.0
  0
ARC
  5
1E0
330
1F
100
AcDbEntity
  8
0
  6
Continuous
 62
     7
370
    25
100
AcDbCircle
 10
222.3023512901
 20
55.8461638342
 30
0.0
 40
12.50000000000001
100
AcDbArc
 50
180.0
 51
270.0
  0
SPLINE
  5
1E1
330
1F
100
AcDbEntity
  8
0
  6
Continuous
 62
     7
370
    25
100
AcDbSpline
210
0.0
220
0.0
230
1.0
 70
    24
 71
     3
 72
    10
 73
     6
 74
     0
 42
0.00000001
 43
0.00000001
 40
0.0
 40
0.0
 40
0.0
 40
0.0
 40
0.5
 40
0.5
 40
1.0
 40
1.0
 40
1.0
 40
1.0
 10
213.566648685295
 20
43.34616383422075
 30
0.0
 10
214.9787056162065
 20
43.34616383422075
 30
0.0
 10
216.4254885400839
 20
43.34616383422075
 30
0.0
 10
219.3388181865591
 20
43.34616383422075
 30
0.0
 10
220.8107766424153
 20
43.34616383422075
 30
0.0
 10
222.3023512901231
 20
43.34616383422075
 30
0.0
  0
ARC
  5
1E2
330
1F
100
AcDbEntity
  8
0
  6
Continuous
 62
     7
370
    25
100
AcDbCircle
 10
222.3023512901
 20
55.8461638342
 30
0.0
 40
12.5
100
AcDbArc
 50
0.0
 51
90.0
  0
ARC
  5
1E3
330
1F
100
AcDbEntity
  8
0
  6
Continuous
 62
     7
370
    25
100
AcDbCircle
 10
222.3023512901
 20
55.8461638342
 30
0.0
 40
12.50000000000001
100
AcDbArc
 50
270.0
 51
0.0
  0
ARC
  5
1E4
330
1F
100
AcDbEntity
  8
0
  6
Continuous
 62
     7
370
    25
100
AcDbCircle
 10
222.3023512901
 20
55.8461638342
 30
0.0
 40
15.25
100
AcDbArc
 50
34.9480137199
 51
55.0519862801
  0
SPLINE
  5
1E5
330
1F
100
AcDbEntity
  8
0
  6
Continuous
 62
     7
370
    25
100
AcDbSpline
210
0.0
220
0.0
230
1.0
 70
    24
 71
     3
 72
    12
 73
     8
 74
     0
 42
0.00000001
 43
0.00000001
 40
0.0
 40
0.0
 40
0.0
 40
0.0
 40
0.2500000000000001
 40
0.2500000000000001
 40
0.5000000000000001
 40
0.5000000000000001
 40
1.0
 40
1.0
 40
1.0
 40
1.0
 10
234.8023512901231
 20
55.84616383422075
 30
0.0
 10
234.8023512901231
 20
56.59151004649507
 30
0.0
 10
234.8023512901231
 20
57.3433368963641
 30
0.0
 10
234.8023512901231
 20
58.82403735753937
 30
0.0
 10
234.8023512901231
 20
59.5570089621414
 30
0.0
 10
234.8023512901231
 20
61.73755308309739
 30
0.0
 10
234.8023512901231
 20
63.16699668210661
 30
0.0
 10
234.8023512901231
 20
64.58186643904882
 30
0.0
  0
SPLINE
  5
1E6
330
1F
100
AcDbEntity
  8
0
  6
Continuous
 62
     7
370
    25
100
AcDbSpline
210
0.0
220
0.0
230
1.0
 70
    24
 71
     3
 72
    12
 73
     8
 74
     0
 42
0.00000001
 43
0.00000001
 40
0.0
 40
0.0
 40
0.0
 40
0.0
 40
0.2500000000000001
 40
0.2500000000000001
 40
0.5000000000000001
 40
0.5000000000000001
 40
1.0
 40
1.0
 40
1.0
 40
1.0
 10
222.3023512901231
 20
68.34616383422075
 30
0.0
 10
223.0476975023974
 20
68.34616383422075
 30
0.0
 10
223.7995243522665
 20
68.34616383422075
 30
0.0
 10
225.2802248134417
 20
68.34616383422075
 30
0.0
 10
226.0131964180438
 20
68.34616383422075
 30
0.0
 10
228.1937405389998
 20
68.34616383422075
 30
0.0
 10
229.623184138009
 20
68.34616383422075
 30
0.0
 10
231.0380538949512
 20
68.34616383422075
 30
0.0
  0
SPLINE
  5
1E7
330
1F
100
AcDbEntity
  8
0
  6
Continuous
 62
     7
370
    25
100
AcDbSpline
210
0.0
220
0.0
230
1.0
 70
    24
 71
     3
 72
    10
 73
     6
 74
     0
 42
0.00000001
 43
0.00000001
 40
0.0
 40
0.0
 40
0.0
 40
0.0
 40
0.5
 40
0.5
 40
1.0
 40
1.0
 40
1.0
 40
1.0
 10
234.8023512901231
 20
47.11046122939269
 30
0.0
 10
234.8023512901231
 20
48.52251816030446
 30
0.0
 10
234.8023512901231
 20
49.96930108418232
 30
0.0
 10
234.8023512901231
 20
52.8826307306575
 30
0.0
 10
234.8023512901231
 20
54.35458918651348
 30
0.0
 10
234.8023512901231
 20
55.84616383422075
 30
0.0
  0
ARC
  5
1E8
330
1F
100
AcDbEntity
  8
0
  6
Continuous
 62
     7
370
    25
100
AcDbCircle
 10
222.3023512901
 20
55.8461638342
 30
0.0
 40
15.25000000000001
100
AcDbArc
 50
304.9480137199
 51
325.0519862801
  0
SPLINE
  5
1E9
330
1F
100
AcDbEntity
  8
0
  6
Continuous
 62
     7
370
    25
100
AcDbSpline
210
0.0
220
0.0
230
1.0
 70
    24
 71
     3
 72
    12
 73
     8
 74
     0
 42
0.00000001
 43
0.00000001
 40
0.0
 40
0.0
 40
0.0
 40
0.0
 40
0.2500000000000001
 40
0.2500000000000001
 40
0.5000000000000001
 40
0.5000000000000001
 40
1.0
 40
1.0
 40
1.0
 40
1.0
 10
222.3023512901231
 20
43.34616383422075
 30
0.0
 10
223.0476975023982
 20
43.34616383422075
 30
0.0
 10
223.7995243522671
 20
43.34616383422075
 30
0.0
 10
225.2802248134418
 20
43.34616383422075
 30
0.0
 10
226.0131964180437
 20
43.34616383422074
 30
0.0
 10
228.1937405389994
 20
43.34616383422074
 30
0.0
 10
229.6231841380087
 20
43.34616383422074
 30
0.0
 10
231.0380538949512
 20
43.34616383422074
 30
0.0
  0
LINE
  5
1EA
330
1F
100
AcDbEntity
  8
0
  6
Continuous
 62
     7
370
    25
100
AcDbLine
 10
230.5523512901
 20
74.0461638342
 30
0.0
 11
214.0523512901
 21
74.0461638342
 31
0.0
  0
LINE
  5
1EB
330
1F
100
AcDbEntity
  8
0
  6
Continuous
 62
     7
370
    25
100
AcDbLine
 10
214.5523512901
 20
74.5461638342
 30
0.0
 11
230.0523512901
 21
74.5461638342
 31
0.0
  0
SPLINE
  5
1EC
330
1F
100
AcDbEntity
  8
0
  6
Continuous
 62
     7
370
    25
100
AcDbSpline
210
0.0
220
0.0
230
1.0
 70
     8
 71
     3
 72
    11
 73
     7
 74
     0
 42
0.00000001
 43
0.00000001
 40
0.0
 40
0.0
 40
0.0
 40
0.0
 40
0.2843931288920266
 40
0.5687862577840547
 40
0.8531793866760868
 40
0.9999999999999999
 40
0.9999999999999999
 40
0.9999999999999999
 40
0.9999999999999999
 10
223.8804640794366
 20
94.86448769803627
 30
0.0
 10
223.8679975558212
 20
94.9545503188847
 30
0.0
 10
223.8430645085904
 20
95.13467556058156
 30
0.0
 10
223.6796111498602
 20
95.35693816399524
 30
0.0
 10
223.490269211354
 20
95.49624229713233
 30
0.0
 10
223.3546196603752
 20
95.51488272247177
 30
0.0
 10
223.3084333997763
 20
95.52122945591977
 30
0.0
  0
LINE
  5
1ED
330
1F
100
AcDbEntity
  8
0
  6
Continuous
 62
     7
370
    25
100
AcDbLine
 10
219.7043654054
 20
92.0236912075
 30
0.0
 11
219.69689462
 21
92.0330753601
 31
0.0
  0
ELLIPSE
  5
1EE
330
1F
100
AcDbEntity
  8
0
  6
Continuous
 62
     7
370
    25
100
AcDbEllipse
 10
221.3266025268
 20
94.8461638342
 30
0.0
 11
1.500207016110408
 21
-0.02894030982646712
 31
0.0
210
0.0
220
0.0
230
1.0
 40
0.2796306798
 41
3.072239971613928
 42
3.166880436693457
  0
LINE
  5
1EF
330
1F
100
AcDbEntity
  8
0
  6
Continuous
 62
     7
370
    25
100
AcDbLine
 10
217.0779223361
 20
90.0461638342
 30
0.0
 11
217.0756128659
 21
90.0461638342
 31
0.0
  0
LINE
  5
1F0
330
1F
100
AcDbEntity
  8
0
  6
Continuous
 62
     7
370
    25
100
AcDbLine
 10
227.5290897143
 20
90.0461638342
 30
0.0
 11
227.5267802442
 21
90.0461638342
 31
0.0
  0
LINE
  5
1F1
330
1F
100
AcDbEntity
  8
0
  6
Continuous
 62
     7
370
    25
100
AcDbLine
 10
217.0756128659
 20
84.93423942
 30
0.0
 11
213.3135437315
 21
84.93423942
 31
0.0
  0
LINE
  5
1F2
330
1F
100
AcDbEntity
  8
0
  6
Continuous
 62
     7
370
    25
100
AcDbLine
 10
231.2911588487
 20
84.93423942
 30
0.0
 11
227.5290897143
 21
84.93423942
 31
0.0
  0
LINE
  5
1F3
330
1F
100
AcDbEntity
  8
0
  6
Continuous
 62
     7
370
    25
100
AcDbLine
 10
223.3023512901
 20
75.4964119747
 30
0.0
 11
230.3473761042
 21
75.4964119747
 31
0.0
  0
LINE
  5
1F4
330
1F
100
AcDbEntity
  8
0
  6
Continuous
 62
     7
370
    25
100
AcDbLine
 10
227.5290897143
 20
85.1577778736
 30
0.0
 11
231.2883995352
 21
85.1577778736
 31
0.0
  0
LINE
  5
1F5
330
1F
100
AcDbEntity
  8
0
  6
Continuous
 62
     7
370
    25
100
AcDbLine
 10
213.316303045
 20
85.1577778736
 30
0.0
 11
217.0756128659
 21
85.1577778736
 31
0.0
  0
LINE
  5
1F6
330
1F
100
AcDbEntity
  8
0
  6
Continuous
 62
     7
370
    25
100
AcDbLine
 10
230.3570991192
 20
92.6081812015
 30
0.0
 11
224.8822512717
 21
92.6081812015
 31
0.0
  0
LINE
  5
1F7
330
1F
100
AcDbEntity
  8
0
  6
Continuous
 62
     7
370
    25
100
AcDbLine
 10
219.7224513086
 20
92.6081812015
 30
0.0
 11
214.247603461
 21
92.6081812015
 31
0.0
  0
LINE
  5
1F8
330
1F
100
AcDbEntity
  8
0
  6
Continuous
 62
     7
370
    25
100
AcDbLine
 10
223.3023512901
 20
76.3461638342
 30
0.0
 11
221.3023512901
 21
76.3461638342
 31
0.0
  0
LINE
  5
1F9
330
1F
100
AcDbEntity
  8
0
  6
Continuous
 62
     7
370
    25
100
AcDbLine
 10
214.0523512901
 20
68.5961638342
 30
0.0
 11
230.5523512901
 21
68.5961638342
 31
0.0
  0
INSERT
  5
205
330
1F
100
AcDbEntity
  8
0
  6
Continuous
 62
     7
370
    18
100
AcDbBlockReference
  2
SW_CENTERMARKSYMBOL_0
 10
222.3023512901
 20
55.8461638342
 30
0.0
  0
LINE
  5
206
330
1F
100
AcDbEntity
  8
0
  6
Continuous
 62
     7
370
    25
100
AcDbLine
 10
139.2430270543
 20
144.2163790503
 30
0.0
 11
136.4930270543
 21
144.2163790503
 31
0.0
  0
LINE
  5
207
330
1F
100
AcDbEntity
  8
0
  6
Continuous
 62
     7
370
    25
100
AcDbLine
 10
136.4930270543
 20
120.2163790503
 30
0.0
 11
139.2430270543
 21
120.2163790503
 31
0.0
  0
LINE
  5
208
330
1F
100
AcDbEntity
  8
0
  6
Continuous
 62
     7
370
    25
100
AcDbLine
 10
136.4930270543
 20
144.2163790503
 30
0.0
 11
136.2430270543
 21
143.9663790503
 31
0.0
  0
LINE
  5
209
330
1F
100
AcDbEntity
  8
0
  6
Continuous
 62
     7
370
    25
100
AcDbLine
 10
136.2430270543
 20
120.4663790503
 30
0.0
 11
136.4930270543
 21
120.2163790503
 31
0.0
  0
LINE
  5
20A
330
1F
100
AcDbEntity
  8
0
  6
Continuous
 62
     7
370
    25
100
AcDbLine
 10
125.2430270543
 20
138.5663790503
 30
0.0
 11
120.7430270543
 21
137.8163790503
 31
0.0
  0
LINE
  5
20B
330
1F
100
AcDbEntity
  8
0
  6
Continuous
 62
     7
370
    25
100
AcDbLine
 10
120.7430270543
 20
126.6163790503
 30
0.0
 11
125.2430270543
 21
125.8663790503
 31
0.0
  0
LINE
  5
20C
330
1F
100
AcDbEntity
  8
0
  6
Continuous
 62
     7
370
    25
100
AcDbLine
 10
129.7430270543
 20
138.5663790503
 30
0.0
 11
125.2430270543
 21
137.8163790503
 31
0.0
  0
LINE
  5
20D
330
1F
100
AcDbEntity
  8
0
  6
Continuous
 62
     7
370
    25
100
AcDbLine
 10
125.2430270543
 20
126.6163790503
 30
0.0
 11
129.7430270543
 21
125.8663790503
 31
0.0
  0
LINE
  5
20E
330
1F
100
AcDbEntity
  8
0
  6
Continuous
 62
     7
370
    25
100
AcDbLine
 10
111.7430270543
 20
138.5663790503
 30
0.0
 11
107.6608275606
 21
137.886012468
 31
0.0
  0
LINE
  5
20F
330
1F
100
AcDbEntity
  8
0
  6
Continuous
 62
     7
370
    25
100
AcDbLine
 10
107.6608275606
 20
126.5467456326
 30
0.0
 11
111.7430270543
 21
125.8663790503
 31
0.0
  0
LINE
  5
210
330
1F
100
AcDbEntity
  8
0
  6
Continuous
 62
     7
370
    25
100
AcDbLine
 10
120.7430270543
 20
138.5663790503
 30
0.0
 11
116.2430270543
 21
137.8163790503
 31
0.0
  0
LINE
  5
211
330
1F
100
AcDbEntity
  8
0
  6
Continuous
 62
     7
370
    25
100
AcDbLine
 10
116.2430270543
 20
126.6163790503
 30
0.0
 11
120.7430270543
 21
125.8663790503
 31
0.0
  0
LINE
  5
212
330
1F
100
AcDbEntity
  8
0
  6
Continuous
 62
     7
370
    25
100
AcDbLine
 10
116.2430270543
 20
138.5663790503
 30
0.0
 11
111.7430270543
 21
137.8163790503
 31
0.0
  0
LINE
  5
213
330
1F
100
AcDbEntity
  8
0
  6
Continuous
 62
     7
370
    25
100
AcDbLine
 10
111.7430270543
 20
126.6163790503
 30
0.0
 11
116.2430270543
 21
125.8663790503
 31
0.0
  0
LINE
  5
214
330
1F
100
AcDbEntity
  8
0
  6
Continuous
 62
     7
370
    25
100
AcDbLine
 10
129.7430270543
 20
125.8663790503
 30
0.0
 11
136.2430270543
 21
125.8663790503
 31
0.0
  0
LINE
  5
215
330
1F
100
AcDbEntity
  8
0
  6
Continuous
 62
     7
370
    25
100
AcDbLine
 10
136.2430270543
 20
138.5663790503
 30
0.0
 11
129.7430270543
 21
138.5663790503
 31
0.0
  0
ARC
  5
216
330
1F
100
AcDbEntity
  8
0
  6
Continuous
 62
     7
370
    25
100
AcDbCircle
 10
107.7430270543
 20
127.0399425945
 30
0.0
 40
0.5
100
AcDbArc
 50
180.0
 51
260.537677792
  0
ARC
  5
217
330
1F
100
AcDbEntity
  8
0
  6
Continuous
 62
     7
370
    25
100
AcDbCircle
 10
107.7430270543
 20
137.3928155061
 30
0.0
 40
0.5000000000000121
100
AcDbArc
 50
99.462322208
 51
180.0
  0
LINE
  5
218
330
1F
100
AcDbEntity
  8
0
  6
Continuous
 62
     7
370
    25
100
AcDbLine
 10
101.6992016622
 20
131.3463499679
 30
0.0
 11
101.7166206525
 21
131.3463499679
 31
0.0
  0
LINE
  5
219
330
1F
100
AcDbEntity
  8
0
  6
Continuous
 62
     7
370
    25
100
AcDbLine
 10
130.2773747317
 20
136.8115374097
 30
0.0
 11
129.0851346749
 21
136.0175641714
 31
0.0
  0
LINE
  5
21A
330
1F
100
AcDbEntity
  8
0
  6
Continuous
 62
     7
370
    25
100
AcDbLine
 10
129.0851346156
 20
128.4151938217
 30
0.0
 11
130.2817538876
 21
127.6183042992
 31
0.0
  0
SPLINE
  5
21B
330
1F
100
AcDbEntity
  8
0
  6
Continuous
 62
     7
370
    25
100
AcDbSpline
210
0.0
220
0.0
230
1.0
 70
     8
 71
     3
 72
    11
 73
     7
 74
     0
 42
0.00000001
 43
0.00000001
 40
0.0
 40
0.0
 40
0.0
 40
0.0
 40
0.2485427336868735
 40
0.4982459407376401
 40
0.7488347621401439
 40
1.0
 40
1.0
 40
1.0
 40
1.0
 10
129.0850548328346
 20
136.017708887441
 30
0.0
 10
128.6637746897785
 20
135.8039436539859
 30
0.0
 10
127.8192474003366
 20
135.3754150936858
 30
0.0
 10
126.4626418331025
 20
134.9367211320725
 30
0.0
 10
125.0645447269761
 20
134.6357921875784
 30
0.0
 10
124.1131888279953
 20
134.5745115034657
 30
0.0
 10
123.6369644183549
 20
134.5438359616993
 30
0.0
  0
SPLINE
  5
21C
330
1F
100
AcDbEntity
  8
0
  6
Continuous
 62
     7
370
    25
100
AcDbSpline
210
0.0
220
0.0
230
1.0
 70
     8
 71
     3
 72
    10
 73
     6
 74
     0
 42
0.00000001
 43
0.00000001
 40
0.0
 40
0.0
 40
0.0
 40
0.0
 40
0.0711023749285984
 40
0.5366329433438182
 40
0.9999999999999999
 40
0.9999999999999999
 40
0.9999999999999999
 40
0.9999999999999999
 10
126.2455397454913
 20
129.5164730930897
 30
0.0
 10
126.3165141378447
 20
129.5022467394871
 30
0.0
 10
126.8521811547184
 20
129.3948757829683
 30
0.0
 10
127.8174563700022
 20
129.0483860832875
 30
0.0
 10
128.6631786073918
 20
128.6258334449289
 30
0.0
 10
129.0850548328346
 20
128.4150492131322
 30
0.0
  0
LINE
  5
21D
330
1F
100
AcDbEntity
  8
0
  6
Continuous
 62
     7
370
    25
100
AcDbLine
 10
123.6362931457
 20
134.5694708292
 30
0.0
 11
101.981902116
 21
134.002430644
 31
0.0
  0
LINE
  5
21E
330
1F
100
AcDbEntity
  8
0
  6
Continuous
 62
     7
370
    25
100
AcDbLine
 10
101.9819056345
 20
130.4303273644
 30
0.0
 11
123.6362931457
 21
129.8632872714
 31
0.0
  0
SPLINE
  5
21F
330
1F
100
AcDbEntity
  8
0
  6
Continuous
 62
     7
370
    25
100
AcDbSpline
210
0.0
220
0.0
230
1.0
 70
     8
 71
     3
 72
    12
 73
     8
 74
     0
 42
0.00000001
 43
0.00000001
 40
0.0
 40
0.0
 40
0.0
 40
0.0
 40
0.1115175185779697
 40
0.3312203393689364
 40
0.5916395942255163
 40
0.8470127657334918
 40
1.0
 40
1.0
 40
1.0
 40
1.0
 10
96.94353383929737
 20
131.1314841805284
 30
0.0
 10
96.9583884053192
 20
131.0992257417185
 30
0.0
 10
97.00250823924003
 20
131.0034143285309
 30
0.0
 10
97.13371014686861
 20
130.8692155685621
 30
0.0
 10
97.32180468679618
 20
130.7457949440028
 30
0.0
 10
97.51961379604668
 20
130.6668505546228
 30
0.0
 10
97.6534785740924
 20
130.6567390742757
 30
0.0
 10
97.70362937683753
 20
130.6529509317654
 30
0.0
  0
SPLINE
  5
220
330
1F
100
AcDbEntity
  8
0
  6
Continuous
 62
     7
370
    25
100
AcDbSpline
210
0.0
220
0.0
230
1.0
 70
     8
 71
     3
 72
    12
 73
     8
 74
     0
 42
0.00000001
 43
0.00000001
 40
0.0
 40
0.0
 40
0.0
 40
0.0
 40
0.0693246302889103
 40
0.2377839243533935
 40
0.4636705649123663
 40
0.7622877024941263
 40
1.0
 40
1.0
 40
1.0
 40
1.0
 10
97.70349639825855
 20
133.7799292542778
 30
0.0
 10
97.68081239166887
 20
133.7798334883972
 30
0.0
 10
97.60300610428621
 20
133.7795050108154
 30
0.0
 10
97.45714154242816
 20
133.7393601426014
 30
0.0
 10
97.26089978510285
 20
133.6553994820304
 30
0.0
 10
97.0672985682675
 20
133.5150720283393
 30
0.0
 10
96.97947677872601
 20
133.3695098791596
 30
0.0
 10
96.94055234535126
 20
133.3049937242599
 30
0.0
  0
SPLINE
  5
221
330
1F
100
AcDbEntity
  8
0
  6
Continuous
 62
     7
370
    25
100
AcDbSpline
210
0.0
220
0.0
230
1.0
 70
     8
 71
     3
 72
    10
 73
     6
 74
     0
 42
0.00000001
 43
0.00000001
 40
0.0
 40
0.0
 40
0.0
 40
0.0
 40
0.2238733786547596
 40
0.6229857440124018
 40
1.0
 40
1.0
 40
1.0
 40
1.0
 10
96.93841407333355
 20
133.3048089890868
 30
0.0
 10
96.91192628674762
 20
133.2447740417652
 30
0.0
 10
96.83821715021412
 20
133.0777112290777
 30
0.0
 10
96.76074082767862
 20
132.7659419749322
 30
0.0
 10
96.7488184933269
 20
132.5047178711109
 30
0.0
 10
96.74302705428636
 20
132.3778246446197
 30
0.0
  0
SPLINE
  5
222
330
1F
100
AcDbEntity
  8
0
  6
Continuous
 62
     7
370
    25
100
AcDbSpline
210
0.0
220
0.0
230
1.0
 70
     8
 71
     3
 72
    10
 73
     6
 74
     0
 42
0.00000001
 43
0.00000001
 40
0.0
 40
0.0
 40
0.0
 40
0.0
 40
0.1995680694100071
 40
0.5810376071747122
 40
1.0
 40
1.0
 40
1.0
 40
1.0
 10
96.74302705428637
 20
132.0549334559535
 30
0.0
 10
96.74473160887794
 20
131.9879184761627
 30
0.0
 10
96.74969437834349
 20
131.7928059833795
 30
0.0
 10
96.80139664819346
 20
131.4639049111076
 30
0.0
 10
96.89133730153534
 20
131.2433776016721
 30
0.0
 10
96.93841407333355
 20
131.1279491114864
 30
0.0
  0
LINE
  5
223
330
1F
100
AcDbEntity
  8
0
  6
Continuous
 62
     7
370
    25
100
AcDbLine
 10
96.7430270543
 20
132.3778246446
 30
0.0
 11
96.7430270543
 21
132.054933456
 31
0.0
  0
ARC
  5
224
330
1F
100
AcDbEntity
  8
0
  6
Continuous
 62
     7
370
    25
100
AcDbCircle
 10
152.2430270543
 20
132.2163790503
 30
0.0
 40
8.993770368365603
100
AcDbArc
 50
200.7386089898
 51
90.0
  0
ARC
  5
225
330
1F
100
AcDbEntity
  8
0
  6
Continuous
 62
     7
370
    25
100
AcDbCircle
 10
152.2430270543
 20
132.2163790503
 30
0.0
 40
8.993770368365613
100
AcDbArc
 50
90.0
 51
159.2559342007
  0
LINE
  5
226
330
1F
100
AcDbEntity
  8
0
  6
Continuous
 62
     7
370
    25
100
AcDbLine
 10
164.7430270543
 20
121.5251290503
 30
0.0
 11
177.0466357813
 21
121.909616823
 31
0.0
  0
LINE
  5
227
330
1F
100
AcDbEntity
  8
0
  6
Continuous
 62
     7
370
    25
100
AcDbLine
 10
177.0466357813
 20
142.5231412776
 30
0.0
 11
164.7430270543
 21
142.9076290503
 31
0.0
  0
LINE
  5
228
330
1F
100
AcDbEntity
  8
0
  6
Continuous
 62
     7
370
    25
100
AcDbLine
 10
177.0466357813
 20
121.909616823
 30
0.0
 11
179.7430270543
 21
123.4663790503
 31
0.0
  0
LINE
  5
229
330
1F
100
AcDbEntity
  8
0
  6
Continuous
 62
     7
370
    25
100
AcDbLine
 10
179.7430270543
 20
140.9663790503
 30
0.0
 11
177.0466357813
 21
142.5231412776
 31
0.0
  0
LINE
  5
22A
330
1F
100
AcDbEntity
  8
0
  6
Continuous
 62
     7
370
    25
100
AcDbLine
 10
136.4930270543
 20
144.2163790503
 30
0.0
 11
136.4930270543
 21
137.1461626352
 31
0.0
  0
LINE
  5
22B
330
1F
100
AcDbEntity
  8
0
  6
Continuous
 62
     7
370
    25
100
AcDbLine
 10
136.4930270543
 20
127.2865954654
 30
0.0
 11
136.4930270543
 21
120.2163790503
 31
0.0
  0
LINE
  5
22C
330
1F
100
AcDbEntity
  8
0
  6
Continuous
 62
     7
370
    25
100
AcDbLine
 10
136.2430270543
 20
120.4663790503
 30
0.0
 11
136.2430270543
 21
127.3004843543
 31
0.0
  0
LINE
  5
22D
330
1F
100
AcDbEntity
  8
0
  6
Continuous
 62
     7
370
    25
100
AcDbLine
 10
136.2430270543
 20
137.1322737463
 30
0.0
 11
136.2430270543
 21
143.9663790503
 31
0.0
  0
LINE
  5
22E
330
1F
100
AcDbEntity
  8
0
  6
Continuous
 62
     7
370
    25
100
AcDbLine
 10
125.2430270543
 20
127.5568246842
 30
0.0
 11
125.2430270543
 21
129.7003957552
 31
0.0
  0
LINE
  5
22F
330
1F
100
AcDbEntity
  8
0
  6
Continuous
 62
     7
370
    25
100
AcDbLine
 10
125.2430270543
 20
134.7323612327
 30
0.0
 11
125.2430270543
 21
138.5663790503
 31
0.0
  0
LINE
  5
230
330
1F
100
AcDbEntity
  8
0
  6
Continuous
 62
     7
370
    25
100
AcDbLine
 10
125.2430270543
 20
125.8663790503
 30
0.0
 11
125.2430270543
 21
127.5568246842
 31
0.0
  0
LINE
  5
231
330
1F
100
AcDbEntity
  8
0
  6
Continuous
 62
     7
370
    25
100
AcDbLine
 10
129.7430270543
 20
127.5568246842
 30
0.0
 11
129.7430270543
 21
127.9438329378
 31
0.0
  0
LINE
  5
232
330
1F
100
AcDbEntity
  8
0
  6
Continuous
 62
     7
370
    25
100
AcDbLine
 10
129.7430270543
 20
136.4889149673
 30
0.0
 11
129.7430270543
 21
138.5663790503
 31
0.0
  0
LINE
  5
233
330
1F
100
AcDbEntity
  8
0
  6
Continuous
 62
     7
370
    25
100
AcDbLine
 10
129.7430270543
 20
125.8663790503
 30
0.0
 11
129.7430270543
 21
127.5568246842
 31
0.0
  0
LINE
  5
234
330
1F
100
AcDbEntity
  8
0
  6
Continuous
 62
     7
370
    25
100
AcDbLine
 10
111.7430270543
 20
127.5568246842
 30
0.0
 11
111.7430270543
 21
130.1747234045
 31
0.0
  0
LINE
  5
235
330
1F
100
AcDbEntity
  8
0
  6
Continuous
 62
     7
370
    25
100
AcDbLine
 10
111.7430270543
 20
134.2580346961
 30
0.0
 11
111.7430270543
 21
138.5663790503
 31
0.0
  0
LINE
  5
236
330
1F
100
AcDbEntity
  8
0
  6
Continuous
 62
     7
370
    25
100
AcDbLine
 10
111.7430270543
 20
125.8663790503
 30
0.0
 11
111.7430270543
 21
127.5568246842
 31
0.0
  0
LINE
  5
237
330
1F
100
AcDbEntity
  8
0
  6
Continuous
 62
     7
370
    25
100
AcDbLine
 10
120.7430270543
 20
127.5568246842
 30
0.0
 11
120.7430270543
 21
129.9390501103
 31
0.0
  0
LINE
  5
238
330
1F
100
AcDbEntity
  8
0
  6
Continuous
 62
     7
370
    25
100
AcDbLine
 10
120.7430270543
 20
134.4937079902
 30
0.0
 11
120.7430270543
 21
138.5663790503
 31
0.0
  0
LINE
  5
239
330
1F
100
AcDbEntity
  8
0
  6
Continuous
 62
     7
370
    25
100
AcDbLine
 10
120.7430270543
 20
125.8663790503
 30
0.0
 11
120.7430270543
 21
127.5568246842
 31
0.0
  0
LINE
  5
23A
330
1F
100
AcDbEntity
  8
0
  6
Continuous
 62
     7
370
    25
100
AcDbLine
 10
116.2430270543
 20
127.5568246842
 30
0.0
 11
116.2430270543
 21
130.0568867574
 31
0.0
  0
LINE
  5
23B
330
1F
100
AcDbEntity
  8
0
  6
Continuous
 62
     7
370
    25
100
AcDbLine
 10
116.2430270543
 20
134.3758713432
 30
0.0
 11
116.2430270543
 21
138.5663790503
 31
0.0
  0
LINE
  5
23C
330
1F
100
AcDbEntity
  8
0
  6
Continuous
 62
     7
370
    25
100
AcDbLine
 10
116.2430270543
 20
125.8663790503
 30
0.0
 11
116.2430270543
 21
127.5568246842
 31
0.0
  0
LINE
  5
23D
330
1F
100
AcDbEntity
  8
0
  6
Continuous
 62
     7
370
    25
100
AcDbLine
 10
107.2430270543
 20
128.4179716348
 30
0.0
 11
107.2430270543
 21
130.2925600515
 31
0.0
  0
LINE
  5
23E
330
1F
100
AcDbEntity
  8
0
  6
Continuous
 62
     7
370
    25
100
AcDbLine
 10
107.2430270543
 20
134.140198049
 30
0.0
 11
107.2430270543
 21
137.3928155061
 31
0.0
  0
LINE
  5
23F
330
1F
100
AcDbEntity
  8
0
  6
Continuous
 62
     7
370
    25
100
AcDbLine
 10
107.2430270543
 20
127.0399425945
 30
0.0
 11
107.2430270543
 21
128.4179716348
 31
0.0
  0
LINE
  5
240
330
1F
100
AcDbEntity
  8
0
  6
Continuous
 62
     7
370
    25
100
AcDbLine
 10
150.0055430327
 20
131.2411065053
 30
0.0
 11
149.9727475057
 21
131.2598505445
 31
0.0
  0
SPLINE
  5
241
330
1F
100
AcDbEntity
  8
0
  6
Continuous
 62
     7
370
    25
100
AcDbSpline
210
0.0
220
0.0
230
1.0
 70
     8
 71
     3
 72
    15
 73
    11
 74
     0
 42
0.00000001
 43
0.00000001
 40
0.0
 40
0.0
 40
0.0
 40
0.0
 40
0.1241930067305288
 40
0.2496556654892296
 40
0.3743703853151211
 40
0.4998404796364202
 40
0.6240146704162363
 40
0.7475381382242062
 40
0.8745858500551816
 40
1.0
 40
1.0
 40
1.0
 40
1.0
 10
150.7858327544169
 20
131.5135461558724
 30
0.0
 10
150.7702723593072
 20
131.4776989531285
 30
0.0
 10
150.7389924917957
 20
131.4056380739167
 30
0.0
 10
150.6615561323073
 20
131.3157625605738
 30
0.0
 10
150.5682021285684
 20
131.2434387827794
 30
0.0
 10
150.4609765225474
 20
131.1945113642749
 30
0.0
 10
150.3465906118265
 20
131.1681833108201
 30
0.0
 10
150.2289198489412
 20
131.1673242168175
 30
0.0
 10
150.112036123716
 20
131.1887069774471
 30
0.0
 10
150.0408872728212
 20
131.2237155039078
 30
0.0
 10
150.0055430327378
 20
131.2411065052893
 30
0.0
  0
LINE
  5
242
330
1F
100
AcDbEntity
  8
0
  6
Continuous
 62
     7
370
    25
100
AcDbLine
 10
151.7776867991
 20
134.2871253718
 30
0.0
 11
150.7858327544
 21
131.5135461559
 31
0.0
  0
SPLINE
  5
243
330
1F
100
AcDbEntity
  8
0
  6
Continuous
 62
     7
370
    25
100
AcDbSpline
210
0.0
220
0.0
230
1.0
 70
     8
 71
     3
 72
    15
 73
    11
 74
     0
 42
0.00000001
 43
0.00000001
 40
0.0
 40
0.0
 40
0.0
 40
0.0
 40
0.1233025178081761
 40
0.2485158700387114
 40
0.3756924668130948
 40
0.4999990880429331
 40
0.6243057092728396
 40
0.7514823060473044
 40
0.8766757256079959
 40
1.0
 40
1.0
 40
1.0
 40
1.0
 10
152.708367312638
 20
134.2871253717857
 30
0.0
 10
152.6842163406757
 20
134.3277705077215
 30
0.0
 10
152.6355401261409
 20
134.4096906623094
 30
0.0
 10
152.5201894679358
 20
134.4995096181219
 30
0.0
 10
152.387029845674
 20
134.557083766283
 30
0.0
 10
152.2430272023052
 20
134.5762424619531
 30
0.0
 10
152.0990236736067
 20
134.557084359068
 30
0.0
 10
151.9658738006412
 20
134.4995102453295
 30
0.0
 10
151.8505114431067
 20
134.4097046831828
 30
0.0
 10
151.8018396574356
 20
134.327779751658
 30
0.0
 10
151.7776867991187
 20
134.2871253717859
 30
0.0
  0
LINE
  5
244
330
1F
100
AcDbEntity
  8
0
  6
Continuous
 62
     7
370
    25
100
AcDbLine
 10
153.699990219
 20
131.5141925014
 30
0.0
 11
152.7083673126
 21
134.2871253718
 31
0.0
  0
SPLINE
  5
245
330
1F
100
AcDbEntity
  8
0
  6
Continuous
 62
     7
370
    25
100
AcDbSpline
210
0.0
220
0.0
230
1.0
 70
     8
 71
     3
 72
    15
 73
    11
 74
     0
 42
0.00000001
 43
0.00000001
 40
0.0
 40
0.0
 40
0.0
 40
0.0
 40
0.1253320172137755
 40
0.2522975129251765
 40
0.3758847553984062
 40
0.5001929511416483
 40
0.6255758307380151
 40
0.7502289462456482
 40
0.8757444935777828
 40
1.0
 40
1.0
 40
1.0
 40
1.0
 10
154.4726919835519
 20
131.2374966508314
 30
0.0
 10
154.4374410669239
 20
131.2208223423487
 30
0.0
 10
154.3664798010695
 20
131.1872564056194
 30
0.0
 10
154.2504929102811
 20
131.1674747893653
 30
0.0
 10
154.1338965440407
 20
131.1695475697119
 30
0.0
 10
154.0207759374592
 20
131.1966255960624
 30
0.0
 10
153.9149002231198
 20
131.2458384117696
 30
0.0
 10
153.8227911385006
 20
131.3179241756435
 30
0.0
 10
153.7463594746322
 20
131.4072116971429
 30
0.0
 10
153.715394567133
 20
131.47865236758
 30
0.0
 10
153.6999902190117
 20
131.514192501438
 30
0.0
  0
LINE
  5
246
330
1F
100
AcDbEntity
  8
0
  6
Continuous
 62
     7
370
    25
100
AcDbLine
 10
154.513306606
 20
131.2598505445
 30
0.0
 11
154.4726919836
 21
131.2374966508
 31
0.0
  0
LINE
  5
247
330
1F
100
AcDbEntity
  8
0
  6
Continuous
 62
     7
370
    25
100
AcDbLine
 10
153.8863234095
 20
130.0644394411
 30
0.0
 11
154.513306606
 21
131.2598505445
 31
0.0
  0
SPLINE
  5
248
330
1F
100
AcDbEntity
  8
0
  6
Continuous
 62
     7
370
    25
100
AcDbSpline
210
0.0
220
0.0
230
1.0
 70
     8
 71
     3
 72
    15
 73
    11
 74
     0
 42
0.00000001
 43
0.00000001
 40
0.0
 40
0.0
 40
0.0
 40
0.0
 40
0.1246332186438571
 40
0.2519059530189798
 40
0.3765391000744966
 40
0.4994035903146521
 40
0.6264494152300174
 40
0.7526064410610431
 40
0.8746804377363274
 40
1.0
 40
1.0
 40
1.0
 40
1.0
 10
153.7810949207428
 20
130.046322274334
 30
0.0
 10
153.785109396411
 20
130.0432170394813
 30
0.0
 10
153.7932233673897
 20
130.0369408062795
 30
0.0
 10
153.8076619592262
 20
130.0313277927996
 30
0.0
 10
153.8227954091593
 20
130.0287914401729
 30
0.0
 10
153.8381579514411
 20
130.0296768437407
 30
0.0
 10
153.8530885302777
 20
130.0338079142563
 30
0.0
 10
153.866590430307
 20
130.0412986142022
 30
0.0
 10
153.8782760851934
 20
130.0514371961165
 30
0.0
 10
153.8836176095342
 20
130.0600676184593
 30
0.0
 10
153.886323409536
 20
130.0644394410516
 30
0.0
  0
SPLINE
  5
249
330
1F
100
AcDbEntity
  8
0
  6
Continuous
 62
     7
370
    25
100
AcDbSpline
210
0.0
220
0.0
230
1.0
 70
     8
 71
     3
 72
    11
 73
     7
 74
     0
 42
0.00000001
 43
0.00000001
 40
0.0
 40
0.0
 40
0.0
 40
0.0
 40
0.2506252605986011
 40
0.4999999999996215
 40
0.7493747394010042
 40
1.0
 40
1.0
 40
1.0
 40
1.0
 10
150.704959191014
 20
130.0463222743339
 30
0.0
 10
150.9346868851873
 20
130.2091765662949
 30
0.0
 10
151.3929960229503
 20
130.5340725715337
 30
0.0
 10
152.2430270558864
 20
130.6678045184709
 30
0.0
 10
153.0930580888166
 20
130.5340725715286
 30
0.0
 10
153.5513672265729
 20
130.2091765662932
 30
0.0
 10
153.7810949207428
 20
130.046322274334
 30
0.0
  0
SPLINE
  5
24A
330
1F
100
AcDbEntity
  8
0
  6
Continuous
 62
     7
370
    25
100
AcDbSpline
210
0.0
220
0.0
230
1.0
 70
     8
 71
     3
 72
    15
 73
    11
 74
     0
 42
0.00000001
 43
0.00000001
 40
0.0
 40
0.0
 40
0.0
 40
0.0
 40
0.125319195797913
 40
0.2473928354984057
 40
0.3734492416489697
 40
0.5005950046079961
 40
0.6235484391777629
 40
0.7480947836179478
 40
0.875367145815393
 40
1.0
 40
1.0
 40
1.0
 40
1.0
 10
150.5997307022207
 20
130.0644394410516
 30
0.0
 10
150.6024364985532
 20
130.0600676127677
 30
0.0
 10
150.6077780156504
 20
130.0514371791889
 30
0.0
 10
150.6194605882394
 20
130.0413014016891
 30
0.0
 10
150.6329615682267
 20
130.0338092858155
 30
0.0
 10
150.6478955970767
 20
130.0296768405233
 30
0.0
 10
150.6632626082658
 20
130.0287888987498
 30
0.0
 10
150.678395344704
 20
130.0313298410073
 30
0.0
 10
150.6928307744857
 20
130.0369406192745
 30
0.0
 10
150.7009447253149
 20
130.0432169775833
 30
0.0
 10
150.7049591910139
 20
130.0463222743339
 30
0.0
  0
LINE
  5
24B
330
1F
100
AcDbEntity
  8
0
  6
Continuous
 62
     7
370
    25
100
AcDbLine
 10
149.9727475057
 20
131.2598505445
 30
0.0
 11
150.5997307022
 21
130.0644394411
 31
0.0
  0
SPLINE
  5
24C
330
1F
100
AcDbEntity
  8
0
  6
Continuous
 62
     7
370
    25
100
AcDbSpline
210
0.0
220
0.0
230
1.0
 70
     8
 71
     3
 72
    15
 73
    11
 74
     0
 42
0.00000001
 43
0.00000001
 40
0.0
 40
0.0
 40
0.0
 40
0.0
 40
0.1233867499278388
 40
0.2487396502211602
 40
0.3739317114754985
 40
0.4999973617625659
 40
0.6259591330513601
 40
0.7512551380600303
 40
0.8765613478174267
 40
1.0
 40
1.0
 40
1.0
 40
1.0
 10
152.1801441894803
 20
132.2377885084294
 30
0.0
 10
152.1830223906722
 20
132.2438033045124
 30
0.0
 10
152.1888246567838
 20
132.2559287416011
 30
0.0
 10
152.2043540615045
 20
132.2693200019511
 30
0.0
 10
152.222708643378
 20
132.2781977135311
 30
0.0
 10
152.2430214598609
 20
132.2809543768275
 30
0.0
 10
152.263339877576
 20
132.2781996956269
 30
0.0
 10
152.2816927467401
 20
132.2693239973375
 30
0.0
 10
152.2972308511356
 20
132.2559336300837
 30
0.0
 10
152.3030314131669
 20
132.2438065325377
 30
0.0
 10
152.3059099190925
 20
132.2377885084294
 30
0.0
  0
LINE
  5
24D
330
1F
100
AcDbEntity
  8
0
  6
Continuous
 62
     7
370
    25
100
AcDbLine
 10
151.9410306638
 20
131.5995344792
 30
0.0
 11
152.1801441895
 21
132.2377885084
 31
0.0
  0
SPLINE
  5
24E
330
1F
100
AcDbEntity
  8
0
  6
Continuous
 62
     7
370
    25
100
AcDbSpline
210
0.0
220
0.0
230
1.0
 70
     8
 71
     3
 72
    15
 73
    11
 74
     0
 42
0.00000001
 43
0.00000001
 40
0.0
 40
0.0
 40
0.0
 40
0.0
 40
0.1261585224210644
 40
0.2513121451548802
 40
0.3762846848783791
 40
0.4993062783340883
 40
0.6261594278645745
 40
0.7521171342021309
 40
0.8758196922692798
 40
1.0
 40
1.0
 40
1.0
 40
1.0
 10
152.0039135286086
 20
131.5144701258069
 30
0.0
 10
151.9986824321199
 20
131.5147924323992
 30
0.0
 10
151.9882619067773
 20
131.5154344782917
 30
0.0
 10
151.9734753562629
 20
131.5208827186669
 30
0.0
 10
151.9602850036374
 20
131.5291053212525
 30
0.0
 10
151.9494144287961
 20
131.5403619275651
 30
0.0
 10
151.9414068414676
 20
131.5538826729062
 30
0.0
 10
151.9372402144349
 20
131.569019560483
 30
0.0
 10
151.9366191629233
 20
131.5847086920541
 30
0.0
 10
151.939558275278
 20
131.5945862044128
 30
0.0
 10
151.9410306637608
 20
131.5995344791568
 30
0.0
  0
LINE
  5
24F
330
1F
100
AcDbEntity
  8
0
  6
Continuous
 62
     7
370
    25
100
AcDbLine
 10
152.4821405828
 20
131.5144701258
 30
0.0
 11
152.0039135286
 21
131.5144701258
 31
0.0
  0
SPLINE
  5
250
330
1F
100
AcDbEntity
  8
0
  6
Continuous
 62
     7
370
    25
100
AcDbSpline
210
0.0
220
0.0
230
1.0
 70
     8
 71
     3
 72
    15
 73
    11
 74
     0
 42
0.00000001
 43
0.00000001
 40
0.0
 40
0.0
 40
0.0
 40
0.0
 40
0.1241186784437694
 40
0.2478474916628981
 40
0.373657414947894
 40
0.5005082335853294
 40
0.6234527658309922
 40
0.7484986612277523
 40
0.8736976492452768
 40
1.0
 40
1.0
 40
1.0
 40
1.0
 10
152.5450234475379
 20
131.5995344793799
 30
0.0
 10
152.5464945201468
 20
131.5945886337218
 30
0.0
 10
152.5494320446251
 20
131.5847124776436
 30
0.0
 10
152.5488153101251
 20
131.5690310820179
 30
0.0
 10
152.5446533485305
 20
131.5538985499376
 30
0.0
 10
152.5366546007321
 20
131.5403836423232
 30
0.0
 10
152.5257885091952
 20
131.5291235811272
 30
0.0
 10
152.5126007913706
 20
131.5208938686937
 30
0.0
 10
152.4978063447954
 20
131.5154342983087
 30
0.0
 10
152.4873777538881
 20
131.5147924552518
 30
0.0
 10
152.4821405827736
 20
131.5144701258069
 30
0.0
  0
LINE
  5
251
330
1F
100
AcDbEntity
  8
0
  6
Continuous
 62
     7
370
    25
100
AcDbLine
 10
152.3059099191
 20
132.2377885084
 30
0.0
 11
152.5450234475
 21
131.5995344794
 31
0.0
  0
CIRCLE
  5
252
330
1F
100
AcDbEntity
  8
0
  6
Continuous
 62
     7
370
    25
100
AcDbCircle
 10
152.2430270543
 20
132.2163790503
 30
0.0
 40
4.499999999999972
  0
LINE
  5
253
330
1F
100
AcDbEntity
  8
0
  6
Continuous
 62
     7
370
    25
100
AcDbLine
 10
102.861061043
 20
133.0949715024
 30
0.0
 11
137.1377988408
 21
133.9925394701
 31
0.0
  0
SPLINE
  5
254
330
1F
100
AcDbEntity
  8
0
  6
Continuous
 62
     7
370
    25
100
AcDbSpline
210
0.0
220
0.0
230
1.0
 70
    24
 71
     3
 72
    11
 73
     7
 74
     0
 42
0.00000001
 43
0.00000001
 40
0.0
 40
0.0
 40
0.0
 40
0.0
 40
0.2499999999999963
 40
0.4999999999999995
 40
0.7500000000000014
 40
1.0
 40
1.0
 40
1.0
 40
1.0
 10
102.8427434583512
 20
133.7944918396001
 30
0.0
 10
102.843071319607
 20
133.7819713233775
 30
0.0
 10
102.8437270421187
 20
133.7569302909324
 30
0.0
 10
102.8479860112579
 20
133.5942868213098
 30
0.0
 10
102.8539778669198
 20
133.3654670852553
 30
0.0
 10
102.8586999843308
 20
133.1851366967091
 30
0.0
 10
102.8610610430363
 20
133.094971502436
 30
0.0
  0
LINE
  5
255
330
1F
100
AcDbEntity
  8
0
  6
Continuous
 62
     7
370
    25
100
AcDbLine
 10
137.1194812561
 20
134.6920598072
 30
0.0
 11
102.8427434584
 21
133.7944918396
 31
0.0
  0
SPLINE
  5
256
330
1F
100
AcDbEntity
  8
0
  6
Continuous
 62
     7
370
    25
100
AcDbSpline
210
0.0
220
0.0
230
1.0
 70
    24
 71
     3
 72
    11
 73
     7
 74
     0
 42
0.00000001
 43
0.00000001
 40
0.0
 40
0.0
 40
0.0
 40
0.0
 40
0.2499999999999982
 40
0.4999999999999978
 40
0.750000000000001
 40
1.0
 40
1.0
 40
1.0
 40
1.0
 10
137.1194812560889
 20
134.6920598072192
 30
0.0
 10
137.1198091173447
 20
134.6795392909967
 30
0.0
 10
137.1204648398563
 20
134.6544982585515
 30
0.0
 10
137.1247238089956
 20
134.4918547889289
 30
0.0
 10
137.1307156646574
 20
134.2630350528745
 30
0.0
 10
137.1354377820684
 20
134.0827046643282
 30
0.0
 10
137.1377988407739
 20
133.9925394700551
 30
0.0
  0
LINE
  5
257
330
1F
100
AcDbEntity
  8
0
  6
Continuous
 62
     7
370
    25
100
AcDbLine
 10
137.1377988408
 20
130.4402186305
 30
0.0
 11
102.861061043
 21
131.3377865981
 31
0.0
  0
LINE
  5
258
330
1F
100
AcDbEntity
  8
0
  6
Continuous
 62
     7
370
    25
100
AcDbLine
 10
102.861061043
 20
131.3377865981
 30
0.0
 11
102.861061043
 21
133.0949715024
 31
0.0
  0
ELLIPSE
  5
259
330
1F
100
AcDbEntity
  8
0
  6
Continuous
 62
     7
370
    25
100
AcDbEllipse
 10
137.1430270543
 20
133.1921278137
 30
0.0
 11
0.9988086229566022
 21
0.0610396441386456
 31
0.0
210
0.0
220
0.0
230
1.0
 40
0.7994627403
 41
0.8784769082856063
 42
1.527206254409818
  0
LINE
  5
25A
330
1F
100
AcDbEntity
  8
0
  6
Continuous
 62
     7
370
    25
100
AcDbLine
 10
137.7430270543
 20
133.8457581999
 30
0.0
 11
137.7430270543
 21
130.5869999007
 31
0.0
  0
ELLIPSE
  5
25B
330
1F
100
AcDbEntity
  8
0
  6
Continuous
 62
     7
370
    25
100
AcDbEllipse
 10
137.1430270543
 20
131.2406302869
 30
0.0
 11
0.9988086229566022
 21
-0.06103964413861718
 31
0.0
210
0.0
220
0.0
230
1.0
 40
0.7994627403
 41
4.755979052769755
 42
5.404708398893951
  0
LINE
  5
25C
330
1F
100
AcDbEntity
  8
0
  6
Continuous
 62
     7
370
    25
100
AcDbLine
 10
138.9430270543
 20
131.2039628157
 30
0.0
 11
138.9430270543
 21
133.2287952849
 31
0.0
  0
SPLINE
  5
25D
330
1F
100
AcDbEntity
  8
0
  6
Continuous
 62
     7
370
    25
100
AcDbSpline
210
0.0
220
0.0
230
1.0
 70
     8
 71
     3
 72
    11
 73
     7
 74
     0
 42
0.00000001
 43
0.00000001
 40
0.0
 40
0.0
 40
0.0
 40
0.0
 40
0.2561894651307314
 40
0.509604493920692
 40
0.769274206655365
 40
1.0
 40
1.0
 40
1.0
 40
1.0
 10
138.9430270542864
 20
131.2039628156532
 30
0.0
 10
138.8674309219925
 20
131.1444507750048
 30
0.0
 10
138.7170573353178
 20
131.0260711869084
 30
0.0
 10
138.4178445493625
 20
130.855433644773
 30
0.0
 10
138.0903248144758
 20
130.7038097338723
 30
0.0
 10
137.854146433662
 20
130.6243736982011
 30
0.0
 10
137.7430270542864
 20
130.5869999006782
 30
0.0
  0
SPLINE
  5
25E
330
1F
100
AcDbEntity
  8
0
  6
Continuous
 62
     7
370
    25
100
AcDbSpline
210
0.0
220
0.0
230
1.0
 70
     8
 71
     3
 72
    11
 73
     7
 74
     0
 42
0.00000001
 43
0.00000001
 40
0.0
 40
0.0
 40
0.0
 40
0.0
 40
0.2307374805224083
 40
0.4903955403005851
 40
0.7438105520730633
 40
1.0
 40
1.0
 40
1.0
 40
1.0
 10
137.7430270542864
 20
133.845758199895
 30
0.0
 10
137.8541522880428
 20
133.808383008982
 30
0.0
 10
138.0903311651183
 20
133.7289480298875
 30
0.0
 10
138.4178488060694
 20
133.5773213501238
 30
0.0
 10
138.7170574027319
 20
133.4066870451754
 30
0.0
 10
138.8674309445452
 20
133.2883073695641
 30
0.0
 10
138.9430270542864
 20
133.2287952849201
 30
0.0
  0
LINE
  5
25F
330
1F
100
AcDbEntity
  8
0
  6
Continuous
 62
     7
370
    25
100
AcDbLine
 10
102.8427434584
 20
130.638266261
 30
0.0
 11
137.1194812561
 21
129.7406982934
 31
0.0
  0
SPLINE
  5
260
330
1F
100
AcDbEntity
  8
0
  6
Continuous
 62
     7
370
    25
100
AcDbSpline
210
0.0
220
0.0
230
1.0
 70
    24
 71
     3
 72
    11
 73
     7
 74
     0
 42
0.00000001
 43
0.00000001
 40
0.0
 40
0.0
 40
0.0
 40
0.0
 40
0.249999999999998
 40
0.4999999999999973
 40
0.7500000000000001
 40
1.0
 40
1.0
 40
1.0
 40
1.0
 10
102.8427434583512
 20
130.6382662609731
 30
0.0
 10
102.843071319607
 20
130.6507867771957
 30
0.0
 10
102.8437270421187
 20
130.6758278096409
 30
0.0
 10
102.8479860112579
 20
130.8384712792634
 30
0.0
 10
102.8539778669198
 20
131.0672910153179
 30
0.0
 10
102.8586999843308
 20
131.2476214038641
 30
0.0
 10
102.8610610430363
 20
131.3377865981373
 30
0.0
  0
SPLINE
  5
261
330
1F
100
AcDbEntity
  8
0
  6
Continuous
 62
     7
370
    25
100
AcDbSpline
210
0.0
220
0.0
230
1.0
 70
    24
 71
     3
 72
    11
 73
     7
 74
     0
 42
0.00000001
 43
0.00000001
 40
0.0
 40
0.0
 40
0.0
 40
0.0
 40
0.2499999999999988
 40
0.5000000000000004
 40
0.7499999999999976
 40
1.0
 40
1.0
 40
1.0
 40
1.0
 10
137.1377988407739
 20
130.4402186305181
 30
0.0
 10
137.1354377820684
 20
130.350053436245
 30
0.0
 10
137.1307156646574
 20
130.1697230476987
 30
0.0
 10
137.1247238089956
 20
129.9409033116443
 30
0.0
 10
137.1204648398563
 20
129.7782598420217
 30
0.0
 10
137.1198091173447
 20
129.7532188095766
 30
0.0
 10
137.1194812560889
 20
129.740698293354
 30
0.0
  0
ELLIPSE
  5
262
330
1F
100
AcDbEntity
  8
0
  6
Continuous
 62
     7
370
    25
100
AcDbEllipse
 10
102.861061043
 20
133.1159274208
 30
0.0
 11
1.49999997144873
 21
0.02095282558966005
 31
0.0
210
0.0
220
0.0
230
1.0
 40
0.0139678873
 41
3.842044658399484
 42
4.712193869245415
  0
ELLIPSE
  5
263
330
1F
100
AcDbEntity
  8
0
  6
Continuous
 62
     7
370
    25
100
AcDbEllipse
 10
102.861061043
 20
131.3168306798
 30
0.0
 11
1.49999997144873
 21
-0.02095282558966005
 31
0.0
210
0.0
220
0.0
230
1.0
 40
0.0139678873
 41
1.570991437934171
 42
2.441140648780705
  0
SPLINE
  5
264
330
1F
100
AcDbEntity
  8
0
  6
Continuous
 62
     7
370
    25
100
AcDbSpline
210
0.0
220
0.0
230
1.0
 70
     8
 71
     3
 72
     9
 73
     5
 74
     0
 42
0.00000001
 43
0.00000001
 40
0.0
 40
0.0
 40
0.0
 40
0.0
 40
0.5600029565045499
 40
1.0
 40
1.0
 40
1.0
 40
1.0
 10
101.7144233275878
 20
131.3463549636627
 30
0.0
 10
101.7062755682346
 20
131.3463493255964
 30
0.0
 10
101.6917260747748
 20
131.3463392576742
 30
0.0
 10
101.6777814318343
 20
131.3464614342776
 30
0.0
 10
101.6716458301679
 20
131.3465151916219
 30
0.0
  0
ELLIPSE
  5
265
330
1F
100
AcDbEntity
  8
0
  6
Continuous
 62
     7
370
    25
100
AcDbEllipse
 10
102.861061043
 20
131.2992415178
 30
0.0
 11
1.499999872704151
 21
-0.0430792567095466
 31
0.0
210
0.0
220
0.0
230
1.0
 40
0.0143449667
 41
2.486833182542656
 42
2.678357024933804
  0
LINE
  5
266
330
1F
100
AcDbEntity
  8
0
  6
Continuous
 62
     7
370
    25
100
AcDbLine
 10
101.5194202565
 20
133.0853624248
 30
0.0
 11
101.5194202565
 21
131.3473956758
 31
0.0
  0
ELLIPSE
  5
267
330
1F
100
AcDbEntity
  8
0
  6
Continuous
 62
     7
370
    25
100
AcDbEllipse
 10
102.861061043
 20
133.1335165828
 30
0.0
 11
1.499999872704151
 21
0.04307925670957503
 31
0.0
210
0.0
220
0.0
230
1.0
 40
0.0143449667
 41
3.604828282245496
 42
3.796352124635673
  0
SPLINE
  5
268
330
1F
100
AcDbEntity
  8
0
  6
Continuous
 62
     7
370
    25
100
AcDbSpline
210
0.0
220
0.0
230
1.0
 70
     8
 71
     3
 72
     9
 73
     5
 74
     0
 42
0.00000001
 43
0.00000001
 40
0.0
 40
0.0
 40
0.0
 40
0.0
 40
0.5599925069633377
 40
1.0
 40
1.0
 40
1.0
 40
1.0
 10
101.6716458301679
 20
133.0862429089513
 30
0.0
 10
101.6794686400248
 20
133.0863086541027
 30
0.0
 10
101.6934381302584
 20
133.0864260577297
 30
0.0
 10
101.7080111081289
 20
133.086410140577
 30
0.0
 10
101.7144233275878
 20
133.0864031369105
 30
0.0
  0
ELLIPSE
  5
269
330
1F
100
AcDbEntity
  8
0
  6
Continuous
 62
     7
370
    25
100
AcDbEllipse
 10
102.8427434584
 20
130.6173103426
 30
0.0
 11
0.7999998117959422
 21
-0.02096310677478641
 31
0.0
210
0.0
220
0.0
230
1.0
 40
0.026176936
 41
1.571482264229188
 42
2.441631475078147
  0
SPLINE
  5
26A
330
1F
100
AcDbEntity
  8
0
  6
Continuous
 62
     7
370
    25
100
AcDbSpline
210
0.0
220
0.0
230
1.0
 70
     8
 71
     3
 72
    12
 73
     8
 74
     0
 42
0.00000001
 43
0.00000001
 40
0.0
 40
0.0
 40
0.0
 40
0.0
 40
0.2198609600791294
 40
0.4397396970008148
 40
0.6583291451397767
 40
0.87912395168436
 40
1.0
 40
1.0
 40
1.0
 40
1.0
 10
102.2312033434453
 20
130.6468346264986
 30
0.0
 10
102.1712882807165
 20
130.6575066211427
 30
0.0
 10
102.0514533108305
 20
130.6788514733142
 30
0.0
 10
101.8947183225559
 20
130.8069698685813
 30
0.0
 10
101.7781499987698
 20
130.9899078046464
 30
0.0
 10
101.7218933069755
 20
131.1814569765335
 30
0.0
 10
101.7163754357593
 20
131.3032626482185
 30
0.0
 10
101.7144233275878
 20
131.3463549636627
 30
0.0
  0
ELLIPSE
  5
26B
330
1F
100
AcDbEntity
  8
0
  6
Continuous
 62
     7
370
    25
100
AcDbEllipse
 10
102.8427434584
 20
133.8154477579
 30
0.0
 11
0.7999998117959422
 21
0.02096310677475799
 31
0.0
210
0.0
220
0.0
230
1.0
 40
0.026176936
 41
3.841553832103628
 42
4.7117030429504
  0
SPLINE
  5
26C
330
1F
100
AcDbEntity
  8
0
  6
Continuous
 62
     7
370
    25
100
AcDbSpline
210
0.0
220
0.0
230
1.0
 70
     8
 71
     3
 72
    12
 73
     8
 74
     0
 42
0.00000001
 43
0.00000001
 40
0.0
 40
0.0
 40
0.0
 40
0.0
 40
0.2198610998683202
 40
0.4397399767664986
 40
0.6583294271823332
 40
0.8791242261983154
 40
1.0
 40
1.0
 40
1.0
 40
1.0
 10
101.7144233275878
 20
133.0864031369105
 30
0.0
 10
101.7205262774831
 20
133.1650940466297
 30
0.0
 10
101.7327326707322
 20
133.322482228679
 30
0.0
 10
101.8252566118306
 20
133.531763977164
 30
0.0
 10
101.9610405592523
 20
133.6904132978283
 30
0.0
 10
102.1054684226157
 20
133.7705133605436
 30
0.0
 10
102.1983454342645
 20
133.7818963978453
 30
0.0
 10
102.2312033434454
 20
133.7859234740747
 30
0.0
  0
SPLINE
  5
26D
330
1F
100
AcDbEntity
  8
0
  6
Continuous
 62
     7
370
    25
100
AcDbSpline
210
0.0
220
0.0
230
1.0
 70
     8
 71
     3
 72
    11
 73
     7
 74
     0
 42
0.00000001
 43
0.00000001
 40
0.0
 40
0.0
 40
0.0
 40
0.0
 40
0.2561894651307129
 40
0.5096044939206584
 40
0.7692742066444705
 40
1.0
 40
1.0
 40
1.0
 40
1.0
 10
138.9430270542864
 20
133.2287952849201
 30
0.0
 10
138.8986620636696
 20
133.3423028202413
 30
0.0
 10
138.8104125387349
 20
133.5680886466181
 30
0.0
 10
138.6006004518104
 20
133.8932909823776
 30
0.0
 10
138.3530925823188
 20
134.1832473403068
 30
0.0
 10
138.1583427515806
 20
134.3343091614852
 30
0.0
 10
138.0667150579214
 20
134.4053821181193
 30
0.0
  0
SPLINE
  5
26E
330
1F
100
AcDbEntity
  8
0
  6
Continuous
 62
     7
370
    25
100
AcDbSpline
210
0.0
220
0.0
230
1.0
 70
    24
 71
     3
 72
    10
 73
     6
 74
     0
 42
0.00000001
 43
0.00000001
 40
0.0
 40
0.0
 40
0.0
 40
0.0
 40
0.2808335173386709
 40
0.5616510917414143
 40
0.9999999999999999
 40
0.9999999999999999
 40
0.9999999999999999
 40
0.9999999999999999
 10
138.0667150579214
 20
134.4053821181193
 30
0.0
 10
138.0485069382765
 20
134.3739021153243
 30
0.0
 10
138.0120917326629
 20
134.3109438968559
 30
0.0
 10
137.9023086478626
 20
134.1211400135462
 30
0.0
 10
137.8033466951288
 20
133.9500447763978
 30
0.0
 10
137.7430270542864
 20
133.845758199895
 30
0.0
  0
ELLIPSE
  5
26F
330
1F
100
AcDbEntity
  8
0
  6
Continuous
 62
     7
370
    25
100
AcDbEllipse
 10
137.1430270543
 20
133.1921278137
 30
0.0
 11
1.557390436637235
 21
0.09517594847733335
 31
0.0
210
0.0
220
0.0
230
1.0
 40
0.9613560848
 41
0.8784769082856275
 42
1.527206254409859
  0
SPLINE
  5
270
330
1F
100
AcDbEntity
  8
0
  6
Continuous
 62
     7
370
    25
100
AcDbSpline
210
0.0
220
0.0
230
1.0
 70
    24
 71
     3
 72
    10
 73
     6
 74
     0
 42
0.00000001
 43
0.00000001
 40
0.0
 40
0.0
 40
0.0
 40
0.0
 40
0.2808335173386708
 40
0.5616510917414125
 40
1.0
 40
1.0
 40
1.0
 40
1.0
 10
137.7430270542864
 20
130.5869999006782
 30
0.0
 10
137.7813775032488
 20
130.5206958416058
 30
0.0
 10
137.8580762240163
 20
130.3880914875467
 30
0.0
 10
137.9832305740584
 20
130.1717122366423
 30
0.0
 10
138.0350996404116
 20
130.0820358512919
 30
0.0
 10
138.0667150579214
 20
130.0273759824539
 30
0.0
  0
ELLIPSE
  5
271
330
1F
100
AcDbEntity
  8
0
  6
Continuous
 62
     7
370
    25
100
AcDbEllipse
 10
137.1430270543
 20
131.2406302869
 30
0.0
 11
1.557390436637235
 21
-0.09517594847733335
 31
0.0
210
0.0
220
0.0
230
1.0
 40
0.9613560848
 41
4.755979052769741
 42
5.404708398893984
  0
SPLINE
  5
272
330
1F
100
AcDbEntity
  8
0
  6
Continuous
 62
     7
370
    25
100
AcDbSpline
210
0.0
220
0.0
230
1.0
 70
     8
 71
     3
 72
    11
 73
     7
 74
     0
 42
0.00000001
 43
0.00000001
 40
0.0
 40
0.0
 40
0.0
 40
0.0
 40
0.2307374805226512
 40
0.4903955403005855
 40
0.7438105520730652
 40
0.9999999999999999
 40
0.9999999999999999
 40
0.9999999999999999
 40
0.9999999999999999
 10
138.0667150579214
 20
130.0273759824539
 30
0.0
 10
138.1583470626809
 20
130.0984530006441
 30
0.0
 10
138.3530962052176
 20
130.2495158130634
 30
0.0
 10
138.6006037724555
 20
130.5394718422189
 30
0.0
 10
138.8104125018496
 20
130.8646695027675
 30
0.0
 10
138.8986620513299
 20
131.0904552966617
 30
0.0
 10
138.9430270542864
 20
131.2039628156532
 30
0.0
  0
LINE
  5
273
330
1F
100
AcDbEntity
  8
0
  6
Continuous
 62
     7
370
    25
100
AcDbLine
 10
139.2430405096
 20
134.8218357204
 30
0.0
 11
137.1194812561
 21
134.6920598072
 31
0.0
  0
SPLINE
  5
274
330
1F
100
AcDbEntity
  8
0
  6
Continuous
 62
     7
370
    25
100
AcDbSpline
210
0.0
220
0.0
230
1.0
 70
     8
 71
     3
 72
    13
 73
     9
 74
     0
 42
0.00000001
 43
0.00000001
 40
0.0
 40
0.0
 40
0.0
 40
0.0
 40
0.1035746466401555
 40
0.2111076158583393
 40
0.3219769626223817
 40
0.4454462032504118
 40
0.7113049728010379
 40
1.0
 40
1.0
 40
1.0
 40
1.0
 10
141.3430270542864
 20
133.3754651699868
 30
0.0
 10
141.3357708895259
 20
133.4738079484356
 30
0.0
 10
141.3209812504344
 20
133.674251881084
 30
0.0
 10
141.1947086408725
 20
133.9571939313139
 30
0.0
 10
140.9981612527417
 20
134.2154521563329
 30
0.0
 10
140.6343095796544
 20
134.5185475060879
 30
0.0
 10
140.0367221929191
 20
134.7840771723714
 30
0.0
 10
139.5147657093594
 20
134.8089086877862
 30
0.0
 10
139.243040509566
 20
134.8218357204025
 30
0.0
  0
LINE
  5
275
330
1F
100
AcDbEntity
  8
0
  6
Continuous
 62
     7
370
    25
100
AcDbLine
 10
138.9430270543
 20
133.2287952849
 30
0.0
 11
141.3430270543
 21
133.37546517
 31
0.0
  0
LINE
  5
276
330
1F
100
AcDbEntity
  8
0
  6
Continuous
 62
     7
370
    25
100
AcDbLine
 10
141.3430270543
 20
131.0572929306
 30
0.0
 11
138.9430270543
 21
131.2039628157
 31
0.0
  0
SPLINE
  5
277
330
1F
100
AcDbEntity
  8
0
  6
Continuous
 62
     7
370
    25
100
AcDbSpline
210
0.0
220
0.0
230
1.0
 70
     8
 71
     3
 72
    13
 73
     9
 74
     0
 42
0.00000001
 43
0.00000001
 40
0.0
 40
0.0
 40
0.0
 40
0.0
 40
0.2886949682914851
 40
0.554553683594315
 40
0.6780091910936104
 40
0.7888922083801199
 40
0.8964194071406489
 40
1.0
 40
1.0
 40
1.0
 40
1.0
 10
139.243040509566
 20
129.6109223801707
 30
0.0
 10
139.5147657001422
 20
129.6238493856534
 30
0.0
 10
140.0367221659967
 20
129.6486808489475
 30
0.0
 10
140.6342975740999
 20
129.91420545038
 30
0.0
 10
140.9981517542794
 20
130.2172964469843
 30
0.0
 10
141.1946992458451
 20
130.4755482011049
 30
0.0
 10
141.3209825349513
 20
130.7584995672731
 30
0.0
 10
141.3357710369224
 20
130.9589442299642
 30
0.0
 10
141.3430270542864
 20
131.0572929305864
 30
0.0
  0
LINE
  5
278
330
1F
100
AcDbEntity
  8
0
  6
Continuous
 62
     7
370
    25
100
AcDbLine
 10
137.1194812561
 20
129.7406982934
 30
0.0
 11
139.2430405096
 21
129.6109223802
 31
0.0
  0
SPLINE
  5
279
330
1F
100
AcDbEntity
  8
0
  6
Continuous
 62
     7
370
    25
100
AcDbSpline
210
0.0
220
0.0
230
1.0
 70
     8
 71
     3
 72
    12
 73
     8
 74
     0
 42
0.00000001
 43
0.00000001
 40
0.0
 40
0.0
 40
0.0
 40
0.0
 40
0.2225634137434379
 40
0.4462063173695244
 40
0.6680851268156933
 40
0.8917990985568367
 40
1.0
 40
1.0
 40
1.0
 40
1.0
 10
102.1890877604129
 20
133.7849782382026
 30
0.0
 10
102.127391194778
 20
133.7726251306358
 30
0.0
 10
102.0036988192736
 20
133.7478589997488
 30
0.0
 10
101.8445324774801
 20
133.615275071751
 30
0.0
 10
101.7284505894632
 20
133.4289176682564
 30
0.0
 10
101.6767355387353
 20
133.2408268569031
 30
0.0
 10
101.6728971169584
 20
133.1242468240147
 30
0.0
 10
101.6716458301679
 20
133.0862429089513
 30
0.0
  0
SPLINE
  5
27A
330
1F
100
AcDbEntity
  8
0
  6
Continuous
 62
     7
370
    25
100
AcDbSpline
210
0.0
220
0.0
230
1.0
 70
     8
 71
     3
 72
    12
 73
     8
 74
     0
 42
0.00000001
 43
0.00000001
 40
0.0
 40
0.0
 40
0.0
 40
0.0
 40
0.2225634137435274
 40
0.446206317369568
 40
0.6680851268158019
 40
0.8917990985569294
 40
1.0
 40
1.0
 40
1.0
 40
1.0
 10
101.6716458301679
 20
131.3465151916219
 30
0.0
 10
101.6772323962704
 20
131.2680115315794
 30
0.0
 10
101.6884326247599
 20
131.1106234485227
 30
0.0
 10
101.782483402447
 20
130.9012719108953
 30
0.0
 10
101.9219744658451
 20
130.7425126164252
 30
0.0
 10
102.0671985656814
 20
130.6646637461086
 30
0.0
 10
102.1591217344115
 20
130.6519307052752
 30
0.0
 10
102.1890877604129
 20
130.6477798623706
 30
0.0
  0
ELLIPSE
  5
27B
330
1F
100
AcDbEntity
  8
0
  6
Continuous
 62
     7
370
    25
100
AcDbEllipse
 10
102.8234425406
 20
130.6005061885
 30
0.0
 11
0.7999991634988818
 21
-0.04310148564323413
 31
0.0
210
0.0
220
0.0
230
1.0
 40
0.0268411366
 41
2.487867318783616
 42
2.679391161175109
  0
SPLINE
  5
27C
330
1F
100
AcDbEntity
  8
0
  6
Continuous
 62
     7
370
    25
100
AcDbSpline
210
0.0
220
0.0
230
1.0
 70
     8
 71
     3
 72
    11
 73
     7
 74
     0
 42
0.00000001
 43
0.00000001
 40
0.0
 40
0.0
 40
0.0
 40
0.0
 40
0.2499999999999991
 40
0.4999999999999979
 40
0.7499999999999996
 40
1.0
 40
1.0
 40
1.0
 40
1.0
 10
102.1079007878094
 20
130.6486603465166
 30
0.0
 10
102.0296656794771
 20
130.6636596516832
 30
0.0
 10
101.8731954628126
 20
130.6936582620163
 30
0.0
 10
101.6798693113961
 20
130.857177964813
 30
0.0
 10
101.5454928791172
 20
131.0827575788954
 30
0.0
 10
101.52811113073
 20
131.2591829768104
 30
0.0
 10
101.5194202565364
 20
131.3473956757679
 30
0.0
  0
SPLINE
  5
27D
330
1F
100
AcDbEntity
  8
0
  6
Continuous
 62
     7
370
    25
100
AcDbSpline
210
0.0
220
0.0
230
1.0
 70
     8
 71
     3
 72
    11
 73
     7
 74
     0
 42
0.00000001
 43
0.00000001
 40
0.0
 40
0.0
 40
0.0
 40
0.0
 40
0.249999999999999
 40
0.4999999999999998
 40
0.7499999999999988
 40
1.0
 40
1.0
 40
1.0
 40
1.0
 10
102.1079007878094
 20
133.7840977540566
 30
0.0
 10
102.0296656794772
 20
133.76909844889
 30
0.0
 10
101.8731954628126
 20
133.7390998385569
 30
0.0
 10
101.6798693113962
 20
133.5755801357602
 30
0.0
 10
101.5454928791171
 20
133.3500005216779
 30
0.0
 10
101.52811113073
 20
133.1735751237628
 30
0.0
 10
101.5194202565364
 20
133.0853624248053
 30
0.0
  0
ELLIPSE
  5
27E
330
1F
100
AcDbEntity
  8
0
  6
Continuous
 62
     7
370
    25
100
AcDbEllipse
 10
102.8234425406
 20
133.8322519121
 30
0.0
 11
0.7999991634988818
 21
0.04310148564320571
 31
0.0
210
0.0
220
0.0
230
0.9999999999999999
 40
0.0268411366
 41
3.603794146007214
 42
3.795317988398174
  0
LINE
  5
27F
330
1F
100
AcDbEntity
  8
0
  6
Continuous
 62
     7
370
    25
100
AcDbLine
 10
141.3430270543
 20
133.37546517
 30
0.0
 11
141.3430270543
 21
131.0572929306
 31
0.0
  0
LINE
  5
280
330
1F
100
AcDbEntity
  8
0
  6
Continuous
 62
     7
370
    25
100
AcDbLine
 10
102.0087584323
 20
134.0026197127
 30
0.0
 11
123.636306601
 21
134.5689569928
 31
0.0
  0
SPLINE
  5
281
330
1F
100
AcDbEntity
  8
0
  6
Continuous
 62
     7
370
    25
100
AcDbSpline
210
0.0
220
0.0
230
1.0
 70
     8
 71
     3
 72
     9
 73
     5
 74
     0
 42
0.00000001
 43
0.00000001
 40
0.0
 40
0.0
 40
0.0
 40
0.0
 40
0.5600012771711205
 40
0.9999999999999999
 40
0.9999999999999999
 40
0.9999999999999999
 40
0.9999999999999999
 10
123.6363066010052
 20
134.5689569927837
 30
0.0
 10
124.1137367375302
 20
134.5571225804387
 30
0.0
 10
124.9662886083702
 20
134.5359897494479
 30
0.0
 10
125.8231778130136
 20
134.5150290200355
 30
0.0
 10
126.2002079686626
 20
134.5058063258644
 30
0.0
  0
SPLINE
  5
282
330
1F
100
AcDbEntity
  8
0
  6
Continuous
 62
     7
370
    25
100
AcDbSpline
210
0.0
220
0.0
230
1.0
 70
     8
 71
     3
 72
     9
 73
     5
 74
     0
 42
0.00000001
 43
0.00000001
 40
0.0
 40
0.0
 40
0.0
 40
0.0
 40
0.5599999095971039
 40
1.0
 40
1.0
 40
1.0
 40
1.0
 10
126.2002079686626
 20
134.5058063258644
 30
0.0
 10
126.2943374593251
 20
134.5035089159672
 30
0.0
 10
126.4624258626433
 20
134.4994063976313
 30
0.0
 10
126.630668382339
 20
134.4953100044383
 30
0.0
 10
126.7046951062147
 20
134.493507591063
 30
0.0
  0
LINE
  5
283
330
1F
100
AcDbEntity
  8
0
  6
Continuous
 62
     7
370
    25
100
AcDbLine
 10
126.7046951062
 20
134.4935075911
 30
0.0
 11
139.2430405096
 21
134.8218357204
 31
0.0
  0
LINE
  5
284
330
1F
100
AcDbEntity
  8
0
  6
Continuous
 62
     7
370
    25
100
AcDbLine
 10
102.2312033434
 20
133.7859234741
 30
0.0
 11
102.0087584323
 21
134.0026197127
 31
0.0
  0
LINE
  5
285
330
1F
100
AcDbEntity
  8
0
  6
Continuous
 62
     7
370
    25
100
AcDbLine
 10
139.2430405096
 20
129.6109223802
 30
0.0
 11
126.7046951062
 21
129.9392505095
 31
0.0
  0
SPLINE
  5
286
330
1F
100
AcDbEntity
  8
0
  6
Continuous
 62
     7
370
    25
100
AcDbSpline
210
0.0
220
0.0
230
1.0
 70
     8
 71
     3
 72
     9
 73
     5
 74
     0
 42
0.00000001
 43
0.00000001
 40
0.0
 40
0.0
 40
0.0
 40
0.0
 40
0.5600000882143319
 40
1.0
 40
1.0
 40
1.0
 40
1.0
 10
126.7046951062147
 20
129.9392505095102
 30
0.0
 10
126.6104826906831
 20
129.9369563933692
 30
0.0
 10
126.442246260878
 20
129.9328597580483
 30
0.0
 10
126.2741641032095
 20
129.928756991589
 30
0.0
 10
126.2002079686626
 20
129.9269517747088
 30
0.0
  0
SPLINE
  5
287
330
1F
100
AcDbEntity
  8
0
  6
Continuous
 62
     7
370
    25
100
AcDbSpline
210
0.0
220
0.0
230
1.0
 70
     8
 71
     3
 72
     9
 73
     5
 74
     0
 42
0.00000001
 43
0.00000001
 40
0.0
 40
0.0
 40
0.0
 40
0.0
 40
0.5599987526606142
 40
1.0
 40
1.0
 40
1.0
 40
1.0
 10
126.2002079686626
 20
129.9269517747088
 30
0.0
 10
125.7204417107754
 20
129.9152101881864
 30
0.0
 10
124.8637143419952
 20
129.8942430226944
 30
0.0
 10
124.0113485935225
 20
129.8731028223222
 30
0.0
 10
123.6363066010052
 20
129.8638011077895
 30
0.0
  0
LINE
  5
288
330
1F
100
AcDbEntity
  8
0
  6
Continuous
 62
     7
370
    25
100
AcDbLine
 10
123.636306601
 20
129.8638011078
 30
0.0
 11
102.0087584323
 21
130.4301383879
 31
0.0
  0
LINE
  5
289
330
1F
100
AcDbEntity
  8
0
  6
Continuous
 62
     7
370
    25
100
AcDbLine
 10
102.0087584323
 20
130.4301383879
 30
0.0
 11
102.2312033434
 21
130.6468346265
 31
0.0
  0
LINE
  5
28A
330
1F
100
AcDbEntity
  8
0
  6
Continuous
 62
     7
370
    25
100
AcDbLine
 10
96.9404701134
 20
133.0853624248
 30
0.0
 11
101.5194202565
 21
133.0853624248
 31
0.0
  0
SPLINE
  5
28B
330
1F
100
AcDbEntity
  8
0
  6
Continuous
 62
     7
370
    25
100
AcDbSpline
210
0.0
220
0.0
230
1.0
 70
     8
 71
     3
 72
    13
 73
     9
 74
     0
 42
0.00000001
 43
0.00000001
 40
0.0
 40
0.0
 40
0.0
 40
0.0
 40
0.1143463544469914
 40
0.2890454840074685
 40
0.5294852105593209
 40
0.7014879056604271
 40
0.9335094878266192
 40
1.0
 40
1.0
 40
1.0
 40
1.0
 10
97.70243096360485
 20
133.7840977540566
 30
0.0
 10
97.6612297628959
 20
133.7792631625515
 30
0.0
 10
97.55708109057305
 20
133.7670422496215
 30
0.0
 10
97.3697215961932
 20
133.6943941545805
 30
0.0
 10
97.18769386618442
 20
133.5638818881737
 30
0.0
 10
97.03541028497007
 20
133.377014289004
 30
0.0
 10
96.96290700809007
 20
133.2156408842474
 30
0.0
 10
96.94455731877136
 20
133.1090945333955
 30
0.0
 10
96.94047011338117
 20
133.0853624248053
 30
0.0
  0
LINE
  5
28C
330
1F
100
AcDbEntity
  8
0
  6
Continuous
 62
     7
370
    25
100
AcDbLine
 10
102.1079007878
 20
133.7840977541
 30
0.0
 11
97.7024309636
 21
133.7840977541
 31
0.0
  0
ELLIPSE
  5
28D
330
1F
100
AcDbEntity
  8
0
  6
Continuous
 62
     7
370
    25
100
AcDbEllipse
 10
97.2958134588
 20
132.3909176054
 30
0.0
 11
0.008721666502680138
 21
1.000418978703749
 31
0.0
210
0.0
220
0.0
230
1.0
 40
0.499714557
 41
0.807918040772672
 42
1.588240544501507
  0
LINE
  5
28E
330
1F
100
AcDbEntity
  8
0
  6
Continuous
 62
     7
370
    25
100
AcDbLine
 10
101.5194202565
 20
131.3473956758
 30
0.0
 11
96.9404701134
 21
131.3473956758
 31
0.0
  0
ELLIPSE
  5
28F
330
1F
100
AcDbEntity
  8
0
  6
Continuous
 62
     7
370
    25
100
AcDbEllipse
 10
97.2958134588
 20
132.0418404952
 30
0.0
 11
-0.008721666502694349
 21
1.000418978703721
 31
0.0
210
0.0
220
0.0
230
0.9999999999999999
 40
0.499714557
 41
1.553352109088307
 42
2.333674612817138
  0
LINE
  5
290
330
1F
100
AcDbEntity
  8
0
  6
Continuous
 62
     7
370
    25
100
AcDbLine
 10
96.7958134588
 20
132.3778246446
 30
0.0
 11
96.7958134588
 21
132.054933456
 31
0.0
  0
LINE
  5
291
330
1F
100
AcDbEntity
  8
0
  6
Continuous
 62
     7
370
    25
100
AcDbLine
 10
97.7024309636
 20
130.6486603465
 30
0.0
 11
102.1079007878
 21
130.6486603465
 31
0.0
  0
SPLINE
  5
292
330
1F
100
AcDbEntity
  8
0
  6
Continuous
 62
     7
370
    25
100
AcDbSpline
210
0.0
220
0.0
230
1.0
 70
     8
 71
     3
 72
    12
 73
     8
 74
     0
 42
0.00000001
 43
0.00000001
 40
0.0
 40
0.0
 40
0.0
 40
0.0
 40
0.139683458618249
 40
0.3831896274038307
 40
0.55131692930133
 40
0.8194729461607051
 40
0.9999999999999999
 40
0.9999999999999999
 40
0.9999999999999999
 40
0.9999999999999999
 10
96.94047011338117
 20
131.3473956757679
 30
0.0
 10
96.95071149412745
 20
131.2976807552894
 30
0.0
 10
96.97880638031576
 20
131.1612992392317
 30
0.0
 10
97.08595674167054
 20
130.9813831300195
 30
0.0
 10
97.26629382908354
 20
130.8030417016346
 30
0.0
 10
97.47474997365252
 20
130.6825214770832
 30
0.0
 10
97.63710687435645
 20
130.6583754637763
 30
0.0
 10
97.70243096360484
 20
130.6486603465166
 30
0.0
  0
LINE
  5
293
330
1F
100
AcDbEntity
  8
0
  6
Continuous
 62
     7
370
    25
100
AcDbLine
 10
102.0098862895
 20
133.9595485824
 30
0.0
 11
102.0087584323
 21
134.0026197127
 31
0.0
  0
LINE
  5
294
330
1F
100
AcDbEntity
  8
0
  6
Continuous
 62
     7
370
    25
100
AcDbLine
 10
102.0098862895
 20
130.4732095182
 30
0.0
 11
102.0087584323
 21
130.4301383879
 31
0.0
  0
ELLIPSE
  5
295
330
1F
100
AcDbEntity
  8
0
  6
Continuous
 62
     7
370
    25
100
AcDbEllipse
 10
65.7920198548
 20
132.0540513257
 30
0.0
 11
36.18915845259203
 21
1.947628334984216
 31
0.0
210
0.0
220
0.0
230
1.0
 40
0.0007414247
 41
0.028288557664036
 42
0.4911607830433757
  0
LINE
  5
296
330
1F
100
AcDbEntity
  8
0
  6
Continuous
 62
     7
370
    25
100
AcDbLine
 10
101.966658378
 20
134.0016593494
 30
0.0
 11
102.1890877604
 21
133.7849782382
 31
0.0
  0
LINE
  5
297
330
1F
100
AcDbEntity
  8
0
  6
Continuous
 62
     7
370
    25
100
AcDbLine
 10
102.1890877604
 20
130.6477798624
 30
0.0
 11
101.966658378
 21
130.4310987512
 31
0.0
  0
ELLIPSE
  5
298
330
1F
100
AcDbEntity
  8
0
  6
Continuous
 62
     7
370
    25
100
AcDbEllipse
 10
65.7920198548
 20
132.3787067749
 30
0.0
 11
36.18915845257634
 21
-1.947628334983392
 31
0.0
210
0.0
220
0.0
230
1.0
 40
0.0007414247
 41
5.792024524150764
 42
6.254896749547981
  0
LINE
  5
299
330
1F
100
AcDbEntity
  8
0
  6
Continuous
 62
     7
370
    25
100
AcDbLine
 10
129.8109026322
 20
135.0813274624
 30
0.0
 11
130.4615560983
 21
135.3154225963
 31
0.0
  0
SPLINE
  5
29A
330
1F
100
AcDbEntity
  8
0
  6
Continuous
 62
     7
370
    25
100
AcDbSpline
210
0.0
220
0.0
230
1.0
 70
     8
 71
     3
 72
    10
 73
     6
 74
     0
 42
0.00000001
 43
0.00000001
 40
0.0
 40
0.0
 40
0.0
 40
0.0
 40
0.2383396858856107
 40
0.571650633368965
 40
1.0
 40
1.0
 40
1.0
 40
1.0
 10
129.8130027922035
 20
135.0749014923414
 30
0.0
 10
129.5687365371035
 20
135.0003032899145
 30
0.0
 10
128.982871204103
 20
134.8213817246406
 30
0.0
 10
127.9463164030975
 20
134.5850376123856
 30
0.0
 10
127.1516223074979
 20
134.5264542362001
 30
0.0
 10
126.7046951062149
 20
134.493507591063
 30
0.0
  0
SPLINE
  5
29B
330
1F
100
AcDbEntity
  8
0
  6
Continuous
 62
     7
370
    25
100
AcDbSpline
210
0.0
220
0.0
230
1.0
 70
     8
 71
     3
 72
    11
 73
     7
 74
     0
 42
0.00000001
 43
0.00000001
 40
0.0
 40
0.0
 40
0.0
 40
0.0
 40
0.2506671725023492
 40
0.5010414677145718
 40
0.7508849997170933
 40
1.0
 40
1.0
 40
1.0
 40
1.0
 10
123.6363066010052
 20
134.5689569927837
 30
0.0
 10
124.1119946135658
 20
134.5958315594389
 30
0.0
 10
125.062814849053
 20
134.6495492927451
 30
0.0
 10
126.4634874662652
 20
134.935014756399
 30
0.0
 10
127.827053227517
 20
135.3565429030187
 30
0.0
 10
128.6797207740729
 20
135.7728999807156
 30
0.0
 10
129.1054320553863
 20
135.9807745570921
 30
0.0
  0
SPLINE
  5
29C
330
1F
100
AcDbEntity
  8
0
  6
Continuous
 62
     7
370
    25
100
AcDbSpline
210
0.0
220
0.0
230
1.0
 70
     8
 71
     3
 72
     9
 73
     5
 74
     0
 42
0.00000001
 43
0.00000001
 40
0.0
 40
0.0
 40
0.0
 40
0.0
 40
0.501325902198991
 40
1.0
 40
1.0
 40
1.0
 40
1.0
 10
129.1054320259445
 20
135.9807746104563
 30
0.0
 10
129.3295077267786
 20
136.1058172679264
 30
0.0
 10
129.7764738616844
 20
136.355241159494
 30
0.0
 10
130.1905191413799
 20
136.6570092679152
 30
0.0
 10
130.3969927976808
 20
136.8074932071273
 30
0.0
  0
LINE
  5
29D
330
1F
100
AcDbEntity
  8
0
  6
Continuous
 62
     7
370
    25
100
AcDbLine
 10
132.4627732577
 20
136.9222596465
 30
0.0
 11
130.3968195228
 21
136.807484439
 31
0.0
  0
SPLINE
  5
29E
330
1F
100
AcDbEntity
  8
0
  6
Continuous
 62
     7
370
    25
100
AcDbSpline
210
0.0
220
0.0
230
1.0
 70
     8
 71
     3
 72
    14
 73
    10
 74
     0
 42
0.00000001
 43
0.00000001
 40
0.0
 40
0.0
 40
0.0
 40
0.0
 40
0.0829413618596714
 40
0.1664594845668882
 40
0.2437726390188662
 40
0.3161479456895724
 40
0.4353725718192331
 40
0.6486290670514194
 40
1.0
 40
1.0
 40
1.0
 40
1.0
 10
132.4627732448401
 20
136.922259641624
 30
0.0
 10
132.508572546115
 20
136.9204444520416
 30
0.0
 10
132.6004896296161
 20
136.9168014503413
 30
0.0
 10
132.6510346621524
 20
136.8351403178537
 30
0.0
 10
132.6101297657121
 20
136.7018568375689
 30
0.0
 10
132.4745287196077
 20
136.5135303813313
 30
0.0
 10
132.1576204488629
 20
136.215263301669
 30
0.0
 10
131.4806318386297
 20
135.7572361428836
 30
0.0
 10
130.8524650224162
 20
135.4849006142058
 30
0.0
 10
130.4615531586915
 20
135.315424630556
 30
0.0
  0
LINE
  5
29F
330
1F
100
AcDbEntity
  8
0
  6
Continuous
 62
     7
370
    25
100
AcDbLine
 10
130.3968195227
 20
127.6252736616
 30
0.0
 11
132.4627732576
 21
127.5104984541
 31
0.0
  0
SPLINE
  5
2A0
330
1F
100
AcDbEntity
  8
0
  6
Continuous
 62
     7
370
    25
100
AcDbSpline
210
0.0
220
0.0
230
1.0
 70
     8
 71
     3
 72
     9
 73
     5
 74
     0
 42
0.00000001
 43
0.00000001
 40
0.0
 40
0.0
 40
0.0
 40
0.0
 40
0.4986740982738612
 40
1.0
 40
1.0
 40
1.0
 40
1.0
 10
130.3969925964552
 20
127.6252647116107
 30
0.0
 10
130.1905189553854
 20
127.7757486478897
 30
0.0
 10
129.7764737066258
 20
128.0775167501431
 30
0.0
 10
129.3295076046809
 20
128.3269406417654
 30
0.0
 10
129.1054319205824
 20
128.4519832991449
 30
0.0
  0
SPLINE
  5
2A1
330
1F
100
AcDbEntity
  8
0
  6
Continuous
 62
     7
370
    25
100
AcDbSpline
210
0.0
220
0.0
230
1.0
 70
     8
 71
     3
 72
    11
 73
     7
 74
     0
 42
0.00000001
 43
0.00000001
 40
0.0
 40
0.0
 40
0.0
 40
0.0
 40
0.2491150002829079
 40
0.4989585322854286
 40
0.7493328274976518
 40
1.0
 40
1.0
 40
1.0
 40
1.0
 10
129.1054320553863
 20
128.4519835434811
 30
0.0
 10
128.6797207740729
 20
128.6598581198576
 30
0.0
 10
127.827053227517
 20
129.0762151975546
 30
0.0
 10
126.4634874662652
 20
129.4977433441742
 30
0.0
 10
125.062814849053
 20
129.7832088078281
 30
0.0
 10
124.1119946135658
 20
129.8369265411343
 30
0.0
 10
123.6363066010052
 20
129.8638011077895
 30
0.0
  0
SPLINE
  5
2A2
330
1F
100
AcDbEntity
  8
0
  6
Continuous
 62
     7
370
    25
100
AcDbSpline
210
0.0
220
0.0
230
1.0
 70
     8
 71
     3
 72
    10
 73
     6
 74
     0
 42
0.00000001
 43
0.00000001
 40
0.0
 40
0.0
 40
0.0
 40
0.0
 40
0.428349366631063
 40
0.7616603141144169
 40
1.0
 40
1.0
 40
1.0
 40
1.0
 10
126.7046951062149
 20
129.9392505095102
 30
0.0
 10
127.151622307498
 20
129.9063038643731
 30
0.0
 10
127.9463164030976
 20
129.8477204881877
 30
0.0
 10
128.9828712041031
 20
129.6113763759327
 30
0.0
 10
129.5687365371035
 20
129.4324548106589
 30
0.0
 10
129.8130027922035
 20
129.357856608232
 30
0.0
  0
LINE
  5
2A3
330
1F
100
AcDbEntity
  8
0
  6
Continuous
 62
     7
370
    25
100
AcDbLine
 10
129.8109026322
 20
129.3514306378
 30
0.0
 11
130.4615560982
 21
129.1173355041
 31
0.0
  0
SPLINE
  5
2A4
330
1F
100
AcDbEntity
  8
0
  6
Continuous
 62
     7
370
    25
100
AcDbSpline
210
0.0
220
0.0
230
1.0
 70
     8
 71
     3
 72
    15
 73
    11
 74
     0
 42
0.00000001
 43
0.00000001
 40
0.0
 40
0.0
 40
0.0
 40
0.0
 40
0.2091652517822448
 40
0.4176299509274911
 40
0.5931463878153098
 40
0.6923603779431111
 40
0.7731125739307029
 40
0.8543366880968446
 40
0.9261517123972134
 40
1.0
 40
1.0
 40
1.0
 40
1.0
 10
130.4615531586009
 20
129.1173334697858
 30
0.0
 10
130.6951373706963
 20
129.0196358372964
 30
0.0
 10
131.1615234563564
 20
128.8245677888771
 30
0.0
 10
131.7851736035355
 20
128.4752879355246
 30
0.0
 10
132.2450232328362
 20
128.1423977485811
 30
0.0
 10
132.506907603606
 20
127.8807796625452
 30
0.0
 10
132.6273775841212
 20
127.7001856496314
 30
0.0
 10
132.6461708110309
 20
127.5780914863211
 30
0.0
 10
132.5851326097244
 20
127.5140414970026
 30
0.0
 10
132.503937491213
 20
127.5116904109647
 30
0.0
 10
132.4627732448051
 20
127.5104984589512
 30
0.0
  0
SPLINE
  5
2A5
330
1F
100
AcDbEntity
  8
0
  6
Continuous
 62
     7
370
    25
100
AcDbSpline
210
0.0
220
0.0
230
1.0
 70
    24
 71
     3
 72
    11
 73
     7
 74
     0
 42
0.00000001
 43
0.00000001
 40
0.0
 40
0.0
 40
0.0
 40
0.0
 40
0.2499999999999989
 40
0.4999999999999996
 40
0.749999999999999
 40
1.0
 40
1.0
 40
1.0
 40
1.0
 10
139.2299565205053
 20
129.1112649964821
 30
0.0
 10
139.2316429910092
 20
129.1756687066771
 30
0.0
 10
139.2350159320171
 20
129.3044761270673
 30
0.0
 10
139.2392958289183
 20
129.4679187956776
 30
0.0
 10
139.2423379497321
 20
129.5840927025509
 30
0.0
 10
139.2428063229547
 20
129.6019791542975
 30
0.0
 10
139.243040509566
 20
129.6109223801707
 30
0.0
  0
LINE
  5
2A6
330
1F
100
AcDbEntity
  8
0
  6
Continuous
 62
     7
370
    25
100
AcDbLine
 10
129.8130027922
 20
129.3578566082
 30
0.0
 11
139.2299565205
 21
129.1112649965
 31
0.0
  0
LINE
  5
2A7
330
1F
100
AcDbEntity
  8
0
  6
Continuous
 62
     7
370
    25
100
AcDbLine
 10
139.2299565205
 20
135.3214931041
 30
0.0
 11
129.8130027922
 21
135.0749014923
 31
0.0
  0
SPLINE
  5
2A8
330
1F
100
AcDbEntity
  8
0
  6
Continuous
 62
     7
370
    25
100
AcDbSpline
210
0.0
220
0.0
230
1.0
 70
    24
 71
     3
 72
    11
 73
     7
 74
     0
 42
0.00000001
 43
0.00000001
 40
0.0
 40
0.0
 40
0.0
 40
0.0
 40
0.2500000000000009
 40
0.5000000000000002
 40
0.7500000000000007
 40
0.9999999999999999
 40
0.9999999999999999
 40
0.9999999999999999
 40
0.9999999999999999
 10
139.243040509566
 20
134.8218357204025
 30
0.0
 10
139.2428063229547
 20
134.8307789462758
 30
0.0
 10
139.2423379497321
 20
134.8486653980223
 30
0.0
 10
139.2392958289183
 20
134.9648393048956
 30
0.0
 10
139.2350159320171
 20
135.1282819735059
 30
0.0
 10
139.2316429910092
 20
135.2570893938961
 30
0.0
 10
139.2299565205052
 20
135.3214931040912
 30
0.0
  0
ELLIPSE
  5
2A9
330
1F
100
AcDbEntity
  8
0
  6
Continuous
 62
     7
370
    25
100
AcDbEllipse
 10
139.2430270543
 20
131.1122941375
 30
0.0
 11
2.497021557391577
 21
-0.1525991103465856
 31
2.131628207280301E-14
210
-8.504919643681410E-15
220
5.197564944337115E-16
230
1.0
 40
0.7994627403
 41
4.75597905276978
 42
6.332003616895592
  0
SPLINE
  5
2AA
330
1F
100
AcDbEntity
  8
0
  6
Continuous
 62
     7
370
    25
100
AcDbSpline
210
0.0
220
0.0
230
1.0
 70
    24
 71
     3
 72
    11
 73
     7
 74
     0
 42
0.00000001
 43
0.00000001
 40
0.0
 40
0.0
 40
0.0
 40
0.0
 40
0.2500000000000007
 40
0.5000000000000022
 40
0.7500000000000036
 40
1.0
 40
1.0
 40
1.0
 40
1.0
 10
141.3430270542864
 20
131.0572929305864
 30
0.0
 10
141.3682869924905
 20
131.0572929305864
 30
0.0
 10
141.4188068688988
 20
131.0572929305864
 30
0.0
 10
141.5176654780992
 20
131.0572929305864
 30
0.0
 10
141.6270527579227
 20
131.0572929305864
 30
0.0
 10
141.7043689554985
 20
131.0572929305864
 30
0.0
 10
141.7430270542864
 20
131.0572929305864
 30
0.0
  0
ELLIPSE
  5
2AB
330
1F
100
AcDbEntity
  8
0
  6
Continuous
 62
     7
370
    25
100
AcDbEllipse
 10
139.2430270543
 20
133.3204639631
 30
0.0
 11
2.497021557391577
 21
0.1525991103465856
 31
2.131628207280301E-14
210
-8.504919643681424E-15
220
-5.197564944334701E-16
230
1.0
 40
0.7994627403
 41
6.234366997463598
 42
7.810391561589415
  0
SPLINE
  5
2AC
330
1F
100
AcDbEntity
  8
0
  6
Continuous
 62
     7
370
    25
100
AcDbSpline
210
0.0
220
0.0
230
1.0
 70
    24
 71
     3
 72
    11
 73
     7
 74
     0
 42
0.00000001
 43
0.00000001
 40
0.0
 40
0.0
 40
0.0
 40
0.0
 40
0.2500000000000002
 40
0.500000000000003
 40
0.7499999999999994
 40
1.0
 40
1.0
 40
1.0
 40
1.0
 10
141.7430270542864
 20
133.3754651699868
 30
0.0
 10
141.7043689554985
 20
133.3754651699868
 30
0.0
 10
141.6270527579227
 20
133.3754651699868
 30
0.0
 10
141.5176654780992
 20
133.3754651699868
 30
0.0
 10
141.4188068688988
 20
133.3754651699868
 30
0.0
 10
141.3682869924905
 20
133.3754651699868
 30
0.0
 10
141.3430270542864
 20
133.3754651699868
 30
0.0
  0
LINE
  5
2AD
330
1F
100
AcDbEntity
  8
0
  6
Continuous
 62
     7
370
    25
100
AcDbLine
 10
141.8798487288
 20
128.4896406261
 30
0.0
 11
130.4641194453
 21
129.1238478085
 31
0.0
  0
LINE
  5
2AE
330
1F
100
AcDbEntity
  8
0
  6
Continuous
 62
     7
370
    25
100
AcDbLine
 10
141.7966436994
 20
126.9919500963
 30
0.0
 11
141.8798487288
 21
128.4896406261
 31
0.0
  0
LINE
  5
2AF
330
1F
100
AcDbEntity
  8
0
  6
Continuous
 62
     7
370
    25
100
AcDbLine
 10
132.4629656879
 20
127.5104877636
 30
0.0
 11
141.7966436994
 21
126.9919500963
 31
0.0
  0
LINE
  5
2B0
330
1F
100
AcDbEntity
  8
0
  6
Continuous
 62
     7
370
    25
100
AcDbLine
 10
141.7430270543
 20
131.0572929306
 30
0.0
 11
141.7430270543
 21
133.37546517
 31
0.0
  0
LINE
  5
2B1
330
1F
100
AcDbEntity
  8
0
  6
Continuous
 62
     7
370
    25
100
AcDbLine
 10
141.7966436994
 20
137.4408080043
 30
0.0
 11
132.4629656879
 21
136.922270337
 31
0.0
  0
LINE
  5
2B2
330
1F
100
AcDbEntity
  8
0
  6
Continuous
 62
     7
370
    25
100
AcDbLine
 10
141.8798487288
 20
135.9431174745
 30
0.0
 11
141.7966436994
 21
137.4408080043
 31
0.0
  0
LINE
  5
2B3
330
1F
100
AcDbEntity
  8
0
  6
Continuous
 62
     7
370
    25
100
AcDbLine
 10
130.4641194453
 20
135.3089102921
 30
0.0
 11
141.8798487288
 21
135.9431174745
 31
0.0
  0
LINE
  5
2B4
330
1F
100
AcDbEntity
  8
0
  6
Continuous
 62
     7
370
    25
100
AcDbLine
 10
142.2430270543
 20
128.8528189515
 30
0.0
 11
141.8798487288
 21
128.4896406261
 31
0.0
  0
LINE
  5
2B5
330
1F
100
AcDbEntity
  8
0
  6
Continuous
 62
     7
370
    25
100
AcDbLine
 10
141.8798487288
 20
135.9431174745
 30
0.0
 11
142.2430270543
 21
135.579939149
 31
0.0
  0
LINE
  5
2B6
330
1F
100
AcDbEntity
  8
0
  6
Continuous
 62
     7
370
    25
100
AcDbLine
 10
142.2430270543
 20
128.8528189515
 30
0.0
 11
142.2430270543
 21
135.579939149
 31
0.0
  0
LINE
  5
2B7
330
1F
100
AcDbEntity
  8
0
  6
Continuous
 62
     7
370
    25
100
AcDbLine
 10
142.2430270543
 20
136.3062958
 30
0.0
 11
141.8798487288
 21
135.9431174745
 31
0.0
  0
ARC
  5
2B8
330
1F
100
AcDbEntity
  8
0
  6
Continuous
 62
     7
370
    25
100
AcDbCircle
 10
141.8798487288
 20
135.9431174745
 30
0.0
 40
1.500000000000011
100
AcDbArc
 50
75.9883675978
 51
93.1798301199
  0
LINE
  5
2B9
330
1F
100
AcDbEntity
  8
0
  6
Continuous
 62
     7
370
    25
100
AcDbLine
 10
142.2430270543
 20
136.3062958
 30
0.0
 11
142.2430270543
 21
137.3984873601
 31
0.0
  0
LINE
  5
2BA
330
1F
100
AcDbEntity
  8
0
  6
Continuous
 62
     7
370
    25
100
AcDbLine
 10
142.2430270543
 20
135.579939149
 30
0.0
 11
142.2430270543
 21
136.3062958
 31
0.0
  0
LINE
  5
2BB
330
1F
100
AcDbEntity
  8
0
  6
Continuous
 62
     7
370
    25
100
AcDbLine
 10
141.8798487288
 20
128.4896406261
 30
0.0
 11
142.2430270543
 21
128.1264623006
 31
0.0
  0
LINE
  5
2BC
330
1F
100
AcDbEntity
  8
0
  6
Continuous
 62
     7
370
    25
100
AcDbLine
 10
142.2430270543
 20
128.1264623006
 30
0.0
 11
142.2430270543
 21
128.8528189515
 31
0.0
  0
ARC
  5
2BD
330
1F
100
AcDbEntity
  8
0
  6
Continuous
 62
     7
370
    25
100
AcDbCircle
 10
141.8798487288
 20
128.4896406261
 30
0.0
 40
1.500000000000036
100
AcDbArc
 50
266.8201698801
 51
284.0116324022
  0
LINE
  5
2BE
330
1F
100
AcDbEntity
  8
0
  6
Continuous
 62
     7
370
    25
100
AcDbLine
 10
142.2430270543
 20
127.0342707405
 30
0.0
 11
142.2430270543
 21
128.1264623006
 31
0.0
  0
SPLINE
  5
2BF
330
1F
100
AcDbEntity
  8
0
  6
Continuous
 62
     7
370
    25
100
AcDbSpline
210
0.0
220
0.0
230
1.0
 70
    24
 71
     3
 72
     9
 73
     5
 74
     0
 42
0.00000001
 43
0.00000001
 40
0.0
 40
0.0
 40
0.0
 40
0.0
 40
0.5389665913333133
 40
0.9999999999999999
 40
0.9999999999999999
 40
0.9999999999999999
 40
0.9999999999999999
 10
130.3969935930857
 20
136.8074941095282
 30
0.0
 10
130.3510676513082
 20
136.8049426683183
 30
0.0
 10
130.2658565407941
 20
136.8002087177343
 30
0.0
 10
130.2784377329572
 20
136.8009076728544
 30
0.0
 10
130.2842380828653
 20
136.801229914516
 30
0.0
  0
SPLINE
  5
2C0
330
1F
100
AcDbEntity
  8
0
  6
Continuous
 62
     7
370
    25
100
AcDbSpline
210
0.0
220
0.0
230
1.0
 70
    24
 71
     3
 72
     9
 73
     5
 74
     0
 42
0.00000001
 43
0.00000001
 40
0.0
 40
0.0
 40
0.0
 40
0.0
 40
0.449000901028251
 40
1.0
 40
1.0
 40
1.0
 40
1.0
 10
130.2903361540306
 20
127.6311894043259
 30
0.0
 10
130.2819506014389
 20
127.6316552683587
 30
0.0
 10
130.2632745752383
 20
127.6326928253699
 30
0.0
 10
130.3494893370238
 20
127.6279031163818
 30
0.0
 10
130.3969935930857
 20
127.625263991045
 30
0.0
  0
SPLINE
  5
2C1
330
1F
100
AcDbEntity
  8
0
  6
Continuous
 62
     7
370
    25
100
AcDbSpline
210
0.0
220
0.0
230
1.0
 70
     8
 71
     3
 72
     9
 73
     5
 74
     0
 42
0.00000001
 43
0.00000001
 40
0.0
 40
0.0
 40
0.0
 40
0.0
 40
0.5407747560677784
 40
1.0
 40
1.0
 40
1.0
 40
1.0
 10
102.0087584322643
 20
134.0026197127033
 30
0.0
 10
102.0010023902168
 20
134.0026492131161
 30
0.0
 10
101.9866599270001
 20
134.0027037652425
 30
0.0
 10
101.9723414231921
 20
134.0020995201076
 30
0.0
 10
101.9657660047882
 20
134.0018220354881
 30
0.0
  0
LINE
  5
2C2
330
1F
100
AcDbEntity
  8
0
  6
Continuous
 62
     7
370
    25
100
AcDbLine
 10
102.0087584323
 20
130.4301383879
 30
0.0
 11
101.9657660048
 21
130.4309360651
 31
0.0
  0
CIRCLE
  5
2C3
330
1F
100
AcDbEntity
  8
0
  6
Continuous
 62
     7
370
    25
100
AcDbCircle
 10
152.2430270543
 20
132.2163790503
 30
0.0
 40
7.558608890731335
  0
CIRCLE
  5
2C4
330
1F
100
AcDbEntity
  8
0
  6
Continuous
 62
     7
370
    25
100
AcDbCircle
 10
152.2430270543
 20
132.2163790503
 30
0.0
 40
5.5
  0
CIRCLE
  5
2C5
330
1F
100
AcDbEntity
  8
0
  6
Continuous
 62
     7
370
    25
100
AcDbCircle
 10
152.2430270543
 20
132.2163790503
 30
0.0
 40
8.0547478290882
  0
SPLINE
  5
2C6
330
1F
100
AcDbEntity
  8
0
  6
Continuous
 62
     7
370
    25
100
AcDbSpline
210
0.0
220
0.0
230
1.0
 70
     8
 71
     3
 72
    11
 73
     7
 74
     0
 42
0.00000001
 43
0.00000001
 40
0.0
 40
0.0
 40
0.0
 40
0.0
 40
0.2920574028183094
 40
0.5665622171831318
 40
0.8065682389915578
 40
1.0
 40
1.0
 40
1.0
 40
1.0
 10
144.126821447233
 20
130.7366133444956
 30
0.0
 10
144.1584819835485
 20
130.569012809072
 30
0.0
 10
144.2199002646091
 20
130.2438844951364
 30
0.0
 10
144.2998126238737
 20
129.8432808292702
 30
0.0
 10
144.3389114376012
 20
129.585440633265
 30
0.0
 10
144.3234950746716
 20
129.5347952049834
 30
0.0
 10
144.3166151616875
 20
129.512193496577
 30
0.0
  0
ARC
  5
2C7
330
1F
100
AcDbEntity
  8
0
  6
Continuous
 62
     7
370
    25
100
AcDbCircle
 10
152.2430270543
 20
132.2163790503
 30
0.0
 40
8.249999999999968
100
AcDbArc
 50
169.6671934996
 51
190.3328065004
  0
SPLINE
  5
2C8
330
1F
100
AcDbEntity
  8
0
  6
Continuous
 62
     7
370
    25
100
AcDbSpline
210
0.0
220
0.0
230
1.0
 70
     8
 71
     3
 72
    12
 73
     8
 74
     0
 42
0.00000001
 43
0.00000001
 40
0.0
 40
0.0
 40
0.0
 40
0.0
 40
0.1882084234719069
 40
0.3759134198095928
 40
0.5768476463044282
 40
0.8018243756979397
 40
1.0
 40
1.0
 40
1.0
 40
1.0
 10
144.3166151616908
 20
134.9205646039929
 30
0.0
 10
144.3234867530603
 20
134.8989614094802
 30
0.0
 10
144.3372115554022
 20
134.855812805511
 30
0.0
 10
144.3113868554442
 20
134.6622729477284
 30
0.0
 10
144.2603070608025
 20
134.3874438896894
 30
0.0
 10
144.1930670591343
 20
134.05170375232
 30
0.0
 10
144.1479508120141
 20
133.8095520523073
 30
0.0
 10
144.126821447233
 20
133.6961447560776
 30
0.0
  0
ARC
  5
2C9
330
1F
100
AcDbEntity
  8
0
  6
Continuous
 62
     7
370
    25
100
AcDbCircle
 10
152.2430270543
 20
132.2163790503
 30
0.0
 40
8.986048245082024
100
AcDbArc
 50
200.7364869057
 51
159.2635130943
  0
LINE
  5
2CA
330
1F
100
AcDbEntity
  8
0
  6
Continuous
 62
     7
370
    25
100
AcDbLine
 10
144.3166151617
 20
129.5121934966
 30
0.0
 11
142.58695551
 21
127.7825338449
 31
0.0
  0
LINE
  5
2CB
330
1F
100
AcDbEntity
  8
0
  6
Continuous
 62
     7
370
    25
100
AcDbLine
 10
142.58695551
 20
136.6502242557
 30
0.0
 11
144.3166151617
 21
134.920564604
 31
0.0
  0
ARC
  5
2CC
330
1F
100
AcDbEntity
  8
0
  6
Continuous
 62
     7
370
    25
100
AcDbCircle
 10
141.8798487288
 20
135.9431174745
 30
0.0
 40
1.000000000000016
100
AcDbArc
 50
45.0
 51
68.7044833353
  0
ARC
  5
2CD
330
1F
100
AcDbEntity
  8
0
  6
Continuous
 62
     7
370
    25
100
AcDbCircle
 10
141.8798487288
 20
128.4896406261
 30
0.0
 40
1.000000000000029
100
AcDbArc
 50
291.2955166647
 51
315.0
  0
SPLINE
  5
2CE
330
1F
100
AcDbEntity
  8
0
  6
Continuous
 62
     7
370
    25
100
AcDbSpline
210
0.0
220
0.0
230
1.0
 70
     8
 71
     3
 72
    12
 73
     8
 74
     0
 42
0.00000001
 43
0.00000001
 40
0.0
 40
0.0
 40
0.0
 40
0.0
 40
0.2500000000000001
 40
0.2500000000000001
 40
0.5000000000000001
 40
0.5000000000000001
 40
1.0
 40
1.0
 40
1.0
 40
1.0
 10
163.1553138140149
 20
140.9520816551147
 30
0.0
 10
163.3887647888663
 20
140.2462058075602
 30
0.0
 10
163.6056116580071
 20
139.5335041130005
 30
0.0
 10
163.9945953092109
 20
138.0897206786498
 30
0.0
 10
164.1649591093793
 20
137.3647131032178
 30
0.0
 10
164.585610942718
 20
135.1791101366721
 30
0.0
 10
164.7430270542864
 20
133.7072245659695
 30
0.0
 10
164.7430270542864
 20
132.2163790502866
 30
0.0
  0
LINE
  5
2CF
330
1F
100
AcDbEntity
  8
0
  6
Continuous
 62
     7
370
    25
100
AcDbLine
 10
163.155313814
 20
144.7163790503
 30
0.0
 11
163.155313814
 21
140.9520816551
 31
0.0
  0
SPLINE
  5
2D0
330
1F
100
AcDbEntity
  8
0
  6
Continuous
 62
     7
370
    25
100
AcDbSpline
210
0.0
220
0.0
230
1.0
 70
    24
 71
     3
 72
    12
 73
     8
 74
     0
 42
0.00000001
 43
0.00000001
 40
0.0
 40
0.0
 40
0.0
 40
0.0
 40
0.25
 40
0.25
 40
0.5
 40
0.5
 40
1.0
 40
1.0
 40
1.0
 40
1.0
 10
164.7430270542864
 20
144.7163790502866
 30
0.0
 10
164.7430270542864
 20
144.7163790502866
 30
0.0
 10
164.7036775287356
 20
144.7163790502866
 30
0.0
 10
164.5530180193619
 20
144.7163790502866
 30
0.0
 10
164.4421098366571
 20
144.7163790502866
 30
0.0
 10
164.0208608116623
 20
144.7163790502866
 30
0.0
 10
163.6231683230499
 20
144.7163790502866
 30
0.0
 10
163.1553138140149
 20
144.7163790502866
 30
0.0
  0
LINE
  5
2D1
330
1F
100
AcDbEntity
  8
0
  6
Continuous
 62
     7
370
    25
100
AcDbLine
 10
164.7430270543
 20
144.7163790503
 30
0.0
 11
164.7430270543
 21
132.2163790503
 31
0.0
  0
LINE
  5
2D2
330
1F
100
AcDbEntity
  8
0
  6
Continuous
 62
     7
370
    25
100
AcDbLine
 10
140.8307402946
 20
140.9520816551
 30
0.0
 11
140.8307402946
 21
144.7163790503
 31
0.0
  0
SPLINE
  5
2D3
330
1F
100
AcDbEntity
  8
0
  6
Continuous
 62
     7
370
    25
100
AcDbSpline
210
0.0
220
0.0
230
1.0
 70
     8
 71
     3
 72
     9
 73
     5
 74
     0
 42
0.00000001
 43
0.00000001
 40
0.0
 40
0.0
 40
0.0
 40
0.0
 40
0.4287809552668792
 40
0.9999999999999999
 40
0.9999999999999999
 40
0.9999999999999999
 40
0.9999999999999999
 10
139.875671948737
 20
137.3340873515088
 30
0.0
 10
139.9782185638933
 20
137.859945040855
 30
0.0
 10
140.2173770757085
 20
139.0863467335769
 30
0.0
 10
140.6077511746639
 20
140.2737909208097
 30
0.0
 10
140.8307402945578
 20
140.9520816551147
 30
0.0
  0
SPLINE
  5
2D4
330
1F
100
AcDbEntity
  8
0
  6
Continuous
 62
     7
370
    25
100
AcDbSpline
210
0.0
220
0.0
230
1.0
 70
    24
 71
     3
 72
    12
 73
     8
 74
     0
 42
0.00000001
 43
0.00000001
 40
0.0
 40
0.0
 40
0.0
 40
0.0
 40
0.25
 40
0.25
 40
0.5
 40
0.5
 40
1.0
 40
1.0
 40
1.0
 40
1.0
 10
139.2430270542864
 20
144.7163790502866
 30
0.0
 10
139.2430270542864
 20
144.7163790502866
 30
0.0
 10
139.282420139656
 20
144.7163790502866
 30
0.0
 10
139.4330515424214
 20
144.7163790502866
 30
0.0
 10
139.5439319715931
 20
144.7163790502866
 30
0.0
 10
139.9651193775575
 20
144.7163790502866
 30
0.0
 10
140.3628071230372
 20
144.7163790502866
 30
0.0
 10
140.8307402945578
 20
144.7163790502866
 30
0.0
  0
LINE
  5
2D5
330
1F
100
AcDbEntity
  8
0
  6
Continuous
 62
     7
370
    25
100
AcDbLine
 10
139.2430270543
 20
137.2989404129
 30
0.0
 11
139.2430270543
 21
144.7163790503
 31
0.0
  0
LINE
  5
2D6
330
1F
100
AcDbEntity
  8
0
  6
Continuous
 62
     7
370
    25
100
AcDbLine
 10
163.155313814
 20
140.9520816551
 30
0.0
 11
154.3820467921
 21
140.9520816551
 31
0.0
  0
LINE
  5
2D7
330
1F
100
AcDbEntity
  8
0
  6
Continuous
 62
     7
370
    25
100
AcDbLine
 10
150.1040073164
 20
140.9520816551
 30
0.0
 11
140.8307402946
 21
140.9520816551
 31
0.0
  0
LINE
  5
2D8
330
1F
100
AcDbEntity
  8
0
  6
Continuous
 62
     7
370
    25
100
AcDbLine
 10
163.155313814
 20
144.7163790503
 30
0.0
 11
140.8307402946
 21
144.7163790503
 31
0.0
  0
SPLINE
  5
2D9
330
1F
100
AcDbEntity
  8
0
  6
Continuous
 62
     7
370
    25
100
AcDbSpline
210
0.0
220
0.0
230
1.0
 70
     8
 71
     3
 72
    12
 73
     8
 74
     0
 42
0.00000001
 43
0.00000001
 40
0.0
 40
0.0
 40
0.0
 40
0.0
 40
0.2500000000000001
 40
0.2500000000000001
 40
0.5000000000000001
 40
0.5000000000000001
 40
1.0
 40
1.0
 40
1.0
 40
1.0
 10
164.7430270542864
 20
132.2163790502866
 30
0.0
 10
164.7430270542864
 20
131.4715517018379
 30
0.0
 10
164.7036775287356
 20
130.7197272242561
 30
0.0
 10
164.5530180193619
 20
129.2385644229298
 30
0.0
 10
164.4421098366572
 20
128.5054455124812
 30
0.0
 10
164.0208608116623
 20
126.3246565785136
 30
0.0
 10
163.6231683230499
 20
124.8953083539672
 30
0.0
 10
163.1553138140149
 20
123.4806764454585
 30
0.0
  0
LINE
  5
2DA
330
1F
100
AcDbEntity
  8
0
  6
Continuous
 62
     7
370
    25
100
AcDbLine
 10
163.155313814
 20
123.4806764455
 30
0.0
 11
154.3820467921
 21
123.4806764455
 31
0.0
  0
LINE
  5
2DB
330
1F
100
AcDbEntity
  8
0
  6
Continuous
 62
     7
370
    25
100
AcDbLine
 10
150.1040073164
 20
123.4806764455
 30
0.0
 11
140.8307402946
 21
123.4806764455
 31
0.0
  0
SPLINE
  5
2DC
330
1F
100
AcDbEntity
  8
0
  6
Continuous
 62
     7
370
    25
100
AcDbSpline
210
0.0
220
0.0
230
1.0
 70
     8
 71
     3
 72
     9
 73
     5
 74
     0
 42
0.00000001
 43
0.00000001
 40
0.0
 40
0.0
 40
0.0
 40
0.0
 40
0.5268904349897643
 40
0.9999999999999999
 40
0.9999999999999999
 40
0.9999999999999999
 40
0.9999999999999999
 10
140.8307402945578
 20
123.4806764454585
 30
0.0
 10
140.6289470036969
 20
124.1094065719644
 30
0.0
 10
140.2459579086967
 20
125.3026909528396
 30
0.0
 10
139.963463116845
 20
126.5235964487516
 30
0.0
 10
139.8298121287545
 20
127.1012185168411
 30
0.0
  0
SPLINE
  5
2DD
330
1F
100
AcDbEntity
  8
0
  6
Continuous
 62
     7
370
    25
100
AcDbSpline
210
0.0
220
0.0
230
1.0
 70
    24
 71
     3
 72
    12
 73
     8
 74
     0
 42
0.00000001
 43
0.00000001
 40
0.0
 40
0.0
 40
0.0
 40
0.0
 40
0.2500000000000001
 40
0.2500000000000001
 40
0.5
 40
0.5
 40
1.0
 40
1.0
 40
1.0
 40
1.0
 10
164.7430270542864
 20
119.7163790502866
 30
0.0
 10
164.7430270542864
 20
119.7163790502866
 30
0.0
 10
164.7036775287356
 20
119.7163790502866
 30
0.0
 10
164.5530180193619
 20
119.7163790502866
 30
0.0
 10
164.4421098366571
 20
119.7163790502866
 30
0.0
 10
164.0208608116623
 20
119.7163790502866
 30
0.0
 10
163.6231683230499
 20
119.7163790502866
 30
0.0
 10
163.1553138140149
 20
119.7163790502866
 30
0.0
  0
LINE
  5
2DE
330
1F
100
AcDbEntity
  8
0
  6
Continuous
 62
     7
370
    25
100
AcDbLine
 10
163.155313814
 20
123.4806764455
 30
0.0
 11
163.155313814
 21
119.7163790503
 31
0.0
  0
LINE
  5
2DF
330
1F
100
AcDbEntity
  8
0
  6
Continuous
 62
     7
370
    25
100
AcDbLine
 10
164.7430270543
 20
132.2163790503
 30
0.0
 11
164.7430270543
 21
119.7163790503
 31
0.0
  0
LINE
  5
2E0
330
1F
100
AcDbEntity
  8
0
  6
Continuous
 62
     7
370
    25
100
AcDbLine
 10
140.8307402946
 20
119.7163790503
 30
0.0
 11
140.8307402946
 21
123.4806764455
 31
0.0
  0
SPLINE
  5
2E1
330
1F
100
AcDbEntity
  8
0
  6
Continuous
 62
     7
370
    25
100
AcDbSpline
210
0.0
220
0.0
230
1.0
 70
    24
 71
     3
 72
    12
 73
     8
 74
     0
 42
0.00000001
 43
0.00000001
 40
0.0
 40
0.0
 40
0.0
 40
0.0
 40
0.2500000000000001
 40
0.2500000000000001
 40
0.5000000000000001
 40
0.5000000000000001
 40
1.0
 40
1.0
 40
1.0
 40
1.0
 10
139.2430270542864
 20
119.7163790502866
 30
0.0
 10
139.2430270542864
 20
119.7163790502866
 30
0.0
 10
139.282420139656
 20
119.7163790502866
 30
0.0
 10
139.4330515424214
 20
119.7163790502866
 30
0.0
 10
139.5439319715931
 20
119.7163790502866
 30
0.0
 10
139.9651193775575
 20
119.7163790502866
 30
0.0
 10
140.3628071230372
 20
119.7163790502866
 30
0.0
 10
140.8307402945578
 20
119.7163790502866
 30
0.0
  0
LINE
  5
2E2
330
1F
100
AcDbEntity
  8
0
  6
Continuous
 62
     7
370
    25
100
AcDbLine
 10
139.2430270543
 20
119.7163790503
 30
0.0
 11
139.2430270543
 21
127.1338176876
 31
0.0
  0
LINE
  5
2E3
330
1F
100
AcDbEntity
  8
0
  6
Continuous
 62
     7
370
    25
100
AcDbLine
 10
163.155313814
 20
119.7163790503
 30
0.0
 11
140.8307402946
 21
119.7163790503
 31
0.0
  0
LINE
  5
2E4
330
1F
100
AcDbEntity
  8
0
  6
Continuous
 62
     7
370
    25
100
AcDbLine
 10
177.0466357813
 20
121.909616823
 30
0.0
 11
177.0466357813
 21
142.5231412776
 31
0.0
  0
LINE
  5
2E5
330
1F
100
AcDbEntity
  8
0
  6
Continuous
 62
     7
370
    25
100
AcDbLine
 10
179.7430270543
 20
140.9663790503
 30
0.0
 11
179.7430270543
 21
123.4663790503
 31
0.0
  0
LINE
  5
2E6
330
1F
100
AcDbEntity
  8
0
  6
Continuous
 62
     7
370
    25
100
AcDbLine
 10
107.6608275606
 20
128.0560695785
 30
0.0
 11
107.6608275606
 21
126.5467456326
 31
0.0
  0
LINE
  5
2E7
330
1F
100
AcDbEntity
  8
0
  6
Continuous
 62
     7
370
    25
100
AcDbLine
 10
107.6608275606
 20
137.886012468
 30
0.0
 11
107.6608275606
 21
134.1511385403
 31
0.0
  0
LINE
  5
2E8
330
1F
100
AcDbEntity
  8
0
  6
Continuous
 62
     7
370
    25
100
AcDbLine
 10
107.6608275606
 20
130.2816195602
 30
0.0
 11
107.6608275606
 21
128.0560695785
 31
0.0
  0
LINE
  5
2E9
330
1F
100
AcDbEntity
  8
0
  6
Continuous
 62
     7
370
    25
100
AcDbLine
 10
129.0923557505
 20
128.4282823466
 30
0.0
 11
129.1054320554
 21
128.4519835435
 31
0.0
  0
ARC
  5
2EA
330
1F
100
AcDbEntity
  8
0
  6
Continuous
 62
     7
370
    25
100
AcDbCircle
 10
97.1789049138
 20
131.2353842317
 30
0.0
 40
0.2634344655600621
100
AcDbArc
 50
154.8368906241
 51
203.8328888453
  0
ARC
  5
2EB
330
1F
100
AcDbEntity
  8
0
  6
Continuous
 62
     7
370
    25
100
AcDbCircle
 10
97.1786485268
 20
133.1973219569
 30
0.0
 40
0.2631803439913484
100
AcDbArc
 50
155.8685262691
 51
205.1766134919
  0
LINE
  5
2EC
330
1F
100
AcDbEntity
  8
0
  6
Continuous
 62
     7
370
    25
100
AcDbLine
 10
96.7958134588
 20
132.3778246446
 30
0.0
 11
96.743027143
 21
132.3778246446
 31
0.0
  0
LINE
  5
2ED
330
1F
100
AcDbEntity
  8
0
  6
Continuous
 62
     7
370
    25
100
AcDbLine
 10
96.7958134588
 20
132.054933456
 30
0.0
 11
96.7430271216
 21
132.054933456
 31
0.0
  0
LINE
  5
2EE
330
1F
100
AcDbEntity
  8
0
  6
Continuous
 62
     7
370
    25
100
AcDbLine
 10
142.58695551
 20
127.7825338449
 30
0.0
 11
142.2430270543
 21
128.1264623006
 31
0.0
  0
LINE
  5
2EF
330
1F
100
AcDbEntity
  8
0
  6
Continuous
 62
     7
370
    25
100
AcDbLine
 10
142.2430270543
 20
128.8528189515
 30
0.0
 11
144.1268214472
 21
130.7366133445
 31
0.0
  0
LINE
  5
2F0
330
1F
100
AcDbEntity
  8
0
  6
Continuous
 62
     7
370
    25
100
AcDbLine
 10
144.1268214472
 20
133.6961447561
 30
0.0
 11
142.2430270543
 21
135.579939149
 31
0.0
  0
LINE
  5
2F1
330
1F
100
AcDbEntity
  8
0
  6
Continuous
 62
     7
370
    25
100
AcDbLine
 10
142.58695551
 20
136.6502242557
 30
0.0
 11
142.2430270543
 21
136.3062958
 31
0.0
  0
INSERT
  5
2FD
330
1F
100
AcDbEntity
  8
0
  6
Continuous
 62
     7
370
    18
100
AcDbBlockReference
  2
SW_CENTERMARKSYMBOL_1
 10
152.2430270543
 20
132.2163790503
 30
0.0
  0
LINE
  5
2FE
330
1F
100
AcDbEntity
  8
0
  6
Continuous
 62
     7
370
    18
100
AcDbLine
 10
165.2430270543
 20
122.4477540503
 30
0.0
 11
178.7075029355
 21
122.8685189216
 31
0.0
  0
LINE
  5
2FF
330
1F
100
AcDbEntity
  8
0
  6
Continuous
 62
     7
370
    18
100
AcDbLine
 10
178.7075029355
 20
141.564239179
 30
0.0
 11
165.2430270543
 21
141.9850040503
 31
0.0
  0
ENDSEC
  0
SECTION
  2
OBJECTS
  0
DICTIONARY
  5
C
330
0
100
AcDbDictionary
281
     1
  3
ACAD_GROUP
350
D
  3
ACAD_LAYOUT
350
1A
  3
ACAD_MLINESTYLE
350
17
  3
ACAD_PLOTSETTINGS
350
19
  3
ACAD_PLOTSTYLENAME
350
E
  3
ACAD_SCALELIST
350
47
  3
DWGPROPS
350
300
  0
DICTIONARY
  5
D
102
{ACAD_REACTORS
330
C
102
}
330
C
100
AcDbDictionary
281
     1
  0
DICTIONARY
  5
1A
102
{ACAD_REACTORS
330
C
102
}
330
C
100
AcDbDictionary
281
     1
  3
Layout1
350
1E
  3
Layout2
350
26
  3
Model
350
22
  0
DICTIONARY
  5
17
102
{ACAD_REACTORS
330
C
102
}
330
C
100
AcDbDictionary
281
     1
  3
Standard
350
18
  0
DICTIONARY
  5
19
102
{ACAD_REACTORS
330
C
102
}
330
C
100
AcDbDictionary
281
     1
  0
ACDBDICTIONARYWDFLT
  5
E
102
{ACAD_REACTORS
330
C
102
}
330
C
100
AcDbDictionary
281
     1
  3
Normal
350
F
100
AcDbDictionaryWithDefault
340
F
  0
DICTIONARY
  5
47
102
{ACAD_REACTORS
330
C
102
}
330
C
100
AcDbDictionary
281
     1
  3
A0
350
48
  3
A1
350
49
  3
A2
350
4A
  3
A3
350
4B
  3
A4
350
4C
  3
A5
350
4D
  3
A6
350
4E
  3
A7
350
4F
  3
A8
350
50
  3
A9
350
51
  3
B0
350
52
  3
B1
350
53
  3
B2
350
54
  3
B3
350
55
  3
B4
350
56
  3
B5
350
57
  3
B6
350
58
  0
XRECORD
  5
300
102
{ACAD_REACTORS
330
C
102
}
330
C
100
AcDbXrecord
280
     1
  1
DWGPROPS COOKIE
  2

  3

  4

  6

  7

  8
user28
  9

300
=
301
=
302
=
303
=
304
=
305
=
306
=
307
=
308
=
309
=
 40
0.0
 41
2460299.033974583
 42
2460299.033975706
  1

 90
        0
  0
LAYOUT
  5
1E
102
{ACAD_REACTORS
330
1A
102
}
330
1A
100
AcDbPlotSettings
  1

  2
none_device
  4

  6

 40
0.0
 41
0.0
 42
0.0
 43
0.0
 44
0.0
 45
0.0
 46
0.0
 47
0.0
 48
0.0
 49
0.0
140
0.0
141
0.0
142
1.0
143
1.0
 70
   688
 72
     1
 73
     0
 74
     5
  7

 75
    16
147
1.0
148
0.0
149
0.0
100
AcDbLayout
  1
Layout1
 70
     1
 71
     1
 10
0.0
 20
0.0
 11
420.0
 21
297.0
 12
0.0
 22
0.0
 32
0.0
 14
1.0000000000E+20
 24
1.0000000000E+20
 34
1.0000000000E+20
 15
-1.0000000000E+20
 25
-1.0000000000E+20
 35
-1.0000000000E+20
146
0.0
 13
0.0
 23
0.0
 33
0.0
 16
1.0
 26
0.0
 36
0.0
 17
0.0
 27
1.0
 37
0.0
 76
     0
330
1B
  0
LAYOUT
  5
26
102
{ACAD_REACTORS
330
1A
102
}
330
1A
100
AcDbPlotSettings
  1

  2
none_device
  4

  6

 40
0.0
 41
0.0
 42
0.0
 43
0.0
 44
0.0
 45
0.0
 46
0.0
 47
0.0
 48
0.0
 49
0.0
140
0.0
141
0.0
142
1.0
143
1.0
 70
   688
 72
     1
 73
     0
 74
     5
  7

 75
    16
147
1.0
148
0.0
149
0.0
100
AcDbLayout
  1
Layout2
 70
     1
 71
     2
 10
0.0
 20
0.0
 11
0.0
 21
0.0
 12
0.0
 22
0.0
 32
0.0
 14
0.0
 24
0.0
 34
0.0
 15
0.0
 25
0.0
 35
0.0
146
0.0
 13
0.0
 23
0.0
 33
0.0
 16
1.0
 26
0.0
 36
0.0
 17
0.0
 27
1.0
 37
0.0
 76
     0
330
23
  0
LAYOUT
  5
22
102
{ACAD_REACTORS
330
1A
102
}
330
1A
100
AcDbPlotSettings
  1

  2
none_device
  4
Letter_(8.50_x_11.00_Inches)
  6

 40
6.35
 41
6.35
 42
6.35000508
 43
6.35000508
 44
215.9
 45
279.4
 46
0.0
 47
0.0
 48
0.0
 49
0.0
140
0.0
141
0.0
142
1.0
143
1.0
 70
  1712
 72
     1
 73
     0
 74
     0
  7

 75
     0
147
1.0
148
0.0
149
0.0
100
AcDbLayout
  1
Model
 70
     1
 71
     0
 10
0.0
 20
0.0
 11
431.8
 21
279.4
 12
0.0
 22
0.0
 32
0.0
 14
0.0
 24
0.0
 34
0.0
 15
431.8
 25
279.4
 35
0.0
146
0.0
 13
0.0
 23
0.0
 33
0.0
 16
1.0
 26
0.0
 36
0.0
 17
0.0
 27
1.0
 37
0.0
 76
     0
330
1F
331
29
  0
MLINESTYLE
  5
18
102
{ACAD_REACTORS
330
17
102
}
330
17
100
AcDbMlineStyle
  2
Standard
 70
     0
  3

 62
   256
 51
90.0
 52
90.0
 71
     2
 49
0.5
 62
   256
  6
BYLAYER
 49
-0.5
 62
   256
  6
BYLAYER
  0
ACDBPLACEHOLDER
  5
F
102
{ACAD_REACTORS
330
E
102
}
330
E
  0
SCALE
  5
48
102
{ACAD_REACTORS
330
47
102
}
330
47
100
AcDbScale
 70
     0
300
1:1
140
1.0
141
1.0
290
     1
  0
SCALE
  5
49
102
{ACAD_REACTORS
330
47
102
}
330
47
100
AcDbScale
 70
     0
300
1:2
140
1.0
141
2.0
290
     0
  0
SCALE
  5
4A
102
{ACAD_REACTORS
330
47
102
}
330
47
100
AcDbScale
 70
     0
300
1:4
140
1.0
141
4.0
290
     0
  0
SCALE
  5
4B
102
{ACAD_REACTORS
330
47
102
}
330
47
100
AcDbScale
 70
     0
300
1:5
140
1.0
141
5.0
290
     0
  0
SCALE
  5
4C
102
{ACAD_REACTORS
330
47
102
}
330
47
100
AcDbScale
 70
     0
300
1:8
140
1.0
141
8.0
290
     0
  0
SCALE
  5
4D
102
{ACAD_REACTORS
330
47
102
}
330
47
100
AcDbScale
 70
     0
300
1:10
140
1.0
141
10.0
290
     0
  0
SCALE
  5
4E
102
{ACAD_REACTORS
330
47
102
}
330
47
100
AcDbScale
 70
     0
300
1:16
140
1.0
141
16.0
290
     0
  0
SCALE
  5
4F
102
{ACAD_REACTORS
330
47
102
}
330
47
100
AcDbScale
 70
     0
300
1:20
140
1.0
141
20.0
290
     0
  0
SCALE
  5
50
102
{ACAD_REACTORS
330
47
102
}
330
47
100
AcDbScale
 70
     0
300
1:30
140
1.0
141
30.0
290
     0
  0
SCALE
  5
51
102
{ACAD_REACTORS
330
47
102
}
330
47
100
AcDbScale
 70
     0
300
1:40
140
1.0
141
40.0
290
     0
  0
SCALE
  5
52
102
{ACAD_REACTORS
330
47
102
}
330
47
100
AcDbScale
 70
     0
300
1:50
140
1.0
141
50.0
290
     0
  0
SCALE
  5
53
102
{ACAD_REACTORS
330
47
102
}
330
47
100
AcDbScale
 70
     0
300
1:100
140
1.0
141
100.0
290
     0
  0
SCALE
  5
54
102
{ACAD_REACTORS
330
47
102
}
330
47
100
AcDbScale
 70
     0
300
2:1
140
2.0
141
1.0
290
     0
  0
SCALE
  5
55
102
{ACAD_REACTORS
330
47
102
}
330
47
100
AcDbScale
 70
     0
300
4:1
140
4.0
141
1.0
290
     0
  0
SCALE
  5
56
102
{ACAD_REACTORS
330
47
102
}
330
47
100
AcDbScale
 70
     0
300
8:1
140
8.0
141
1.0
290
     0
  0
SCALE
  5
57
102
{ACAD_REACTORS
330
47
102
}
330
47
100
AcDbScale
 70
     0
300
10:1
140
10.0
141
1.0
290
     0
  0
SCALE
  5
58
102
{ACAD_REACTORS
330
47
102
}
330
47
100
AcDbScale
 70
     0
300
100:1
140
100.0
141
1.0
290
     0
  0
ENDSEC
  0
EOF
