  0
SECTION
  2
HEADER
  9
$ACADVER
  1
AC1015
  9
$ACADMAINTVER
 70
     6
  9
$DWGCODEPAGE
  3
DOS932
  9
$INSBASE
 10
0.0
 20
0.0
 30
0.0
  9
$EXTMIN
 10
0.0
 20
0.0
 30
0.0
  9
$EXTMAX
 10
431.8
 20
279.4
 30
0.0
  9
$LIMMIN
 10
0.0
 20
0.0
  9
$LIMMAX
 10
431.8
 20
279.4
  9
$ORTHOMODE
 70
     0
  9
$REGENMODE
 70
     1
  9
$FILLMODE
 70
     1
  9
$QTEXTMODE
 70
     0
  9
$MIRRTEXT
 70
     1
  9
$LTSCALE
 40
1.0
  9
$ATTMODE
 70
     1
  9
$TEXTSIZE
 40
3.5
  9
$TRACEWID
 40
1.0
  9
$TEXTSTYLE
  7
Standard
  9
$CLAYER
  8
0
  9
$CELTYPE
  6
ByLayer
  9
$CECOLOR
 62
   256
  9
$CELTSCALE
 40
1.0
  9
$DISPSILH
 70
     0
  9
$DIMSCALE
 40
1.0
  9
$DIMASZ
 40
3.556
  9
$DIMEXO
 40
1.0
  9
$DIMDLI
 40
3.75
  9
$DIMRND
 40
0.0
  9
$DIMDLE
 40
0.0
  9
$DIMEXE
 40
1.0
  9
$DIMTP
 40
0.0
  9
$DIMTM
 40
0.0
  9
$DIMTXT
 40
3.5
  9
$DIMCEN
 40
2.5
  9
$DIMTSZ
 40
0.0
  9
$DIMTOL
 70
     0
  9
$DIMLIM
 70
     0
  9
$DIMTIH
 70
     1
  9
$DIMTOH
 70
     1
  9
$DIMSE1
 70
     0
  9
$DIMSE2
 70
     0
  9
$DIMTAD
 70
     1
  9
$DIMZIN
 70
     0
  9
$DIMBLK
  1

  9
$DIMASO
 70
     1
  9
$DIMSHO
 70
     1
  9
$DIMPOST
  1

  9
$DIMAPOST
  1

  9
$DIMALT
 70
     0
  9
$DIMALTD
 70
     3
  9
$DIMALTF
 40
0.0393700787
  9
$DIMLFAC
 40
1.0
  9
$DIMTOFL
 70
     1
  9
$DIMTVP
 40
0.0
  9
$DIMTIX
 70
     0
  9
$DIMSOXD
 70
     0
  9
$DIMSAH
 70
     0
  9
$DIMBLK1
  1

  9
$DIMBLK2
  1

  9
$DIMSTYLE
  2
ISO-25
  9
$DIMCLRD
 70
     0
  9
$DIMCLRE
 70
     0
  9
$DIMCLRT
 70
     0
  9
$DIMTFAC
 40
1.0
  9
$DIMGAP
 40
1.524
  9
$DIMJUST
 70
     0
  9
$DIMSD1
 70
     0
  9
$DIMSD2
 70
     0
  9
$DIMTOLJ
 70
     0
  9
$DIMTZIN
 70
     0
  9
$DIMALTZ
 70
     0
  9
$DIMALTTZ
 70
     0
  9
$DIMUPT
 70
     0
  9
$DIMDEC
 70
     3
  9
$DIMTDEC
 70
     3
  9
$DIMALTU
 70
     2
  9
$DIMALTTD
 70
     3
  9
$DIMTXSTY
  7
Standard
  9
$DIMAUNIT
 70
     0
  9
$DIMADEC
 70
     2
  9
$DIMALTRND
 40
0.0
  9
$DIMAZIN
 70
     0
  9
$DIMDSEP
 70
    44
  9
$DIMATFIT
 70
     3
  9
$DIMFRAC
 70
     0
  9
$DIMLDRBLK
  1

  9
$DIMLUNIT
 70
     2
  9
$DIMLWD
 70
    -2
  9
$DIMLWE
 70
    -2
  9
$DIMTMOVE
 70
     0
  9
$LUNITS
 70
     2
  9
$LUPREC
 70
     3
  9
$SKETCHINC
 40
1.0
  9
$FILLETRAD
 40
0.0
  9
$AUNITS
 70
     0
  9
$AUPREC
 70
     2
  9
$MENU
  1
.
  9
$ELEVATION
 40
0.0
  9
$PELEVATION
 40
0.0
  9
$THICKNESS
 40
0.0
  9
$LIMCHECK
 70
     0
  9
$CHAMFERA
 40
0.0
  9
$CHAMFERB
 40
0.0
  9
$CHAMFERC
 40
0.0
  9
$CHAMFERD
 40
0.0
  9
$SKPOLY
 70
     0
  9
$TDCREATE
 40
2460299.405616412
  9
$TDUCREATE
 40
2460299.030616412
  9
$TDUPDATE
 40
2460299.405618032
  9
$TDUUPDATE
 40
2460299.030618032
  9
$TDINDWG
 40
0.0000000116
  9
$TDUSRTIMER
 40
0.0000000116
  9
$USRTIMER
 70
     1
  9
$ANGBASE
 50
0.0
  9
$ANGDIR
 70
     0
  9
$PDMODE
 70
     0
  9
$PDSIZE
 40
-1.0
  9
$PLINEWID
 40
0.0
  9
$SPLFRAME
 70
     0
  9
$SPLINETYPE
 70
     6
  9
$SPLINESEGS
 70
     8
  9
$HANDSEED
  5
302
  9
$SURFTAB1
 70
     6
  9
$SURFTAB2
 70
     6
  9
$SURFTYPE
 70
     6
  9
$SURFU
 70
     6
  9
$SURFV
 70
     6
  9
$UCSBASE
  2

  9
$UCSNAME
  2

  9
$UCSORG
 10
0.0
 20
0.0
 30
0.0
  9
$UCSXDIR
 10
1.0
 20
0.0
 30
0.0
  9
$UCSYDIR
 10
0.0
 20
1.0
 30
0.0
  9
$UCSORTHOREF
  2

  9
$UCSORTHOVIEW
 70
     0
  9
$UCSORGTOP
 10
0.0
 20
0.0
 30
0.0
  9
$UCSORGBOTTOM
 10
0.0
 20
0.0
 30
0.0
  9
$UCSORGLEFT
 10
0.0
 20
0.0
 30
0.0
  9
$UCSORGRIGHT
 10
0.0
 20
0.0
 30
0.0
  9
$UCSORGFRONT
 10
0.0
 20
0.0
 30
0.0
  9
$UCSORGBACK
 10
0.0
 20
0.0
 30
0.0
  9
$PUCSBASE
  2

  9
$PUCSNAME
  2

  9
$PUCSORG
 10
0.0
 20
0.0
 30
0.0
  9
$PUCSXDIR
 10
1.0
 20
0.0
 30
0.0
  9
$PUCSYDIR
 10
0.0
 20
1.0
 30
0.0
  9
$PUCSORTHOREF
  2

  9
$PUCSORTHOVIEW
 70
     0
  9
$PUCSORGTOP
 10
0.0
 20
0.0
 30
0.0
  9
$PUCSORGBOTTOM
 10
0.0
 20
0.0
 30
0.0
  9
$PUCSORGLEFT
 10
0.0
 20
0.0
 30
0.0
  9
$PUCSORGRIGHT
 10
0.0
 20
0.0
 30
0.0
  9
$PUCSORGFRONT
 10
0.0
 20
0.0
 30
0.0
  9
$PUCSORGBACK
 10
0.0
 20
0.0
 30
0.0
  9
$USERI1
 70
     0
  9
$USERI2
 70
     0
  9
$USERI3
 70
     0
  9
$USERI4
 70
     0
  9
$USERI5
 70
     0
  9
$USERR1
 40
0.0
  9
$USERR2
 40
0.0
  9
$USERR3
 40
0.0
  9
$USERR4
 40
0.0
  9
$USERR5
 40
0.0
  9
$WORLDVIEW
 70
     1
  9
$SHADEDGE
 70
     3
  9
$SHADEDIF
 70
    70
  9
$TILEMODE
 70
     1
  9
$MAXACTVP
 70
    64
  9
$PINSBASE
 10
0.0
 20
0.0
 30
0.0
  9
$PLIMCHECK
 70
     0
  9
$PEXTMIN
 10
1.0000000000E+20
 20
1.0000000000E+20
 30
1.0000000000E+20
  9
$PEXTMAX
 10
-1.0000000000E+20
 20
-1.0000000000E+20
 30
-1.0000000000E+20
  9
$PLIMMIN
 10
0.0
 20
0.0
  9
$PLIMMAX
 10
420.0
 20
297.0
  9
$UNITMODE
 70
     0
  9
$VISRETAIN
 70
     1
  9
$PLINEGEN
 70
     0
  9
$PSLTSCALE
 70
     1
  9
$TREEDEPTH
 70
  3020
  9
$CMLSTYLE
  2
Standard
  9
$CMLJUST
 70
     0
  9
$CMLSCALE
 40
20.0
  9
$PROXYGRAPHICS
 70
     1
  9
$MEASUREMENT
 70
     1
  9
$CELWEIGHT
370
    -1
  9
$ENDCAPS
280
     0
  9
$JOINSTYLE
280
     0
  9
$LWDISPLAY
290
     1
  9
$INSUNITS
 70
     4
  9
$HYPERLINKBASE
  1

  9
$STYLESHEET
  1

  9
$XEDIT
290
     1
  9
$CEPSNTYPE
380
     0
  9
$PSTYLEMODE
290
     1
  9
$FINGERPRINTGUID
  2
{f771086f-b94e-4be4-8aa6-35202a7e459f}
  9
$VERSIONGUID
  2
{FAEB1C32-E019-11D5-929B-00C0DF256EC4}
  9
$EXTNAMES
290
     1
  9
$PSVPSCALE
 40
0.0
  9
$OLESTARTUP
290
     0
  0
ENDSEC
  0
SECTION
  2
CLASSES
  0
CLASS
  1
ACDBDICTIONARYWDFLT
  2
AcDbDictionaryWithDefault
  3
ObjectDBX Classes
 90
        0
280
     0
281
     0
  0
CLASS
  1
VISUALSTYLE
  2
AcDbVisualStyle
  3
ObjectDBX Classes
 90
     4095
280
     0
281
     0
  0
CLASS
  1
MATERIAL
  2
AcDbMaterial
  3
ObjectDBX Classes
 90
     1153
280
     0
281
     0
  0
CLASS
  1
SCALE
  2
AcDbScale
  3
ObjectDBX Classes
 90
     1153
280
     0
281
     0
  0
CLASS
  1
TABLESTYLE
  2
AcDbTableStyle
  3
ObjectDBX Classes
 90
     4095
280
     0
281
     0
  0
CLASS
  1
MLEADERSTYLE
  2
AcDbMLeaderStyle
  3
ACDB_MLEADERSTYLE_CLASS
 90
     4095
280
     0
281
     0
  0
CLASS
  1
SUN
  2
AcDbSun
  3
SCENEOE
 90
     1153
280
     0
281
     0
  0
CLASS
  1
ACDBPLACEHOLDER
  2
AcDbPlaceHolder
  3
ObjectDBX Classes
 90
        0
280
     0
281
     0
  0
CLASS
  1
LAYOUT
  2
AcDbLayout
  3
ObjectDBX Classes
 90
        0
280
     0
281
     0
  0
ENDSEC
  0
SECTION
  2
TABLES
  0
TABLE
  2
VPORT
  5
8
330
0
100
AcDbSymbolTable
 70
     1
  0
VPORT
  5
29
330
8
100
AcDbSymbolTableRecord
100
AcDbViewportTableRecord
  2
*Active
 70
     0
 10
0.0
 20
0.0
 11
1.0
 21
1.0
 12
215.9
 22
139.7
 13
0.0
 23
0.0
 14
10.0
 24
10.0
 15
10.0
 25
10.0
 16
0.0
 26
0.0
 36
1.0
 17
0.0
 27
0.0
 37
0.0
 40
279.4
 41
1.5454545455
 42
50.0
 43
0.0
 44
0.0
 50
0.0
 51
0.0
 71
     0
 72
  2000
 73
     1
 74
     3
 75
     0
 76
     0
 77
     0
 78
     0
281
     0
 65
     1
110
0.0
120
0.0
130
0.0
111
1.0
121
0.0
131
0.0
112
0.0
122
1.0
132
0.0
 79
     0
146
0.0
  0
ENDTAB
  0
TABLE
  2
LTYPE
  5
5
330
0
100
AcDbSymbolTable
 70
     6
  0
LTYPE
  5
14
330
5
100
AcDbSymbolTableRecord
100
AcDbLinetypeTableRecord
  2
ByBlock
 70
     0
  3

 72
    65
 73
     0
 40
0.0
  0
LTYPE
  5
15
330
5
100
AcDbSymbolTableRecord
100
AcDbLinetypeTableRecord
  2
ByLayer
 70
     0
  3

 72
    65
 73
     0
 40
0.0
  0
LTYPE
  5
16
330
5
100
AcDbSymbolTableRecord
100
AcDbLinetypeTableRecord
  2
Continuous
 70
     0
  3
Solid line
 72
    65
 73
     0
 40
0.0
  0
LTYPE
  5
5E
330
5
100
AcDbSymbolTableRecord
100
AcDbLinetypeTableRecord
  2
HIDDEN
 70
     0
  3
Hidden __ __ __ __ __ __ __ __ __ __ __ __ __ __
 72
    65
 73
     2
 40
1.905
 49
1.27
 74
     0
 49
-0.635
 74
     0
  0
LTYPE
  5
5F
330
5
100
AcDbSymbolTableRecord
100
AcDbLinetypeTableRecord
  2
PHANTOM
 70
     0
  3
Phantom ______  __  __  ______  __  __  ______
 72
    65
 73
     6
 40
12.7
 49
6.35
 74
     0
 49
-1.27
 74
     0
 49
1.27
 74
     0
 49
-1.27
 74
     0
 49
1.27
 74
     0
 49
-1.27
 74
     0
  0
LTYPE
  5
60
330
5
100
AcDbSymbolTableRecord
100
AcDbLinetypeTableRecord
  2
CENTER
 70
     0
  3
Center ____ _ ____ _ ____ _ ____ _ ____ _ ____
 72
    65
 73
     4
 40
10.16
 49
6.35
 74
     0
 49
-1.27
 74
     0
 49
1.27
 74
     0
 49
-1.27
 74
     0
  0
LTYPE
  5
61
330
5
100
AcDbSymbolTableRecord
100
AcDbLinetypeTableRecord
  2
CENTERX2
 70
     0
  3
Center (2x) ________  __  ________  __  _____
 72
    65
 73
     4
 40
20.32
 49
12.7
 74
     0
 49
-2.54
 74
     0
 49
2.54
 74
     0
 49
-2.54
 74
     0
  0
LTYPE
  5
62
330
5
100
AcDbSymbolTableRecord
100
AcDbLinetypeTableRecord
  2
DOT2
 70
     0
  3
Dot (.5x) ........................................
 72
    65
 73
     2
 40
0.635
 49
0.0
 74
     0
 49
-0.635
 74
     0
  0
ENDTAB
  0
TABLE
  2
LAYER
  5
2
330
0
100
AcDbSymbolTable
 70
     1
  0
LAYER
  5
10
330
2
100
AcDbSymbolTableRecord
100
AcDbLayerTableRecord
  2
0
 70
     0
 62
     7
  6
Continuous
370
    -3
390
F
  0
ENDTAB
  0
TABLE
  2
STYLE
  5
3
330
0
100
AcDbSymbolTable
 70
     2
  0
STYLE
  5
11
330
3
100
AcDbSymbolTableRecord
100
AcDbTextStyleTableRecord
  2
Standard
 70
     0
 40
0.0
 41
1.0
 50
0.0
 71
     0
 42
3.5
  3
txt
  4
bigfont
  0
STYLE
  5
63
330
3
100
AcDbSymbolTableRecord
100
AcDbTextStyleTableRecord
  2
SLDTEXTSTYLE0
 70
     0
 40
0.0
 41
0.7
 50
0.0
 71
     0
 42
3.5
  3
TXT
  4
bigfont
  0
ENDTAB
  0
TABLE
  2
VIEW
  5
6
330
0
100
AcDbSymbolTable
 70
     0
  0
ENDTAB
  0
TABLE
  2
UCS
  5
7
330
0
100
AcDbSymbolTable
 70
     0
  0
ENDTAB
  0
TABLE
  2
APPID
  5
9
330
0
100
AcDbSymbolTable
 70
     1
  0
APPID
  5
12
330
9
100
AcDbSymbolTableRecord
100
AcDbRegAppTableRecord
  2
ACAD
 70
     0
  0
ENDTAB
  0
TABLE
  2
DIMSTYLE
  5
A
330
0
100
AcDbSymbolTable
 70
     1
100
AcDbDimStyleTable
  0
DIMSTYLE
105
27
330
A
100
AcDbSymbolTableRecord
100
AcDbDimStyleTableRecord
  2
ISO-25
 70
     0
 41
2.5
 42
0.625
 43
3.75
 44
1.25
 73
     0
 74
     0
 77
     1
 78
     8
140
2.5
141
2.5
143
0.0393700787
147
0.625
171
     3
172
     1
178
     0
271
     2
272
     2
274
     3
278
    44
283
     0
284
     8
340
11
  0
ENDTAB
  0
TABLE
  2
BLOCK_RECORD
  5
1
330
0
100
AcDbSymbolTable
 70
     3
  0
BLOCK_RECORD
  5
1F
330
1
100
AcDbSymbolTableRecord
100
AcDbBlockTableRecord
  2
*Model_Space
340
22
  0
BLOCK_RECORD
  5
1B
330
1
100
AcDbSymbolTableRecord
100
AcDbBlockTableRecord
  2
*Paper_Space
340
1E
  0
BLOCK_RECORD
  5
23
330
1
100
AcDbSymbolTableRecord
100
AcDbBlockTableRecord
  2
*Paper_Space0
340
26
  0
BLOCK_RECORD
  5
1FB
330
1
100
AcDbSymbolTableRecord
100
AcDbBlockTableRecord
  2
SW_CENTERMARKSYMBOL_0
340
0
102
{BLKREFS
331
206
102
}
  0
BLOCK_RECORD
  5
2F3
330
1
100
AcDbSymbolTableRecord
100
AcDbBlockTableRecord
  2
SW_CENTERMARKSYMBOL_1
340
0
102
{BLKREFS
331
2FE
102
}
  0
ENDTAB
  0
ENDSEC
  0
SECTION
  2
BLOCKS
  0
BLOCK
  5
20
330
1F
100
AcDbEntity
  8
0
100
AcDbBlockBegin
  2
*Model_Space
 70
     0
 10
0.0
 20
0.0
 30
0.0
  3
*Model_Space
  1

  0
ENDBLK
  5
21
330
1F
100
AcDbEntity
  8
0
100
AcDbBlockEnd
  0
BLOCK
  5
1C
330
1B
100
AcDbEntity
 67
     1
  8
0
100
AcDbBlockBegin
  2
*Paper_Space
 70
     0
 10
0.0
 20
0.0
 30
0.0
  3
*Paper_Space
  1

  0
ENDBLK
  5
1D
330
1B
100
AcDbEntity
 67
     1
  8
0
100
AcDbBlockEnd
  0
BLOCK
  5
24
330
23
100
AcDbEntity
  8
0
100
AcDbBlockBegin
  2
*Paper_Space0
 70
     0
 10
0.0
 20
0.0
 30
0.0
  3
*Paper_Space0
  1

  0
ENDBLK
  5
25
330
23
100
AcDbEntity
  8
0
100
AcDbBlockEnd
  0
BLOCK
  5
1FC
330
1FB
100
AcDbEntity
  8
0
100
AcDbBlockBegin
  2
SW_CENTERMARKSYMBOL_0
 70
     0
 10
0.0
 20
0.0
 30
0.0
  3
SW_CENTERMARKSYMBOL_0
  1

  0
LINE
  5
1FE
330
1FB
100
AcDbEntity
  8
0
  6
Continuous
 62
     0
370
    18
100
AcDbLine
 10
0.0
 20
0.0
 30
0.0
 11
0.0
 21
2.5
 31
0.0
  0
LINE
  5
1FF
330
1FB
100
AcDbEntity
  8
0
  6
Continuous
 62
     0
370
    18
100
AcDbLine
 10
0.0
 20
0.0
 30
0.0
 11
-2.5
 21
0.0
 31
0.0
  0
LINE
  5
200
330
1FB
100
AcDbEntity
  8
0
  6
Continuous
 62
     0
370
    18
100
AcDbLine
 10
0.0
 20
0.0
 30
0.0
 11
0.0
 21
-2.5
 31
0.0
  0
LINE
  5
201
330
1FB
100
AcDbEntity
  8
0
  6
Continuous
 62
     0
370
    18
100
AcDbLine
 10
0.0
 20
0.0
 30
0.0
 11
2.5
 21
0.0
 31
0.0
  0
LINE
  5
202
330
1FB
100
AcDbEntity
  8
0
  6
Continuous
 62
     0
370
    18
100
AcDbLine
 10
0.0
 20
5.0
 30
0.0
 11
0.0
 21
41.5021433337
 31
0.0
  0
LINE
  5
203
330
1FB
100
AcDbEntity
  8
0
  6
Continuous
 62
     0
370
    18
100
AcDbLine
 10
-5.0
 20
0.0
 30
0.0
 11
-15.0
 21
0.0
 31
0.0
  0
LINE
  5
204
330
1FB
100
AcDbEntity
  8
0
  6
Continuous
 62
     0
370
    18
100
AcDbLine
 10
0.0
 20
-5.0
 30
0.0
 11
0.0
 21
-15.0
 31
0.0
  0
LINE
  5
205
330
1FB
100
AcDbEntity
  8
0
  6
Continuous
 62
     0
370
    18
100
AcDbLine
 10
5.0
 20
0.0
 30
0.0
 11
15.0
 21
0.0
 31
0.0
  0
ENDBLK
  5
1FD
330
1FB
100
AcDbEntity
  8
0
100
AcDbBlockEnd
  0
BLOCK
  5
2F4
330
2F3
100
AcDbEntity
  8
0
100
AcDbBlockBegin
  2
SW_CENTERMARKSYMBOL_1
 70
     0
 10
0.0
 20
0.0
 30
0.0
  3
SW_CENTERMARKSYMBOL_1
  1

  0
LINE
  5
2F6
330
2F3
100
AcDbEntity
  8
0
  6
Continuous
 62
     0
370
    18
100
AcDbLine
 10
0.0
 20
0.0
 30
0.0
 11
0.0
 21
2.5
 31
0.0
  0
LINE
  5
2F7
330
2F3
100
AcDbEntity
  8
0
  6
Continuous
 62
     0
370
    18
100
AcDbLine
 10
0.0
 20
0.0
 30
0.0
 11
-2.5
 21
0.0
 31
0.0
  0
LINE
  5
2F8
330
2F3
100
AcDbEntity
  8
0
  6
Continuous
 62
     0
370
    18
100
AcDbLine
 10
0.0
 20
0.0
 30
0.0
 11
0.0
 21
-2.5
 31
0.0
  0
LINE
  5
2F9
330
2F3
100
AcDbEntity
  8
0
  6
Continuous
 62
     0
370
    18
100
AcDbLine
 10
0.0
 20
0.0
 30
0.0
 11
2.5
 21
0.0
 31
0.0
  0
LINE
  5
2FA
330
2F3
100
AcDbEntity
  8
0
  6
Continuous
 62
     0
370
    18
100
AcDbLine
 10
0.0
 20
5.0
 30
0.0
 11
0.0
 21
14.7028377161
 31
0.0
  0
LINE
  5
2FB
330
2F3
100
AcDbEntity
  8
0
  6
Continuous
 62
     0
370
    18
100
AcDbLine
 10
-5.0
 20
0.0
 30
0.0
 11
-57.7775744823
 21
0.0
 31
0.0
  0
LINE
  5
2FC
330
2F3
100
AcDbEntity
  8
0
  6
Continuous
 62
     0
370
    18
100
AcDbLine
 10
0.0
 20
-5.0
 30
0.0
 11
0.0
 21
-14.5672748691
 31
0.0
  0
LINE
  5
2FD
330
2F3
100
AcDbEntity
  8
0
  6
Continuous
 62
     0
370
    18
100
AcDbLine
 10
5.0
 20
0.0
 30
0.0
 11
29.5937115845
 21
0.0
 31
0.0
  0
ENDBLK
  5
2F5
330
2F3
100
AcDbEntity
  8
0
100
AcDbBlockEnd
  0
ENDSEC
  0
SECTION
  2
ENTITIES
  0
MTEXT
  5
64
330
1F
100
AcDbEntity
  8
0
  6
Continuous
 62
     7
370
     0
100
AcDbMText
 10
168.336702799
 20
108.9794659333
 30
0.0
 40
4.2333333333
 41
0.0
 71
     1
 72
     1
  1
エースボールZERO　BH-0414
  7
SLDTEXTSTYLE0
 73
     1
 44
1.0
  0
ARC
  5
65
330
1F
100
AcDbEntity
  8
0
  6
Continuous
 62
     7
370
    25
100
AcDbCircle
 10
142.0341847575
 20
69.0077351442
 30
0.0
 40
20.59999999999999
100
AcDbArc
 50
90.54846352
 51
93.3558231766
  0
ARC
  5
66
330
1F
100
AcDbEntity
  8
0
  6
Continuous
 62
     7
370
    25
100
AcDbCircle
 10
142.0341847575
 20
69.0077351442
 30
0.0
 40
20.6
100
AcDbArc
 50
86.6441768145
 51
89.43957762
  0
ARC
  5
67
330
1F
100
AcDbEntity
  8
0
  6
Continuous
 62
     7
370
    25
100
AcDbCircle
 10
150.0279551259
 20
81.495314449
 30
0.0
 40
1.000000000000005
100
AcDbArc
 50
354.2894068625
 51
7.1250163489
  0
LINE
  5
68
330
1F
100
AcDbEntity
  8
0
  6
Continuous
 62
     7
370
    25
100
AcDbLine
 10
133.6275569009
 20
75.5740137106
 30
0.0
 11
133.8541847575
 21
73.3077351442
 31
0.0
  0
LINE
  5
69
330
1F
100
AcDbEntity
  8
0
  6
Continuous
 62
     7
370
    25
100
AcDbLine
 10
150.0792095716
 20
71.9579832847
 30
0.0
 11
151.0229923161
 21
81.39581073
 31
0.0
  0
LINE
  5
6A
330
1F
100
AcDbEntity
  8
0
  6
Continuous
 62
     7
370
    25
100
AcDbLine
 10
151.0202330026
 20
81.6193491836
 30
0.0
 11
150.0889325866
 21
89.0697525115
 31
0.0
  0
LINE
  5
6B
330
1F
100
AcDbEntity
  8
0
  6
Continuous
 62
     7
370
    25
100
AcDbLine
 10
133.9794369284
 20
89.0697525115
 30
0.0
 11
133.7841847575
 21
87.5077351442
 31
0.0
  0
ARC
  5
6C
330
1F
100
AcDbEntity
  8
0
  6
Continuous
 62
     7
370
    25
100
AcDbCircle
 10
134.4755758668
 20
89.0077351442
 30
0.0
 40
0.5
100
AcDbArc
 50
90.0
 51
172.8749836511
  0
ARC
  5
6D
330
1F
100
AcDbEntity
  8
0
  6
Continuous
 62
     7
370
    25
100
AcDbCircle
 10
149.5927936482
 20
89.0077351442
 30
0.0
 40
0.5000000000000034
100
AcDbArc
 50
7.1250163489
 51
90.0
  0
ARC
  5
6E
330
1F
100
AcDbEntity
  8
0
  6
Continuous
 62
     7
370
    25
100
AcDbCircle
 10
149.5816909764
 20
72.0077351442
 30
0.0
 40
0.5
100
AcDbArc
 50
270.0
 51
354.2894068625
  0
LINE
  5
6F
330
1F
100
AcDbEntity
  8
0
  6
Continuous
 62
     7
370
    25
100
AcDbLine
 10
136.5341847575
 20
71.0077351442
 30
0.0
 11
136.5341847575
 21
71.5077351442
 31
0.0
  0
LINE
  5
70
330
1F
100
AcDbEntity
  8
0
  6
Continuous
 62
     7
370
    25
100
AcDbLine
 10
134.5341847575
 20
71.5109698762
 30
0.0
 11
134.5341847575
 21
71.0077351442
 31
0.0
  0
LINE
  5
71
330
1F
100
AcDbEntity
  8
0
  6
Continuous
 62
     7
370
    25
100
AcDbLine
 10
129.0341847575
 20
64.3077351442
 30
0.0
 11
126.2841847575
 21
64.3077351442
 31
0.0
  0
LINE
  5
72
330
1F
100
AcDbEntity
  8
0
  6
Continuous
 62
     7
370
    25
100
AcDbLine
 10
126.2841847575
 20
40.3077351442
 30
0.0
 11
129.0341847575
 21
40.3077351442
 31
0.0
  0
LINE
  5
73
330
1F
100
AcDbEntity
  8
0
  6
Continuous
 62
     7
370
    25
100
AcDbLine
 10
126.2841847575
 20
64.3077351442
 30
0.0
 11
126.0341847575
 21
64.0577351442
 31
0.0
  0
LINE
  5
74
330
1F
100
AcDbEntity
  8
0
  6
Continuous
 62
     7
370
    25
100
AcDbLine
 10
126.0341847575
 20
40.5577351442
 30
0.0
 11
126.2841847575
 21
40.3077351442
 31
0.0
  0
LINE
  5
75
330
1F
100
AcDbEntity
  8
0
  6
Continuous
 62
     7
370
    25
100
AcDbLine
 10
110.5341847575
 20
59.3077351442
 30
0.0
 11
106.0341847575
 21
58.5577351442
 31
0.0
  0
LINE
  5
76
330
1F
100
AcDbEntity
  8
0
  6
Continuous
 62
     7
370
    25
100
AcDbLine
 10
106.0341847575
 20
46.0577351442
 30
0.0
 11
110.5341847575
 21
45.3077351442
 31
0.0
  0
LINE
  5
77
330
1F
100
AcDbEntity
  8
0
  6
Continuous
 62
     7
370
    25
100
AcDbLine
 10
101.5341847575
 20
59.3077351442
 30
0.0
 11
97.4519852639
 21
58.627368562
 31
0.0
  0
LINE
  5
78
330
1F
100
AcDbEntity
  8
0
  6
Continuous
 62
     7
370
    25
100
AcDbLine
 10
97.4519852639
 20
45.9881017265
 30
0.0
 11
101.5341847575
 21
45.3077351442
 31
0.0
  0
LINE
  5
79
330
1F
100
AcDbEntity
  8
0
  6
Continuous
 62
     7
370
    25
100
AcDbLine
 10
115.0341847575
 20
59.3077351442
 30
0.0
 11
110.5341847575
 21
58.5577351442
 31
0.0
  0
LINE
  5
7A
330
1F
100
AcDbEntity
  8
0
  6
Continuous
 62
     7
370
    25
100
AcDbLine
 10
110.5341847575
 20
46.0577351442
 30
0.0
 11
115.0341847575
 21
45.3077351442
 31
0.0
  0
LINE
  5
7B
330
1F
100
AcDbEntity
  8
0
  6
Continuous
 62
     7
370
    25
100
AcDbLine
 10
106.0341847575
 20
59.3077351442
 30
0.0
 11
101.5341847575
 21
58.5577351442
 31
0.0
  0
LINE
  5
7C
330
1F
100
AcDbEntity
  8
0
  6
Continuous
 62
     7
370
    25
100
AcDbLine
 10
101.5341847575
 20
46.0577351442
 30
0.0
 11
106.0341847575
 21
45.3077351442
 31
0.0
  0
LINE
  5
7D
330
1F
100
AcDbEntity
  8
0
  6
Continuous
 62
     7
370
    25
100
AcDbLine
 10
119.5341847575
 20
59.3077351442
 30
0.0
 11
115.0341847575
 21
58.5577351442
 31
0.0
  0
LINE
  5
7E
330
1F
100
AcDbEntity
  8
0
  6
Continuous
 62
     7
370
    25
100
AcDbLine
 10
115.0341847575
 20
46.0577351442
 30
0.0
 11
119.5341847575
 21
45.3077351442
 31
0.0
  0
LINE
  5
7F
330
1F
100
AcDbEntity
  8
0
  6
Continuous
 62
     7
370
    25
100
AcDbLine
 10
119.5341847575
 20
45.3077351442
 30
0.0
 11
126.0341847575
 21
45.3077351442
 31
0.0
  0
LINE
  5
80
330
1F
100
AcDbEntity
  8
0
  6
Continuous
 62
     7
370
    25
100
AcDbLine
 10
126.0341847575
 20
59.3077351442
 30
0.0
 11
119.5341847575
 21
59.3077351442
 31
0.0
  0
ARC
  5
81
330
1F
100
AcDbEntity
  8
0
  6
Continuous
 62
     7
370
    25
100
AcDbCircle
 10
97.5341847575
 20
46.4812986884
 30
0.0
 40
0.5000000000000142
100
AcDbArc
 50
180.0
 51
260.537677792
  0
ARC
  5
82
330
1F
100
AcDbEntity
  8
0
  6
Continuous
 62
     7
370
    25
100
AcDbCircle
 10
97.5341847575
 20
58.1341716
 30
0.0
 40
0.5000000000000142
100
AcDbArc
 50
99.462322208
 51
180.0
  0
LINE
  5
83
330
1F
100
AcDbEntity
  8
0
  6
Continuous
 62
     7
370
    25
100
AcDbLine
 10
154.5341847575
 20
41.6164851442
 30
0.0
 11
166.8377934846
 21
42.000972917
 31
0.0
  0
LINE
  5
84
330
1F
100
AcDbEntity
  8
0
  6
Continuous
 62
     7
370
    25
100
AcDbLine
 10
166.8377934846
 20
62.6144973715
 30
0.0
 11
154.5341847575
 21
62.9989851442
 31
0.0
  0
LINE
  5
85
330
1F
100
AcDbEntity
  8
0
  6
Continuous
 62
     7
370
    25
100
AcDbLine
 10
166.8377934846
 20
42.000972917
 30
0.0
 11
169.5341847575
 21
43.5577351442
 31
0.0
  0
LINE
  5
86
330
1F
100
AcDbEntity
  8
0
  6
Continuous
 62
     7
370
    25
100
AcDbLine
 10
169.5341847575
 20
61.0577351442
 30
0.0
 11
166.8377934846
 21
62.6144973715
 31
0.0
  0
ARC
  5
87
330
1F
100
AcDbEntity
  8
0
  6
Continuous
 62
     7
370
    25
100
AcDbCircle
 10
150.5341847575
 20
65.0577351442
 30
0.0
 40
0.25
100
AcDbArc
 50
180.0
 51
270.0
  0
ARC
  5
88
330
1F
100
AcDbEntity
  8
0
  6
Continuous
 62
     7
370
    25
100
AcDbCircle
 10
133.5341847575
 20
65.0577351442
 30
0.0
 40
0.25
100
AcDbArc
 50
270.0
 51
0.0
  0
LINE
  5
89
330
1F
100
AcDbEntity
  8
0
  6
Continuous
 62
     7
370
    25
100
AcDbLine
 10
150.2841847575
 20
70.5077351442
 30
0.0
 11
149.7841847575
 21
71.0077351442
 31
0.0
  0
LINE
  5
8A
330
1F
100
AcDbEntity
  8
0
  6
Continuous
 62
     7
370
    25
100
AcDbLine
 10
134.2841847575
 20
71.0077351442
 30
0.0
 11
133.7841847575
 21
70.5077351442
 31
0.0
  0
LINE
  5
8B
330
1F
100
AcDbEntity
  8
0
  6
Continuous
 62
     7
370
    25
100
AcDbLine
 10
150.2841847575
 20
65.0577351442
 30
0.0
 11
150.2841847575
 21
70.5077351442
 31
0.0
  0
LINE
  5
8C
330
1F
100
AcDbEntity
  8
0
  6
Continuous
 62
     7
370
    25
100
AcDbLine
 10
133.7841847575
 20
70.5077351442
 30
0.0
 11
133.7841847575
 21
65.0577351442
 31
0.0
  0
LINE
  5
8D
330
1F
100
AcDbEntity
  8
0
  6
Continuous
 62
     7
370
    25
100
AcDbLine
 10
137.0341847575
 20
71.5077351442
 30
0.0
 11
137.0341847575
 21
71.0077351442
 31
0.0
  0
LINE
  5
8E
330
1F
100
AcDbEntity
  8
0
  6
Continuous
 62
     7
370
    25
100
AcDbLine
 10
147.0341847575
 20
71.0077351442
 30
0.0
 11
147.0341847575
 21
71.5077351442
 31
0.0
  0
ARC
  5
8F
330
1F
100
AcDbEntity
  8
0
  6
Continuous
 62
     7
370
    25
100
AcDbCircle
 10
140.9672330883
 20
87.208811195
 30
0.0
 40
2.367678303593966
100
AcDbArc
 50
93.3632881502
 51
99.4868245016
  0
ARC
  5
90
330
1F
100
AcDbEntity
  8
0
  6
Continuous
 62
     7
370
    25
100
AcDbCircle
 10
143.1011401133
 20
87.2088524457
 30
0.0
 40
2.367636907673211
100
AcDbArc
 50
80.5187694298
 51
86.6367422679
  0
SPLINE
  5
91
330
1F
100
AcDbEntity
  8
0
  6
Continuous
 62
     7
370
    25
100
AcDbSpline
210
0.0
220
0.0
230
1.0
 70
     8
 71
     3
 72
    15
 73
    11
 74
     0
 42
0.00000001
 43
0.00000001
 40
0.0
 40
0.0
 40
0.0
 40
0.0
 40
0.1233867499278388
 40
0.2487396502211602
 40
0.3739317114754985
 40
0.4999973617625659
 40
0.6259591330513601
 40
0.7512551380600303
 40
0.8765613478174267
 40
1.0
 40
1.0
 40
1.0
 40
1.0
 10
141.9713018926997
 20
89.607628041542
 30
0.0
 10
141.9741800938915
 20
89.60762870061414
 30
0.0
 10
141.9799823600032
 20
89.60763002926065
 30
0.0
 10
141.9955117647239
 20
89.60763397888778
 30
0.0
 10
142.0138663465974
 20
89.60763576123718
 30
0.0
 10
142.0341791630803
 20
89.60763731481514
 30
0.0
 10
142.0544975807954
 20
89.60763576068018
 30
0.0
 10
142.0728504499595
 20
89.60763398379963
 30
0.0
 10
142.088388554355
 20
89.60763001628149
 30
0.0
 10
142.0941891163863
 20
89.60762869648552
 30
0.0
 10
142.0970676223118
 20
89.607628041542
 30
0.0
  0
ARC
  5
92
330
1F
100
AcDbEntity
  8
0
  6
Continuous
 62
     7
370
    25
100
AcDbCircle
 10
141.9721963204
 20
87.0632786287
 30
0.0
 40
2.544349570060727
100
AcDbArc
 50
90.0201414662
 51
95.4127462174
  0
SPLINE
  5
93
330
1F
100
AcDbEntity
  8
0
  6
Continuous
 62
     7
370
    25
100
AcDbSpline
210
0.0
220
0.0
230
1.0
 70
     8
 71
     3
 72
    15
 73
    11
 74
     0
 42
0.00000001
 43
0.00000001
 40
0.0
 40
0.0
 40
0.0
 40
0.0
 40
0.1261585224210644
 40
0.2513121451548802
 40
0.3762846848783791
 40
0.4993062783340883
 40
0.6261594278645745
 40
0.7521171342021309
 40
0.8758196922692798
 40
1.0
 40
1.0
 40
1.0
 40
1.0
 10
141.795071231828
 20
89.59438491013128
 30
0.0
 10
141.7898401353393
 20
89.5943339843808
 30
0.0
 10
141.7794196099967
 20
89.59423253852243
 30
0.0
 10
141.7646330594823
 20
89.5942283568852
 30
0.0
 10
141.7514427068567
 20
89.5943276957058
 30
0.0
 10
141.7405721320155
 20
89.59454823790888
 30
0.0
 10
141.7325645446869
 20
89.59487210531034
 30
0.0
 10
141.7283979176542
 20
89.59529197515782
 30
0.0
 10
141.7277768661426
 20
89.59577069222357
 30
0.0
 10
141.7307159784974
 20
89.59611198146914
 30
0.0
 10
141.7321883669801
 20
89.59628295497873
 30
0.0
  0
ARC
  5
94
330
1F
100
AcDbEntity
  8
0
  6
Continuous
 62
     7
370
    25
100
AcDbCircle
 10
142.0341847575
 20
69.0077351442
 30
0.0
 40
20.58803836847347
100
AcDbArc
 50
89.3345405821
 51
90.66545941
  0
SPLINE
  5
95
330
1F
100
AcDbEntity
  8
0
  6
Continuous
 62
     7
370
    25
100
AcDbSpline
210
0.0
220
0.0
230
1.0
 70
     8
 71
     3
 72
    15
 73
    11
 74
     0
 42
0.00000001
 43
0.00000001
 40
0.0
 40
0.0
 40
0.0
 40
0.0
 40
0.1241186784437694
 40
0.2478474916628981
 40
0.373657414947894
 40
0.5005082335853294
 40
0.6234527658309922
 40
0.7484986612277523
 40
0.8736976492452768
 40
1.0
 40
1.0
 40
1.0
 40
1.0
 10
142.3361811507573
 20
89.59628295494544
 30
0.0
 10
142.3376522233661
 20
89.59611207466695
 30
0.0
 10
142.3405897478445
 20
89.59577085085657
 30
0.0
 10
142.3399730133444
 20
89.59529231456908
 30
0.0
 10
142.3358110517498
 20
89.59487252469718
 30
0.0
 10
142.3278123039514
 20
89.59454873685077
 30
0.0
 10
142.3169462124146
 20
89.59432803864509
 30
0.0
 10
142.30375849459
 20
89.5942284467349
 30
0.0
 10
142.2889640480148
 20
89.59423236113352
 30
0.0
 10
142.2785354571074
 20
89.59433391193893
 30
0.0
 10
142.273298285993
 20
89.59438491009865
 30
0.0
  0
ARC
  5
96
330
1F
100
AcDbEntity
  8
0
  6
Continuous
 62
     7
370
    25
100
AcDbCircle
 10
142.0961731946
 20
87.0632785765
 30
0.0
 40
2.544349622297632
100
AcDbArc
 50
84.5872538302
 51
89.9798585321
  0
SPLINE
  5
97
330
1F
100
AcDbEntity
  8
0
  6
Continuous
 62
     7
370
    25
100
AcDbSpline
210
0.0
220
0.0
230
1.0
 70
     8
 71
     3
 72
    13
 73
     9
 74
     0
 42
0.00000001
 43
0.00000001
 40
0.0
 40
0.0
 40
0.0
 40
0.0
 40
0.1374692963454099
 40
0.2749820892813126
 40
0.4163021045260215
 40
0.5576318202769774
 40
0.777008491451321
 40
1.0
 40
1.0
 40
1.0
 40
1.0
 10
122.5099839901497
 20
80.78410774626377
 30
0.0
 10
122.9953118815134
 20
80.69786733683488
 30
0.0
 10
123.9661212265933
 20
80.52535923069276
 30
0.0
 10
125.3868135944031
 20
80.12637715736977
 30
0.0
 10
126.7789099194192
 20
79.62606774589749
 30
0.0
 10
128.3832691036609
 20
78.89724727429477
 30
0.0
 10
130.1741369792932
 20
77.88102832409311
 30
0.0
 10
131.4108003425082
 20
76.89344503778956
 30
0.0
 10
132.0341847575058
 20
76.39561834743364
 30
0.0
  0
ELLIPSE
  5
98
330
1F
100
AcDbEntity
  8
0
  6
Continuous
 62
     7
370
    25
100
AcDbEllipse
 10
244.54808023
 20
74.1295578626
 30
0.0
 11
171.000000000001
 21
0.0
 31
0.0
210
0.0
220
0.0
230
1.0
 40
0.0555555556
 41
2.292395939553286
 42
2.365524293035123
  0
LINE
  5
99
330
1F
100
AcDbEntity
  8
0
  6
Continuous
 62
     7
370
    25
100
AcDbLine
 10
131.5878014026
 20
81.2616829349
 30
0.0
 11
132.0341847575
 21
81.224220969
 31
0.0
  0
LINE
  5
9A
330
1F
100
AcDbEntity
  8
0
  6
Continuous
 62
     7
370
    25
100
AcDbLine
 10
132.0341847575
 20
76.3956183474
 30
0.0
 11
132.0341847575
 21
81.224220969
 31
0.0
  0
SPLINE
  5
9B
330
1F
100
AcDbEntity
  8
0
  6
Continuous
 62
     7
370
    25
100
AcDbSpline
210
0.0
220
0.0
230
1.0
 70
     8
 71
     3
 72
    11
 73
     7
 74
     0
 42
0.00000001
 43
0.00000001
 40
0.0
 40
0.0
 40
0.0
 40
0.0
 40
0.2795638428677817
 40
0.5590315779132448
 40
0.7794196683689383
 40
0.9999999999999999
 40
0.9999999999999999
 40
0.9999999999999999
 40
0.9999999999999999
 10
119.5978568034282
 20
81.00773514423753
 30
0.0
 10
119.4742834576521
 20
81.0462539961856
 30
0.0
 10
119.2271792478637
 20
81.12327845815844
 30
0.0
 10
118.9734233399404
 20
81.65607635594813
 30
0.0
 10
118.8568048989599
 20
82.28381292281452
 30
0.0
 10
118.8833242849951
 20
82.68479573898315
 30
0.0
 10
118.8965897586057
 20
82.88537455174774
 30
0.0
  0
SPLINE
  5
9C
330
1F
100
AcDbEntity
  8
0
  6
Continuous
 62
     7
370
    25
100
AcDbSpline
210
0.0
220
0.0
230
1.0
 70
     8
 71
     3
 72
     9
 73
     5
 74
     0
 42
0.00000001
 43
0.00000001
 40
0.0
 40
0.0
 40
0.0
 40
0.0
 40
0.4986740982738612
 40
1.0
 40
1.0
 40
1.0
 40
1.0
 10
120.1881502996746
 20
82.9151755771782
 30
0.0
 10
119.9816766586048
 20
82.91664065643485
 30
0.0
 10
119.5676314098452
 20
82.91957860581245
 30
0.0
 10
119.1206653079003
 20
82.89679532688073
 30
0.0
 10
118.8965896238018
 20
82.88537347902603
 30
0.0
  0
SPLINE
  5
9D
330
1F
100
AcDbEntity
  8
0
  6
Continuous
 62
     7
370
    25
100
AcDbSpline
210
0.0
220
0.0
230
1.0
 70
     8
 71
     3
 72
    13
 73
     9
 74
     0
 42
0.00000001
 43
0.00000001
 40
0.0
 40
0.0
 40
0.0
 40
0.0
 40
0.3327087167328941
 40
0.5628656559531299
 40
0.69871241253847
 40
0.8016200683166478
 40
0.9052998751809794
 40
1.0
 40
1.0
 40
1.0
 40
1.0
 10
122.1789510399453
 20
80.83228218308838
 30
0.0
 10
121.8165602096181
 20
80.91806775800654
 30
0.0
 10
121.2034793308647
 20
81.06319697004454
 30
0.0
 10
120.5539340062023
 20
81.51356366647184
 30
0.0
 10
120.2112369906042
 20
81.91330481507771
 30
0.0
 10
120.0623133794604
 20
82.26919706148927
 30
0.0
 10
120.0501406600338
 20
82.61663090852348
 30
0.0
 10
120.1435572538539
 20
82.81870977970257
 30
0.0
 10
120.1881512963051
 20
82.91517565788672
 30
0.0
  0
SPLINE
  5
9E
330
1F
100
AcDbEntity
  8
0
  6
Continuous
 62
     7
370
    25
100
AcDbSpline
210
0.0
220
0.0
230
1.0
 70
     8
 71
     3
 72
     9
 73
     5
 74
     0
 42
0.00000001
 43
0.00000001
 40
0.0
 40
0.0
 40
0.0
 40
0.0
 40
0.5551829690770672
 40
1.0
 40
1.0
 40
1.0
 40
1.0
 10
119.5978568034282
 20
81.00773514423753
 30
0.0
 10
120.1278796771494
 20
80.99473612374645
 30
0.0
 10
121.0825611123568
 20
80.97132218417141
 30
0.0
 10
121.8414045535143
 20
80.87508854481972
 30
0.0
 10
122.1789510399453
 20
80.83228218308838
 30
0.0
  0
LINE
  5
9F
330
1F
100
AcDbEntity
  8
0
  6
Continuous
 62
     7
370
    25
100
AcDbLine
 10
132.0341847575
 20
86.5077351442
 30
0.0
 11
131.5878014026
 21
86.5077351442
 31
0.0
  0
ARC
  5
A0
330
1F
100
AcDbEntity
  8
0
  6
Continuous
 62
     7
370
    25
100
AcDbCircle
 10
138.4106138162
 20
86.8815812981
 30
0.0
 40
6.833046917558791
100
AcDbArc
 50
170.513808076
 51
183.1363032674
  0
ARC
  5
A1
330
1F
100
AcDbEntity
  8
0
  6
Continuous
 62
     7
370
    25
100
AcDbCircle
 10
131.6666168912
 20
87.2174851958
 30
0.0
 40
0.790262139487503
100
AcDbArc
 50
62.2819181136
 51
89.6817467964
  0
LINE
  5
A2
330
1F
100
AcDbEntity
  8
0
  6
Continuous
 62
     7
370
    25
100
AcDbLine
 10
132.0341847575
 20
86.5077351442
 30
0.0
 11
132.0341847575
 21
87.9170622914
 31
0.0
  0
LINE
  5
A3
330
1F
100
AcDbEntity
  8
0
  6
Continuous
 62
     7
370
    25
100
AcDbLine
 10
131.5878014026
 20
86.5077351442
 30
0.0
 11
131.5878014026
 21
81.2616829349
 31
0.0
  0
LINE
  5
A4
330
1F
100
AcDbEntity
  8
0
  6
Continuous
 62
     7
370
    25
100
AcDbLine
 10
132.0341847575
 20
81.224220969
 30
0.0
 11
132.0341847575
 21
86.5077351442
 31
0.0
  0
LINE
  5
A5
330
1F
100
AcDbEntity
  8
0
  6
Continuous
 62
     7
370
    25
100
AcDbLine
 10
131.671006432
 20
88.0077351442
 30
0.0
 11
120.2552771485
 21
88.0077351442
 31
0.0
  0
LINE
  5
A6
330
1F
100
AcDbEntity
  8
0
  6
Continuous
 62
     7
370
    25
100
AcDbLine
 10
122.2541233911
 20
86.5077351442
 30
0.0
 11
131.5878014026
 21
86.5077351442
 31
0.0
  0
SPLINE
  5
A7
330
1F
100
AcDbEntity
  8
0
  6
Continuous
 62
     7
370
    25
100
AcDbSpline
210
0.0
220
0.0
230
1.0
 70
     8
 71
     3
 72
    15
 73
    11
 74
     0
 42
0.00000001
 43
0.00000001
 40
0.0
 40
0.0
 40
0.0
 40
0.0
 40
0.2070474010410781
 40
0.417596863024684
 40
0.5931232720441638
 40
0.6923428991082528
 40
0.773099683107911
 40
0.8543284120985949
 40
0.9261475166372038
 40
1.0
 40
1.0
 40
1.0
 40
1.0
 10
120.2527108618203
 20
88.00772041813151
 30
0.0
 10
120.4838000987851
 20
88.00387017929019
 30
0.0
 10
120.9498872843767
 20
87.99610457752968
 30
0.0
 10
121.5744850836838
 20
87.90945461479224
 30
0.0
 10
122.0361642741145
 20
87.73950410524962
 30
0.0
 10
122.2980679730983
 20
87.51013924790108
 30
0.0
 10
122.4185346292294
 20
87.27234578262176
 30
0.0
 10
122.4373286674252
 20
87.01043280534851
 30
0.0
 10
122.3762902754251
 20
86.74489040333313
 30
0.0
 10
122.2950951818103
 20
86.5875927803194
 30
0.0
 10
122.2539309480245
 20
86.50784613751838
 30
0.0
  0
LINE
  5
A8
330
1F
100
AcDbEntity
  8
0
  6
Continuous
 62
     7
370
    25
100
AcDbLine
 10
120.187977226
 20
82.9152760636
 30
0.0
 11
122.2539309609
 21
86.5078461502
 31
0.0
  0
ARC
  5
A9
330
1F
100
AcDbEntity
  8
0
  6
Continuous
 62
     7
370
    25
100
AcDbCircle
 10
119.5978568035
 20
61.934727897
 30
0.0
 40
19.07300724724769
100
AcDbArc
 50
81.2175477188
 51
82.2224666688
  0
SPLINE
  5
AA
330
1F
100
AcDbEntity
  8
0
  6
Continuous
 62
     7
370
    25
100
AcDbSpline
210
0.0
220
0.0
230
1.0
 70
     8
 71
     3
 72
    11
 73
     7
 74
     0
 42
0.00000001
 43
0.00000001
 40
0.0
 40
0.0
 40
0.0
 40
0.0
 40
0.2491150002829079
 40
0.4989585322854286
 40
0.7493328274976518
 40
1.0
 40
1.0
 40
1.0
 40
1.0
 10
118.8965897586057
 20
82.88537455174774
 30
0.0
 10
118.4708784772923
 20
82.8591214437789
 30
0.0
 10
117.6182109307364
 20
82.80653845116434
 30
0.0
 10
116.2546451694846
 20
82.72221742093782
 30
0.0
 10
114.8539725522724
 20
82.6354841521261
 30
0.0
 10
113.9031523167852
 20
82.57650658669851
 30
0.0
 10
113.4274643042246
 20
82.54700056669934
 30
0.0
  0
SPLINE
  5
AB
330
1F
100
AcDbEntity
  8
0
  6
Continuous
 62
     7
370
    25
100
AcDbSpline
210
0.0
220
0.0
230
1.0
 70
     8
 71
     3
 72
     9
 73
     5
 74
     0
 42
0.00000001
 43
0.00000001
 40
0.0
 40
0.0
 40
0.0
 40
0.0
 40
0.5599987526606142
 40
1.0
 40
1.0
 40
1.0
 40
1.0
 10
115.991365671882
 20
87.52082361839133
 30
0.0
 10
115.5115994139948
 20
86.59298231854203
 30
0.0
 10
114.6548720452145
 20
84.93611916404204
 30
0.0
 10
113.8025062967419
 20
83.27701046413158
 30
0.0
 10
113.4274643042246
 20
82.54700056669934
 30
0.0
  0
SPLINE
  5
AC
330
1F
100
AcDbEntity
  8
0
  6
Continuous
 62
     7
370
    25
100
AcDbSpline
210
0.0
220
0.0
230
1.0
 70
     8
 71
     3
 72
     9
 73
     5
 74
     0
 42
0.00000001
 43
0.00000001
 40
0.0
 40
0.0
 40
0.0
 40
0.0
 40
0.5600000882143319
 40
1.0
 40
1.0
 40
1.0
 40
1.0
 10
116.4958528094341
 20
88.49464667008345
 30
0.0
 10
116.4016403939024
 20
88.31288779925167
 30
0.0
 10
116.2334039640974
 20
87.98831843818003
 30
0.0
 10
116.0653218064289
 20
87.66366923788323
 30
0.0
 10
115.991365671882
 20
87.52082361839133
 30
0.0
  0
SPLINE
  5
AD
330
1F
100
AcDbEntity
  8
0
  6
Continuous
 62
     7
370
    25
100
AcDbSpline
210
0.0
220
0.0
230
1.0
 70
     8
 71
     3
 72
    10
 73
     6
 74
     0
 42
0.00000001
 43
0.00000001
 40
0.0
 40
0.0
 40
0.0
 40
0.0
 40
0.428349366631063
 40
0.7616603141144169
 40
1.0
 40
1.0
 40
1.0
 40
1.0
 10
116.4958528094343
 20
88.49464667008367
 30
0.0
 10
116.9427800107174
 20
88.39285040726051
 30
0.0
 10
117.7374741063169
 20
88.21184354800597
 30
0.0
 10
118.7740289073225
 20
88.03818116505288
 30
0.0
 10
119.3598942403229
 20
88.01669388715709
 30
0.0
 10
119.6041604954229
 20
88.00773514423743
 30
0.0
  0
LINE
  5
AE
330
1F
100
AcDbEntity
  8
0
  6
Continuous
 62
     7
370
    25
100
AcDbLine
 10
119.6020603354
 20
88.0077351442
 30
0.0
 11
120.2527138014
 21
88.0077351442
 31
0.0
  0
LINE
  5
AF
330
1F
100
AcDbEntity
  8
0
  6
Continuous
 62
     7
370
    25
100
AcDbLine
 10
132.0341847575
 20
88.0077351442
 30
0.0
 11
131.671006432
 21
88.0077351442
 31
0.0
  0
LINE
  5
B0
330
1F
100
AcDbEntity
  8
0
  6
Continuous
 62
     7
370
    25
100
AcDbLine
 10
132.0341847575
 20
87.9170622914
 30
0.0
 11
132.0341847575
 21
88.0077351442
 31
0.0
  0
SPLINE
  5
B1
330
1F
100
AcDbEntity
  8
0
  6
Continuous
 62
     7
370
    25
100
AcDbSpline
210
0.0
220
0.0
230
1.0
 70
    24
 71
     3
 72
    11
 73
     7
 74
     0
 42
0.00000001
 43
0.00000001
 40
0.0
 40
0.0
 40
0.0
 40
0.0
 40
0.2799857774483057
 40
0.5599458358671288
 40
0.779998565900937
 40
0.9999999999999999
 40
0.9999999999999999
 40
0.9999999999999999
 40
0.9999999999999999
 10
113.4667162714068
 20
81.00773514423753
 30
0.0
 10
114.0640402584908
 20
81.00773514423753
 30
0.0
 10
115.2586333634673
 20
81.00773514423753
 30
0.0
 10
116.8859951189499
 20
81.00773514423753
 30
0.0
 10
118.341724688448
 20
81.00773514423753
 30
0.0
 10
119.1791786383558
 20
81.00773514423751
 30
0.0
 10
119.5978568034282
 20
81.00773514423753
 30
0.0
  0
SPLINE
  5
B2
330
1F
100
AcDbEntity
  8
0
  6
Continuous
 62
     7
370
    25
100
AcDbSpline
210
0.0
220
0.0
230
1.0
 70
     8
 71
     3
 72
    11
 73
     7
 74
     0
 42
0.00000001
 43
0.00000001
 40
0.0
 40
0.0
 40
0.0
 40
0.0
 40
0.2500000000000001
 40
0.4999999999999997
 40
0.75
 40
1.0
 40
1.0
 40
1.0
 40
1.0
 10
113.4667162714068
 20
81.00773514423753
 30
0.0
 10
113.4614852376467
 20
81.03105667654583
 30
0.0
 10
113.4510231701264
 20
81.07769974116242
 30
0.0
 10
113.4379086822591
 20
81.43568080952912
 30
0.0
 10
113.4288843387652
 20
81.94587374757106
 30
0.0
 10
113.4279376490715
 20
82.34662496032325
 30
0.0
 10
113.4274643042246
 20
82.54700056669934
 30
0.0
  0
SPLINE
  5
B3
330
1F
100
AcDbEntity
  8
0
  6
Continuous
 62
     7
370
    25
100
AcDbSpline
210
0.0
220
0.0
230
1.0
 70
     8
 71
     3
 72
    11
 73
     7
 74
     0
 42
0.00000001
 43
0.00000001
 40
0.0
 40
0.0
 40
0.0
 40
0.0
 40
0.2499999999999989
 40
0.4999999999999996
 40
0.749999999999999
 40
1.0
 40
1.0
 40
1.0
 40
1.0
 10
129.0211142237247
 20
88.0077351442375
 30
0.0
 10
129.0228006942286
 20
88.01499745388965
 30
0.0
 10
129.0261736352364
 20
88.02952207319393
 30
0.0
 10
129.0304535321377
 20
88.14149427678643
 30
0.0
 10
129.0334956529515
 20
88.3020058548114
 30
0.0
 10
129.0339640261741
 20
88.43043306499284
 30
0.0
 10
129.0341982127854
 20
88.49464667008357
 30
0.0
  0
SPLINE
  5
B4
330
1F
100
AcDbEntity
  8
0
  6
Continuous
 62
     7
370
    25
100
AcDbSpline
210
0.0
220
0.0
230
1.0
 70
     8
 71
     3
 72
    13
 73
     9
 74
     0
 42
0.00000001
 43
0.00000001
 40
0.0
 40
0.0
 40
0.0
 40
0.0
 40
0.2886949682914851
 40
0.554553683594315
 40
0.6780091910936104
 40
0.7888922083801199
 40
0.8964194071406489
 40
1.0
 40
1.0
 40
1.0
 40
1.0
 10
129.0341982127854
 20
88.49464667008357
 30
0.0
 10
129.3059234033616
 20
88.45601651620558
 30
0.0
 10
129.827879869216
 20
88.38181191798333
 30
0.0
 10
130.4254552773193
 20
88.29874919845471
 30
0.0
 10
130.7893094574988
 20
88.24976826784611
 30
0.0
 10
130.9858569490645
 20
88.22375130807461
 30
0.0
 10
131.1121402381707
 20
88.20839249773039
 30
0.0
 10
131.1269287401418
 20
88.20795151404293
 30
0.0
 10
131.1341847575057
 20
88.20773514423753
 30
0.0
  0
SPLINE
  5
B5
330
1F
100
AcDbEntity
  8
0
  6
Continuous
 62
     7
370
    25
100
AcDbSpline
210
0.0
220
0.0
230
1.0
 70
     8
 71
     3
 72
    11
 73
     7
 74
     0
 42
0.00000001
 43
0.00000001
 40
0.0
 40
0.0
 40
0.0
 40
0.0
 40
0.2500000000000007
 40
0.5000000000000022
 40
0.7500000000000036
 40
1.0
 40
1.0
 40
1.0
 40
1.0
 10
131.1341847575057
 20
88.20773514423752
 30
0.0
 10
131.1594446957099
 20
88.17835747440574
 30
0.0
 10
131.2099645721182
 20
88.11960213474221
 30
0.0
 10
131.3088231813186
 20
88.05701199186322
 30
0.0
 10
131.418210461142
 20
88.0154791902303
 30
0.0
 10
131.4955266587178
 20
88.01031649290178
 30
0.0
 10
131.5341847575058
 20
88.00773514423753
 30
0.0
  0
LINE
  5
B6
330
1F
100
AcDbEntity
  8
0
  6
Continuous
 62
     7
370
    25
100
AcDbLine
 10
129.0341982128
 20
88.4946466701
 30
0.0
 11
116.4958528094
 21
88.4946466701
 31
0.0
  0
LINE
  5
B7
330
1F
100
AcDbEntity
  8
0
  6
Continuous
 62
     7
370
    25
100
AcDbLine
 10
131.1341847575
 20
88.2077351442
 30
0.0
 11
128.7341847575
 21
91.4077351442
 31
0.0
  0
LINE
  5
B8
330
1F
100
AcDbEntity
  8
0
  6
Continuous
 62
     7
370
    25
100
AcDbLine
 10
126.9106389593
 20
91.3260590081
 30
0.0
 11
129.0341982128
 21
88.4946466701
 31
0.0
  0
ELLIPSE
  5
B9
330
1F
100
AcDbEntity
  8
0
  6
Continuous
 62
     7
370
    25
100
AcDbEllipse
 10
126.9341847575
 20
91.3077351442
 30
0.0
 11
1.56006363488487
 21
0.4198716740993121
 31
0.0
210
0.0
220
0.0
230
0.9999999999999999
 40
0.0147408623
 41
0.9331929812042498
 42
1.581922327328496
  0
SPLINE
  5
BA
330
1F
100
AcDbEntity
  8
0
  6
Continuous
 62
     7
370
    25
100
AcDbSpline
210
0.0
220
0.0
230
1.0
 70
     8
 71
     3
 72
    11
 73
     7
 74
     0
 42
0.00000001
 43
0.00000001
 40
0.0
 40
0.0
 40
0.0
 40
0.0
 40
0.2307374805226512
 40
0.4903955403005855
 40
0.7438105520730652
 40
0.9999999999999999
 40
0.9999999999999999
 40
0.9999999999999999
 40
0.9999999999999999
 10
127.8578727611408
 20
91.57615113939084
 30
0.0
 10
127.9495047659003
 20
91.59486698979528
 30
0.0
 10
128.1442539084369
 20
91.63464453070665
 30
0.0
 10
128.3917614756749
 20
91.61732454214805
 30
0.0
 10
128.601570205069
 20
91.5463396498219
 30
0.0
 10
128.6898197545493
 20
91.4541040320182
 30
0.0
 10
128.7341847575057
 20
91.40773514423752
 30
0.0
  0
LINE
  5
BB
330
1F
100
AcDbEntity
  8
0
  6
Continuous
 62
     7
370
    25
100
AcDbLine
 10
113.4274643042
 20
82.5470005667
 30
0.0
 11
91.7999161355
 21
82.5470005667
 31
0.0
  0
LINE
  5
BC
330
1F
100
AcDbEntity
  8
0
  6
Continuous
 62
     7
370
    25
100
AcDbLine
 10
91.7999161355
 20
82.5470005667
 30
0.0
 11
92.0223610467
 21
91.0418290032
 31
0.0
  0
ARC
  5
BD
330
1F
100
AcDbEntity
  8
0
  6
Continuous
 62
     7
370
    25
100
AcDbCircle
 10
92.6339011616
 20
90.5260590081
 30
0.0
 40
0.8000000000000005
100
AcDbArc
 50
90.0
 51
139.8558773282
  0
LINE
  5
BE
330
1F
100
AcDbEntity
  8
0
  6
Continuous
 62
     7
370
    25
100
AcDbLine
 10
92.6339011616
 20
91.3260590081
 30
0.0
 11
126.9106389593
 21
91.3260590081
 31
0.0
  0
SPLINE
  5
BF
330
1F
100
AcDbEntity
  8
0
  6
Continuous
 62
     7
370
    25
100
AcDbSpline
210
0.0
220
0.0
230
1.0
 70
     8
 71
     3
 72
    11
 73
     7
 74
     0
 42
0.00000001
 43
0.00000001
 40
0.0
 40
0.0
 40
0.0
 40
0.0
 40
0.249999999999998
 40
0.4999999999999973
 40
0.7500000000000001
 40
1.0
 40
1.0
 40
1.0
 40
1.0
 10
92.6339011615706
 20
91.32605900805304
 30
0.0
 10
92.63422902282642
 20
91.41595805518004
 30
0.0
 10
92.63488474533804
 20
91.59575614943407
 30
0.0
 10
92.63914371447729
 20
91.82047235866902
 30
0.0
 10
92.64513557013913
 20
91.97723344369851
 30
0.0
 10
92.64985768755012
 20
91.99756791072451
 30
0.0
 10
92.65221874625564
 20
92.00773514423751
 30
0.0
  0
LINE
  5
C0
330
1F
100
AcDbEntity
  8
0
  6
Continuous
 62
     7
370
    25
100
AcDbLine
 10
126.928956544
 20
92.0077351442
 30
0.0
 11
92.6522187463
 21
92.0077351442
 31
0.0
  0
SPLINE
  5
C1
330
1F
100
AcDbEntity
  8
0
  6
Continuous
 62
     7
370
    25
100
AcDbSpline
210
0.0
220
0.0
230
1.0
 70
     8
 71
     3
 72
    11
 73
     7
 74
     0
 42
0.00000001
 43
0.00000001
 40
0.0
 40
0.0
 40
0.0
 40
0.0
 40
0.2499999999999988
 40
0.5000000000000004
 40
0.7499999999999976
 40
1.0
 40
1.0
 40
1.0
 40
1.0
 10
126.9289565439933
 20
92.00773514423751
 30
0.0
 10
126.9265954852878
 20
91.99756791072453
 30
0.0
 10
126.9218733678768
 20
91.97723344369852
 30
0.0
 10
126.915881512215
 20
91.820472358669
 30
0.0
 10
126.9116225430757
 20
91.59575614943408
 30
0.0
 10
126.9109668205641
 20
91.41595805518004
 30
0.0
 10
126.9106389593083
 20
91.32605900805304
 30
0.0
  0
LINE
  5
C2
330
1F
100
AcDbEntity
  8
0
  6
Continuous
 62
     7
370
    25
100
AcDbLine
 10
127.5341847575
 20
92.0077351442
 30
0.0
 11
126.928956544
 21
92.0077351442
 31
0.0
  0
SPLINE
  5
C3
330
1F
100
AcDbEntity
  8
0
  6
Continuous
 62
     7
370
    25
100
AcDbSpline
210
0.0
220
0.0
230
1.0
 70
     8
 71
     3
 72
    10
 73
     6
 74
     0
 42
0.00000001
 43
0.00000001
 40
0.0
 40
0.0
 40
0.0
 40
0.0
 40
0.2808335173386708
 40
0.5616510917414125
 40
1.0
 40
1.0
 40
1.0
 40
1.0
 10
127.5341847575057
 20
92.00773514423751
 30
0.0
 10
127.5725352064682
 20
92.0001605359696
 30
0.0
 10
127.6492339272357
 20
91.98501174944474
 30
0.0
 10
127.7743882772777
 20
91.85138081638506
 30
0.0
 10
127.826257343631
 20
91.68038010202682
 30
0.0
 10
127.8578727611408
 20
91.57615113939083
 30
0.0
  0
LINE
  5
C4
330
1F
100
AcDbEntity
  8
0
  6
Continuous
 62
     7
370
    25
100
AcDbLine
 10
91.7999161355
 20
82.5470005667
 30
0.0
 11
91.756923708
 21
82.4841134818
 31
0.0
  0
ELLIPSE
  5
C5
330
1F
100
AcDbEntity
  8
0
  6
Continuous
 62
     7
370
    25
100
AcDbEllipse
 10
87.5341847575
 20
82.5077351442
 30
0.0
 11
0.5000325503427944
 21
1.499994860147993
 31
0.0
210
0.0
220
0.0
230
0.9999999999999998
 40
0.0078530307
 41
2.363888000156454
 42
3.144210503886046
  0
SPLINE
  5
C6
330
1F
100
AcDbEntity
  8
0
  6
Continuous
 62
     7
370
    25
100
AcDbSpline
210
0.0
220
0.0
230
1.0
 70
     8
 71
     3
 72
    12
 73
     8
 74
     0
 42
0.00000001
 43
0.00000001
 40
0.0
 40
0.0
 40
0.0
 40
0.0
 40
0.0715202026166142
 40
0.1260836237049476
 40
0.3855387013103047
 40
0.8475626424815554
 40
1.0
 40
1.0
 40
1.0
 40
1.0
 10
87.50875614450517
 20
81.83604309388672
 30
0.0
 10
87.4943020097263
 20
81.8329344460219
 30
0.0
 10
87.46882068244024
 20
81.82745418207857
 30
0.0
 10
87.40234895479406
 20
81.78786563665815
 30
0.0
 10
87.29764456766104
 20
81.68143150367588
 30
0.0
 10
87.21081600881469
 20
81.55092448796763
 30
0.0
 10
87.17781944210485
 20
81.4634147740043
 30
0.0
 10
87.1696335572539
 20
81.44170510802174
 30
0.0
  0
ELLIPSE
  5
C7
330
1F
100
AcDbEntity
  8
0
  6
Continuous
 62
     7
370
    25
100
AcDbEllipse
 10
55.6100479169
 20
82.5077351442
 30
0.0
 11
36.17607470647087
 21
0.04043410480177556
 31
0.0
210
0.0
220
0.0
230
1.0
 40
0.0414488012
 41
5.791928562280354
 42
6.243021298617577
  0
ELLIPSE
  5
C8
330
1F
100
AcDbEntity
  8
0
  6
Continuous
 62
     7
370
    25
100
AcDbEllipse
 10
91.8391681027
 20
82.5077351442
 30
0.0
 11
0.03725061189165046
 21
1.499998630535856
 31
0.0
210
0.0
220
0.0
230
1.0
 40
0.0544129722
 41
1.585352277991072
 42
1.587896030767902
  0
LINE
  5
C9
330
1F
100
AcDbEntity
  8
0
  6
Continuous
 62
     7
370
    25
100
AcDbLine
 10
87.0341847575
 20
81.0077351442
 30
0.0
 11
113.4667162714
 21
81.0077351442
 31
0.0
  0
SPLINE
  5
CA
330
1F
100
AcDbEntity
  8
0
  6
Continuous
 62
     7
370
    25
100
AcDbSpline
210
0.0
220
0.0
230
1.0
 70
     8
 71
     3
 72
    11
 73
     7
 74
     0
 42
0.00000001
 43
0.00000001
 40
0.0
 40
0.0
 40
0.0
 40
0.0
 40
0.2561894651307314
 40
0.509604493920692
 40
0.769274206655365
 40
1.0
 40
1.0
 40
1.0
 40
1.0
 10
128.7341847575057
 20
91.40773514423752
 30
0.0
 10
128.6585886252119
 20
91.49574550922594
 30
0.0
 10
128.5082150385372
 20
91.67081311978056
 30
0.0
 10
128.2090022525819
 20
91.86100068948214
 30
0.0
 10
127.8814825176952
 20
91.9849994902078
 30
0.0
 10
127.6453041368814
 20
92.00046077608697
 30
0.0
 10
127.5341847575057
 20
92.00773514423751
 30
0.0
  0
LINE
  5
CB
330
1F
100
AcDbEntity
  8
0
  6
Continuous
 62
     7
370
    25
100
AcDbLine
 10
92.0071158225
 20
91.0005453788
 30
0.0
 11
91.9802454636
 21
91.0139805583
 31
0.0
  0
LINE
  5
CC
330
1F
100
AcDbEntity
  8
0
  6
Continuous
 62
     7
370
    25
100
AcDbLine
 10
92.0071158225
 20
91.0005453788
 30
0.0
 11
91.7851878163
 21
82.5254567482
 31
0.0
  0
SPLINE
  5
CD
330
1F
100
AcDbEntity
  8
0
  6
Continuous
 62
     7
370
    25
100
AcDbSpline
210
0.0
220
0.0
230
1.0
 70
     8
 71
     3
 72
     9
 73
     5
 74
     0
 42
0.00000001
 43
0.00000001
 40
0.0
 40
0.0
 40
0.0
 40
0.0
 40
0.8673350121727758
 40
1.0
 40
1.0
 40
1.0
 40
1.0
 10
91.75781608118136
 20
82.51974514010007
 30
0.0
 10
91.75757869555149
 20
82.51054671672487
 30
0.0
 10
91.7573050001206
 20
82.4999413298258
 30
0.0
 10
91.75704911361196
 20
82.48933570522442
 30
0.0
 10
91.75701516643142
 20
82.48792871016578
 30
0.0
  0
LINE
  5
CE
330
1F
100
AcDbEntity
  8
0
  6
Continuous
 62
     7
370
    25
100
AcDbLine
 10
91.9802454636
 20
91.0139805583
 30
0.0
 11
91.7578160812
 21
82.5197451401
 31
0.0
  0
ARC
  5
CF
330
1F
100
AcDbEntity
  8
0
  6
Continuous
 62
     7
370
    25
100
AcDbCircle
 10
96.2329229795
 20
82.5127391921
 30
0.0
 40
8.75037168209005
100
AcDbArc
 50
182.878079786
 51
184.4353064954
  0
ELLIPSE
  5
D0
330
1F
100
AcDbEntity
  8
0
  6
Continuous
 62
     7
370
    25
100
AcDbEllipse
 10
55.583177558
 20
82.5211703237
 30
0.0
 11
36.18915847374971
 21
0.02692057091445577
 31
0.0
210
0.0
220
0.0
230
1.0
 40
0.0276225703
 41
5.791964074121238
 42
6.254836299513471
  0
ARC
  5
D1
330
1F
100
AcDbEntity
  8
0
  6
Continuous
 62
     7
370
    25
100
AcDbCircle
 10
92.6146002438
 20
90.5265443955
 30
0.0
 40
0.8000000000000038
100
AcDbArc
 50
142.4614409777
 51
153.4349488229
  0
LINE
  5
D2
330
1F
100
AcDbEntity
  8
0
  6
Continuous
 62
     7
370
    25
100
AcDbLine
 10
87.4935886668
 20
82.0733756234
 30
0.0
 11
91.899058491
 21
90.8843152719
 31
0.0
  0
SPLINE
  5
D3
330
1F
100
AcDbEntity
  8
0
  6
Continuous
 62
     7
370
    25
100
AcDbSpline
210
0.0
220
0.0
230
1.0
 70
     8
 71
     3
 72
    12
 73
     8
 74
     0
 42
0.00000001
 43
0.00000001
 40
0.0
 40
0.0
 40
0.0
 40
0.0
 40
0.139683458618249
 40
0.3831896274038307
 40
0.55131692930133
 40
0.8194729461607051
 40
0.9999999999999999
 40
0.9999999999999999
 40
0.9999999999999999
 40
0.9999999999999999
 10
86.73162781660054
 20
82.02065525117698
 30
0.0
 10
86.74186919734682
 20
82.03396762483793
 30
0.0
 10
86.76996408353514
 20
82.0704870778459
 30
0.0
 10
86.87711444488993
 20
82.10815913843727
 30
0.0
 10
87.05745153230292
 20
82.13252645919877
 30
0.0
 10
87.26590767687189
 20
82.1314094244348
 30
0.0
 10
87.42826457757583
 20
82.09002613605725
 30
0.0
 10
87.49358866682422
 20
82.07337562344183
 30
0.0
  0
LWPOLYLINE
  5
D4
330
1F
100
AcDbEntity
  8
0
  6
Continuous
 62
     7
370
    25
100
AcDbPolyline
 90
        9
 70
   128
 43
0.0
 10
86.7316278166
 20
82.0206552512
 10
86.7087773268
 20
81.9443247736
 10
86.7116824528
 20
81.8599247743
 10
86.7401840178
 20
81.7720796738
 10
86.7927203723
 20
81.6856026554
 10
86.8664129595
 20
81.6052319431
 10
86.9572240363
 20
81.5353711857
 10
87.0601779086
 20
81.4798481737
 10
87.1696335573
 20
81.441705108
  0
SPLINE
  5
D5
330
1F
100
AcDbEntity
  8
0
  6
Continuous
 62
     7
370
    25
100
AcDbSpline
210
0.0
220
0.0
230
1.0
 70
    24
 71
     3
 72
    11
 73
     7
 74
     0
 42
0.00000001
 43
0.00000001
 40
0.0
 40
0.0
 40
0.0
 40
0.0
 40
0.2499999999999991
 40
0.4999999999999979
 40
0.7499999999999996
 40
1.0
 40
1.0
 40
1.0
 40
1.0
 10
91.8990584910288
 20
90.88431527185095
 30
0.0
 10
91.82082338269652
 20
90.92343282601709
 30
0.0
 10
91.66435316603199
 20
91.00166793434936
 30
0.0
 10
91.47102701461553
 20
91.09833101005758
 30
0.0
 10
91.33665058233657
 20
91.16551922619706
 30
0.0
 10
91.31926883394937
 20
91.17421010039067
 30
0.0
 10
91.31057795975576
 20
91.17855553748747
 30
0.0
  0
LINE
  5
D6
330
1F
100
AcDbEntity
  8
0
  6
Continuous
 62
     7
370
    25
100
AcDbLine
 10
91.3105779598
 20
91.1785555375
 30
0.0
 11
86.7316278166
 21
82.0206552512
 31
0.0
  0
LINE
  5
D7
330
1F
100
AcDbEntity
  8
0
  6
Continuous
 62
     7
370
    25
100
AcDbLine
 10
91.8877936026
 20
91.1524476381
 30
0.0
 11
91.5055810308
 21
91.4748038851
 31
0.0
  0
SPLINE
  5
D8
330
1F
100
AcDbEntity
  8
0
  6
Continuous
 62
     7
370
    25
100
AcDbSpline
210
0.0
220
0.0
230
1.0
 70
     8
 71
     3
 72
    12
 73
     8
 74
     0
 42
0.00000001
 43
0.00000001
 40
0.0
 40
0.0
 40
0.0
 40
0.0
 40
0.2198609600791294
 40
0.4397396970008148
 40
0.6583291451397767
 40
0.87912395168436
 40
1.0
 40
1.0
 40
1.0
 40
1.0
 10
92.02236104666473
 20
91.04182900316802
 30
0.0
 10
91.96244598393585
 20
91.0923172192959
 30
0.0
 10
91.84261101404985
 20
91.19329773377285
 30
0.0
 10
91.68587602577531
 20
91.32496072672289
 30
0.0
 10
91.56930770198917
 20
91.42252204949597
 30
0.0
 10
91.51305101019493
 20
91.46918144097268
 30
0.0
 10
91.50753313897863
 20
91.47333458797401
 30
0.0
 10
91.50558103080712
 20
91.4748038850781
 30
0.0
  0
SPLINE
  5
D9
330
1F
100
AcDbEntity
  8
0
  6
Continuous
 62
     7
370
    25
100
AcDbSpline
210
0.0
220
0.0
230
1.0
 70
     8
 71
     3
 72
    12
 73
     8
 74
     0
 42
0.00000001
 43
0.00000001
 40
0.0
 40
0.0
 40
0.0
 40
0.0
 40
0.0006864401058021
 40
0.2840613788817195
 40
0.5703177902163796
 40
0.8469872112136485
 40
1.0
 40
1.0
 40
1.0
 40
1.0
 10
91.9850892819752
 20
91.07115269066566
 30
0.0
 10
91.98504856421812
 20
91.07118698530256
 30
0.0
 10
91.9681988170568
 20
91.0853787287139
 30
0.0
 10
91.9389698809436
 20
91.10991100856201
 30
0.0
 10
91.90572383524488
 20
91.13774059330906
 30
0.0
 10
91.89004161213497
 20
91.1507414562818
 30
0.0
 10
91.88846138432896
 20
91.15193426916787
 30
0.0
 10
91.88789865434387
 20
91.15235903803669
 30
0.0
  0
SPLINE
  5
DA
330
1F
100
AcDbEntity
  8
0
  6
Continuous
 62
     7
370
    25
100
AcDbSpline
210
0.0
220
0.0
230
1.0
 70
     8
 71
     3
 72
    12
 73
     8
 74
     0
 42
0.00000001
 43
0.00000001
 40
0.0
 40
0.0
 40
0.0
 40
0.0
 40
0.2225634137435274
 40
0.446206317369568
 40
0.6680851268158019
 40
0.8917990985569294
 40
1.0
 40
1.0
 40
1.0
 40
1.0
 10
91.46280353338726
 20
91.4216779495581
 30
0.0
 10
91.46839009948977
 20
91.4162508769444
 30
0.0
 10
91.47959032797932
 20
91.40537040901695
 30
0.0
 10
91.57364110566638
 20
91.33007697799665
 30
0.0
 10
91.71313216906444
 20
91.22059843324331
 30
0.0
 10
91.85835626890076
 20
91.10788379269685
 30
0.0
 10
91.95027943763083
 20
91.03706633525265
 30
0.0
 10
91.98024546363226
 20
91.01398055828862
 30
0.0
  0
LINE
  5
DB
330
1F
100
AcDbEntity
  8
0
  6
Continuous
 62
     7
370
    25
100
AcDbLine
 10
91.859275271
 20
91.1170303478
 30
0.0
 11
91.4628035334
 21
91.4216779496
 31
0.0
  0
ARC
  5
DC
330
1F
100
AcDbEntity
  8
0
  6
Continuous
 62
     7
370
    25
100
AcDbCircle
 10
92.6522187463
 20
90.5077351442
 30
0.0
 40
1.500000000000012
100
AcDbArc
 50
90.0
 51
139.8558773282
  0
ARC
  5
DD
330
1F
100
AcDbEntity
  8
0
  6
Continuous
 62
     7
370
    25
100
AcDbCircle
 10
92.6522187463
 20
90.5077351442
 30
0.0
 40
1.500000000000026
100
AcDbArc
 50
142.4614409777
 51
153.4349488229
  0
LINE
  5
DE
330
1F
100
AcDbEntity
  8
0
  6
Continuous
 62
     7
370
    25
100
AcDbLine
 10
86.586971162
 20
81.731341942
 30
0.0
 11
86.7316278166
 21
82.0206552512
 31
0.0
  0
ARC
  5
DF
330
1F
100
AcDbEntity
  8
0
  6
Continuous
 62
     7
370
    25
100
AcDbCircle
 10
87.0341847575
 20
81.5077351442
 30
0.0
 40
0.5
100
AcDbArc
 50
153.4349488229
 51
270.0
  0
SPLINE
  5
E0
330
1F
100
AcDbEntity
  8
0
  6
Continuous
 62
     7
370
    25
100
AcDbSpline
210
0.0
220
0.0
230
1.0
 70
     8
 71
     3
 72
     9
 73
     5
 74
     0
 42
0.00000001
 43
0.00000001
 40
0.0
 40
0.0
 40
0.0
 40
0.0
 40
0.5600029565045499
 40
1.0
 40
1.0
 40
1.0
 40
1.0
 10
91.50558103080712
 20
91.4748038850781
 30
0.0
 10
91.497433271454
 20
91.46501742291814
 30
0.0
 10
91.48288377799423
 20
91.44754168989516
 30
0.0
 10
91.4689391350537
 20
91.42958072222937
 30
0.0
 10
91.46280353338726
 20
91.4216779495581
 30
0.0
  0
LINE
  5
E1
330
1F
100
AcDbEntity
  8
0
  6
Continuous
 62
     7
370
    25
100
AcDbLine
 10
133.6281239025
 20
81.39581073
 30
0.0
 11
133.6302640176
 21
81.6193491836
 31
0.0
  0
SPLINE
  5
E2
330
1F
100
AcDbEntity
  8
0
  6
Continuous
 62
     7
370
    25
100
AcDbSpline
210
0.0
220
0.0
230
1.0
 70
     8
 71
     3
 72
    10
 73
     6
 74
     0
 42
0.00000001
 43
0.00000001
 40
0.0
 40
0.0
 40
0.0
 40
0.0
 40
0.3536466237081646
 40
0.7182931081305524
 40
1.0
 40
1.0
 40
1.0
 40
1.0
 10
133.7794118662949
 20
79.44954208352328
 30
0.0
 10
133.7419048319857
 20
79.00600443340473
 30
0.0
 10
133.6657241407401
 20
78.10513329278415
 30
0.0
 10
133.7041605433533
 20
76.72712399797291
 30
0.0
 10
133.7671426626863
 20
75.80908996666803
 30
0.0
 10
133.7945928126065
 20
75.4089736787746
 30
0.0
  0
LINE
  5
E3
330
1F
100
AcDbEntity
  8
0
  6
Continuous
 62
     7
370
    25
100
AcDbLine
 10
133.6281239025
 20
81.39581073
 30
0.0
 11
133.7794118663
 21
79.4495420835
 31
0.0
  0
LINE
  5
E4
330
1F
100
AcDbEntity
  8
0
  6
Continuous
 62
     7
370
    25
100
AcDbLine
 10
133.8541847575
 20
73.3077351442
 30
0.0
 11
133.9155395503
 21
73.3077351442
 31
0.0
  0
LWPOLYLINE
  5
E5
330
1F
100
AcDbEntity
  8
0
  6
Continuous
 62
     7
370
    25
100
AcDbPolyline
 90
        3
 70
   128
 43
0.0
 10
134.0515520929
 20
71.9579832847
 10
134.0102533206
 20
72.3677844293
 10
133.9155395503
 20
73.3077351442
  0
SPLINE
  5
E6
330
1F
100
AcDbEntity
  8
0
  6
Continuous
 62
     7
370
    25
100
AcDbSpline
210
0.0
220
0.0
230
1.0
 70
     8
 71
     3
 72
    11
 73
     7
 74
     0
 42
0.00000001
 43
0.00000001
 40
0.0
 40
0.0
 40
0.0
 40
0.0
 40
0.2920574028183094
 40
0.5665622171831318
 40
0.8065682389915578
 40
1.0
 40
1.0
 40
1.0
 40
1.0
 10
133.9179791504524
 20
87.50773514423754
 30
0.0
 10
133.9496396867679
 20
87.49090334818885
 30
0.0
 10
134.0110579678285
 20
87.45825134349217
 30
0.0
 10
134.0909703270931
 20
87.2028594564512
 30
0.0
 10
134.1300691408206
 20
86.86713653987653
 30
0.0
 10
134.114652777891
 20
86.61863484505545
 30
0.0
 10
134.1077728649068
 20
86.50773514422542
 30
0.0
  0
LINE
  5
E7
330
1F
100
AcDbEntity
  8
0
  6
Continuous
 62
     7
370
    25
100
AcDbLine
 10
134.1077728649
 20
86.5077351442
 30
0.0
 11
133.6302640176
 21
81.6193491836
 31
0.0
  0
LINE
  5
E8
330
1F
100
AcDbEntity
  8
0
  6
Continuous
 62
     7
370
    25
100
AcDbLine
 10
134.4755758668
 20
89.5077351442
 30
0.0
 11
149.5927936482
 21
89.5077351442
 31
0.0
  0
LINE
  5
E9
330
1F
100
AcDbEntity
  8
0
  6
Continuous
 62
     7
370
    25
100
AcDbLine
 10
149.5816909764
 20
71.5077351442
 30
0.0
 11
134.5532189024
 21
71.5077351442
 31
0.0
  0
SPLINE
  5
EA
330
1F
100
AcDbEntity
  8
0
  6
Continuous
 62
     7
370
    25
100
AcDbSpline
210
0.0
220
0.0
230
1.0
 70
     8
 71
     3
 72
    12
 73
     8
 74
     0
 42
0.00000001
 43
0.00000001
 40
0.0
 40
0.0
 40
0.0
 40
0.0
 40
0.2316347876629375
 40
0.46330664808196
 40
0.6939442291381526
 40
0.9227406525226395
 40
1.0
 40
1.0
 40
1.0
 40
1.0
 10
134.5532189024174
 20
71.50773514423751
 30
0.0
 10
134.4961655847686
 20
71.5133246092678
 30
0.0
 10
134.3820498181841
 20
71.52450443391275
 30
0.0
 10
134.230196487706
 20
71.61182749986843
 30
0.0
 10
134.1160291048222
 20
71.74013767365048
 30
0.0
 10
134.0642747724549
 20
71.86481710034829
 30
0.0
 10
134.0541164214678
 20
71.9392051091016
 30
0.0
 10
134.0515520928604
 20
71.95798328472702
 30
0.0
  0
SPLINE
  5
EB
330
1F
100
AcDbEntity
  8
0
  6
Continuous
 62
     7
370
    25
100
AcDbSpline
210
0.0
220
0.0
230
1.0
 70
     8
 71
     3
 72
     9
 73
     5
 74
     0
 42
0.00000001
 43
0.00000001
 40
0.0
 40
0.0
 40
0.0
 40
0.0
 40
0.4474581094010271
 40
1.0
 40
1.0
 40
1.0
 40
1.0
 10
132.0341847575058
 20
77.0400469634146
 30
0.0
 10
132.3078353591841
 20
76.8121140200477
 30
0.0
 10
132.9194023325587
 20
76.30271897595739
 30
0.0
 10
133.4831168998417
 20
75.72705315811722
 30
0.0
 10
133.7945928126065
 20
75.4089736787746
 30
0.0
  0
SPLINE
  5
EC
330
1F
100
AcDbEntity
  8
0
  6
Continuous
 62
     7
370
    25
100
AcDbSpline
210
0.0
220
0.0
230
1.0
 70
     8
 71
     3
 72
     9
 73
     5
 74
     0
 42
0.00000001
 43
0.00000001
 40
0.0
 40
0.0
 40
0.0
 40
0.0
 40
0.7210175706402088
 40
0.9999999999999999
 40
0.9999999999999999
 40
0.9999999999999999
 40
0.9999999999999999
 10
132.3781132132032
 20
81.2055352804724
 30
0.0
 10
132.309179994207
 20
81.2687860933817
 30
0.0
 10
132.2135745307575
 20
81.35651046444403
 30
0.0
 10
132.0733147671097
 20
81.40131965078798
 30
0.0
 10
132.0341847575058
 20
81.41382062645187
 30
0.0
  0
ARC
  5
ED
330
1F
100
AcDbEntity
  8
0
  6
Continuous
 62
     7
370
    25
100
AcDbCircle
 10
125.3119584186
 20
74.1295578626
 30
0.0
 40
10.00000000000001
100
AcDbArc
 50
32.1405798582
 51
45.0397956095
  0
LINE
  5
EE
330
1F
100
AcDbEntity
  8
0
  6
Continuous
 62
     7
370
    25
100
AcDbLine
 10
132.3781132132
 20
86.5077351442
 30
0.0
 11
132.3781132132
 21
81.2055352805
 31
0.0
  0
LINE
  5
EF
330
1F
100
AcDbEntity
  8
0
  6
Continuous
 62
     7
370
    25
100
AcDbLine
 10
134.1077728649
 20
86.5077351442
 30
0.0
 11
132.3781132132
 21
86.5077351442
 31
0.0
  0
LINE
  5
F0
330
1F
100
AcDbEntity
  8
0
  6
Continuous
 62
     7
370
    25
100
AcDbLine
 10
132.0341847575
 20
87.5077351442
 30
0.0
 11
133.9179791505
 21
87.5077351442
 31
0.0
  0
ARC
  5
F1
330
1F
100
AcDbEntity
  8
0
  6
Continuous
 62
     7
370
    25
100
AcDbCircle
 10
94.4216440831
 20
94.2170803654
 30
0.0
 40
4.021945305542452
100
AcDbArc
 50
230.4243196696
 51
233.1058614851
  0
LINE
  5
F2
330
1F
100
AcDbEntity
  8
0
  6
Continuous
 62
     7
370
    25
100
AcDbLine
 10
126.2841847575
 20
44.1880512263
 30
0.0
 11
126.2841847575
 21
40.3077351442
 31
0.0
  0
LINE
  5
F3
330
1F
100
AcDbEntity
  8
0
  6
Continuous
 62
     7
370
    25
100
AcDbLine
 10
126.2841847575
 20
64.3077351442
 30
0.0
 11
126.2841847575
 21
44.1880512263
 31
0.0
  0
LINE
  5
F4
330
1F
100
AcDbEntity
  8
0
  6
Continuous
 62
     7
370
    25
100
AcDbLine
 10
126.0341847575
 20
44.3572113079
 30
0.0
 11
126.0341847575
 21
64.0577351442
 31
0.0
  0
LINE
  5
F5
330
1F
100
AcDbEntity
  8
0
  6
Continuous
 62
     7
370
    25
100
AcDbLine
 10
126.0341847575
 20
40.5577351442
 30
0.0
 11
126.0341847575
 21
44.3572113079
 31
0.0
  0
LINE
  5
F6
330
1F
100
AcDbEntity
  8
0
  6
Continuous
 62
     7
370
    25
100
AcDbLine
 10
110.5341847575
 20
57.4619310621
 30
0.0
 11
110.5341847575
 21
59.3077351442
 31
0.0
  0
LINE
  5
F7
330
1F
100
AcDbEntity
  8
0
  6
Continuous
 62
     7
370
    25
100
AcDbLine
 10
110.5341847575
 20
45.3077351442
 30
0.0
 11
110.5341847575
 21
57.4619310621
 31
0.0
  0
LINE
  5
F8
330
1F
100
AcDbEntity
  8
0
  6
Continuous
 62
     7
370
    25
100
AcDbLine
 10
101.5341847575
 20
57.4619310621
 30
0.0
 11
101.5341847575
 21
59.3077351442
 31
0.0
  0
LINE
  5
F9
330
1F
100
AcDbEntity
  8
0
  6
Continuous
 62
     7
370
    25
100
AcDbLine
 10
101.5341847575
 20
45.3077351442
 30
0.0
 11
101.5341847575
 21
57.4619310621
 31
0.0
  0
LINE
  5
FA
330
1F
100
AcDbEntity
  8
0
  6
Continuous
 62
     7
370
    25
100
AcDbLine
 10
115.0341847575
 20
57.4619310621
 30
0.0
 11
115.0341847575
 21
59.3077351442
 31
0.0
  0
LINE
  5
FB
330
1F
100
AcDbEntity
  8
0
  6
Continuous
 62
     7
370
    25
100
AcDbLine
 10
115.0341847575
 20
45.3077351442
 30
0.0
 11
115.0341847575
 21
57.4619310621
 31
0.0
  0
LINE
  5
FC
330
1F
100
AcDbEntity
  8
0
  6
Continuous
 62
     7
370
    25
100
AcDbLine
 10
106.0341847575
 20
57.4619310621
 30
0.0
 11
106.0341847575
 21
59.3077351442
 31
0.0
  0
LINE
  5
FD
330
1F
100
AcDbEntity
  8
0
  6
Continuous
 62
     7
370
    25
100
AcDbLine
 10
106.0341847575
 20
45.3077351442
 30
0.0
 11
106.0341847575
 21
57.4619310621
 31
0.0
  0
LINE
  5
FE
330
1F
100
AcDbEntity
  8
0
  6
Continuous
 62
     7
370
    25
100
AcDbLine
 10
119.5341847575
 20
57.4619310621
 30
0.0
 11
119.5341847575
 21
59.3077351442
 31
0.0
  0
LINE
  5
FF
330
1F
100
AcDbEntity
  8
0
  6
Continuous
 62
     7
370
    25
100
AcDbLine
 10
119.5341847575
 20
45.3077351442
 30
0.0
 11
119.5341847575
 21
57.4619310621
 31
0.0
  0
LINE
  5
100
330
1F
100
AcDbEntity
  8
0
  6
Continuous
 62
     7
370
    25
100
AcDbLine
 10
97.0341847575
 20
56.5978201437
 30
0.0
 11
97.0341847575
 21
58.1341716
 31
0.0
  0
LINE
  5
101
330
1F
100
AcDbEntity
  8
0
  6
Continuous
 62
     7
370
    25
100
AcDbLine
 10
97.0341847575
 20
46.4812986884
 30
0.0
 11
97.0341847575
 21
56.5978201437
 31
0.0
  0
LINE
  5
102
330
1F
100
AcDbEntity
  8
0
  6
Continuous
 62
     7
370
    25
100
AcDbLine
 10
152.9464715172
 20
39.8077351442
 30
0.0
 11
130.6218979978
 21
39.8077351442
 31
0.0
  0
LINE
  5
103
330
1F
100
AcDbEntity
  8
0
  6
Continuous
 62
     7
370
    25
100
AcDbLine
 10
130.6218979978
 20
39.8077351442
 30
0.0
 11
130.6218979978
 21
43.5720325394
 31
0.0
  0
LINE
  5
104
330
1F
100
AcDbEntity
  8
0
  6
Continuous
 62
     7
370
    25
100
AcDbLine
 10
152.9464715172
 20
43.5720325394
 30
0.0
 11
130.6218979978
 21
43.5720325394
 31
0.0
  0
LINE
  5
105
330
1F
100
AcDbEntity
  8
0
  6
Continuous
 62
     7
370
    25
100
AcDbLine
 10
152.9464715172
 20
43.5720325394
 30
0.0
 11
152.9464715172
 21
39.8077351442
 31
0.0
  0
SPLINE
  5
106
330
1F
100
AcDbEntity
  8
0
  6
Continuous
 62
     7
370
    25
100
AcDbSpline
210
0.0
220
0.0
230
1.0
 70
    24
 71
     3
 72
    12
 73
     8
 74
     0
 42
0.00000001
 43
0.00000001
 40
0.0
 40
0.0
 40
0.0
 40
0.0
 40
0.2500000000000001
 40
0.2500000000000001
 40
0.5000000000000001
 40
0.5000000000000001
 40
1.0
 40
1.0
 40
1.0
 40
1.0
 10
129.0341847575058
 20
39.8077351442375
 30
0.0
 10
129.0341847575058
 20
39.80773514423751
 30
0.0
 10
129.0735778428754
 20
39.8077351442375
 30
0.0
 10
129.2242092456408
 20
39.8077351442375
 30
0.0
 10
129.3350896748125
 20
39.8077351442375
 30
0.0
 10
129.7562770807768
 20
39.8077351442375
 30
0.0
 10
130.1539648262565
 20
39.8077351442375
 30
0.0
 10
130.6218979977772
 20
39.8077351442375
 30
0.0
  0
LINE
  5
107
330
1F
100
AcDbEntity
  8
0
  6
Continuous
 62
     7
370
    25
100
AcDbLine
 10
129.0341847575
 20
39.8077351442
 30
0.0
 11
129.0341847575
 21
52.3077351442
 31
0.0
  0
SPLINE
  5
108
330
1F
100
AcDbEntity
  8
0
  6
Continuous
 62
     7
370
    25
100
AcDbSpline
210
0.0
220
0.0
230
1.0
 70
     8
 71
     3
 72
    10
 73
     6
 74
     0
 42
0.00000001
 43
0.00000001
 40
0.0
 40
0.0
 40
0.0
 40
0.0
 40
0.5
 40
0.5
 40
1.0
 40
1.0
 40
1.0
 40
1.0
 10
130.6218979977772
 20
43.57203253940946
 30
0.0
 10
130.1548950988834
 20
44.98408947032122
 30
0.0
 10
129.7524913517568
 20
46.43087239419908
 30
0.0
 10
129.1917327811651
 20
49.34420204067427
 30
0.0
 10
129.0341847575058
 20
50.81616049653024
 30
0.0
 10
129.0341847575058
 20
52.30773514423752
 30
0.0
  0
LINE
  5
109
330
1F
100
AcDbEntity
  8
0
  6
Continuous
 62
     7
370
    25
100
AcDbLine
 10
129.0341847575
 20
52.3077351442
 30
0.0
 11
129.0341847575
 21
64.8077351442
 31
0.0
  0
SPLINE
  5
10A
330
1F
100
AcDbEntity
  8
0
  6
Continuous
 62
     7
370
    25
100
AcDbSpline
210
0.0
220
0.0
230
1.0
 70
    24
 71
     3
 72
    12
 73
     8
 74
     0
 42
0.00000001
 43
0.00000001
 40
0.0
 40
0.0
 40
0.0
 40
0.0
 40
0.2500000000000001
 40
0.2500000000000001
 40
0.5000000000000001
 40
0.5000000000000001
 40
1.0
 40
1.0
 40
1.0
 40
1.0
 10
129.0341847575058
 20
64.80773514423751
 30
0.0
 10
129.0341847575058
 20
64.80773514423751
 30
0.0
 10
129.0735778428754
 20
64.80773514423751
 30
0.0
 10
129.2242092456407
 20
64.80773514423751
 30
0.0
 10
129.3350896748125
 20
64.80773514423751
 30
0.0
 10
129.7562770807769
 20
64.80773514423751
 30
0.0
 10
130.1539648262566
 20
64.80773514423751
 30
0.0
 10
130.6218979977772
 20
64.80773514423751
 30
0.0
  0
LINE
  5
10B
330
1F
100
AcDbEntity
  8
0
  6
Continuous
 62
     7
370
    25
100
AcDbLine
 10
130.6218979978
 20
61.0434377491
 30
0.0
 11
130.6218979978
 21
64.8077351442
 31
0.0
  0
SPLINE
  5
10C
330
1F
100
AcDbEntity
  8
0
  6
Continuous
 62
     7
370
    25
100
AcDbSpline
210
0.0
220
0.0
230
1.0
 70
     8
 71
     3
 72
    12
 73
     8
 74
     0
 42
0.00000001
 43
0.00000001
 40
0.0
 40
0.0
 40
0.0
 40
0.0
 40
0.2500000000000001
 40
0.2500000000000001
 40
0.5000000000000001
 40
0.5000000000000001
 40
1.0
 40
1.0
 40
1.0
 40
1.0
 10
129.0341847575058
 20
52.30773514423752
 30
0.0
 10
129.0341847575058
 20
53.05308135651183
 30
0.0
 10
129.0735778428754
 20
53.80490820638087
 30
0.0
 10
129.2242092456407
 20
55.28560866755613
 30
0.0
 10
129.3350896748125
 20
56.01858027215817
 30
0.0
 10
129.7562770807769
 20
58.19912439311415
 30
0.0
 10
130.1539648262566
 20
59.62856799212338
 30
0.0
 10
130.6218979977772
 20
61.04343774906559
 30
0.0
  0
LINE
  5
10D
330
1F
100
AcDbEntity
  8
0
  6
Continuous
 62
     7
370
    25
100
AcDbLine
 10
152.9464715172
 20
61.0434377491
 30
0.0
 11
130.6218979978
 21
61.0434377491
 31
0.0
  0
LINE
  5
10E
330
1F
100
AcDbEntity
  8
0
  6
Continuous
 62
     7
370
    25
100
AcDbLine
 10
152.9464715172
 20
64.8077351442
 30
0.0
 11
130.6218979978
 21
64.8077351442
 31
0.0
  0
LINE
  5
10F
330
1F
100
AcDbEntity
  8
0
  6
Continuous
 62
     7
370
    25
100
AcDbLine
 10
152.9464715172
 20
64.8077351442
 30
0.0
 11
152.9464715172
 21
61.0434377491
 31
0.0
  0
LINE
  5
110
330
1F
100
AcDbEntity
  8
0
  6
Continuous
 62
     7
370
    25
100
AcDbLine
 10
154.5341847575
 20
52.3077351442
 30
0.0
 11
154.5341847575
 21
39.8077351442
 31
0.0
  0
SPLINE
  5
111
330
1F
100
AcDbEntity
  8
0
  6
Continuous
 62
     7
370
    25
100
AcDbSpline
210
0.0
220
0.0
230
1.0
 70
    24
 71
     3
 72
    12
 73
     8
 74
     0
 42
0.00000001
 43
0.00000001
 40
0.0
 40
0.0
 40
0.0
 40
0.0
 40
0.25
 40
0.25
 40
0.5
 40
0.5
 40
1.0
 40
1.0
 40
1.0
 40
1.0
 10
154.5341847575058
 20
39.8077351442375
 30
0.0
 10
154.5341847575058
 20
39.80773514423751
 30
0.0
 10
154.494835231955
 20
39.8077351442375
 30
0.0
 10
154.3441757225813
 20
39.8077351442375
 30
0.0
 10
154.2332675398765
 20
39.80773514423751
 30
0.0
 10
153.8120185148817
 20
39.8077351442375
 30
0.0
 10
153.4143260262693
 20
39.8077351442375
 30
0.0
 10
152.9464715172343
 20
39.8077351442375
 30
0.0
  0
SPLINE
  5
112
330
1F
100
AcDbEntity
  8
0
  6
Continuous
 62
     7
370
    25
100
AcDbSpline
210
0.0
220
0.0
230
1.0
 70
     8
 71
     3
 72
    12
 73
     8
 74
     0
 42
0.00000001
 43
0.00000001
 40
0.0
 40
0.0
 40
0.0
 40
0.0
 40
0.2499999999999999
 40
0.2499999999999999
 40
0.4999999999999998
 40
0.4999999999999998
 40
1.0
 40
1.0
 40
1.0
 40
1.0
 10
152.9464715172343
 20
43.57203253940946
 30
0.0
 10
153.1799224920857
 20
44.27790838696392
 30
0.0
 10
153.3967693612265
 20
44.99061008152365
 30
0.0
 10
153.7857530124302
 20
46.43439351587437
 30
0.0
 10
153.9561168125986
 20
47.15940109130627
 30
0.0
 10
154.3767686459374
 20
49.34500405785208
 30
0.0
 10
154.5341847575058
 20
50.81688962855463
 30
0.0
 10
154.5341847575058
 20
52.30773514423752
 30
0.0
  0
SPLINE
  5
113
330
1F
100
AcDbEntity
  8
0
  6
Continuous
 62
     7
370
    25
100
AcDbSpline
210
0.0
220
0.0
230
1.0
 70
     8
 71
     3
 72
    12
 73
     8
 74
     0
 42
0.00000001
 43
0.00000001
 40
0.0
 40
0.0
 40
0.0
 40
0.0
 40
0.2500000000000001
 40
0.2500000000000001
 40
0.5
 40
0.5
 40
1.0
 40
1.0
 40
1.0
 40
1.0
 10
154.5341847575058
 20
52.30773514423752
 30
0.0
 10
154.5341847575058
 20
53.05256249268627
 30
0.0
 10
154.494835231955
 20
53.80438697026804
 30
0.0
 10
154.3441757225813
 20
55.28554977159435
 30
0.0
 10
154.2332675398765
 20
56.01866868204293
 30
0.0
 10
153.8120185148817
 20
58.19945761601053
 30
0.0
 10
153.4143260262693
 20
59.62880584055693
 30
0.0
 10
152.9464715172343
 20
61.04343774906558
 30
0.0
  0
SPLINE
  5
114
330
1F
100
AcDbEntity
  8
0
  6
Continuous
 62
     7
370
    25
100
AcDbSpline
210
0.0
220
0.0
230
1.0
 70
    24
 71
     3
 72
    12
 73
     8
 74
     0
 42
0.00000001
 43
0.00000001
 40
0.0
 40
0.0
 40
0.0
 40
0.0
 40
0.2500000000000001
 40
0.2500000000000001
 40
0.5000000000000001
 40
0.5000000000000001
 40
1.0
 40
1.0
 40
1.0
 40
1.0
 10
154.5341847575058
 20
64.80773514423751
 30
0.0
 10
154.5341847575058
 20
64.80773514423751
 30
0.0
 10
154.494835231955
 20
64.80773514423751
 30
0.0
 10
154.3441757225813
 20
64.80773514423751
 30
0.0
 10
154.2332675398766
 20
64.80773514423751
 30
0.0
 10
153.8120185148817
 20
64.80773514423751
 30
0.0
 10
153.4143260262693
 20
64.80773514423751
 30
0.0
 10
152.9464715172343
 20
64.80773514423751
 30
0.0
  0
LINE
  5
115
330
1F
100
AcDbEntity
  8
0
  6
Continuous
 62
     7
370
    25
100
AcDbLine
 10
154.5341847575
 20
64.8077351442
 30
0.0
 11
154.5341847575
 21
52.3077351442
 31
0.0
  0
LINE
  5
116
330
1F
100
AcDbEntity
  8
0
  6
Continuous
 62
     7
370
    25
100
AcDbLine
 10
166.8377934846
 20
42.000972917
 30
0.0
 11
166.8377934846
 21
62.6144973715
 31
0.0
  0
LINE
  5
117
330
1F
100
AcDbEntity
  8
0
  6
Continuous
 62
     7
370
    25
100
AcDbLine
 10
169.5341847575
 20
61.0577351442
 30
0.0
 11
169.5341847575
 21
43.5577351442
 31
0.0
  0
LINE
  5
118
330
1F
100
AcDbEntity
  8
0
  6
Continuous
 62
     7
370
    25
100
AcDbLine
 10
142.0341847575
 20
71.0077351442
 30
0.0
 11
149.7841847575
 21
71.0077351442
 31
0.0
  0
LINE
  5
119
330
1F
100
AcDbEntity
  8
0
  6
Continuous
 62
     7
370
    25
100
AcDbLine
 10
134.2841847575
 20
71.0077351442
 30
0.0
 11
142.0341847575
 21
71.0077351442
 31
0.0
  0
LINE
  5
11A
330
1F
100
AcDbEntity
  8
0
  6
Continuous
 62
     7
370
    25
100
AcDbLine
 10
142.0341847575
 20
70.5077351442
 30
0.0
 11
133.7841847575
 21
70.5077351442
 31
0.0
  0
LINE
  5
11B
330
1F
100
AcDbEntity
  8
0
  6
Continuous
 62
     7
370
    25
100
AcDbLine
 10
150.2841847575
 20
70.5077351442
 30
0.0
 11
142.0341847575
 21
70.5077351442
 31
0.0
  0
LINE
  5
11C
330
1F
100
AcDbEntity
  8
0
  6
Continuous
 62
     7
370
    25
100
AcDbLine
 10
141.9713018927
 20
89.5956774797
 30
0.0
 11
141.9713018927
 21
89.6076280415
 31
0.0
  0
LINE
  5
11D
330
1F
100
AcDbEntity
  8
0
  6
Continuous
 62
     7
370
    25
100
AcDbLine
 10
142.0970676223
 20
89.5956774797
 30
0.0
 11
142.0970676223
 21
89.6076280415
 31
0.0
  0
LINE
  5
11E
330
1F
100
AcDbEntity
  8
0
  6
Continuous
 62
     7
370
    25
100
AcDbLine
 10
133.6302640176
 20
81.6193491836
 30
0.0
 11
151.0202330026
 21
81.6193491836
 31
0.0
  0
LINE
  5
11F
330
1F
100
AcDbEntity
  8
0
  6
Continuous
 62
     7
370
    25
100
AcDbLine
 10
151.0229923161
 20
81.39581073
 30
0.0
 11
133.6281239025
 21
81.39581073
 31
0.0
  0
LINE
  5
120
330
1F
100
AcDbEntity
  8
0
  6
Continuous
 62
     7
370
    25
100
AcDbLine
 10
134.0515520929
 20
71.9579832847
 30
0.0
 11
150.0792095716
 21
71.9579832847
 31
0.0
  0
LINE
  5
121
330
1F
100
AcDbEntity
  8
0
  6
Continuous
 62
     7
370
    25
100
AcDbLine
 10
150.0889325866
 20
89.0697525115
 30
0.0
 11
133.9794369284
 21
89.0697525115
 31
0.0
  0
LINE
  5
122
330
1F
100
AcDbEntity
  8
0
  6
Continuous
 62
     7
370
    25
100
AcDbLine
 10
132.0341847575
 20
86.5077351442
 30
0.0
 11
132.3781132132
 21
86.5077351442
 31
0.0
  0
ARC
  5
123
330
1F
100
AcDbEntity
  8
0
  6
Continuous
 62
     7
370
    25
100
AcDbCircle
 10
131.2722394943
 20
86.5623997273
 30
0.0
 40
1.107223960533087
100
AcDbArc
 50
357.1701084939
 51
46.5155082001
  0
LINE
  5
124
330
1F
100
AcDbEntity
  8
0
  6
Continuous
 62
     7
370
    25
100
AcDbLine
 10
91.7851878163
 20
82.5254567482
 30
0.0
 11
92.0071152527
 21
91.0005236197
 31
0.0
  0
LINE
  5
125
330
1F
100
AcDbEntity
  8
0
  6
Continuous
 62
     7
370
    25
100
AcDbLine
 10
97.4519852639
 20
56.9609678248
 30
0.0
 11
97.4519852639
 21
45.9881017265
 31
0.0
  0
LINE
  5
126
330
1F
100
AcDbEntity
  8
0
  6
Continuous
 62
     7
370
    25
100
AcDbLine
 10
97.4519852639
 20
58.627368562
 30
0.0
 11
97.4519852639
 21
56.9609678248
 31
0.0
  0
LINE
  5
127
330
1F
100
AcDbEntity
  8
0
  6
Continuous
 62
     7
370
    25
100
AcDbLine
 10
133.7841847575
 20
65.0577351442
 30
0.0
 11
150.2841847575
 21
65.0577351442
 31
0.0
  0
LINE
  5
128
330
1F
100
AcDbEntity
  8
0
  6
Continuous
 62
     7
370
    18
100
AcDbLine
 10
155.0341847575
 20
42.5391101442
 30
0.0
 11
168.4986606388
 21
42.9598750155
 31
0.0
  0
LINE
  5
129
330
1F
100
AcDbEntity
  8
0
  6
Continuous
 62
     7
370
    18
100
AcDbLine
 10
168.4986606388
 20
61.6555952729
 30
0.0
 11
155.0341847575
 21
62.0763601442
 31
0.0
  0
LINE
  5
12A
330
1F
100
AcDbEntity
  8
0
  6
CENTERX2
 62
     7
370
    18
100
AcDbLine
 10
171.4214391042
 20
52.3077351442
 30
0.0
 11
94.5549145839
 21
52.3077351442
 31
0.0
  0
LINE
  5
12B
330
1F
100
AcDbEntity
  8
0
  6
CENTERX2
 62
     7
370
    18
100
AcDbLine
 10
142.0341847575
 20
37.2903751542
 30
0.0
 11
142.0341847575
 21
92.2630289133
 31
0.0
  0
LINE
  5
12C
330
1F
100
AcDbEntity
  8
0
  6
Continuous
 62
     7
370
    25
100
AcDbLine
 10
214.6621166691
 20
91.4216593053
 30
0.0
 11
214.6621166691
 21
91.4564508112
 31
0.0
  0
SPLINE
  5
12D
330
1F
100
AcDbEntity
  8
0
  6
Continuous
 62
     7
370
    25
100
AcDbSpline
210
0.0
220
0.0
230
1.0
 70
     8
 71
     3
 72
     9
 73
     5
 74
     0
 42
0.00000001
 43
0.00000001
 40
0.0
 40
0.0
 40
0.0
 40
0.0
 40
0.4993165458323629
 40
1.0
 40
1.0
 40
1.0
 40
1.0
 10
214.8013803993198
 20
91.99530257298925
 30
0.0
 10
214.7782497816726
 20
91.99865360863687
 30
0.0
 10
214.7319252249555
 20
92.0053648535888
 30
0.0
 10
214.6853658318272
 20
92.00103768428312
 30
0.0
 10
214.6620543140517
 20
91.9988711422084
 30
0.0
  0
SPLINE
  5
12E
330
1F
100
AcDbEntity
  8
0
  6
Continuous
 62
     7
370
    25
100
AcDbSpline
210
0.0
220
0.0
230
1.0
 70
     8
 71
     3
 72
     9
 73
     5
 74
     0
 42
0.00000001
 43
0.00000001
 40
0.0
 40
0.0
 40
0.0
 40
0.0
 40
0.5006834545219033
 40
1.0
 40
1.0
 40
1.0
 40
1.0
 10
212.9221208421717
 20
91.99887114213598
 30
0.0
 10
212.8988093275206
 20
92.00103768280128
 30
0.0
 10
212.8522499406656
 20
92.00536484928884
 30
0.0
 10
212.805925390409
 20
91.99865360293417
 30
0.0
 10
212.7827947760041
 20
91.9953025665885
 30
0.0
  0
LINE
  5
12F
330
1F
100
AcDbEntity
  8
0
  6
Continuous
 62
     7
370
    25
100
AcDbLine
 10
211.3162330861
 20
91.3397855337
 30
0.0
 11
211.1854557315
 21
88.4865240436
 31
0.0
  0
LINE
  5
130
330
1F
100
AcDbEntity
  8
0
  6
Continuous
 62
     7
370
    25
100
AcDbLine
 10
216.3987194774
 20
88.4865240436
 30
0.0
 11
216.2679421227
 21
91.3397855337
 31
0.0
  0
LINE
  5
131
330
1F
100
AcDbEntity
  8
0
  6
Continuous
 62
     7
370
    25
100
AcDbLine
 10
211.8391136242
 20
91.9848864247
 30
0.0
 11
211.7906826812
 21
91.9636819107
 31
0.0
  0
SPLINE
  5
132
330
1F
100
AcDbEntity
  8
0
  6
Continuous
 62
     7
370
    25
100
AcDbSpline
210
0.0
220
0.0
230
1.0
 70
     8
 71
     3
 72
     9
 73
     5
 74
     0
 42
0.00000001
 43
0.00000001
 40
0.0
 40
0.0
 40
0.0
 40
0.0
 40
0.0503631419175414
 40
1.0
 40
1.0
 40
1.0
 40
1.0
 10
211.3725954101893
 20
91.57829370217831
 30
0.0
 10
211.3706993295952
 20
91.57512364481433
 30
0.0
 10
211.3330511503529
 20
91.51217964959665
 30
0.0
 10
211.3265107073376
 20
91.43703205090276
 30
0.0
 10
211.3202996615821
 20
91.36566912138665
 30
0.0
  0
SPLINE
  5
133
330
1F
100
AcDbEntity
  8
0
  6
Continuous
 62
     7
370
    25
100
AcDbSpline
210
0.0
220
0.0
230
1.0
 70
     8
 71
     3
 72
    11
 73
     7
 74
     0
 42
0.00000001
 43
0.00000001
 40
0.0
 40
0.0
 40
0.0
 40
0.0
 40
0.2436788845968631
 40
0.491588446668192
 40
0.7437897073051962
 40
0.9999999999999999
 40
0.9999999999999999
 40
0.9999999999999999
 40
0.9999999999999999
 10
216.2638755472589
 20
91.36566912138665
 30
0.0
 10
216.2525715904304
 20
91.43478847328348
 30
0.0
 10
216.229767420969
 20
91.57422720590033
 30
0.0
 10
216.1166026220645
 20
91.75888109844027
 30
0.0
 10
215.9543190292542
 20
91.90950960424948
 30
0.0
 10
215.8151797893357
 20
91.95962908041231
 30
0.0
 10
215.7450615846033
 20
91.9848864247296
 30
0.0
  0
SPLINE
  5
134
330
1F
100
AcDbEntity
  8
0
  6
Continuous
 62
     7
370
    25
100
AcDbSpline
210
0.0
220
0.0
230
1.0
 70
     8
 71
     3
 72
    10
 73
     6
 74
     0
 42
0.00000001
 43
0.00000001
 40
0.0
 40
0.0
 40
0.0
 40
0.0
 40
0.2663464296502981
 40
0.5214744039517447
 40
1.0
 40
1.0
 40
1.0
 40
1.0
 10
216.7468548013354
 20
88.03098092230381
 30
0.0
 10
216.7016733374189
 20
88.04996698804334
 30
0.0
 10
216.613213443301
 20
88.08713943044438
 30
0.0
 10
216.4666291039015
 20
88.2167065485603
 30
0.0
 10
216.4126049871245
 20
88.34718594000319
 30
0.0
 10
216.3773677529223
 20
88.43229113281569
 30
0.0
  0
SPLINE
  5
135
330
1F
100
AcDbEntity
  8
0
  6
Continuous
 62
     7
370
    25
100
AcDbSpline
210
0.0
220
0.0
230
1.0
 70
     8
 71
     3
 72
    10
 73
     6
 74
     0
 42
0.00000001
 43
0.00000001
 40
0.0
 40
0.0
 40
0.0
 40
0.0
 40
0.4785255960482541
 40
0.7336535703497082
 40
1.0
 40
1.0
 40
1.0
 40
1.0
 10
211.2068074559187
 20
88.43229113281569
 30
0.0
 10
211.1715702217165
 20
88.34718594000317
 30
0.0
 10
211.1175461049395
 20
88.2167065485603
 30
0.0
 10
210.97096176554
 20
88.08713943044437
 30
0.0
 10
210.8825018714221
 20
88.04996698804334
 30
0.0
 10
210.8373204075056
 20
88.03098092230381
 30
0.0
  0
ARC
  5
136
330
1F
100
AcDbEntity
  8
0
  6
Continuous
 62
     7
370
    25
100
AcDbCircle
 10
210.0653491802
 20
86.5077351442
 30
0.0
 40
1.5
100
AcDbArc
 50
90.0
 51
180.0
  0
LINE
  5
137
330
1F
100
AcDbEntity
  8
0
  6
Continuous
 62
     7
370
    25
100
AcDbLine
 10
208.5653491802
 20
86.5077351442
 30
0.0
 11
208.5653491802
 21
81.254780512
 31
0.0
  0
ARC
  5
138
330
1F
100
AcDbEntity
  8
0
  6
Continuous
 62
     7
370
    25
100
AcDbCircle
 10
217.5188260286
 20
86.5077351442
 30
0.0
 40
1.5
100
AcDbArc
 50
0.0
 51
90.0
  0
LINE
  5
139
330
1F
100
AcDbEntity
  8
0
  6
Continuous
 62
     7
370
    25
100
AcDbLine
 10
219.0188260286
 20
81.254780512
 30
0.0
 11
219.0188260286
 21
86.5077351442
 31
0.0
  0
LINE
  5
13A
330
1F
100
AcDbEntity
  8
0
  6
Continuous
 62
     7
370
    25
100
AcDbLine
 10
204.8032800458
 20
81.39581073
 30
0.0
 11
205.6120876044
 21
73.3077351442
 31
0.0
  0
LINE
  5
13B
330
1F
100
AcDbEntity
  8
0
  6
Continuous
 62
     7
370
    25
100
AcDbLine
 10
221.8371124185
 20
71.9579832847
 30
0.0
 11
222.780895163
 21
81.39581073
 31
0.0
  0
ARC
  5
13C
330
1F
100
AcDbEntity
  8
0
  6
Continuous
 62
     7
370
    25
100
AcDbCircle
 10
221.7858579728
 20
81.495314449
 30
0.0
 40
0.9999999999999957
100
AcDbArc
 50
354.2894068625
 51
7.1250163489
  0
ARC
  5
13D
330
1F
100
AcDbEntity
  8
0
  6
Continuous
 62
     7
370
    25
100
AcDbCircle
 10
205.7983172361
 20
81.495314449
 30
0.0
 40
1.000000000000005
100
AcDbArc
 50
172.8749836511
 51
185.7105931375
  0
LINE
  5
13E
330
1F
100
AcDbEntity
  8
0
  6
Continuous
 62
     7
370
    25
100
AcDbLine
 10
222.7781358495
 20
81.6193491836
 30
0.0
 11
221.8468354335
 21
89.0697525115
 31
0.0
  0
LINE
  5
13F
330
1F
100
AcDbEntity
  8
0
  6
Continuous
 62
     7
370
    25
100
AcDbLine
 10
205.7373397753
 20
89.0697525115
 30
0.0
 11
204.8060393593
 21
81.6193491836
 31
0.0
  0
ARC
  5
140
330
1F
100
AcDbEntity
  8
0
  6
Continuous
 62
     7
370
    25
100
AcDbCircle
 10
206.2334787137
 20
89.0077351442
 30
0.0
 40
0.5
100
AcDbArc
 50
90.0
 51
172.8749836511
  0
ARC
  5
141
330
1F
100
AcDbEntity
  8
0
  6
Continuous
 62
     7
370
    25
100
AcDbCircle
 10
221.3506964952
 20
89.0077351442
 30
0.0
 40
0.5000000000000034
100
AcDbArc
 50
7.1250163489
 51
90.0
  0
ARC
  5
142
330
1F
100
AcDbEntity
  8
0
  6
Continuous
 62
     7
370
    25
100
AcDbCircle
 10
221.3395938234
 20
72.0077351442
 30
0.0
 40
0.5
100
AcDbArc
 50
270.0
 51
354.2894068625
  0
ARC
  5
143
330
1F
100
AcDbEntity
  8
0
  6
Continuous
 62
     7
370
    25
100
AcDbCircle
 10
212.9920876044
 20
72.8077351442
 30
0.0
 40
0.2000000000000028
100
AcDbArc
 50
90.0
 51
180.0
  0
ARC
  5
144
330
1F
100
AcDbEntity
  8
0
  6
Continuous
 62
     7
370
    25
100
AcDbCircle
 10
214.5920876044
 20
72.8077351442
 30
0.0
 40
0.2000000000000171
100
AcDbArc
 50
0.0
 51
90.0
  0
LINE
  5
145
330
1F
100
AcDbEntity
  8
0
  6
Continuous
 62
     7
370
    25
100
AcDbLine
 10
214.7920876044
 20
71.0077351442
 30
0.0
 11
214.7920876044
 21
71.4789439906
 31
0.0
  0
LINE
  5
146
330
1F
100
AcDbEntity
  8
0
  6
Continuous
 62
     7
370
    25
100
AcDbLine
 10
212.7920876044
 20
72.8077351442
 30
0.0
 11
212.7920876044
 21
71.0077351442
 31
0.0
  0
ARC
  5
147
330
1F
100
AcDbEntity
  8
0
  6
Continuous
 62
     7
370
    25
100
AcDbCircle
 10
222.2920876044
 20
65.0577351442
 30
0.0
 40
0.25
100
AcDbArc
 50
180.0
 51
270.0
  0
ARC
  5
148
330
1F
100
AcDbEntity
  8
0
  6
Continuous
 62
     7
370
    25
100
AcDbCircle
 10
205.2920876044
 20
65.0577351442
 30
0.0
 40
0.25
100
AcDbArc
 50
270.0
 51
0.0
  0
LINE
  5
149
330
1F
100
AcDbEntity
  8
0
  6
Continuous
 62
     7
370
    25
100
AcDbLine
 10
222.0420876044
 20
70.5077351442
 30
0.0
 11
221.5420876044
 21
71.0077351442
 31
0.0
  0
LINE
  5
14A
330
1F
100
AcDbEntity
  8
0
  6
Continuous
 62
     7
370
    25
100
AcDbLine
 10
206.0420876044
 20
71.0077351442
 30
0.0
 11
205.5420876044
 21
70.5077351442
 31
0.0
  0
LINE
  5
14B
330
1F
100
AcDbEntity
  8
0
  6
Continuous
 62
     7
370
    25
100
AcDbLine
 10
222.0420876044
 20
65.0577351442
 30
0.0
 11
222.0420876044
 21
70.5077351442
 31
0.0
  0
LINE
  5
14C
330
1F
100
AcDbEntity
  8
0
  6
Continuous
 62
     7
370
    25
100
AcDbLine
 10
205.5420876044
 20
70.5077351442
 30
0.0
 11
205.5420876044
 21
65.0577351442
 31
0.0
  0
LINE
  5
14D
330
1F
100
AcDbEntity
  8
0
  6
Continuous
 62
     7
370
    25
100
AcDbLine
 10
208.7920876044
 20
73.3077351442
 30
0.0
 11
208.7920876044
 21
71.0077351442
 31
0.0
  0
LINE
  5
14E
330
1F
100
AcDbEntity
  8
0
  6
Continuous
 62
     7
370
    25
100
AcDbLine
 10
218.7920876044
 20
71.0077351442
 30
0.0
 11
218.7920876044
 21
71.5077351442
 31
0.0
  0
ELLIPSE
  5
14F
330
1F
100
AcDbEntity
  8
0
  6
Continuous
 62
     7
370
    25
100
AcDbEllipse
 10
213.6175490493
 20
82.731341942
 30
0.0
 11
0.7234244958980014
 21
-0.7001325129304661
 31
0.0
210
0.0
220
0.0
230
1.0
 40
0.9869902583
 41
4.707649545362589
 42
5.487972049091436
  0
LINE
  5
150
330
1F
100
AcDbEntity
  8
0
  6
Continuous
 62
     7
370
    25
100
AcDbLine
 10
213.6306420101
 20
81.731341942
 30
0.0
 11
213.6306420101
 21
81.0077351442
 31
0.0
  0
ELLIPSE
  5
151
330
1F
100
AcDbEntity
  8
0
  6
Continuous
 62
     7
370
    25
100
AcDbEllipse
 10
213.6175490493
 20
82.5077351442
 30
0.0
 11
1.074619436156752
 21
-1.056020081253678
 31
0.0
210
0.0
220
0.0
230
0.9999999999999999
 40
0.9913091236
 41
4.713099434383474
 42
5.493421938112304
  0
LWPOLYLINE
  5
152
330
1F
100
AcDbEntity
  8
0
  6
Continuous
 62
     7
370
    25
100
AcDbPolyline
 90
        9
 70
   128
 43
0.0
 10
212.9231042299
 20
82.0206552512
 10
212.8373753478
 20
81.9443247736
 10
212.7563436979
 20
81.8599247743
 10
212.684449143
 20
81.7720796738
 10
212.6256309089
 20
81.6856026554
 10
212.5831117471
 20
81.6052319431
 10
212.5592213554
 20
81.5353711857
 10
212.5552687293
 20
81.4798481737
 10
212.5714704399
 20
81.441705108
  0
LINE
  5
153
330
1F
100
AcDbEntity
  8
0
  6
Continuous
 62
     7
370
    25
100
AcDbLine
 10
213.6306420101
 20
81.731341942
 30
0.0
 11
213.9535331988
 21
81.731341942
 31
0.0
  0
LINE
  5
154
330
1F
100
AcDbEntity
  8
0
  6
Continuous
 62
     7
370
    25
100
AcDbLine
 10
213.9535331988
 20
81.731341942
 30
0.0
 11
213.9535331988
 21
81.0077351442
 31
0.0
  0
LINE
  5
155
330
1F
100
AcDbEntity
  8
0
  6
Continuous
 62
     7
370
    25
100
AcDbLine
 10
213.9535331988
 20
81.0077351442
 30
0.0
 11
213.6306420101
 21
81.0077351442
 31
0.0
  0
ELLIPSE
  5
156
330
1F
100
AcDbEntity
  8
0
  6
Continuous
 62
     7
370
    25
100
AcDbEllipse
 10
213.9666261595
 20
82.731341942
 30
0.0
 11
0.7234244958980298
 21
0.7001325129304662
 31
0.0
210
0.0
220
0.0
230
1.0
 40
0.9869902583
 41
3.936805911678
 42
4.717128415406837
  0
LWPOLYLINE
  5
157
330
1F
100
AcDbEntity
  8
0
  6
Continuous
 62
     7
370
    25
100
AcDbPolyline
 90
        9
 70
   128
 43
0.0
 10
214.6610709789
 20
82.0206552512
 10
214.746799861
 20
81.9443247736
 10
214.8278315109
 20
81.8599247743
 10
214.8997260658
 20
81.7720796738
 10
214.9585443
 20
81.6856026554
 10
215.0010634617
 20
81.6052319431
 10
215.0249538534
 20
81.5353711857
 10
215.0289064795
 20
81.4798481737
 10
215.012704769
 20
81.441705108
  0
ELLIPSE
  5
158
330
1F
100
AcDbEntity
  8
0
  6
Continuous
 62
     7
370
    25
100
AcDbEllipse
 10
213.9666261595
 20
82.5077351442
 30
0.0
 11
1.074619436156752
 21
1.056020081253664
 31
0.0
210
0.0
220
0.0
230
1.0
 40
0.9913091236
 41
3.931356022657103
 42
4.711678526385933
  0
LINE
  5
159
330
1F
100
AcDbEntity
  8
0
  6
Continuous
 62
     7
370
    25
100
AcDbLine
 10
212.9231042299
 20
82.0206552512
 30
0.0
 11
212.9231042299
 21
91.1785555375
 31
0.0
  0
LINE
  5
15A
330
1F
100
AcDbEntity
  8
0
  6
Continuous
 62
     7
370
    25
100
AcDbLine
 10
212.9231042299
 20
91.1785555375
 30
0.0
 11
214.6610709789
 21
91.1785555375
 31
0.0
  0
LINE
  5
15B
330
1F
100
AcDbEntity
  8
0
  6
Continuous
 62
     7
370
    25
100
AcDbLine
 10
214.6610709789
 20
91.1785555375
 30
0.0
 11
214.6610709789
 21
82.0206552512
 31
0.0
  0
SPLINE
  5
15C
330
1F
100
AcDbEntity
  8
0
  6
Continuous
 62
     7
370
    25
100
AcDbSpline
210
0.0
220
0.0
230
1.0
 70
     8
 71
     3
 72
    11
 73
     7
 74
     0
 42
0.00000001
 43
0.00000001
 40
0.0
 40
0.0
 40
0.0
 40
0.0
 40
0.2499999999999991
 40
0.4999999999999979
 40
0.7499999999999996
 40
1.0
 40
1.0
 40
1.0
 40
1.0
 10
215.3598063081905
 20
90.88431527185095
 30
0.0
 10
215.3448070030239
 20
90.92343282601709
 30
0.0
 10
215.3148083926908
 20
91.00166793434936
 30
0.0
 10
215.1512886898941
 20
91.09833101005758
 30
0.0
 10
214.9257090758117
 20
91.16551922619706
 30
0.0
 10
214.7492836778967
 20
91.17421010039067
 30
0.0
 10
214.6610709789392
 20
91.17855553748747
 30
0.0
  0
LINE
  5
15D
330
1F
100
AcDbEntity
  8
0
  6
Continuous
 62
     7
370
    25
100
AcDbLine
 10
215.3598063082
 20
82.0733756234
 30
0.0
 11
215.3598063082
 21
90.8843152719
 31
0.0
  0
SPLINE
  5
15E
330
1F
100
AcDbEntity
  8
0
  6
Continuous
 62
     7
370
    25
100
AcDbSpline
210
0.0
220
0.0
230
1.0
 70
     8
 71
     3
 72
    12
 73
     8
 74
     0
 42
0.00000001
 43
0.00000001
 40
0.0
 40
0.0
 40
0.0
 40
0.0
 40
0.139683458618249
 40
0.3831896274038307
 40
0.55131692930133
 40
0.8194729461607051
 40
0.9999999999999999
 40
0.9999999999999999
 40
0.9999999999999999
 40
0.9999999999999999
 10
214.6610709789392
 20
82.02065525117698
 30
0.0
 10
214.7107858994176
 20
82.03396762483793
 30
0.0
 10
214.8471674154755
 20
82.0704870778459
 30
0.0
 10
215.0270835246876
 20
82.10815913843727
 30
0.0
 10
215.2054249530725
 20
82.13252645919877
 30
0.0
 10
215.325945177624
 20
82.1314094244348
 30
0.0
 10
215.3500911909308
 20
82.09002613605725
 30
0.0
 10
215.3598063081905
 20
82.07337562344183
 30
0.0
  0
ARC
  5
15F
330
1F
100
AcDbEntity
  8
0
  6
Continuous
 62
     7
370
    25
100
AcDbCircle
 10
214.8615521275
 20
82.0585226377
 30
0.0
 40
0.4984755156835923
100
AcDbArc
 50
333.4921832491
 51
1.7074848132
  0
SPLINE
  5
160
330
1F
100
AcDbEntity
  8
0
  6
Continuous
 62
     7
370
    25
100
AcDbSpline
210
0.0
220
0.0
230
1.0
 70
     8
 71
     3
 72
    12
 73
     8
 74
     0
 42
0.00000001
 43
0.00000001
 40
0.0
 40
0.0
 40
0.0
 40
0.0
 40
0.0715202026166142
 40
0.1260836237049476
 40
0.3855387013103047
 40
0.8475626424815554
 40
1.0
 40
1.0
 40
1.0
 40
1.0
 10
215.3076246466294
 20
81.83604309388672
 30
0.0
 10
215.3056886009242
 20
81.8329344460219
 30
0.0
 10
215.3022755281247
 20
81.82745418207857
 30
0.0
 10
215.2800930776194
 20
81.78786563665815
 30
0.0
 10
215.2170796028531
 20
81.68143150367588
 30
0.0
 10
215.1200332773811
 20
81.55092448796763
 30
0.0
 10
215.0340385841629
 20
81.4634147740043
 30
0.0
 10
215.0127047689613
 20
81.44170510802174
 30
0.0
  0
SPLINE
  5
161
330
1F
100
AcDbEntity
  8
0
  6
Continuous
 62
     7
370
    25
100
AcDbSpline
210
0.0
220
0.0
230
1.0
 70
     8
 71
     3
 72
    11
 73
     7
 74
     0
 42
0.00000001
 43
0.00000001
 40
0.0
 40
0.0
 40
0.0
 40
0.0
 40
0.249999999999999
 40
0.4999999999999998
 40
0.7499999999999988
 40
1.0
 40
1.0
 40
1.0
 40
1.0
 10
212.2243689006505
 20
90.88431527185094
 30
0.0
 10
212.239368205817
 20
90.92343282601708
 30
0.0
 10
212.2693668161502
 20
91.00166793434933
 30
0.0
 10
212.4328865189468
 20
91.09833101005756
 30
0.0
 10
212.6584661330292
 20
91.16551922619708
 30
0.0
 10
212.8348915309442
 20
91.17421010039067
 30
0.0
 10
212.9231042299018
 20
91.17855553748747
 30
0.0
  0
SPLINE
  5
162
330
1F
100
AcDbEntity
  8
0
  6
Continuous
 62
     7
370
    25
100
AcDbSpline
210
0.0
220
0.0
230
1.0
 70
     8
 71
     3
 72
    13
 73
     9
 74
     0
 42
0.00000001
 43
0.00000001
 40
0.0
 40
0.0
 40
0.0
 40
0.0
 40
0.1143463544469914
 40
0.2890454840074685
 40
0.5294852105593209
 40
0.7014879056604271
 40
0.9335094878266192
 40
1.0
 40
1.0
 40
1.0
 40
1.0
 10
212.2243689006505
 20
82.07337562344183
 30
0.0
 10
212.2292034921556
 20
82.08476245519982
 30
0.0
 10
212.2414244050856
 20
82.11354616511969
 30
0.0
 10
212.3140725001267
 20
82.13379634256856
 30
0.0
 10
212.4445847665335
 20
82.12593901582295
 30
0.0
 10
212.631452365703
 20
82.09341159949498
 30
0.0
 10
212.7928257704597
 20
82.0562902445431
 30
0.0
 10
212.8993721213116
 20
82.02714668142413
 30
0.0
 10
212.9231042299018
 20
82.02065525117698
 30
0.0
  0
LINE
  5
163
330
1F
100
AcDbEntity
  8
0
  6
Continuous
 62
     7
370
    25
100
AcDbLine
 10
212.2243689007
 20
90.8843152719
 30
0.0
 11
212.2243689007
 21
82.0733756234
 31
0.0
  0
SPLINE
  5
164
330
1F
100
AcDbEntity
  8
0
  6
Continuous
 62
     7
370
    25
100
AcDbSpline
210
0.0
220
0.0
230
1.0
 70
     8
 71
     3
 72
    11
 73
     7
 74
     0
 42
0.00000001
 43
0.00000001
 40
0.0
 40
0.0
 40
0.0
 40
0.0
 40
0.3325271082490199
 40
0.7778992719027311
 40
0.9254453528959206
 40
1.0
 40
1.0
 40
1.0
 40
1.0
 10
212.5714704398797
 20
81.44170510802175
 30
0.0
 10
212.5262396167334
 20
81.48964165614993
 30
0.0
 10
212.4204286211178
 20
81.60178230562299
 30
0.0
 10
212.3326686466402
 20
81.7371425236402
 30
0.0
 10
212.2850557547025
 20
81.82214315741867
 30
0.0
 10
212.2786880647742
 20
81.8325497984848
 30
0.0
 10
212.2765505622116
 20
81.83604309388672
 30
0.0
  0
ARC
  5
165
330
1F
100
AcDbEntity
  8
0
  6
Continuous
 62
     7
370
    25
100
AcDbCircle
 10
212.7226230813
 20
82.0585226377
 30
0.0
 40
0.4984755156843191
100
AcDbArc
 50
178.2925151868
 51
206.5078167509
  0
LINE
  5
166
330
1F
100
AcDbEntity
  8
0
  6
Continuous
 62
     7
370
    25
100
AcDbLine
 10
212.938481813
 20
81.0077351442
 30
0.0
 11
213.6306420101
 21
81.0077351442
 31
0.0
  0
SPLINE
  5
167
330
1F
100
AcDbEntity
  8
0
  6
Continuous
 62
     7
370
    25
100
AcDbSpline
210
0.0
220
0.0
230
1.0
 70
     8
 71
     3
 72
    11
 73
     7
 74
     0
 42
0.00000001
 43
0.00000001
 40
0.0
 40
0.0
 40
0.0
 40
0.0
 40
0.2500000000000002
 40
0.4999999999999996
 40
0.7499999999999999
 40
1.0
 40
1.0
 40
1.0
 40
1.0
 10
211.4395096619234
 20
82.54700056669934
 30
0.0
 10
211.4575859723414
 20
82.34662496032324
 30
0.0
 10
211.4937385931775
 20
81.94587374757107
 30
0.0
 10
211.838364367378
 20
81.43568080952912
 30
0.0
 10
212.3391864534981
 20
81.07769974116243
 30
0.0
 10
212.7387166931589
 20
81.03105667654583
 30
0.0
 10
212.9384818129893
 20
81.00773514423753
 30
0.0
  0
LINE
  5
168
330
1F
100
AcDbEntity
  8
0
  6
Continuous
 62
     7
370
    25
100
AcDbLine
 10
212.005846942
 20
82.5470005667
 30
0.0
 11
211.4395096619
 21
82.5470005667
 31
0.0
  0
SPLINE
  5
169
330
1F
100
AcDbEntity
  8
0
  6
Continuous
 62
     7
370
    25
100
AcDbSpline
210
0.0
220
0.0
230
1.0
 70
     8
 71
     3
 72
     9
 73
     5
 74
     0
 42
0.00000001
 43
0.00000001
 40
0.0
 40
0.0
 40
0.0
 40
0.0
 40
0.5407747560677784
 40
1.0
 40
1.0
 40
1.0
 40
1.0
 10
212.0058469420038
 20
82.54700056669934
 30
0.0
 10
212.005817441591
 20
82.53566661289864
 30
0.0
 10
212.0057628894646
 20
82.5147078797597
 30
0.0
 10
212.0063671345995
 20
82.49374168689175
 30
0.0
 10
212.006644619219
 20
82.48411348185763
 30
0.0
  0
ELLIPSE
  5
16A
330
1F
100
AcDbEntity
  8
0
  6
Continuous
 62
     7
370
    25
100
AcDbEllipse
 10
213.5048190931
 20
82.5077351442
 30
0.0
 11
-0.399986139932679
 21
1.445826639360064
 31
0.0
210
0.0
220
0.0
230
1.0
 40
0.9987379186
 41
1.314426961368743
 42
1.3169707141365
  0
ELLIPSE
  5
16B
330
1F
100
AcDbEntity
  8
0
  6
Continuous
 62
     7
370
    25
100
AcDbEllipse
 10
214.4535119928
 20
82.5077351442
 30
0.0
 11
2.447559743736974
 21
-0.02501587584980314
 31
0.0
210
0.0
220
0.0
230
1.0
 40
0.6127700831
 41
3.171475350442053
 42
3.622568086779204
  0
LINE
  5
16C
330
1F
100
AcDbEntity
  8
0
  6
Continuous
 62
     7
370
    25
100
AcDbLine
 10
215.5783282668
 20
82.5470005667
 30
0.0
 11
215.5775305896
 21
82.4841134818
 31
0.0
  0
LINE
  5
16D
330
1F
100
AcDbEntity
  8
0
  6
Continuous
 62
     7
370
    25
100
AcDbLine
 10
216.1446655469
 20
82.5470005667
 30
0.0
 11
215.5783282668
 21
82.5470005667
 31
0.0
  0
SPLINE
  5
16E
330
1F
100
AcDbEntity
  8
0
  6
Continuous
 62
     7
370
    25
100
AcDbSpline
210
0.0
220
0.0
230
1.0
 70
     8
 71
     3
 72
    11
 73
     7
 74
     0
 42
0.00000001
 43
0.00000001
 40
0.0
 40
0.0
 40
0.0
 40
0.0
 40
0.2500000000000001
 40
0.4999999999999997
 40
0.75
 40
1.0
 40
1.0
 40
1.0
 40
1.0
 10
214.6456933958517
 20
81.00773514423753
 30
0.0
 10
214.8454585156821
 20
81.03105667654583
 30
0.0
 10
215.2449887553428
 20
81.07769974116242
 30
0.0
 10
215.745810841463
 20
81.43568080952912
 30
0.0
 10
216.0904366156635
 20
81.94587374757106
 30
0.0
 10
216.1265892364995
 20
82.34662496032325
 30
0.0
 10
216.1446655469176
 20
82.54700056669934
 30
0.0
  0
LINE
  5
16F
330
1F
100
AcDbEntity
  8
0
  6
Continuous
 62
     7
370
    25
100
AcDbLine
 10
213.9535331988
 20
81.0077351442
 30
0.0
 11
214.6456933959
 21
81.0077351442
 31
0.0
  0
ELLIPSE
  5
170
330
1F
100
AcDbEntity
  8
0
  6
Continuous
 62
     7
370
    25
100
AcDbEllipse
 10
213.1306632161
 20
82.5077351442
 30
0.0
 11
2.447559743736946
 21
0.02501587584977472
 31
0.0
210
0.0
220
0.0
230
1.0
 40
0.6127700831
 41
5.802209873990231
 42
6.253302610327372
  0
ELLIPSE
  5
171
330
1F
100
AcDbEntity
  8
0
  6
Continuous
 62
     7
370
    25
100
AcDbEllipse
 10
214.0793561158
 20
82.5077351442
 30
0.0
 11
0.3999861399325652
 21
1.445826639360078
 31
0.0
210
0.0
220
0.0
230
0.9999999999999998
 40
0.9987379186
 41
4.966214593033936
 42
4.968758345810764
  0
ELLIPSE
  5
172
330
1F
100
AcDbEntity
  8
0
  6
Continuous
 62
     7
370
    25
100
AcDbEllipse
 10
212.1762147426
 20
90.5265443955
 30
0.0
 11
0.02159772760040824
 21
0.7999991561933089
 31
0.0
210
0.0
220
0.0
230
1.0
 40
0.0537988877
 41
5.17748900704905
 42
5.369012849440696
  0
ELLIPSE
  5
173
330
1F
100
AcDbEntity
  8
0
  6
Continuous
 62
     7
370
    25
100
AcDbEllipse
 10
213.954415329
 20
82.5211703237
 30
0.0
 11
1.947791790405574
 21
-0.0177698114313074
 31
0.0
210
0.0
220
0.0
230
1.0
 40
0.513320833
 41
3.160788584408923
 42
3.623660809788559
  0
LINE
  5
174
330
1F
100
AcDbEntity
  8
0
  6
Continuous
 62
     7
370
    25
100
AcDbLine
 10
212.0068073053
 20
82.5197451401
 30
0.0
 11
212.2234884165
 21
91.0139805583
 31
0.0
  0
ELLIPSE
  5
175
330
1F
100
AcDbEntity
  8
0
  6
Continuous
 62
     7
370
    25
100
AcDbEllipse
 10
215.4079604662
 20
90.5265443955
 30
0.0
 11
-0.02159772760037981
 21
0.7999991561933086
 31
0.0
210
0.0
220
0.0
230
1.0
 40
0.0537988877
 41
0.9141724577395708
 42
1.105696300131263
  0
LINE
  5
176
330
1F
100
AcDbEntity
  8
0
  6
Continuous
 62
     7
370
    25
100
AcDbLine
 10
215.3606867923
 20
91.0139805583
 30
0.0
 11
215.5773679035
 21
82.5197451401
 31
0.0
  0
ELLIPSE
  5
177
330
1F
100
AcDbEntity
  8
0
  6
Continuous
 62
     7
370
    25
100
AcDbEllipse
 10
213.6297598798
 20
82.5211703237
 30
0.0
 11
1.947791790405546
 21
0.01776981143129319
 31
0.0
210
0.0
220
0.0
230
1.0
 40
0.513320833
 41
5.801117150980876
 42
6.263989376373016
  0
LINE
  5
178
330
1F
100
AcDbEntity
  8
0
  6
Continuous
 62
     7
370
    25
100
AcDbLine
 10
212.0065869701
 20
82.4879287102
 30
0.0
 11
212.0068073053
 21
82.5197451401
 31
0.0
  0
SPLINE
  5
179
330
1F
100
AcDbEntity
  8
0
  6
Continuous
 62
     7
370
    25
100
AcDbSpline
210
0.0
220
0.0
230
1.0
 70
     8
 71
     3
 72
     9
 73
     5
 74
     0
 42
0.00000001
 43
0.00000001
 40
0.0
 40
0.0
 40
0.0
 40
0.0
 40
0.8673350121727758
 40
1.0
 40
1.0
 40
1.0
 40
1.0
 10
215.5773679035459
 20
82.51974514010007
 30
0.0
 10
215.5775386357331
 20
82.51054671672487
 30
0.0
 10
215.5777354826087
 20
82.4999413298258
 30
0.0
 10
215.5776054848435
 20
82.48933570522442
 30
0.0
 10
215.5775882386915
 20
82.48792871016578
 30
0.0
  0
ELLIPSE
  5
17A
330
1F
100
AcDbEntity
  8
0
  6
Continuous
 62
     7
370
    25
100
AcDbEllipse
 10
212.8925392339
 20
90.5077351442
 30
0.0
 11
0.0209600052571659
 21
1.499999971448759
 31
0.0
210
0.0
220
0.0
230
1.0
 40
0.013963099
 41
5.413231207420234
 42
6.283380418268021
  0
LINE
  5
17B
330
1F
100
AcDbEntity
  8
0
  6
Continuous
 62
     7
370
    25
100
AcDbLine
 10
214.6706800566
 20
92.0077351442
 30
0.0
 11
212.9134951523
 21
92.0077351442
 31
0.0
  0
ELLIPSE
  5
17C
330
1F
100
AcDbEntity
  8
0
  6
Continuous
 62
     7
370
    25
100
AcDbEllipse
 10
214.6916359749
 20
90.5077351442
 30
0.0
 11
-0.0209600052571659
 21
1.499999971448759
 31
0.0
210
0.0
220
0.0
230
1.0
 40
0.013963099
 41
6.282990196092133
 42
7.153139406940047
  0
SPLINE
  5
17D
330
1F
100
AcDbEntity
  8
0
  6
Continuous
 62
     7
370
    25
100
AcDbSpline
210
0.0
220
0.0
230
1.0
 70
     8
 71
     3
 72
     9
 73
     5
 74
     0
 42
0.00000001
 43
0.00000001
 40
0.0
 40
0.0
 40
0.0
 40
0.0
 40
0.5600029565045499
 40
1.0
 40
1.0
 40
1.0
 40
1.0
 10
214.6621116910444
 20
91.4748038850781
 30
0.0
 10
214.6621173291106
 20
91.46501742291814
 30
0.0
 10
214.6621273970329
 20
91.44754168989516
 30
0.0
 10
214.6620052204295
 20
91.42958072222937
 30
0.0
 10
214.6619514630852
 20
91.4216779495581
 30
0.0
  0
ELLIPSE
  5
17E
330
1F
100
AcDbEntity
  8
0
  6
Continuous
 62
     7
370
    25
100
AcDbEllipse
 10
214.709225137
 20
90.5077351442
 30
0.0
 11
-0.02155295842283067
 21
1.499999872388912
 31
0.0
210
0.0
220
0.0
230
1.0
 40
0.0287076702
 41
0.9152123852433512
 42
1.106736227634798
  0
ELLIPSE
  5
17F
330
1F
100
AcDbEntity
  8
0
  6
Continuous
 62
     7
370
    25
100
AcDbEllipse
 10
212.8749500719
 20
90.5077351442
 30
0.0
 11
0.02155295842283067
 21
1.499999872388912
 31
0.0
210
0.0
220
0.0
230
1.0
 40
0.0287076702
 41
5.17644907954489
 42
5.367972921936415
  0
SPLINE
  5
180
330
1F
100
AcDbEntity
  8
0
  6
Continuous
 62
     7
370
    25
100
AcDbSpline
210
0.0
220
0.0
230
1.0
 70
     8
 71
     3
 72
     9
 73
     5
 74
     0
 42
0.00000001
 43
0.00000001
 40
0.0
 40
0.0
 40
0.0
 40
0.0
 40
0.5599925069633377
 40
1.0
 40
1.0
 40
1.0
 40
1.0
 10
212.9222237457558
 20
91.4216779495581
 30
0.0
 10
212.9221580006044
 20
91.43172554386096
 30
0.0
 10
212.9220405969774
 20
91.4496679166212
 30
0.0
 10
212.9220565141301
 20
91.46712335944247
 30
0.0
 10
212.9220635177965
 20
91.47480388507812
 30
0.0
  0
SPLINE
  5
181
330
1F
100
AcDbEntity
  8
0
  6
Continuous
 62
     7
370
    25
100
AcDbSpline
210
0.0
220
0.0
230
1.0
 70
     8
 71
     3
 72
    12
 73
     8
 74
     0
 42
0.00000001
 43
0.00000001
 40
0.0
 40
0.0
 40
0.0
 40
0.0
 40
0.2225634137434379
 40
0.4462063173695244
 40
0.6680851268156933
 40
0.8917990985568367
 40
1.0
 40
1.0
 40
1.0
 40
1.0
 10
212.2234884165045
 20
91.01398055828864
 30
0.0
 10
212.2358415240712
 20
91.06156650159495
 30
0.0
 10
212.2606076549582
 20
91.15696919228941
 30
0.0
 10
212.3931915829561
 20
91.28118792486238
 30
0.0
 10
212.5795489864507
 20
91.37307772596682
 30
0.0
 10
212.767639797804
 20
91.41553330497693
 30
0.0
 10
212.8842198306923
 20
91.42016731049206
 30
0.0
 10
212.9222237457558
 20
91.4216779495581
 30
0.0
  0
SPLINE
  5
182
330
1F
100
AcDbEntity
  8
0
  6
Continuous
 62
     7
370
    25
100
AcDbSpline
210
0.0
220
0.0
230
1.0
 70
     8
 71
     3
 72
    12
 73
     8
 74
     0
 42
0.00000001
 43
0.00000001
 40
0.0
 40
0.0
 40
0.0
 40
0.0
 40
0.2225634137435274
 40
0.446206317369568
 40
0.6680851268158019
 40
0.8917990985569294
 40
1.0
 40
1.0
 40
1.0
 40
1.0
 10
214.6619514630852
 20
91.4216779495581
 30
0.0
 10
214.7404551231278
 20
91.4162508769444
 30
0.0
 10
214.8978432061844
 20
91.40537040901695
 30
0.0
 10
215.1071947438118
 20
91.33007697799665
 30
0.0
 10
215.2659540382818
 20
91.22059843324331
 30
0.0
 10
215.3438029085985
 20
91.10788379269685
 30
0.0
 10
215.3565359494319
 20
91.03706633525265
 30
0.0
 10
215.3606867923365
 20
91.01398055828862
 30
0.0
  0
SPLINE
  5
183
330
1F
100
AcDbEntity
  8
0
  6
Continuous
 62
     7
370
    25
100
AcDbSpline
210
0.0
220
0.0
230
1.0
 70
     8
 71
     3
 72
    12
 73
     8
 74
     0
 42
0.00000001
 43
0.00000001
 40
0.0
 40
0.0
 40
0.0
 40
0.0
 40
0.2198609600791294
 40
0.4397396970008148
 40
0.6583291451397767
 40
0.87912395168436
 40
1.0
 40
1.0
 40
1.0
 40
1.0
 10
215.3616320282085
 20
91.04182900316802
 30
0.0
 10
215.3509600335644
 20
91.0923172192959
 30
0.0
 10
215.3296151813929
 20
91.19329773377285
 30
0.0
 10
215.2014967861259
 20
91.32496072672289
 30
0.0
 10
215.0185588500608
 20
91.42252204949597
 30
0.0
 10
214.8270096781737
 20
91.46918144097268
 30
0.0
 10
214.7052040064886
 20
91.47333458797401
 30
0.0
 10
214.6621116910444
 20
91.4748038850781
 30
0.0
  0
SPLINE
  5
184
330
1F
100
AcDbEntity
  8
0
  6
Continuous
 62
     7
370
    25
100
AcDbSpline
210
0.0
220
0.0
230
1.0
 70
     8
 71
     3
 72
    12
 73
     8
 74
     0
 42
0.00000001
 43
0.00000001
 40
0.0
 40
0.0
 40
0.0
 40
0.0
 40
0.2198610998683202
 40
0.4397399767664986
 40
0.6583294271823332
 40
0.8791242261983154
 40
1.0
 40
1.0
 40
1.0
 40
1.0
 10
212.9220635177965
 20
91.47480388507812
 30
0.0
 10
212.8433726080774
 20
91.46998009172849
 30
0.0
 10
212.6859844260281
 20
91.46033211499793
 30
0.0
 10
212.4767026775431
 20
91.38315797733617
 30
0.0
 10
212.3180533568787
 20
91.26929046812401
 30
0.0
 10
212.2379532941635
 20
91.14780989862038
 30
0.0
 10
212.2265702568618
 20
91.0695246553759
 30
0.0
 10
212.2225431806324
 20
91.04182900316802
 30
0.0
  0
LINE
  5
185
330
1F
100
AcDbEntity
  8
0
  6
Continuous
 62
     7
370
    25
100
AcDbLine
 10
214.7981697141
 20
91.9828007659
 30
0.0
 11
214.6706800566
 21
92.0077351442
 31
0.0
  0
ELLIPSE
  5
186
330
1F
100
AcDbEntity
  8
0
  6
Continuous
 62
     7
370
    25
100
AcDbEllipse
 10
215.3911563121
 20
90.5260590081
 30
0.0
 11
-0.02097028290367575
 21
0.7999998117962832
 31
0.0
210
0.0
220
0.0
230
1.0
 40
0.0261679535
 41
6.282499370390492
 42
7.15264858123768
  0
ELLIPSE
  5
187
330
1F
100
AcDbEntity
  8
0
  6
Continuous
 62
     7
370
    25
100
AcDbEllipse
 10
212.1930188968
 20
90.5260590081
 30
0.0
 11
0.02097028290361891
 21
0.7999998117962831
 31
0.0
210
0.0
220
0.0
230
1.0
 40
0.0261679535
 41
5.413722033121465
 42
6.283871243967846
  0
SPLINE
  5
188
330
1F
100
AcDbEntity
  8
0
  6
Continuous
 62
     7
370
    25
100
AcDbSpline
210
0.0
220
0.0
230
1.0
 70
     8
 71
     3
 72
    11
 73
     7
 74
     0
 42
0.00000001
 43
0.00000001
 40
0.0
 40
0.0
 40
0.0
 40
0.0
 40
0.2499999999999963
 40
0.4999999999999995
 40
0.7500000000000014
 40
1.0
 40
1.0
 40
1.0
 40
1.0
 10
212.213974815107
 20
91.32605900805304
 30
0.0
 10
212.2264953313296
 20
91.41595805518003
 30
0.0
 10
212.2515363637748
 20
91.59575614943405
 30
0.0
 10
212.4141798333973
 20
91.82047235866902
 30
0.0
 10
212.6429995694518
 20
91.97723344369851
 30
0.0
 10
212.823329957998
 20
91.99756791072451
 30
0.0
 10
212.9134951522711
 20
92.00773514423751
 30
0.0
  0
LINE
  5
189
330
1F
100
AcDbEntity
  8
0
  6
Continuous
 62
     7
370
    25
100
AcDbLine
 10
215.5766737451
 20
82.5469572267
 30
0.0
 11
215.5783282668
 21
82.5470005667
 31
0.0
  0
LINE
  5
18A
330
1F
100
AcDbEntity
  8
0
  6
Continuous
 62
     7
370
    25
100
AcDbLine
 10
212.0075014637
 20
82.5469572267
 30
0.0
 11
212.005846942
 21
82.5470005667
 31
0.0
  0
SPLINE
  5
18B
330
1F
100
AcDbEntity
  8
0
  6
Continuous
 62
     7
370
    25
100
AcDbSpline
210
0.0
220
0.0
230
1.0
 70
     8
 71
     3
 72
     9
 73
     5
 74
     0
 42
0.00000001
 43
0.00000001
 40
0.0
 40
0.0
 40
0.0
 40
0.0
 40
0.5600012771711205
 40
0.9999999999999999
 40
0.9999999999999999
 40
0.9999999999999999
 40
0.9999999999999999
 10
211.4395096619234
 20
82.54700056669934
 30
0.0
 10
211.4513440742684
 20
83.4760502061275
 30
0.0
 10
211.4724769052592
 20
85.13506363574203
 30
0.0
 10
211.4934376346716
 20
86.79184287090862
 30
0.0
 10
211.5026603288427
 20
87.52082361839133
 30
0.0
  0
SPLINE
  5
18C
330
1F
100
AcDbEntity
  8
0
  6
Continuous
 62
     7
370
    25
100
AcDbSpline
210
0.0
220
0.0
230
1.0
 70
     8
 71
     3
 72
     9
 73
     5
 74
     0
 42
0.00000001
 43
0.00000001
 40
0.0
 40
0.0
 40
0.0
 40
0.0
 40
0.5599999095971039
 40
1.0
 40
1.0
 40
1.0
 40
1.0
 10
211.5026603288427
 20
87.52082361839133
 30
0.0
 10
211.5049577387399
 20
87.70262533314015
 30
0.0
 10
211.5090602570758
 20
88.02727130474327
 30
0.0
 10
211.5131566502689
 20
88.35183751029776
 30
0.0
 10
211.5149590636441
 20
88.49464667008345
 30
0.0
  0
LINE
  5
18D
330
1F
100
AcDbEntity
  8
0
  6
Continuous
 62
     7
370
    25
100
AcDbLine
 10
211.5149590636
 20
88.4946466701
 30
0.0
 11
211.1866309343
 21
88.4946466701
 31
0.0
  0
LINE
  5
18E
330
1F
100
AcDbEntity
  8
0
  6
Continuous
 62
     7
370
    25
100
AcDbLine
 10
211.1866309343
 20
88.4946466701
 30
0.0
 11
211.3164068475
 21
91.3260590081
 31
0.0
  0
LINE
  5
18F
330
1F
100
AcDbEntity
  8
0
  6
Continuous
 62
     7
370
    25
100
AcDbLine
 10
211.3164068475
 20
91.3260590081
 30
0.0
 11
212.2139748151
 21
91.3260590081
 31
0.0
  0
LINE
  5
190
330
1F
100
AcDbEntity
  8
0
  6
Continuous
 62
     7
370
    25
100
AcDbLine
 10
212.2225431806
 20
91.0418290032
 30
0.0
 11
212.005846942
 21
82.5470005667
 31
0.0
  0
LINE
  5
191
330
1F
100
AcDbEntity
  8
0
  6
Continuous
 62
     7
370
    25
100
AcDbLine
 10
216.3975442745
 20
88.4946466701
 30
0.0
 11
216.0692161452
 21
88.4946466701
 31
0.0
  0
SPLINE
  5
192
330
1F
100
AcDbEntity
  8
0
  6
Continuous
 62
     7
370
    25
100
AcDbSpline
210
0.0
220
0.0
230
1.0
 70
     8
 71
     3
 72
     9
 73
     5
 74
     0
 42
0.00000001
 43
0.00000001
 40
0.0
 40
0.0
 40
0.0
 40
0.0
 40
0.5600000882143319
 40
1.0
 40
1.0
 40
1.0
 40
1.0
 10
216.0692161451969
 20
88.49464667008345
 30
0.0
 10
216.0715102613379
 20
88.31288779925167
 30
0.0
 10
216.0756068966588
 20
87.98831843818003
 30
0.0
 10
216.0797096631181
 20
87.66366923788323
 30
0.0
 10
216.0815148799983
 20
87.52082361839133
 30
0.0
  0
SPLINE
  5
193
330
1F
100
AcDbEntity
  8
0
  6
Continuous
 62
     7
370
    25
100
AcDbSpline
210
0.0
220
0.0
230
1.0
 70
     8
 71
     3
 72
     9
 73
     5
 74
     0
 42
0.00000001
 43
0.00000001
 40
0.0
 40
0.0
 40
0.0
 40
0.0
 40
0.5599987526606142
 40
1.0
 40
1.0
 40
1.0
 40
1.0
 10
216.0815148799983
 20
87.52082361839133
 30
0.0
 10
216.0932564665207
 20
86.59298231854203
 30
0.0
 10
216.1142236320127
 20
84.93611916404204
 30
0.0
 10
216.1353638323849
 20
83.27701046413158
 30
0.0
 10
216.1446655469176
 20
82.54700056669934
 30
0.0
  0
LINE
  5
194
330
1F
100
AcDbEntity
  8
0
  6
Continuous
 62
     7
370
    25
100
AcDbLine
 10
215.5783282668
 20
82.5470005667
 30
0.0
 11
215.3616320282
 21
91.0418290032
 31
0.0
  0
LINE
  5
195
330
1F
100
AcDbEntity
  8
0
  6
Continuous
 62
     7
370
    25
100
AcDbLine
 10
215.3702003937
 20
91.3260590081
 30
0.0
 11
216.2677683614
 21
91.3260590081
 31
0.0
  0
LINE
  5
196
330
1F
100
AcDbEntity
  8
0
  6
Continuous
 62
     7
370
    25
100
AcDbLine
 10
216.2677683614
 20
91.3260590081
 30
0.0
 11
216.3975442745
 21
88.4946466701
 31
0.0
  0
LINE
  5
197
330
1F
100
AcDbEntity
  8
0
  6
Continuous
 62
     7
370
    25
100
AcDbLine
 10
212.9134951523
 20
92.0077351442
 30
0.0
 11
212.0159271847
 21
92.0077351442
 31
0.0
  0
SPLINE
  5
198
330
1F
100
AcDbEntity
  8
0
  6
Continuous
 62
     7
370
    25
100
AcDbSpline
210
0.0
220
0.0
230
1.0
 70
     8
 71
     3
 72
    11
 73
     7
 74
     0
 42
0.00000001
 43
0.00000001
 40
0.0
 40
0.0
 40
0.0
 40
0.0
 40
0.2499999999999982
 40
0.4999999999999978
 40
0.750000000000001
 40
1.0
 40
1.0
 40
1.0
 40
1.0
 10
211.3164068474879
 20
91.32605900805304
 30
0.0
 10
211.3289273637104
 20
91.41595805518004
 30
0.0
 10
211.3539683961556
 20
91.59575614943407
 30
0.0
 10
211.5166118657782
 20
91.82047235866902
 30
0.0
 10
211.7454316018326
 20
91.97723344369852
 30
0.0
 10
211.9257619903788
 20
91.99756791072453
 30
0.0
 10
212.015927184652
 20
92.00773514423751
 30
0.0
  0
LINE
  5
199
330
1F
100
AcDbEntity
  8
0
  6
Continuous
 62
     7
370
    25
100
AcDbLine
 10
215.5682480242
 20
92.0077351442
 30
0.0
 11
214.6706800566
 21
92.0077351442
 31
0.0
  0
SPLINE
  5
19A
330
1F
100
AcDbEntity
  8
0
  6
Continuous
 62
     7
370
    25
100
AcDbSpline
210
0.0
220
0.0
230
1.0
 70
     8
 71
     3
 72
    11
 73
     7
 74
     0
 42
0.00000001
 43
0.00000001
 40
0.0
 40
0.0
 40
0.0
 40
0.0
 40
0.2499999999999988
 40
0.5000000000000004
 40
0.7499999999999976
 40
1.0
 40
1.0
 40
1.0
 40
1.0
 10
215.568248024189
 20
92.00773514423751
 30
0.0
 10
215.6584132184621
 20
91.99756791072453
 30
0.0
 10
215.8387436070084
 20
91.97723344369852
 30
0.0
 10
216.0675633430628
 20
91.820472358669
 30
0.0
 10
216.2302068126854
 20
91.59575614943408
 30
0.0
 10
216.2552478451305
 20
91.41595805518004
 30
0.0
 10
216.2677683613531
 20
91.32605900805304
 30
0.0
  0
LINE
  5
19B
330
1F
100
AcDbEntity
  8
0
  6
Continuous
 62
     7
370
    25
100
AcDbLine
 10
210.9271391923
 20
88.0077351442
 30
0.0
 11
210.6930440584
 21
88.0077351442
 31
0.0
  0
SPLINE
  5
19C
330
1F
100
AcDbEntity
  8
0
  6
Continuous
 62
     7
370
    25
100
AcDbSpline
210
0.0
220
0.0
230
1.0
 70
     8
 71
     3
 72
    10
 73
     6
 74
     0
 42
0.00000001
 43
0.00000001
 40
0.0
 40
0.0
 40
0.0
 40
0.0
 40
0.2383396858856107
 40
0.571650633368965
 40
1.0
 40
1.0
 40
1.0
 40
1.0
 10
210.9335651623657
 20
88.00773514423743
 30
0.0
 10
211.0081633647926
 20
88.01669388715707
 30
0.0
 10
211.1870849300665
 20
88.0381811650528
 30
0.0
 10
211.4234290423215
 20
88.2118435480059
 30
0.0
 10
211.482012418507
 20
88.39285040726047
 30
0.0
 10
211.5149590636441
 20
88.49464667008365
 30
0.0
  0
SPLINE
  5
19D
330
1F
100
AcDbEntity
  8
0
  6
Continuous
 62
     7
370
    25
100
AcDbSpline
210
0.0
220
0.0
230
1.0
 70
     8
 71
     3
 72
    11
 73
     7
 74
     0
 42
0.00000001
 43
0.00000001
 40
0.0
 40
0.0
 40
0.0
 40
0.0
 40
0.2506671725023492
 40
0.5010414677145718
 40
0.7508849997170933
 40
1.0
 40
1.0
 40
1.0
 40
1.0
 10
211.4395096619234
 20
82.54700056669934
 30
0.0
 10
211.4126350952682
 20
82.57650658669851
 30
0.0
 10
211.358917361962
 20
82.63548415212611
 30
0.0
 10
211.0734518983081
 20
82.72221742093782
 30
0.0
 10
210.6519237516885
 20
82.80653845116434
 30
0.0
 10
210.2355666739915
 20
82.8591214437789
 30
0.0
 10
210.027692097615
 20
82.88537455174774
 30
0.0
  0
SPLINE
  5
19E
330
1F
100
AcDbEntity
  8
0
  6
Continuous
 62
     7
370
    25
100
AcDbSpline
210
0.0
220
0.0
230
1.0
 70
     8
 71
     3
 72
     9
 73
     5
 74
     0
 42
0.00000001
 43
0.00000001
 40
0.0
 40
0.0
 40
0.0
 40
0.0
 40
0.501325902198991
 40
1.0
 40
1.0
 40
1.0
 40
1.0
 10
210.0276920442508
 20
82.88537431746052
 30
0.0
 10
209.9026493867807
 20
82.89679616457313
 30
0.0
 10
209.6532254952131
 20
82.91957944200308
 30
0.0
 10
209.3514573867919
 20
82.91664148809559
 30
0.0
 10
209.2009734475798
 20
82.91517640658138
 30
0.0
  0
LINE
  5
19F
330
1F
100
AcDbEntity
  8
0
  6
Continuous
 62
     7
370
    25
100
AcDbLine
 10
209.0862070083
 20
86.5078461501
 30
0.0
 11
209.2009822158
 21
82.9152760636
 31
0.0
  0
SPLINE
  5
1A0
330
1F
100
AcDbEntity
  8
0
  6
Continuous
 62
     7
370
    25
100
AcDbSpline
210
0.0
220
0.0
230
1.0
 70
     8
 71
     3
 72
    14
 73
    10
 74
     0
 42
0.00000001
 43
0.00000001
 40
0.0
 40
0.0
 40
0.0
 40
0.0
 40
0.0829413618596714
 40
0.1664594845668882
 40
0.2437726390188662
 40
0.3161479456895724
 40
0.4353725718192331
 40
0.6486290670514194
 40
1.0
 40
1.0
 40
1.0
 40
1.0
 10
209.0862070130831
 20
86.50784613749822
 30
0.0
 10
209.0880222026655
 20
86.59771004508809
 30
0.0
 10
209.0916652043658
 20
86.77806275938143
 30
0.0
 10
209.1733263368534
 20
87.06594747016732
 30
0.0
 10
209.3066098171382
 20
87.31747349759405
 30
0.0
 10
209.4949362733758
 20
87.55142282749509
 30
0.0
 10
209.7932033530381
 20
87.79223379800307
 30
0.0
 10
210.2512305118235
 20
87.98417540124245
 30
0.0
 10
210.5235660405013
 20
87.99868870486534
 30
0.0
 10
210.6930420241511
 20
88.00772041813255
 30
0.0
  0
LINE
  5
1A1
330
1F
100
AcDbEntity
  8
0
  6
Continuous
 62
     7
370
    25
100
AcDbLine
 10
218.3831929931
 20
82.9152760636
 30
0.0
 11
218.4979682006
 21
86.5078461502
 31
0.0
  0
SPLINE
  5
1A2
330
1F
100
AcDbEntity
  8
0
  6
Continuous
 62
     7
370
    25
100
AcDbSpline
210
0.0
220
0.0
230
1.0
 70
     8
 71
     3
 72
     9
 73
     5
 74
     0
 42
0.00000001
 43
0.00000001
 40
0.0
 40
0.0
 40
0.0
 40
0.0
 40
0.4986740982738612
 40
1.0
 40
1.0
 40
1.0
 40
1.0
 10
218.3832019430964
 20
82.9151755771782
 30
0.0
 10
218.2327180068174
 20
82.91664065643485
 30
0.0
 10
217.930949904564
 20
82.91957860581245
 30
0.0
 10
217.6815260129417
 20
82.89679532688073
 30
0.0
 10
217.5564833555622
 20
82.88537347902603
 30
0.0
  0
SPLINE
  5
1A3
330
1F
100
AcDbEntity
  8
0
  6
Continuous
 62
     7
370
    25
100
AcDbSpline
210
0.0
220
0.0
230
1.0
 70
     8
 71
     3
 72
    11
 73
     7
 74
     0
 42
0.00000001
 43
0.00000001
 40
0.0
 40
0.0
 40
0.0
 40
0.0
 40
0.2491150002829079
 40
0.4989585322854286
 40
0.7493328274976518
 40
1.0
 40
1.0
 40
1.0
 40
1.0
 10
217.556483111226
 20
82.88537455174774
 30
0.0
 10
217.3486085348495
 20
82.8591214437789
 30
0.0
 10
216.9322514571525
 20
82.80653845116434
 30
0.0
 10
216.5107233105329
 20
82.72221742093782
 30
0.0
 10
216.2252578468789
 20
82.6354841521261
 30
0.0
 10
216.1715401135727
 20
82.57650658669851
 30
0.0
 10
216.1446655469176
 20
82.54700056669934
 30
0.0
  0
SPLINE
  5
1A4
330
1F
100
AcDbEntity
  8
0
  6
Continuous
 62
     7
370
    25
100
AcDbSpline
210
0.0
220
0.0
230
1.0
 70
     8
 71
     3
 72
    10
 73
     6
 74
     0
 42
0.00000001
 43
0.00000001
 40
0.0
 40
0.0
 40
0.0
 40
0.0
 40
0.428349366631063
 40
0.7616603141144169
 40
1.0
 40
1.0
 40
1.0
 40
1.0
 10
216.0692161451969
 20
88.49464667008367
 30
0.0
 10
216.102162790334
 20
88.39285040726051
 30
0.0
 10
216.1607461665195
 20
88.21184354800597
 30
0.0
 10
216.3970902787744
 20
88.03818116505288
 30
0.0
 10
216.5760118440482
 20
88.01669388715709
 30
0.0
 10
216.6506100464751
 20
88.00773514423743
 30
0.0
  0
LINE
  5
1A5
330
1F
100
AcDbEntity
  8
0
  6
Continuous
 62
     7
370
    25
100
AcDbLine
 10
216.6570360169
 20
88.0077351442
 30
0.0
 11
216.8911311506
 21
88.0077351442
 31
0.0
  0
SPLINE
  5
1A6
330
1F
100
AcDbEntity
  8
0
  6
Continuous
 62
     7
370
    25
100
AcDbSpline
210
0.0
220
0.0
230
1.0
 70
     8
 71
     3
 72
    15
 73
    11
 74
     0
 42
0.00000001
 43
0.00000001
 40
0.0
 40
0.0
 40
0.0
 40
0.0
 40
0.2091652517822448
 40
0.4176299509274911
 40
0.5931463878153098
 40
0.6923603779431111
 40
0.7731125739307029
 40
0.8543366880968446
 40
0.9261517123972134
 40
1.0
 40
1.0
 40
1.0
 40
1.0
 10
216.8911331849213
 20
88.00772041813151
 30
0.0
 10
216.9888308174107
 20
88.00462892763304
 30
0.0
 10
217.18389886583
 20
87.9984563008981
 30
0.0
 10
217.5331787191825
 20
87.90818284108789
 30
0.0
 10
217.8660689061259
 20
87.7395763889845
 30
0.0
 10
218.1276869921619
 20
87.51012768093153
 30
0.0
 10
218.3082810050757
 20
87.27234863767521
 30
0.0
 10
218.430375168386
 20
87.0104321408367
 30
0.0
 10
218.4944251577045
 20
86.7448905660987
 30
0.0
 10
218.4967762437424
 20
86.58759283507713
 30
0.0
 10
218.4979681957559
 20
86.50784613751838
 30
0.0
  0
SPLINE
  5
1A7
330
1F
100
AcDbEntity
  8
0
  6
Continuous
 62
     7
370
    25
100
AcDbSpline
210
0.0
220
0.0
230
1.0
 70
     8
 71
     3
 72
    11
 73
     7
 74
     0
 42
0.00000001
 43
0.00000001
 40
0.0
 40
0.0
 40
0.0
 40
0.0
 40
0.279563842830426
 40
0.5590315778757569
 40
0.7794196683313495
 40
1.0
 40
1.0
 40
1.0
 40
1.0
 10
210.027692097615
 20
82.88537455174774
 30
0.0
 10
210.0039429214881
 20
82.6281089415669
 30
0.0
 10
209.9564527336688
 20
82.11366616335758
 30
0.0
 10
210.292139815087
 20
81.47115196411843
 30
0.0
 10
210.7708547043504
 20
81.0794786629245
 30
0.0
 10
211.1227402750197
 20
81.03165659984653
 30
0.0
 10
211.2987597630224
 20
81.00773514423753
 30
0.0
  0
SPLINE
  5
1A8
330
1F
100
AcDbEntity
  8
0
  6
Continuous
 62
     7
370
    25
100
AcDbSpline
210
0.0
220
0.0
230
1.0
 70
    24
 71
     3
 72
    11
 73
     7
 74
     0
 42
0.00000001
 43
0.00000001
 40
0.0
 40
0.0
 40
0.0
 40
0.0
 40
0.2799317596299056
 40
0.5599103390525024
 40
0.7799480709991913
 40
1.0
 40
1.0
 40
1.0
 40
1.0
 10
211.2987597630224
 20
81.00773514423753
 30
0.0
 10
211.5663277204619
 20
81.00773514423753
 30
0.0
 10
212.1015083872345
 20
81.00773514423751
 30
0.0
 10
212.5753751808969
 20
81.00773514423753
 30
0.0
 10
212.8606249384457
 20
81.00773514423751
 30
0.0
 10
212.9125289633429
 20
81.00773514423751
 30
0.0
 10
212.9384818129893
 20
81.00773514423753
 30
0.0
  0
SPLINE
  5
1A9
330
1F
100
AcDbEntity
  8
0
  6
Continuous
 62
     7
370
    25
100
AcDbSpline
210
0.0
220
0.0
230
1.0
 70
     8
 71
     3
 72
    11
 73
     7
 74
     0
 42
0.00000001
 43
0.00000001
 40
0.0
 40
0.0
 40
0.0
 40
0.0
 40
0.2795638428677817
 40
0.5590315779132448
 40
0.7794196683689383
 40
0.9999999999999999
 40
0.9999999999999999
 40
0.9999999999999999
 40
0.9999999999999999
 10
216.2854154458186
 20
81.00773514423753
 30
0.0
 10
216.5093958613849
 20
81.0462539961856
 30
0.0
 10
216.9572796930393
 20
81.12327845815844
 30
0.0
 10
217.4172199281448
 20
81.65607635594813
 30
0.0
 10
217.6285943690441
 20
82.28381292281452
 30
0.0
 10
217.5805271821648
 20
82.68479573898315
 30
0.0
 10
217.556483111226
 20
82.88537455174774
 30
0.0
  0
SPLINE
  5
1AA
330
1F
100
AcDbEntity
  8
0
  6
Continuous
 62
     7
370
    25
100
AcDbSpline
210
0.0
220
0.0
230
1.0
 70
    24
 71
     3
 72
    11
 73
     7
 74
     0
 42
0.00000001
 43
0.00000001
 40
0.0
 40
0.0
 40
0.0
 40
0.0
 40
0.2799857774483057
 40
0.5599458358671288
 40
0.779998565900937
 40
0.9999999999999999
 40
0.9999999999999999
 40
0.9999999999999999
 40
0.9999999999999999
 10
214.6456933958517
 20
81.00773514423753
 30
0.0
 10
214.6834471154595
 20
81.00773514423753
 30
0.0
 10
214.7589510866812
 20
81.00773514423753
 30
0.0
 10
215.14050423699
 20
81.00773514423753
 30
0.0
 10
215.6439349188031
 20
81.00773514423753
 30
0.0
 10
216.0716052209405
 20
81.00773514423751
 30
0.0
 10
216.2854154458186
 20
81.00773514423753
 30
0.0
  0
SPLINE
  5
1AB
330
1F
100
AcDbEntity
  8
0
  6
Continuous
 62
     7
370
    25
100
AcDbSpline
210
0.0
220
0.0
230
1.0
 70
     8
 71
     3
 72
    11
 73
     7
 74
     0
 42
0.00000001
 43
0.00000001
 40
0.0
 40
0.0
 40
0.0
 40
0.0
 40
0.2499999999999989
 40
0.4999999999999996
 40
0.749999999999999
 40
1.0
 40
1.0
 40
1.0
 40
1.0
 10
216.897201658225
 20
88.0077351442375
 30
0.0
 10
216.83279794803
 20
88.01499745388965
 30
0.0
 10
216.7039905276398
 20
88.02952207319393
 30
0.0
 10
216.5405478590295
 20
88.14149427678643
 30
0.0
 10
216.4243739521562
 20
88.3020058548114
 30
0.0
 10
216.4064875004097
 20
88.43043306499284
 30
0.0
 10
216.3975442745364
 20
88.49464667008357
 30
0.0
  0
SPLINE
  5
1AC
330
1F
100
AcDbEntity
  8
0
  6
Continuous
 62
     7
370
    25
100
AcDbSpline
210
0.0
220
0.0
230
1.0
 70
     8
 71
     3
 72
    11
 73
     7
 74
     0
 42
0.00000001
 43
0.00000001
 40
0.0
 40
0.0
 40
0.0
 40
0.0
 40
0.2500000000000009
 40
0.5000000000000002
 40
0.7500000000000007
 40
0.9999999999999999
 40
0.9999999999999999
 40
0.9999999999999999
 40
0.9999999999999999
 10
211.1866309343046
 20
88.49464667008357
 30
0.0
 10
211.1776877084313
 20
88.43043306499284
 30
0.0
 10
211.1598012566848
 20
88.3020058548114
 30
0.0
 10
211.0436273498115
 20
88.14149427678643
 30
0.0
 10
210.8801846812012
 20
88.02952207319393
 30
0.0
 10
210.751377260811
 20
88.01499745388965
 30
0.0
 10
210.6869735506159
 20
88.0077351442375
 30
0.0
  0
SPLINE
  5
1AD
330
1F
100
AcDbEntity
  8
0
  6
Continuous
 62
     7
370
    25
100
AcDbSpline
210
0.0
220
0.0
230
1.0
 70
     8
 71
     3
 72
     9
 73
     5
 74
     0
 42
0.00000001
 43
0.00000001
 40
0.0
 40
0.0
 40
0.0
 40
0.0
 40
0.5642319118445199
 40
1.0
 40
1.0
 40
1.0
 40
1.0
 10
209.0903725594211
 20
80.83228218308838
 30
0.0
 10
209.5658041706946
 20
80.8858641518157
 30
0.0
 10
210.40842154361
 20
80.98082859392278
 30
0.0
 10
211.0285343785151
 20
80.99956877246325
 30
0.0
 10
211.2987597630224
 20
81.00773514423753
 30
0.0
  0
SPLINE
  5
1AE
330
1F
100
AcDbEntity
  8
0
  6
Continuous
 62
     7
370
    25
100
AcDbSpline
210
0.0
220
0.0
230
1.0
 70
     8
 71
     3
 72
    13
 73
     9
 74
     0
 42
0.00000001
 43
0.00000001
 40
0.0
 40
0.0
 40
0.0
 40
0.0
 40
0.0926677825201017
 40
0.1856533156297215
 40
0.2733112842947874
 40
0.413548892575832
 40
0.6528449691515644
 40
1.0
 40
1.0
 40
1.0
 40
1.0
 10
209.2009725451789
 20
82.91517565788672
 30
0.0
 10
209.20340721263
 20
82.82094094076793
 30
0.0
 10
209.2082848958167
 20
82.63214838304447
 30
0.0
 10
209.2082104086707
 20
82.3189379788236
 30
0.0
 10
209.2018233516144
 20
81.97720384403053
 30
0.0
 10
209.1839087055175
 20
81.56034968712714
 30
0.0
 10
209.146846964751
 20
81.07712104146427
 30
0.0
 10
209.1113721791973
 20
80.923323831111
 30
0.0
 10
209.0903725594211
 20
80.83228218308838
 30
0.0
  0
SPLINE
  5
1AF
330
1F
100
AcDbEntity
  8
0
  6
Continuous
 62
     7
370
    25
100
AcDbSpline
210
0.0
220
0.0
230
1.0
 70
     8
 71
     3
 72
     9
 73
     5
 74
     0
 42
0.00000001
 43
0.00000001
 40
0.0
 40
0.0
 40
0.0
 40
0.0
 40
0.5551829690770672
 40
1.0
 40
1.0
 40
1.0
 40
1.0
 10
216.2854154458186
 20
81.00773514423753
 30
0.0
 10
216.6356699045667
 20
80.99473612374645
 30
0.0
 10
217.2665510343145
 20
80.97132218417141
 30
0.0
 10
218.1159676655134
 20
80.87508854481972
 30
0.0
 10
218.4938026494199
 20
80.83228218308838
 30
0.0
  0
SPLINE
  5
1B0
330
1F
100
AcDbEntity
  8
0
  6
Continuous
 62
     7
370
    25
100
AcDbSpline
210
0.0
220
0.0
230
1.0
 70
     8
 71
     3
 72
    13
 73
     9
 74
     0
 42
0.00000001
 43
0.00000001
 40
0.0
 40
0.0
 40
0.0
 40
0.0
 40
0.3327087167328941
 40
0.5628656559531299
 40
0.69871241253847
 40
0.8016200683166478
 40
0.9052998751809794
 40
1.0
 40
1.0
 40
1.0
 40
1.0
 10
218.4938026494199
 20
80.83228218308838
 30
0.0
 10
218.4736698255128
 20
80.91806775800654
 30
0.0
 10
218.4396097766932
 20
81.06319697004454
 30
0.0
 10
218.403523925323
 20
81.51356366647184
 30
0.0
 10
218.3844852022343
 20
81.91330481507771
 30
0.0
 10
218.3762116682818
 20
82.26919706148927
 30
0.0
 10
218.3755354060914
 20
82.61663090852348
 30
0.0
 10
218.3807252168592
 20
82.81870977970257
 30
0.0
 10
218.3832026636621
 20
82.91517565788672
 30
0.0
  0
SPLINE
  5
1B1
330
1F
100
AcDbEntity
  8
0
  6
Continuous
 62
     7
370
    25
100
AcDbSpline
210
0.0
220
0.0
230
1.0
 70
     8
 71
     3
 72
    13
 73
     9
 74
     0
 42
0.00000001
 43
0.00000001
 40
0.0
 40
0.0
 40
0.0
 40
0.0
 40
0.1400312919410834
 40
0.2800978778503041
 40
0.4240602241121907
 40
0.5680316995452359
 40
0.7822812815056388
 40
0.9999999999999999
 40
0.9999999999999999
 40
0.9999999999999999
 40
0.9999999999999999
 10
211.5178650729156
 20
76.39561834316606
 30
0.0
 10
211.4290194526064
 20
76.71374396330668
 30
0.0
 10
211.2513058190323
 20
77.35007538506268
 30
0.0
 10
210.8970898000339
 20
78.18318347648612
 30
0.0
 10
210.5059138742208
 20
78.92548025118899
 30
0.0
 10
210.0311411109532
 20
79.66393862298516
 30
0.0
 10
209.4907909274321
 20
80.34709324766742
 30
0.0
 10
209.2123303080085
 20
80.63765840400701
 30
0.0
 10
209.0719818399653
 20
80.78410774626377
 30
0.0
  0
ELLIPSE
  5
1B2
330
1F
100
AcDbEntity
  8
0
  6
Continuous
 62
     7
370
    25
100
AcDbEllipse
 10
209.2337666837
 20
61.934727897
 30
0.0
 11
0.0
 21
19.0730072472477
 31
0.0
210
0.0
220
0.0
230
1.0
 40
0.0555555556
 41
0.1357435643135847
 42
0.1532827087060914
  0
ELLIPSE
  5
1B3
330
1F
100
AcDbEntity
  8
0
  6
Continuous
 62
     7
370
    25
100
AcDbEllipse
 10
218.3504085252
 20
61.934727897
 30
0.0
 11
0.0
 21
19.0730072472477
 31
0.0
210
0.0
220
0.0
230
1.0
 40
0.0555555556
 41
6.129902598473738
 42
6.147441742866246
  0
SPLINE
  5
1B4
330
1F
100
AcDbEntity
  8
0
  6
Continuous
 62
     7
370
    25
100
AcDbSpline
210
0.0
220
0.0
230
1.0
 70
     8
 71
     3
 72
    13
 73
     9
 74
     0
 42
0.00000001
 43
0.00000001
 40
0.0
 40
0.0
 40
0.0
 40
0.0
 40
0.1374692963454099
 40
0.2749820892813126
 40
0.4163021045260215
 40
0.5576318202769774
 40
0.777008491451321
 40
1.0
 40
1.0
 40
1.0
 40
1.0
 10
218.5121933688757
 20
80.78410774626377
 30
0.0
 10
218.4289148892598
 20
80.69786733683488
 30
0.0
 10
218.2623315799264
 20
80.52535923069276
 30
0.0
 10
217.9166314066976
 20
80.12637715736977
 30
0.0
 10
217.5330670920062
 20
79.62606774589749
 30
0.0
 10
217.0578093764077
 20
78.89724727429477
 30
0.0
 10
216.511706608489
 20
77.88102832409311
 30
0.0
 10
216.2155822266961
 20
76.89344503778956
 30
0.0
 10
216.0663101369735
 20
76.39561834743364
 30
0.0
  0
LINE
  5
1B5
330
1F
100
AcDbEntity
  8
0
  6
Continuous
 62
     7
370
    25
100
AcDbLine
 10
211.5178650729
 20
76.3956183432
 30
0.0
 11
216.066310137
 21
76.3956183474
 31
0.0
  0
LINE
  5
1B6
330
1F
100
AcDbEntity
  8
0
  6
Continuous
 62
     7
370
    25
100
AcDbLine
 10
208.5676586504
 20
86.5077351442
 30
0.0
 11
209.0861963177
 21
86.5077351442
 31
0.0
  0
ARC
  5
1B7
330
1F
100
AcDbEntity
  8
0
  6
Continuous
 62
     7
370
    25
100
AcDbCircle
 10
202.2920876044
 20
74.1295578626
 30
0.0
 40
9.499999999999995
100
AcDbArc
 50
44.4654416734
 51
48.6553876907
  0
LINE
  5
1B8
330
1F
100
AcDbEntity
  8
0
  6
Continuous
 62
     7
370
    25
100
AcDbLine
 10
208.5676586504
 20
81.2616829349
 30
0.0
 11
208.5676586504
 21
86.5077351442
 31
0.0
  0
LINE
  5
1B9
330
1F
100
AcDbEntity
  8
0
  6
Continuous
 62
     7
370
    25
100
AcDbLine
 10
219.0165165585
 20
86.5077351442
 30
0.0
 11
219.0165165585
 21
81.2616829349
 31
0.0
  0
ARC
  5
1BA
330
1F
100
AcDbEntity
  8
0
  6
Continuous
 62
     7
370
    25
100
AcDbCircle
 10
225.2920876044
 20
74.1295578626
 30
0.0
 40
9.50000000000001
100
AcDbArc
 50
131.3446123093
 51
135.5345583266
  0
LINE
  5
1BB
330
1F
100
AcDbEntity
  8
0
  6
Continuous
 62
     7
370
    25
100
AcDbLine
 10
218.4979788911
 20
86.5077351442
 30
0.0
 11
219.0165165585
 21
86.5077351442
 31
0.0
  0
ARC
  5
1BC
330
1F
100
AcDbEntity
  8
0
  6
Continuous
 62
     7
370
    25
100
AcDbCircle
 10
217.5176704032
 20
86.5088889904
 30
0.0
 40
1.498846599345437
100
AcDbArc
 50
359.9558924033
 51
89.9558243884
  0
LINE
  5
1BD
330
1F
100
AcDbEntity
  8
0
  6
Continuous
 62
     7
370
    25
100
AcDbLine
 10
217.5188260286
 20
88.0077351442
 30
0.0
 11
216.8846188462
 21
88.0077351442
 31
0.0
  0
ARC
  5
1BE
330
1F
100
AcDbEntity
  8
0
  6
Continuous
 62
     7
370
    25
100
AcDbCircle
 10
210.0665048056
 20
86.5088889904
 30
0.0
 40
1.49884659934552
100
AcDbArc
 50
90.0441756116
 51
180.0441075967
  0
LINE
  5
1BF
330
1F
100
AcDbEntity
  8
0
  6
Continuous
 62
     7
370
    25
100
AcDbLine
 10
210.6995563626
 20
88.0077351442
 30
0.0
 11
210.0653491802
 21
88.0077351442
 31
0.0
  0
LINE
  5
1C0
330
1F
100
AcDbEntity
  8
0
  6
Continuous
 62
     7
370
    25
100
AcDbLine
 10
211.2318868037
 20
88.4378001727
 30
0.0
 11
211.1941017197
 21
88.4852625176
 31
0.0
  0
LINE
  5
1C1
330
1F
100
AcDbEntity
  8
0
  6
Continuous
 62
     7
370
    25
100
AcDbLine
 10
216.3900734892
 20
88.4852625176
 30
0.0
 11
216.3522884052
 21
88.4378001727
 31
0.0
  0
ELLIPSE
  5
1C2
330
1F
100
AcDbEntity
  8
0
  6
Continuous
 62
     7
370
    25
100
AcDbEllipse
 10
214.7678363678
 20
91.3077351442
 30
0.0
 11
1.500207016110437
 21
0.02894030982646712
 31
0.0
210
0.0
220
0.0
230
1.0
 40
0.2796306798
 41
6.257897524076023
 42
6.352579583335793
  0
LINE
  5
1C3
330
1F
100
AcDbEntity
  8
0
  6
Continuous
 62
     7
370
    25
100
AcDbLine
 10
208.5754562919
 20
81.254780512
 30
0.0
 11
208.5676586504
 21
81.2616829349
 31
0.0
  0
LINE
  5
1C4
330
1F
100
AcDbEntity
  8
0
  6
Continuous
 62
     7
370
    25
100
AcDbLine
 10
219.0165165585
 20
81.2616829349
 30
0.0
 11
219.008718917
 21
81.254780512
 31
0.0
  0
SPLINE
  5
1C5
330
1F
100
AcDbEntity
  8
0
  6
Continuous
 62
     7
370
    25
100
AcDbSpline
210
0.0
220
0.0
230
1.0
 70
     8
 71
     3
 72
     9
 73
     5
 74
     0
 42
0.00000001
 43
0.00000001
 40
0.0
 40
0.0
 40
0.0
 40
0.0
 40
0.0576289627817999
 40
1.0
 40
1.0
 40
1.0
 40
1.0
 10
215.5546011549484
 20
76.39561834695354
 30
0.0
 10
215.5497450828526
 20
76.37811507393516
 30
0.0
 10
215.4654806459904
 20
76.07439152637386
 30
0.0
 10
215.4185225228192
 20
75.73181133193673
 30
0.0
 10
215.3742705475805
 20
75.4089736787746
 30
0.0
  0
SPLINE
  5
1C6
330
1F
100
AcDbEntity
  8
0
  6
Continuous
 62
     7
370
    25
100
AcDbSpline
210
0.0
220
0.0
230
1.0
 70
     8
 71
     3
 72
    10
 73
     6
 74
     0
 42
0.00000001
 43
0.00000001
 40
0.0
 40
0.0
 40
0.0
 40
0.0
 40
0.2746918501531821
 40
0.5573359346812419
 40
1.0
 40
1.0
 40
1.0
 40
1.0
 10
215.3742705475805
 20
75.4089736787746
 30
0.0
 10
215.0896497892262
 20
75.46219772193771
 30
0.0
 10
214.5121685996727
 20
75.57018662596701
 30
0.0
 10
213.433150656506
 20
75.61197269920555
 30
0.0
 10
212.6735176120733
 20
75.48591075867505
 30
0.0
 10
212.2099046612605
 20
75.40897367877459
 30
0.0
  0
LINE
  5
1C7
330
1F
100
AcDbEntity
  8
0
  6
Continuous
 62
     7
370
    25
100
AcDbLine
 10
212.2099046613
 20
75.4089736788
 30
0.0
 11
211.9946698755
 21
76.3956183436
 31
0.0
  0
LINE
  5
1C8
330
1F
100
AcDbEntity
  8
0
  6
Continuous
 62
     7
370
    25
100
AcDbLine
 10
205.6120876044
 20
73.3077351442
 30
0.0
 11
214.7920876044
 21
73.3077351442
 31
0.0
  0
LWPOLYLINE
  5
1C9
330
1F
100
AcDbEntity
  8
0
  6
Continuous
 62
     7
370
    25
100
AcDbPolyline
 90
        3
 70
   128
 43
0.0
 10
205.6734423972
 20
73.3077351442
 10
205.7669260734
 20
72.3799909548
 10
205.8094549398
 20
71.9579832847
  0
LINE
  5
1CA
330
1F
100
AcDbEntity
  8
0
  6
Continuous
 62
     7
370
    25
100
AcDbLine
 10
214.7920876044
 20
71.9579832847
 30
0.0
 11
214.7920876044
 21
73.3077351442
 31
0.0
  0
LINE
  5
1CB
330
1F
100
AcDbEntity
  8
0
  6
Continuous
 62
     7
370
    25
100
AcDbLine
 10
206.2334787137
 20
89.5077351442
 30
0.0
 11
211.2322622674
 21
89.5077351442
 31
0.0
  0
LINE
  5
1CC
330
1F
100
AcDbEntity
  8
0
  6
Continuous
 62
     7
370
    25
100
AcDbLine
 10
216.3519129415
 20
89.5077351442
 30
0.0
 11
221.3506964947
 21
89.5077351442
 31
0.0
  0
SPLINE
  5
1CD
330
1F
100
AcDbEntity
  8
0
  6
Continuous
 62
     7
370
    25
100
AcDbSpline
210
0.0
220
0.0
230
1.0
 70
     8
 71
     3
 72
    12
 73
     8
 74
     0
 42
0.00000001
 43
0.00000001
 40
0.0
 40
0.0
 40
0.0
 40
0.0
 40
0.2271543139929597
 40
0.4542742953683958
 40
0.6823371405829708
 40
0.9121899191033218
 40
1.0
 40
1.0
 40
1.0
 40
1.0
 10
205.8094549397751
 20
71.95798328472702
 30
0.0
 10
205.8205588849735
 20
71.90286347783264
 30
0.0
 10
205.8427650970947
 20
71.79263219497638
 30
0.0
 10
205.9432613086333
 20
71.65277813538796
 30
0.0
 10
206.0807235834637
 20
71.5525297463024
 30
0.0
 10
206.2116971668199
 20
71.51160105572765
 30
0.0
 10
206.2895901506347
 20
71.50857235423832
 30
0.0
 10
206.3111217493321
 20
71.50773514423751
 30
0.0
  0
LINE
  5
1CE
330
1F
100
AcDbEntity
  8
0
  6
Continuous
 62
     7
370
    25
100
AcDbLine
 10
221.3395938234
 20
71.5077351442
 30
0.0
 11
214.7920876044
 21
71.5077351442
 31
0.0
  0
SPLINE
  5
1CF
330
1F
100
AcDbEntity
  8
0
  6
Continuous
 62
     7
370
    25
100
AcDbSpline
210
0.0
220
0.0
230
1.0
 70
    24
 71
     3
 72
    12
 73
     8
 74
     0
 42
0.00000001
 43
0.00000001
 40
0.0
 40
0.0
 40
0.0
 40
0.0
 40
0.2316347876629375
 40
0.46330664808196
 40
0.6939442291381526
 40
0.9227406525226395
 40
1.0
 40
1.0
 40
1.0
 40
1.0
 10
214.7920876044205
 20
71.50773514423751
 30
0.0
 10
214.7920876044205
 20
71.5133246092678
 30
0.0
 10
214.7920876044205
 20
71.52450443391275
 30
0.0
 10
214.7920876044205
 20
71.61182749986843
 30
0.0
 10
214.7920876044205
 20
71.74013767365048
 30
0.0
 10
214.7920876044205
 20
71.86481710034829
 30
0.0
 10
214.7920876044205
 20
71.9392051091016
 30
0.0
 10
214.7920876044205
 20
71.95798328472702
 30
0.0
  0
SPLINE
  5
1D0
330
1F
100
AcDbEntity
  8
0
  6
Continuous
 62
     7
370
    25
100
AcDbSpline
210
0.0
220
0.0
230
1.0
 70
     8
 71
     3
 72
    11
 73
     7
 74
     0
 42
0.00000001
 43
0.00000001
 40
0.0
 40
0.0
 40
0.0
 40
0.0
 40
0.2981995125517625
 40
0.5964325929955623
 40
0.8933636912282922
 40
1.0
 40
1.0
 40
1.0
 40
1.0
 10
207.8760078213209
 20
71.50773514423751
 30
0.0
 10
207.9920303129292
 20
71.51893190984313
 30
0.0
 10
208.2240883566317
 20
71.54132670145826
 30
0.0
 10
208.5259922067999
 20
71.72067562760238
 30
0.0
 10
208.7259393352198
 20
71.91882232117166
 30
0.0
 10
208.7782621322785
 20
72.06643874302318
 30
0.0
 10
208.7920876044205
 20
72.10544404936637
 30
0.0
  0
LINE
  5
1D1
330
1F
100
AcDbEntity
  8
0
  6
Continuous
 62
     7
370
    25
100
AcDbLine
 10
208.7920876044
 20
71.5077351442
 30
0.0
 11
207.8760078213
 21
71.5077351442
 31
0.0
  0
LINE
  5
1D2
330
1F
100
AcDbEntity
  8
0
  6
Continuous
 62
     7
370
    25
100
AcDbLine
 10
206.3111217493
 20
71.5077351442
 30
0.0
 11
207.8760078213
 21
71.5077351442
 31
0.0
  0
LINE
  5
1D3
330
1F
100
AcDbEntity
  8
0
  6
Continuous
 62
     7
370
    25
100
AcDbLine
 10
212.9920876044
 20
73.0077351442
 30
0.0
 11
214.5920876044
 21
73.0077351442
 31
0.0
  0
CIRCLE
  5
1D4
330
1F
100
AcDbEntity
  8
0
  6
Continuous
 62
     7
370
    25
100
AcDbCircle
 10
213.7920876044
 20
52.3077351442
 30
0.0
 40
5.100000000000001
  0
CIRCLE
  5
1D5
330
1F
100
AcDbEntity
  8
0
  6
Continuous
 62
     7
370
    25
100
AcDbCircle
 10
213.7920876044
 20
52.3077351442
 30
0.0
 40
5.000000000000004
  0
CIRCLE
  5
1D6
330
1F
100
AcDbEntity
  8
0
  6
Continuous
 62
     7
370
    25
100
AcDbCircle
 10
213.7920876044
 20
52.3077351442
 30
0.0
 40
5.826436455808478
  0
CIRCLE
  5
1D7
330
1F
100
AcDbEntity
  8
0
  6
Continuous
 62
     7
370
    25
100
AcDbCircle
 10
213.7920876044
 20
52.3077351442
 30
0.0
 40
6.319633417724564
  0
CIRCLE
  5
1D8
330
1F
100
AcDbEntity
  8
0
  6
Continuous
 62
     7
370
    25
100
AcDbCircle
 10
213.7920876044
 20
52.3077351442
 30
0.0
 40
6.999999999999994
  0
CIRCLE
  5
1D9
330
1F
100
AcDbEntity
  8
0
  6
Continuous
 62
     7
370
    25
100
AcDbCircle
 10
213.7920876044
 20
52.3077351442
 30
0.0
 40
11.74999999999998
  0
CIRCLE
  5
1DA
330
1F
100
AcDbEntity
  8
0
  6
Continuous
 62
     7
370
    25
100
AcDbCircle
 10
213.7920876044
 20
52.3077351442
 30
0.0
 40
12.00000000000001
  0
ARC
  5
1DB
330
1F
100
AcDbEntity
  8
0
  6
Continuous
 62
     7
370
    25
100
AcDbCircle
 10
213.7920876044
 20
52.3077351442
 30
0.0
 40
15.25
100
AcDbArc
 50
124.9480137199
 51
145.0519862801
  0
SPLINE
  5
1DC
330
1F
100
AcDbEntity
  8
0
  6
Continuous
 62
     7
370
    25
100
AcDbSpline
210
0.0
220
0.0
230
1.0
 70
    24
 71
     3
 72
    10
 73
     6
 74
     0
 42
0.00000001
 43
0.00000001
 40
0.0
 40
0.0
 40
0.0
 40
0.0
 40
0.5
 40
0.5
 40
1.0
 40
1.0
 40
1.0
 40
1.0
 10
205.0563849995924
 20
64.80773514423751
 30
0.0
 10
206.4684419305042
 20
64.80773514423751
 30
0.0
 10
207.915224854382
 20
64.80773514423751
 30
0.0
 10
210.8285545008572
 20
64.80773514423751
 30
0.0
 10
212.3005129567132
 20
64.80773514423751
 30
0.0
 10
213.7920876044205
 20
64.80773514423751
 30
0.0
  0
ARC
  5
1DD
330
1F
100
AcDbEntity
  8
0
  6
Continuous
 62
     7
370
    25
100
AcDbCircle
 10
213.7920876044
 20
52.3077351442
 30
0.0
 40
12.50000000000003
100
AcDbArc
 50
90.0
 51
180.0
  0
SPLINE
  5
1DE
330
1F
100
AcDbEntity
  8
0
  6
Continuous
 62
     7
370
    25
100
AcDbSpline
210
0.0
220
0.0
230
1.0
 70
    24
 71
     3
 72
    12
 73
     8
 74
     0
 42
0.00000001
 43
0.00000001
 40
0.0
 40
0.0
 40
0.0
 40
0.0
 40
0.25
 40
0.25
 40
0.5
 40
0.5
 40
1.0
 40
1.0
 40
1.0
 40
1.0
 10
201.2920876044205
 20
52.30773514423752
 30
0.0
 10
201.2920876044205
 20
53.05308135651184
 30
0.0
 10
201.2920876044205
 20
53.80490820638087
 30
0.0
 10
201.2920876044205
 20
55.28560866755613
 30
0.0
 10
201.2920876044205
 20
56.01858027215817
 30
0.0
 10
201.2920876044205
 20
58.19912439311415
 30
0.0
 10
201.2920876044205
 20
59.62856799212338
 30
0.0
 10
201.2920876044205
 20
61.0434377490656
 30
0.0
  0
ARC
  5
1DF
330
1F
100
AcDbEntity
  8
0
  6
Continuous
 62
     7
370
    25
100
AcDbCircle
 10
213.7920876044
 20
52.3077351442
 30
0.0
 40
15.25000000000002
100
AcDbArc
 50
214.9480137199
 51
235.0519862801
  0
ARC
  5
1E0
330
1F
100
AcDbEntity
  8
0
  6
Continuous
 62
     7
370
    25
100
AcDbCircle
 10
213.7920876044
 20
52.3077351442
 30
0.0
 40
12.50000000000003
100
AcDbArc
 50
180.0
 51
270.0
  0
SPLINE
  5
1E1
330
1F
100
AcDbEntity
  8
0
  6
Continuous
 62
     7
370
    25
100
AcDbSpline
210
0.0
220
0.0
230
1.0
 70
    24
 71
     3
 72
    10
 73
     6
 74
     0
 42
0.00000001
 43
0.00000001
 40
0.0
 40
0.0
 40
0.0
 40
0.0
 40
0.5
 40
0.5
 40
1.0
 40
1.0
 40
1.0
 40
1.0
 10
205.0563849995924
 20
39.80773514423751
 30
0.0
 10
206.4684419305038
 20
39.80773514423751
 30
0.0
 10
207.9152248543813
 20
39.80773514423751
 30
0.0
 10
210.8285545008565
 20
39.80773514423751
 30
0.0
 10
212.3005129567127
 20
39.8077351442375
 30
0.0
 10
213.7920876044205
 20
39.8077351442375
 30
0.0
  0
SPLINE
  5
1E2
330
1F
100
AcDbEntity
  8
0
  6
Continuous
 62
     7
370
    25
100
AcDbSpline
210
0.0
220
0.0
230
1.0
 70
    24
 71
     3
 72
    10
 73
     6
 74
     0
 42
0.00000001
 43
0.00000001
 40
0.0
 40
0.0
 40
0.0
 40
0.0
 40
0.4999999999999999
 40
0.4999999999999999
 40
1.0
 40
1.0
 40
1.0
 40
1.0
 10
201.2920876044205
 20
43.57203253940946
 30
0.0
 10
201.2920876044205
 20
44.98408947032122
 30
0.0
 10
201.2920876044205
 20
46.43087239419908
 30
0.0
 10
201.2920876044205
 20
49.34420204067427
 30
0.0
 10
201.2920876044205
 20
50.81616049653024
 30
0.0
 10
201.2920876044205
 20
52.30773514423752
 30
0.0
  0
ARC
  5
1E3
330
1F
100
AcDbEntity
  8
0
  6
Continuous
 62
     7
370
    25
100
AcDbCircle
 10
213.7920876044
 20
52.3077351442
 30
0.0
 40
12.5
100
AcDbArc
 50
0.0
 51
90.0
  0
ARC
  5
1E4
330
1F
100
AcDbEntity
  8
0
  6
Continuous
 62
     7
370
    25
100
AcDbCircle
 10
213.7920876044
 20
52.3077351442
 30
0.0
 40
12.50000000000001
100
AcDbArc
 50
270.0
 51
0.0
  0
ARC
  5
1E5
330
1F
100
AcDbEntity
  8
0
  6
Continuous
 62
     7
370
    25
100
AcDbCircle
 10
213.7920876044
 20
52.3077351442
 30
0.0
 40
15.25
100
AcDbArc
 50
34.9480137199
 51
55.0519862801
  0
SPLINE
  5
1E6
330
1F
100
AcDbEntity
  8
0
  6
Continuous
 62
     7
370
    25
100
AcDbSpline
210
0.0
220
0.0
230
1.0
 70
    24
 71
     3
 72
    12
 73
     8
 74
     0
 42
0.00000001
 43
0.00000001
 40
0.0
 40
0.0
 40
0.0
 40
0.0
 40
0.2500000000000001
 40
0.2500000000000001
 40
0.5000000000000001
 40
0.5000000000000001
 40
1.0
 40
1.0
 40
1.0
 40
1.0
 10
226.2920876044205
 20
52.30773514423752
 30
0.0
 10
226.2920876044205
 20
53.05308135651183
 30
0.0
 10
226.2920876044205
 20
53.80490820638087
 30
0.0
 10
226.2920876044205
 20
55.28560866755613
 30
0.0
 10
226.2920876044205
 20
56.01858027215817
 30
0.0
 10
226.2920876044205
 20
58.19912439311415
 30
0.0
 10
226.2920876044205
 20
59.62856799212338
 30
0.0
 10
226.2920876044205
 20
61.04343774906559
 30
0.0
  0
SPLINE
  5
1E7
330
1F
100
AcDbEntity
  8
0
  6
Continuous
 62
     7
370
    25
100
AcDbSpline
210
0.0
220
0.0
230
1.0
 70
    24
 71
     3
 72
    12
 73
     8
 74
     0
 42
0.00000001
 43
0.00000001
 40
0.0
 40
0.0
 40
0.0
 40
0.0
 40
0.2500000000000001
 40
0.2500000000000001
 40
0.5000000000000001
 40
0.5000000000000001
 40
1.0
 40
1.0
 40
1.0
 40
1.0
 10
213.7920876044205
 20
64.80773514423751
 30
0.0
 10
214.5374338166948
 20
64.80773514423751
 30
0.0
 10
215.2892606665638
 20
64.80773514423751
 30
0.0
 10
216.7699611277391
 20
64.80773514423751
 30
0.0
 10
217.5029327323412
 20
64.80773514423751
 30
0.0
 10
219.6834768532971
 20
64.80773514423751
 30
0.0
 10
221.1129204523064
 20
64.80773514423751
 30
0.0
 10
222.5277902092486
 20
64.80773514423751
 30
0.0
  0
SPLINE
  5
1E8
330
1F
100
AcDbEntity
  8
0
  6
Continuous
 62
     7
370
    25
100
AcDbSpline
210
0.0
220
0.0
230
1.0
 70
    24
 71
     3
 72
    10
 73
     6
 74
     0
 42
0.00000001
 43
0.00000001
 40
0.0
 40
0.0
 40
0.0
 40
0.0
 40
0.5
 40
0.5
 40
1.0
 40
1.0
 40
1.0
 40
1.0
 10
226.2920876044205
 20
43.57203253940946
 30
0.0
 10
226.2920876044205
 20
44.98408947032122
 30
0.0
 10
226.2920876044205
 20
46.43087239419908
 30
0.0
 10
226.2920876044205
 20
49.34420204067427
 30
0.0
 10
226.2920876044205
 20
50.81616049653024
 30
0.0
 10
226.2920876044205
 20
52.30773514423752
 30
0.0
  0
ARC
  5
1E9
330
1F
100
AcDbEntity
  8
0
  6
Continuous
 62
     7
370
    25
100
AcDbCircle
 10
213.7920876044
 20
52.3077351442
 30
0.0
 40
15.25000000000001
100
AcDbArc
 50
304.9480137199
 51
325.0519862801
  0
SPLINE
  5
1EA
330
1F
100
AcDbEntity
  8
0
  6
Continuous
 62
     7
370
    25
100
AcDbSpline
210
0.0
220
0.0
230
1.0
 70
    24
 71
     3
 72
    12
 73
     8
 74
     0
 42
0.00000001
 43
0.00000001
 40
0.0
 40
0.0
 40
0.0
 40
0.0
 40
0.2500000000000001
 40
0.2500000000000001
 40
0.5000000000000001
 40
0.5000000000000001
 40
1.0
 40
1.0
 40
1.0
 40
1.0
 10
213.7920876044205
 20
39.8077351442375
 30
0.0
 10
214.5374338166955
 20
39.80773514423751
 30
0.0
 10
215.2892606665645
 20
39.8077351442375
 30
0.0
 10
216.7699611277392
 20
39.8077351442375
 30
0.0
 10
217.5029327323411
 20
39.8077351442375
 30
0.0
 10
219.6834768532968
 20
39.8077351442375
 30
0.0
 10
221.1129204523061
 20
39.8077351442375
 30
0.0
 10
222.5277902092486
 20
39.8077351442375
 30
0.0
  0
LINE
  5
1EB
330
1F
100
AcDbEntity
  8
0
  6
Continuous
 62
     7
370
    25
100
AcDbLine
 10
206.0420876044
 20
71.0077351442
 30
0.0
 11
221.5420876044
 21
71.0077351442
 31
0.0
  0
LINE
  5
1EC
330
1F
100
AcDbEntity
  8
0
  6
Continuous
 62
     7
370
    25
100
AcDbLine
 10
222.0420876044
 20
70.5077351442
 30
0.0
 11
205.5420876044
 21
70.5077351442
 31
0.0
  0
SPLINE
  5
1ED
330
1F
100
AcDbEntity
  8
0
  6
Continuous
 62
     7
370
    25
100
AcDbSpline
210
0.0
220
0.0
230
1.0
 70
     8
 71
     3
 72
    11
 73
     7
 74
     0
 42
0.00000001
 43
0.00000001
 40
0.0
 40
0.0
 40
0.0
 40
0.0
 40
0.2843931288920266
 40
0.5687862577840547
 40
0.8531793866760868
 40
0.9999999999999999
 40
0.9999999999999999
 40
0.9999999999999999
 40
0.9999999999999999
 10
215.3702003937339
 20
91.32605900805304
 30
0.0
 10
215.3577338701186
 20
91.41612162890145
 30
0.0
 10
215.3328008228877
 20
91.5962468705983
 30
0.0
 10
215.1693474641576
 20
91.81850947401199
 30
0.0
 10
214.9800055256513
 20
91.95781360714908
 30
0.0
 10
214.8443559746725
 20
91.97645403248852
 30
0.0
 10
214.7981697140737
 20
91.98280076593653
 30
0.0
  0
LINE
  5
1EE
330
1F
100
AcDbEntity
  8
0
  6
Continuous
 62
     7
370
    25
100
AcDbLine
 10
211.1941017197
 20
88.4852625176
 30
0.0
 11
211.1866309343
 21
88.4946466701
 31
0.0
  0
ELLIPSE
  5
1EF
330
1F
100
AcDbEntity
  8
0
  6
Continuous
 62
     7
370
    25
100
AcDbEllipse
 10
212.8163388411
 20
91.3077351442
 30
0.0
 11
1.500207016110408
 21
-0.02894030982646712
 31
0.0
210
0.0
220
0.0
230
1.0
 40
0.2796306798
 41
3.072239956220833
 42
3.166880436693456
  0
LINE
  5
1F0
330
1F
100
AcDbEntity
  8
0
  6
Continuous
 62
     7
370
    25
100
AcDbLine
 10
208.5676586504
 20
86.5077351442
 30
0.0
 11
208.5653491802
 21
86.5077351442
 31
0.0
  0
LINE
  5
1F1
330
1F
100
AcDbEntity
  8
0
  6
Continuous
 62
     7
370
    25
100
AcDbLine
 10
219.0188260286
 20
86.5077351442
 30
0.0
 11
219.0165165585
 21
86.5077351442
 31
0.0
  0
LINE
  5
1F2
330
1F
100
AcDbEntity
  8
0
  6
Continuous
 62
     7
370
    25
100
AcDbLine
 10
208.5653491802
 20
81.39581073
 30
0.0
 11
204.8032800458
 21
81.39581073
 31
0.0
  0
LINE
  5
1F3
330
1F
100
AcDbEntity
  8
0
  6
Continuous
 62
     7
370
    25
100
AcDbLine
 10
222.780895163
 20
81.39581073
 30
0.0
 11
219.0188260286
 21
81.39581073
 31
0.0
  0
LINE
  5
1F4
330
1F
100
AcDbEntity
  8
0
  6
Continuous
 62
     7
370
    25
100
AcDbLine
 10
214.7920876044
 20
71.9579832847
 30
0.0
 11
221.8371124185
 21
71.9579832847
 31
0.0
  0
LINE
  5
1F5
330
1F
100
AcDbEntity
  8
0
  6
Continuous
 62
     7
370
    25
100
AcDbLine
 10
219.0188260286
 20
81.6193491836
 30
0.0
 11
222.7781358495
 21
81.6193491836
 31
0.0
  0
LINE
  5
1F6
330
1F
100
AcDbEntity
  8
0
  6
Continuous
 62
     7
370
    25
100
AcDbLine
 10
204.8060393593
 20
81.6193491836
 30
0.0
 11
208.5653491802
 21
81.6193491836
 31
0.0
  0
LINE
  5
1F7
330
1F
100
AcDbEntity
  8
0
  6
Continuous
 62
     7
370
    25
100
AcDbLine
 10
221.8468354335
 20
89.0697525115
 30
0.0
 11
216.371987586
 21
89.0697525115
 31
0.0
  0
LINE
  5
1F8
330
1F
100
AcDbEntity
  8
0
  6
Continuous
 62
     7
370
    25
100
AcDbLine
 10
211.2121876229
 20
89.0697525115
 30
0.0
 11
205.7373397753
 21
89.0697525115
 31
0.0
  0
LINE
  5
1F9
330
1F
100
AcDbEntity
  8
0
  6
Continuous
 62
     7
370
    25
100
AcDbLine
 10
214.7920876044
 20
72.8077351442
 30
0.0
 11
212.7920876044
 21
72.8077351442
 31
0.0
  0
LINE
  5
1FA
330
1F
100
AcDbEntity
  8
0
  6
Continuous
 62
     7
370
    25
100
AcDbLine
 10
205.5420876044
 20
65.0577351442
 30
0.0
 11
222.0420876044
 21
65.0577351442
 31
0.0
  0
INSERT
  5
206
330
1F
100
AcDbEntity
  8
0
  6
Continuous
 62
     7
370
    18
100
AcDbBlockReference
  2
SW_CENTERMARKSYMBOL_0
 10
213.7920876044
 20
52.3077351442
 30
0.0
  0
LINE
  5
207
330
1F
100
AcDbEntity
  8
0
  6
Continuous
 62
     7
370
    25
100
AcDbLine
 10
91.4903593654
 20
128.2992365065
 30
0.0
 11
91.5077783557
 21
128.2992365065
 31
0.0
  0
LINE
  5
208
330
1F
100
AcDbEntity
  8
0
  6
Continuous
 62
     7
370
    25
100
AcDbLine
 10
120.0685324349
 20
133.7644239483
 30
0.0
 11
118.8762923781
 21
132.97045071
 31
0.0
  0
LINE
  5
209
330
1F
100
AcDbEntity
  8
0
  6
Continuous
 62
     7
370
    25
100
AcDbLine
 10
118.8762923188
 20
125.3680803604
 30
0.0
 11
120.0729115908
 21
124.5711908378
 31
0.0
  0
SPLINE
  5
20A
330
1F
100
AcDbEntity
  8
0
  6
Continuous
 62
     7
370
    25
100
AcDbSpline
210
0.0
220
0.0
230
1.0
 70
     8
 71
     3
 72
    11
 73
     7
 74
     0
 42
0.00000001
 43
0.00000001
 40
0.0
 40
0.0
 40
0.0
 40
0.0
 40
0.2485427336868735
 40
0.4982459407376401
 40
0.7488347621401439
 40
1.0
 40
1.0
 40
1.0
 40
1.0
 10
118.876212536054
 20
132.9705954260691
 30
0.0
 10
118.4549323929979
 20
132.7568301926139
 30
0.0
 10
117.6104051035559
 20
132.3283016323139
 30
0.0
 10
116.2537995363218
 20
131.8896076707005
 30
0.0
 10
114.8557024301954
 20
131.5886787262064
 30
0.0
 10
113.9043465312147
 20
131.5273980420938
 30
0.0
 10
113.4281221215743
 20
131.4967225003273
 30
0.0
  0
SPLINE
  5
20B
330
1F
100
AcDbEntity
  8
0
  6
Continuous
 62
     7
370
    25
100
AcDbSpline
210
0.0
220
0.0
230
1.0
 70
     8
 71
     3
 72
    10
 73
     6
 74
     0
 42
0.00000001
 43
0.00000001
 40
0.0
 40
0.0
 40
0.0
 40
0.0
 40
0.0711023749285984
 40
0.5366329433438182
 40
0.9999999999999999
 40
0.9999999999999999
 40
0.9999999999999999
 40
0.9999999999999999
 10
116.0366974487107
 20
126.4693596317178
 30
0.0
 10
116.1076718410641
 20
126.4551332781151
 30
0.0
 10
116.6433388579377
 20
126.3477623215964
 30
0.0
 10
117.6086140732216
 20
126.0012726219155
 30
0.0
 10
118.4543363106112
 20
125.578719983557
 30
0.0
 10
118.876212536054
 20
125.3679357517603
 30
0.0
  0
LINE
  5
20C
330
1F
100
AcDbEntity
  8
0
  6
Continuous
 62
     7
370
    25
100
AcDbLine
 10
113.4274508489
 20
131.5223573678
 30
0.0
 11
91.7730598192
 21
130.9553171827
 31
0.0
  0
LINE
  5
20D
330
1F
100
AcDbEntity
  8
0
  6
Continuous
 62
     7
370
    25
100
AcDbLine
 10
91.7730633377
 20
127.383213903
 30
0.0
 11
113.4274508489
 21
126.81617381
 31
0.0
  0
SPLINE
  5
20E
330
1F
100
AcDbEntity
  8
0
  6
Continuous
 62
     7
370
    25
100
AcDbSpline
210
0.0
220
0.0
230
1.0
 70
     8
 71
     3
 72
    12
 73
     8
 74
     0
 42
0.00000001
 43
0.00000001
 40
0.0
 40
0.0
 40
0.0
 40
0.0
 40
0.1115150608921325
 40
0.331217453687036
 40
0.5916327686929416
 40
0.8470074943174006
 40
1.0
 40
1.0
 40
1.0
 40
1.0
 10
86.73469158287348
 20
128.084370762091
 30
0.0
 10
86.7495457269631
 20
128.0521129850712
 30
0.0
 10
86.79366489564495
 20
127.9563022606668
 30
0.0
 10
86.92486502711587
 20
127.8221047147536
 30
0.0
 10
87.11295828181197
 20
127.6986835103226
 30
0.0
 10
87.31076760215849
 20
127.6197381580858
 30
0.0
 10
87.44463453138363
 20
127.6096256479914
 30
0.0
 10
87.49478702982147
 20
127.6058370524836
 30
0.0
  0
SPLINE
  5
20F
330
1F
100
AcDbEntity
  8
0
  6
Continuous
 62
     7
370
    25
100
AcDbSpline
210
0.0
220
0.0
230
1.0
 70
     8
 71
     3
 72
    12
 73
     8
 74
     0
 42
0.00000001
 43
0.00000001
 40
0.0
 40
0.0
 40
0.0
 40
0.0
 40
0.0693246477020334
 40
0.2377839840805168
 40
0.4636706813782254
 40
0.7622846516911428
 40
1.0
 40
1.0
 40
1.0
 40
1.0
 10
87.4946541014779
 20
130.7328157929059
 30
0.0
 10
87.47197009466917
 20
130.7327200271498
 30
0.0
 10
87.3941638065352
 20
130.7323915499952
 30
0.0
 10
87.24829925828756
 20
130.6922466740415
 30
0.0
 10
87.05205833400753
 20
130.6082864547278
 30
0.0
 10
86.85845744780946
 20
130.4679591138841
 30
0.0
 10
86.77063468720289
 20
130.322397773387
 30
0.0
 10
86.73170931541699
 20
130.2578811349054
 30
0.0
  0
SPLINE
  5
210
330
1F
100
AcDbEntity
  8
0
  6
Continuous
 62
     7
370
    25
100
AcDbSpline
210
0.0
220
0.0
230
1.0
 70
     8
 71
     3
 72
    10
 73
     6
 74
     0
 42
0.00000001
 43
0.00000001
 40
0.0
 40
0.0
 40
0.0
 40
0.0
 40
0.2238703738840361
 40
0.6229774396097713
 40
1.0
 40
1.0
 40
1.0
 40
1.0
 10
86.72957177655289
 20
130.2576955277149
 30
0.0
 10
86.70308432256284
 20
130.1976614106861
 30
0.0
 10
86.62937610480174
 20
130.030600893178
 30
0.0
 10
86.55189905775346
 20
129.7188323707737
 30
0.0
 10
86.53997643956907
 20
129.4576072214074
 30
0.0
 10
86.53418475750571
 20
129.3307111832478
 30
0.0
  0
SPLINE
  5
211
330
1F
100
AcDbEntity
  8
0
  6
Continuous
 62
     7
370
    25
100
AcDbSpline
210
0.0
220
0.0
230
1.0
 70
     8
 71
     3
 72
    10
 73
     6
 74
     0
 42
0.00000001
 43
0.00000001
 40
0.0
 40
0.0
 40
0.0
 40
0.0
 40
0.1995653511169991
 40
0.581029349357288
 40
1.0
 40
1.0
 40
1.0
 40
1.0
 10
86.53418475750571
 20
129.0078199945816
 30
0.0
 10
86.53588926678738
 20
128.9408059300898
 30
0.0
 10
86.54085190139975
 20
128.7456962175496
 30
0.0
 10
86.592553396806
 20
128.4167948721355
 30
0.0
 10
86.68249417262999
 20
128.1962665522881
 30
0.0
 10
86.7295717765529
 20
128.0808356501145
 30
0.0
  0
LINE
  5
212
330
1F
100
AcDbEntity
  8
0
  6
Continuous
 62
     7
370
    25
100
AcDbLine
 10
86.5341847575
 20
129.3307111832
 30
0.0
 11
86.5341847575
 21
129.0078199946
 31
0.0
  0
ARC
  5
213
330
1F
100
AcDbEntity
  8
0
  6
Continuous
 62
     7
370
    25
100
AcDbCircle
 10
142.0341847575
 20
129.1692655889
 30
0.0
 40
8.993770368365603
100
AcDbArc
 50
200.7386108881
 51
90.0
  0
ARC
  5
214
330
1F
100
AcDbEntity
  8
0
  6
Continuous
 62
     7
370
    25
100
AcDbCircle
 10
142.0341847575
 20
129.1692655889
 30
0.0
 40
8.993770368365603
100
AcDbArc
 50
90.0
 51
159.2559341391
  0
LINE
  5
215
330
1F
100
AcDbEntity
  8
0
  6
Continuous
 62
     7
370
    25
100
AcDbLine
 10
126.2841847575
 20
141.1692655889
 30
0.0
 11
126.0341847575
 21
140.9192655889
 31
0.0
  0
LINE
  5
216
330
1F
100
AcDbEntity
  8
0
  6
Continuous
 62
     7
370
    25
100
AcDbLine
 10
126.0341847575
 20
117.4192655889
 30
0.0
 11
126.2841847575
 21
117.1692655889
 31
0.0
  0
LINE
  5
217
330
1F
100
AcDbEntity
  8
0
  6
Continuous
 62
     7
370
    25
100
AcDbLine
 10
129.0341847575
 20
141.1692655889
 30
0.0
 11
126.2841847575
 21
141.1692655889
 31
0.0
  0
LINE
  5
218
330
1F
100
AcDbEntity
  8
0
  6
Continuous
 62
     7
370
    25
100
AcDbLine
 10
126.2841847575
 20
117.1692655889
 30
0.0
 11
129.0341847575
 21
117.1692655889
 31
0.0
  0
LINE
  5
219
330
1F
100
AcDbEntity
  8
0
  6
Continuous
 62
     7
370
    25
100
AcDbLine
 10
119.5341847575
 20
122.1692655889
 30
0.0
 11
126.0341847575
 21
122.1692655889
 31
0.0
  0
LINE
  5
21A
330
1F
100
AcDbEntity
  8
0
  6
Continuous
 62
     7
370
    25
100
AcDbLine
 10
126.0341847575
 20
136.1692655889
 30
0.0
 11
119.5341847575
 21
136.1692655889
 31
0.0
  0
LINE
  5
21B
330
1F
100
AcDbEntity
  8
0
  6
Continuous
 62
     7
370
    25
100
AcDbLine
 10
110.5341847575
 20
136.1692655889
 30
0.0
 11
106.0341847575
 21
135.4192655889
 31
0.0
  0
LINE
  5
21C
330
1F
100
AcDbEntity
  8
0
  6
Continuous
 62
     7
370
    25
100
AcDbLine
 10
106.0341847575
 20
122.9192655889
 30
0.0
 11
110.5341847575
 21
122.1692655889
 31
0.0
  0
LINE
  5
21D
330
1F
100
AcDbEntity
  8
0
  6
Continuous
 62
     7
370
    25
100
AcDbLine
 10
106.0341847575
 20
136.1692655889
 30
0.0
 11
101.5341847575
 21
135.4192655889
 31
0.0
  0
LINE
  5
21E
330
1F
100
AcDbEntity
  8
0
  6
Continuous
 62
     7
370
    25
100
AcDbLine
 10
101.5341847575
 20
122.9192655889
 30
0.0
 11
106.0341847575
 21
122.1692655889
 31
0.0
  0
LINE
  5
21F
330
1F
100
AcDbEntity
  8
0
  6
Continuous
 62
     7
370
    25
100
AcDbLine
 10
115.0341847575
 20
136.1692655889
 30
0.0
 11
110.5341847575
 21
135.4192655889
 31
0.0
  0
LINE
  5
220
330
1F
100
AcDbEntity
  8
0
  6
Continuous
 62
     7
370
    25
100
AcDbLine
 10
110.5341847575
 20
122.9192655889
 30
0.0
 11
115.0341847575
 21
122.1692655889
 31
0.0
  0
LINE
  5
221
330
1F
100
AcDbEntity
  8
0
  6
Continuous
 62
     7
370
    25
100
AcDbLine
 10
101.5341847575
 20
136.1692655889
 30
0.0
 11
97.4519852639
 21
135.4888990066
 31
0.0
  0
LINE
  5
222
330
1F
100
AcDbEntity
  8
0
  6
Continuous
 62
     7
370
    25
100
AcDbLine
 10
97.4519852639
 20
122.8496321712
 30
0.0
 11
101.5341847575
 21
122.1692655889
 31
0.0
  0
LINE
  5
223
330
1F
100
AcDbEntity
  8
0
  6
Continuous
 62
     7
370
    25
100
AcDbLine
 10
119.5341847575
 20
136.1692655889
 30
0.0
 11
115.0341847575
 21
135.4192655889
 31
0.0
  0
LINE
  5
224
330
1F
100
AcDbEntity
  8
0
  6
Continuous
 62
     7
370
    25
100
AcDbLine
 10
115.0341847575
 20
122.9192655889
 30
0.0
 11
119.5341847575
 21
122.1692655889
 31
0.0
  0
ARC
  5
225
330
1F
100
AcDbEntity
  8
0
  6
Continuous
 62
     7
370
    25
100
AcDbCircle
 10
97.5341847575
 20
123.3428291331
 30
0.0
 40
0.5
100
AcDbArc
 50
180.0
 51
260.537677792
  0
ARC
  5
226
330
1F
100
AcDbEntity
  8
0
  6
Continuous
 62
     7
370
    25
100
AcDbCircle
 10
97.5341847575
 20
134.9957020447
 30
0.0
 40
0.5
100
AcDbArc
 50
99.462322208
 51
180.0
  0
LINE
  5
227
330
1F
100
AcDbEntity
  8
0
  6
Continuous
 62
     7
370
    25
100
AcDbLine
 10
154.5341847575
 20
118.4780155889
 30
0.0
 11
166.8377934846
 21
118.8625033616
 31
0.0
  0
LINE
  5
228
330
1F
100
AcDbEntity
  8
0
  6
Continuous
 62
     7
370
    25
100
AcDbLine
 10
166.8377934846
 20
139.4760278162
 30
0.0
 11
154.5341847575
 21
139.8605155889
 31
0.0
  0
LINE
  5
229
330
1F
100
AcDbEntity
  8
0
  6
Continuous
 62
     7
370
    25
100
AcDbLine
 10
166.8377934846
 20
118.8625033616
 30
0.0
 11
169.5341847575
 21
120.4192655889
 31
0.0
  0
LINE
  5
22A
330
1F
100
AcDbEntity
  8
0
  6
Continuous
 62
     7
370
    25
100
AcDbLine
 10
169.5341847575
 20
137.9192655889
 30
0.0
 11
166.8377934846
 21
139.4760278162
 31
0.0
  0
LINE
  5
22B
330
1F
100
AcDbEntity
  8
0
  6
Continuous
 62
     7
370
    25
100
AcDbLine
 10
139.796700736
 20
128.1939930439
 30
0.0
 11
139.763905209
 21
128.2127370832
 31
0.0
  0
SPLINE
  5
22C
330
1F
100
AcDbEntity
  8
0
  6
Continuous
 62
     7
370
    25
100
AcDbSpline
210
0.0
220
0.0
230
1.0
 70
     8
 71
     3
 72
    15
 73
    11
 74
     0
 42
0.00000001
 43
0.00000001
 40
0.0
 40
0.0
 40
0.0
 40
0.0
 40
0.1241930067305288
 40
0.2496556654892296
 40
0.3743703853151211
 40
0.4998404796364202
 40
0.6240146704162363
 40
0.7475381382242062
 40
0.8745858500551816
 40
1.0
 40
1.0
 40
1.0
 40
1.0
 10
140.5769904576362
 20
128.4664326945005
 30
0.0
 10
140.5614300625266
 20
128.4305854917566
 30
0.0
 10
140.530150195015
 20
128.3585246125447
 30
0.0
 10
140.4527138355267
 20
128.2686490992019
 30
0.0
 10
140.3593598317877
 20
128.1963253214075
 30
0.0
 10
140.2521342257668
 20
128.147397902903
 30
0.0
 10
140.1377483150458
 20
128.1210698494482
 30
0.0
 10
140.0200775521605
 20
128.1202107554456
 30
0.0
 10
139.9031938269353
 20
128.1415935160752
 30
0.0
 10
139.8320449760406
 20
128.176602042536
 30
0.0
 10
139.7967007359572
 20
128.1939930439173
 30
0.0
  0
LINE
  5
22D
330
1F
100
AcDbEntity
  8
0
  6
Continuous
 62
     7
370
    25
100
AcDbLine
 10
141.5688445023
 20
131.2400119104
 30
0.0
 11
140.5769904576
 21
128.4664326945
 31
0.0
  0
SPLINE
  5
22E
330
1F
100
AcDbEntity
  8
0
  6
Continuous
 62
     7
370
    25
100
AcDbSpline
210
0.0
220
0.0
230
1.0
 70
     8
 71
     3
 72
    15
 73
    11
 74
     0
 42
0.00000001
 43
0.00000001
 40
0.0
 40
0.0
 40
0.0
 40
0.0
 40
0.1233025178081761
 40
0.2485158700387114
 40
0.3756924668130948
 40
0.4999990880429331
 40
0.6243057092728396
 40
0.7514823060473044
 40
0.8766757256079959
 40
1.0
 40
1.0
 40
1.0
 40
1.0
 10
142.4995250158574
 20
131.2400119104138
 30
0.0
 10
142.475374043895
 20
131.2806570463496
 30
0.0
 10
142.4266978293603
 20
131.3625772009374
 30
0.0
 10
142.3113471711552
 20
131.4523961567499
 30
0.0
 10
142.1781875488933
 20
131.509970304911
 30
0.0
 10
142.0341849055245
 20
131.5291290005812
 30
0.0
 10
141.890181376826
 20
131.5099708976961
 30
0.0
 10
141.7570315038605
 20
131.4523967839576
 30
0.0
 10
141.6416691463261
 20
131.3625912218108
 30
0.0
 10
141.5929973606549
 20
131.2806662902861
 30
0.0
 10
141.5688445023381
 20
131.2400119104139
 30
0.0
  0
LINE
  5
22F
330
1F
100
AcDbEntity
  8
0
  6
Continuous
 62
     7
370
    25
100
AcDbLine
 10
143.4911479222
 20
128.4670790401
 30
0.0
 11
142.4995250159
 21
131.2400119104
 31
0.0
  0
SPLINE
  5
230
330
1F
100
AcDbEntity
  8
0
  6
Continuous
 62
     7
370
    25
100
AcDbSpline
210
0.0
220
0.0
230
1.0
 70
     8
 71
     3
 72
    15
 73
    11
 74
     0
 42
0.00000001
 43
0.00000001
 40
0.0
 40
0.0
 40
0.0
 40
0.0
 40
0.1253320172137755
 40
0.2522975129251765
 40
0.3758847553984062
 40
0.5001929511416483
 40
0.6255758307380151
 40
0.7502289462456482
 40
0.8757444935777828
 40
1.0
 40
1.0
 40
1.0
 40
1.0
 10
144.2638496867712
 20
128.1903831894595
 30
0.0
 10
144.2285987701432
 20
128.1737088809767
 30
0.0
 10
144.1576375042888
 20
128.1401429442474
 30
0.0
 10
144.0416506135005
 20
128.1203613279933
 30
0.0
 10
143.9250542472601
 20
128.1224341083399
 30
0.0
 10
143.8119336406786
 20
128.1495121346905
 30
0.0
 10
143.7060579263392
 20
128.1987249503977
 30
0.0
 10
143.61394884172
 20
128.2708107142715
 30
0.0
 10
143.5375171778516
 20
128.360098235771
 30
0.0
 10
143.5065522703523
 20
128.431538906208
 30
0.0
 10
143.4911479222311
 20
128.4670790400661
 30
0.0
  0
LINE
  5
231
330
1F
100
AcDbEntity
  8
0
  6
Continuous
 62
     7
370
    25
100
AcDbLine
 10
144.3044643092
 20
128.2127370832
 30
0.0
 11
144.2638496868
 21
128.1903831895
 31
0.0
  0
LINE
  5
232
330
1F
100
AcDbEntity
  8
0
  6
Continuous
 62
     7
370
    25
100
AcDbLine
 10
143.6774811128
 20
127.0173259797
 30
0.0
 11
144.3044643092
 21
128.2127370832
 31
0.0
  0
SPLINE
  5
233
330
1F
100
AcDbEntity
  8
0
  6
Continuous
 62
     7
370
    25
100
AcDbSpline
210
0.0
220
0.0
230
1.0
 70
     8
 71
     3
 72
    15
 73
    11
 74
     0
 42
0.00000001
 43
0.00000001
 40
0.0
 40
0.0
 40
0.0
 40
0.0
 40
0.1246332186438571
 40
0.2519059530189798
 40
0.3765391000744966
 40
0.4994035903146521
 40
0.6264494152300174
 40
0.7526064410610431
 40
0.8746804377363274
 40
1.0
 40
1.0
 40
1.0
 40
1.0
 10
143.5722526239622
 20
126.999208812962
 30
0.0
 10
143.5762670996303
 20
126.9961035781094
 30
0.0
 10
143.584381070609
 20
126.9898273449076
 30
0.0
 10
143.5988196624455
 20
126.9842143314277
 30
0.0
 10
143.6139531123786
 20
126.9816779788009
 30
0.0
 10
143.6293156546604
 20
126.9825633823688
 30
0.0
 10
143.6442462334971
 20
126.9866944528844
 30
0.0
 10
143.6577481335264
 20
126.9941851528303
 30
0.0
 10
143.6694337884128
 20
127.0043237347446
 30
0.0
 10
143.6747753127536
 20
127.0129541570874
 30
0.0
 10
143.6774811127553
 20
127.0173259796797
 30
0.0
  0
SPLINE
  5
234
330
1F
100
AcDbEntity
  8
0
  6
Continuous
 62
     7
370
    25
100
AcDbSpline
210
0.0
220
0.0
230
1.0
 70
     8
 71
     3
 72
    11
 73
     7
 74
     0
 42
0.00000001
 43
0.00000001
 40
0.0
 40
0.0
 40
0.0
 40
0.0
 40
0.2506252605986011
 40
0.4999999999996215
 40
0.7493747394010042
 40
1.0
 40
1.0
 40
1.0
 40
1.0
 10
140.4961168942333
 20
126.999208812962
 30
0.0
 10
140.7258445884066
 20
127.162063104923
 30
0.0
 10
141.1841537261696
 20
127.4869591101618
 30
0.0
 10
142.0341847591057
 20
127.620691057099
 30
0.0
 10
142.8842157920359
 20
127.4869591101566
 30
0.0
 10
143.3425249297922
 20
127.1620631049213
 30
0.0
 10
143.5722526239622
 20
126.999208812962
 30
0.0
  0
SPLINE
  5
235
330
1F
100
AcDbEntity
  8
0
  6
Continuous
 62
     7
370
    25
100
AcDbSpline
210
0.0
220
0.0
230
1.0
 70
     8
 71
     3
 72
    15
 73
    11
 74
     0
 42
0.00000001
 43
0.00000001
 40
0.0
 40
0.0
 40
0.0
 40
0.0
 40
0.125319195797913
 40
0.2473928354984057
 40
0.3734492416489697
 40
0.5005950046079961
 40
0.6235484391777629
 40
0.7480947836179478
 40
0.875367145815393
 40
1.0
 40
1.0
 40
1.0
 40
1.0
 10
140.3908884054401
 20
127.0173259796797
 30
0.0
 10
140.3935942017725
 20
127.0129541513957
 30
0.0
 10
140.3989357188697
 20
127.0043237178169
 30
0.0
 10
140.4106182914588
 20
126.9941879403172
 30
0.0
 10
140.424119271446
 20
126.9866958244436
 30
0.0
 10
140.4390533002961
 20
126.9825633791514
 30
0.0
 10
140.4544203114852
 20
126.9816754373779
 30
0.0
 10
140.4695530479234
 20
126.9842163796354
 30
0.0
 10
140.4839884777051
 20
126.9898271579026
 30
0.0
 10
140.4921024285343
 20
126.9961035162113
 30
0.0
 10
140.4961168942333
 20
126.999208812962
 30
0.0
  0
LINE
  5
236
330
1F
100
AcDbEntity
  8
0
  6
Continuous
 62
     7
370
    25
100
AcDbLine
 10
139.763905209
 20
128.2127370832
 30
0.0
 11
140.3908884054
 21
127.0173259797
 31
0.0
  0
SPLINE
  5
237
330
1F
100
AcDbEntity
  8
0
  6
Continuous
 62
     7
370
    25
100
AcDbSpline
210
0.0
220
0.0
230
1.0
 70
     8
 71
     3
 72
    15
 73
    11
 74
     0
 42
0.00000001
 43
0.00000001
 40
0.0
 40
0.0
 40
0.0
 40
0.0
 40
0.1233867499278388
 40
0.2487396502211602
 40
0.3739317114754985
 40
0.4999973617625659
 40
0.6259591330513601
 40
0.7512551380600303
 40
0.8765613478174267
 40
1.0
 40
1.0
 40
1.0
 40
1.0
 10
141.9713018926996
 20
129.1906750470575
 30
0.0
 10
141.9741800938915
 20
129.1966898431405
 30
0.0
 10
141.9799823600031
 20
129.2088152802291
 30
0.0
 10
141.9955117647239
 20
129.2222065405792
 30
0.0
 10
142.0138663465973
 20
129.2310842521591
 30
0.0
 10
142.0341791630803
 20
129.2338409154556
 30
0.0
 10
142.0544975807954
 20
129.231086234255
 30
0.0
 10
142.0728504499594
 20
129.2222105359655
 30
0.0
 10
142.088388554355
 20
129.2088201687118
 30
0.0
 10
142.0941891163862
 20
129.1966930711658
 30
0.0
 10
142.0970676223118
 20
129.1906750470575
 30
0.0
  0
LINE
  5
238
330
1F
100
AcDbEntity
  8
0
  6
Continuous
 62
     7
370
    25
100
AcDbLine
 10
141.732188367
 20
128.5524210178
 30
0.0
 11
141.9713018927
 21
129.1906750471
 31
0.0
  0
SPLINE
  5
239
330
1F
100
AcDbEntity
  8
0
  6
Continuous
 62
     7
370
    25
100
AcDbSpline
210
0.0
220
0.0
230
1.0
 70
     8
 71
     3
 72
    15
 73
    11
 74
     0
 42
0.00000001
 43
0.00000001
 40
0.0
 40
0.0
 40
0.0
 40
0.0
 40
0.1261585224210644
 40
0.2513121451548802
 40
0.3762846848783791
 40
0.4993062783340883
 40
0.6261594278645745
 40
0.7521171342021309
 40
0.8758196922692798
 40
1.0
 40
1.0
 40
1.0
 40
1.0
 10
141.7950712318279
 20
128.4673566644349
 30
0.0
 10
141.7898401353393
 20
128.4676789710273
 30
0.0
 10
141.7794196099966
 20
128.4683210169198
 30
0.0
 10
141.7646330594822
 20
128.4737692572949
 30
0.0
 10
141.7514427068567
 20
128.4819918598806
 30
0.0
 10
141.7405721320155
 20
128.4932484661932
 30
0.0
 10
141.7325645446869
 20
128.5067692115343
 30
0.0
 10
141.7283979176542
 20
128.5219060991111
 30
0.0
 10
141.7277768661426
 20
128.5375952306822
 30
0.0
 10
141.7307159784974
 20
128.5474727430409
 30
0.0
 10
141.7321883669801
 20
128.5524210177849
 30
0.0
  0
LINE
  5
23A
330
1F
100
AcDbEntity
  8
0
  6
Continuous
 62
     7
370
    25
100
AcDbLine
 10
142.273298286
 20
128.4673566644
 30
0.0
 11
141.7950712318
 21
128.4673566644
 31
0.0
  0
SPLINE
  5
23B
330
1F
100
AcDbEntity
  8
0
  6
Continuous
 62
     7
370
    25
100
AcDbSpline
210
0.0
220
0.0
230
1.0
 70
     8
 71
     3
 72
    15
 73
    11
 74
     0
 42
0.00000001
 43
0.00000001
 40
0.0
 40
0.0
 40
0.0
 40
0.0
 40
0.1241186784437694
 40
0.2478474916628981
 40
0.373657414947894
 40
0.5005082335853294
 40
0.6234527658309922
 40
0.7484986612277523
 40
0.8736976492452768
 40
1.0
 40
1.0
 40
1.0
 40
1.0
 10
142.3361811507573
 20
128.552421018008
 30
0.0
 10
142.3376522233661
 20
128.5474751723499
 30
0.0
 10
142.3405897478445
 20
128.5375990162717
 30
0.0
 10
142.3399730133444
 20
128.521917620646
 30
0.0
 10
142.3358110517498
 20
128.5067850885657
 30
0.0
 10
142.3278123039514
 20
128.4932701809513
 30
0.0
 10
142.3169462124146
 20
128.4820101197553
 30
0.0
 10
142.3037584945899
 20
128.4737804073218
 30
0.0
 10
142.2889640480147
 20
128.4683208369368
 30
0.0
 10
142.2785354571074
 20
128.4676789938798
 30
0.0
 10
142.273298285993
 20
128.4673566644349
 30
0.0
  0
LINE
  5
23C
330
1F
100
AcDbEntity
  8
0
  6
Continuous
 62
     7
370
    25
100
AcDbLine
 10
142.0970676223
 20
129.1906750471
 30
0.0
 11
142.3361811508
 21
128.552421018
 31
0.0
  0
CIRCLE
  5
23D
330
1F
100
AcDbEntity
  8
0
  6
Continuous
 62
     7
370
    25
100
AcDbCircle
 10
142.0341847575
 20
129.1692655889
 30
0.0
 40
4.499999999999972
  0
LINE
  5
23E
330
1F
100
AcDbEntity
  8
0
  6
Continuous
 62
     7
370
    25
100
AcDbLine
 10
128.7341847575
 20
128.1568493543
 30
0.0
 11
128.7341847575
 21
130.1816818235
 31
0.0
  0
SPLINE
  5
23F
330
1F
100
AcDbEntity
  8
0
  6
Continuous
 62
     7
370
    25
100
AcDbSpline
210
0.0
220
0.0
230
1.0
 70
     8
 71
     3
 72
    11
 73
     7
 74
     0
 42
0.00000001
 43
0.00000001
 40
0.0
 40
0.0
 40
0.0
 40
0.0
 40
0.2561894651307314
 40
0.509604493920692
 40
0.769274206655365
 40
1.0
 40
1.0
 40
1.0
 40
1.0
 10
128.7341847575057
 20
128.1568493542812
 30
0.0
 10
128.6585886252118
 20
128.0973373136328
 30
0.0
 10
128.5082150385372
 20
127.9789577255365
 30
0.0
 10
128.2090022525819
 20
127.8083201834011
 30
0.0
 10
127.8814825176952
 20
127.6566962725004
 30
0.0
 10
127.6453041368813
 20
127.5772602368292
 30
0.0
 10
127.5341847575057
 20
127.5398864393062
 30
0.0
  0
LINE
  5
240
330
1F
100
AcDbEntity
  8
0
  6
Continuous
 62
     7
370
    25
100
AcDbLine
 10
127.5341847575
 20
130.7986447385
 30
0.0
 11
127.5341847575
 21
127.5398864393
 31
0.0
  0
SPLINE
  5
241
330
1F
100
AcDbEntity
  8
0
  6
Continuous
 62
     7
370
    25
100
AcDbSpline
210
0.0
220
0.0
230
1.0
 70
     8
 71
     3
 72
    11
 73
     7
 74
     0
 42
0.00000001
 43
0.00000001
 40
0.0
 40
0.0
 40
0.0
 40
0.0
 40
0.2307374805224083
 40
0.4903955403005851
 40
0.7438105520730633
 40
1.0
 40
1.0
 40
1.0
 40
1.0
 10
127.5341847575057
 20
130.7986447385231
 30
0.0
 10
127.6453099912621
 20
130.7612695476101
 30
0.0
 10
127.8814888683376
 20
130.6818345685156
 30
0.0
 10
128.2090065092887
 20
130.5302078887518
 30
0.0
 10
128.5082151059512
 20
130.3595735838035
 30
0.0
 10
128.6585886477646
 20
130.2411939081922
 30
0.0
 10
128.7341847575057
 20
130.1816818235481
 30
0.0
  0
LINE
  5
242
330
1F
100
AcDbEntity
  8
0
  6
Continuous
 62
     7
370
    25
100
AcDbLine
 10
126.928956544
 20
127.3931051691
 30
0.0
 11
92.6522187463
 21
128.2906731368
 31
0.0
  0
LINE
  5
243
330
1F
100
AcDbEntity
  8
0
  6
Continuous
 62
     7
370
    25
100
AcDbLine
 10
92.6522187463
 20
128.2906731368
 30
0.0
 11
92.6522187463
 21
130.0478580411
 31
0.0
  0
LINE
  5
244
330
1F
100
AcDbEntity
  8
0
  6
Continuous
 62
     7
370
    25
100
AcDbLine
 10
92.6522187463
 20
130.0478580411
 30
0.0
 11
126.928956544
 21
130.9454260087
 31
0.0
  0
ELLIPSE
  5
245
330
1F
100
AcDbEntity
  8
0
  6
Continuous
 62
     7
370
    25
100
AcDbEllipse
 10
126.9341847575
 20
130.1450143523
 30
0.0
 11
0.9988086229566164
 21
0.06103964413861718
 31
0.0
210
0.0
220
0.0
230
1.0
 40
0.7994627403
 41
0.8784769082856118
 42
1.527206254409841
  0
ELLIPSE
  5
246
330
1F
100
AcDbEntity
  8
0
  6
Continuous
 62
     7
370
    25
100
AcDbEllipse
 10
126.9341847575
 20
128.1935168255
 30
0.0
 11
0.9988086229566164
 21
-0.06103964413861718
 31
0.0
210
0.0
220
0.0
230
1.0
 40
0.7994627403
 41
4.755979052769753
 42
5.404708398893964
  0
SPLINE
  5
247
330
1F
100
AcDbEntity
  8
0
  6
Continuous
 62
     7
370
    25
100
AcDbSpline
210
0.0
220
0.0
230
1.0
 70
    24
 71
     3
 72
    11
 73
     7
 74
     0
 42
0.00000001
 43
0.00000001
 40
0.0
 40
0.0
 40
0.0
 40
0.0
 40
0.2499999999999963
 40
0.4999999999999995
 40
0.7500000000000014
 40
1.0
 40
1.0
 40
1.0
 40
1.0
 10
92.63390116157058
 20
130.7473783782281
 30
0.0
 10
92.63422902282639
 20
130.7348578620056
 30
0.0
 10
92.63488474533803
 20
130.7098168295604
 30
0.0
 10
92.63914371447726
 20
130.5471733599379
 30
0.0
 10
92.6451355701391
 20
130.3183536238834
 30
0.0
 10
92.6498576875501
 20
130.1380232353372
 30
0.0
 10
92.65221874625561
 20
130.047858041064
 30
0.0
  0
LINE
  5
248
330
1F
100
AcDbEntity
  8
0
  6
Continuous
 62
     7
370
    25
100
AcDbLine
 10
126.9106389593
 20
131.6449463458
 30
0.0
 11
92.6339011616
 21
130.7473783782
 31
0.0
  0
SPLINE
  5
249
330
1F
100
AcDbEntity
  8
0
  6
Continuous
 62
     7
370
    25
100
AcDbSpline
210
0.0
220
0.0
230
1.0
 70
    24
 71
     3
 72
    11
 73
     7
 74
     0
 42
0.00000001
 43
0.00000001
 40
0.0
 40
0.0
 40
0.0
 40
0.0
 40
0.2499999999999982
 40
0.4999999999999978
 40
0.750000000000001
 40
1.0
 40
1.0
 40
1.0
 40
1.0
 10
126.9106389593082
 20
131.6449463458473
 30
0.0
 10
126.910966820564
 20
131.6324258296247
 30
0.0
 10
126.9116225430756
 20
131.6073847971796
 30
0.0
 10
126.915881512215
 20
131.444741327557
 30
0.0
 10
126.9218733678767
 20
131.2159215915026
 30
0.0
 10
126.9265954852878
 20
131.0355912029563
 30
0.0
 10
126.9289565439933
 20
130.9454260086832
 30
0.0
  0
LINE
  5
24A
330
1F
100
AcDbEntity
  8
0
  6
Continuous
 62
     7
370
    25
100
AcDbLine
 10
92.6339011616
 20
127.5911527996
 30
0.0
 11
126.9106389593
 21
126.693584832
 31
0.0
  0
SPLINE
  5
24B
330
1F
100
AcDbEntity
  8
0
  6
Continuous
 62
     7
370
    25
100
AcDbSpline
210
0.0
220
0.0
230
1.0
 70
    24
 71
     3
 72
    11
 73
     7
 74
     0
 42
0.00000001
 43
0.00000001
 40
0.0
 40
0.0
 40
0.0
 40
0.0
 40
0.249999999999998
 40
0.4999999999999973
 40
0.7500000000000001
 40
1.0
 40
1.0
 40
1.0
 40
1.0
 10
92.63390116157058
 20
127.5911527996012
 30
0.0
 10
92.63422902282639
 20
127.6036733158238
 30
0.0
 10
92.63488474533801
 20
127.6287143482689
 30
0.0
 10
92.63914371447726
 20
127.7913578178915
 30
0.0
 10
92.6451355701391
 20
128.020177553946
 30
0.0
 10
92.6498576875501
 20
128.2005079424922
 30
0.0
 10
92.65221874625561
 20
128.2906731367653
 30
0.0
  0
SPLINE
  5
24C
330
1F
100
AcDbEntity
  8
0
  6
Continuous
 62
     7
370
    25
100
AcDbSpline
210
0.0
220
0.0
230
1.0
 70
    24
 71
     3
 72
    11
 73
     7
 74
     0
 42
0.00000001
 43
0.00000001
 40
0.0
 40
0.0
 40
0.0
 40
0.0
 40
0.2499999999999988
 40
0.5000000000000004
 40
0.7499999999999976
 40
1.0
 40
1.0
 40
1.0
 40
1.0
 10
126.9289565439933
 20
127.3931051691462
 30
0.0
 10
126.9265954852878
 20
127.302939974873
 30
0.0
 10
126.9218733678767
 20
127.1226095863268
 30
0.0
 10
126.915881512215
 20
126.8937898502724
 30
0.0
 10
126.9116225430757
 20
126.7311463806498
 30
0.0
 10
126.910966820564
 20
126.7061053482046
 30
0.0
 10
126.9106389593082
 20
126.6935848319821
 30
0.0
  0
ELLIPSE
  5
24D
330
1F
100
AcDbEntity
  8
0
  6
Continuous
 62
     7
370
    25
100
AcDbEllipse
 10
92.6522187463
 20
130.0688139594
 30
0.0
 11
1.499999971448716
 21
0.02095282558966005
 31
0.0
210
0.0
220
0.0
230
1.0
 40
0.0139678873
 41
3.842044658398438
 42
4.712193869245415
  0
ELLIPSE
  5
24E
330
1F
100
AcDbEntity
  8
0
  6
Continuous
 62
     7
370
    25
100
AcDbEllipse
 10
92.6522187463
 20
128.2697172184
 30
0.0
 11
1.499999971448716
 21
-0.02095282558966005
 31
0.0
210
0.0
220
0.0
230
1.0
 40
0.0139678873
 41
1.570991437934172
 42
2.441140648780352
  0
SPLINE
  5
24F
330
1F
100
AcDbEntity
  8
0
  6
Continuous
 62
     7
370
    25
100
AcDbSpline
210
0.0
220
0.0
230
1.0
 70
     8
 71
     3
 72
     9
 73
     5
 74
     0
 42
0.00000001
 43
0.00000001
 40
0.0
 40
0.0
 40
0.0
 40
0.0
 40
0.5600029565045499
 40
1.0
 40
1.0
 40
1.0
 40
1.0
 10
91.5055810308071
 20
128.2992415022908
 30
0.0
 10
91.49743327145397
 20
128.2992358642245
 30
0.0
 10
91.4828837779942
 20
128.2992257963023
 30
0.0
 10
91.46893913505367
 20
128.2993479729057
 30
0.0
 10
91.46280353338723
 20
128.29940173025
 30
0.0
  0
ELLIPSE
  5
250
330
1F
100
AcDbEntity
  8
0
  6
Continuous
 62
     7
370
    25
100
AcDbEllipse
 10
92.6522187463
 20
128.2521280564
 30
0.0
 11
1.499999872704137
 21
-0.0430792567095466
 31
0.0
210
0.0
220
0.0
230
1.0
 40
0.0143449667
 41
2.48683318254268
 42
2.678357024933858
  0
LINE
  5
251
330
1F
100
AcDbEntity
  8
0
  6
Continuous
 62
     7
370
    25
100
AcDbLine
 10
91.3105779598
 20
130.0382489634
 30
0.0
 11
91.3105779598
 21
128.3002822144
 31
0.0
  0
ELLIPSE
  5
252
330
1F
100
AcDbEntity
  8
0
  6
Continuous
 62
     7
370
    25
100
AcDbEllipse
 10
92.6522187463
 20
130.0864031214
 30
0.0
 11
1.499999872704137
 21
0.04307925670957501
 31
0.0
210
0.0
220
0.0
230
1.0
 40
0.0143449667
 41
3.604828282244271
 42
3.79635212463562
  0
SPLINE
  5
253
330
1F
100
AcDbEntity
  8
0
  6
Continuous
 62
     7
370
    25
100
AcDbSpline
210
0.0
220
0.0
230
1.0
 70
     8
 71
     3
 72
     9
 73
     5
 74
     0
 42
0.00000001
 43
0.00000001
 40
0.0
 40
0.0
 40
0.0
 40
0.0
 40
0.5599925069633377
 40
1.0
 40
1.0
 40
1.0
 40
1.0
 10
91.46280353338723
 20
130.0391294475794
 30
0.0
 10
91.47062634324415
 20
130.0391951927307
 30
0.0
 10
91.48459583347775
 20
130.0393125963577
 30
0.0
 10
91.49916881134824
 20
130.0392966792051
 30
0.0
 10
91.50558103080712
 20
130.0392896755386
 30
0.0
  0
ELLIPSE
  5
254
330
1F
100
AcDbEntity
  8
0
  6
Continuous
 62
     7
370
    25
100
AcDbEllipse
 10
92.6339011616
 20
127.5701968813
 30
0.0
 11
0.7999998117959566
 21
-0.0209631067747722
 31
0.0
210
0.0
220
0.0
230
1.0
 40
0.026176936
 41
1.571482264229187
 42
2.441631475077186
  0
SPLINE
  5
255
330
1F
100
AcDbEntity
  8
0
  6
Continuous
 62
     7
370
    25
100
AcDbSpline
210
0.0
220
0.0
230
1.0
 70
     8
 71
     3
 72
    12
 73
     8
 74
     0
 42
0.00000001
 43
0.00000001
 40
0.0
 40
0.0
 40
0.0
 40
0.0
 40
0.2198609600791294
 40
0.4397396970008148
 40
0.6583291451397767
 40
0.87912395168436
 40
1.0
 40
1.0
 40
1.0
 40
1.0
 10
92.0223610466647
 20
127.5997211651266
 30
0.0
 10
91.96244598393582
 20
127.6103931597707
 30
0.0
 10
91.84261101404982
 20
127.6317380119423
 30
0.0
 10
91.68587602577529
 20
127.7598564072093
 30
0.0
 10
91.56930770198915
 20
127.9427943432744
 30
0.0
 10
91.5130510101949
 20
128.1343435151615
 30
0.0
 10
91.5075331389786
 20
128.2561491868466
 30
0.0
 10
91.5055810308071
 20
128.2992415022908
 30
0.0
  0
ELLIPSE
  5
256
330
1F
100
AcDbEntity
  8
0
  6
Continuous
 62
     7
370
    25
100
AcDbEllipse
 10
92.6339011616
 20
130.7683342966
 30
0.0
 11
0.7999998117959565
 21
0.02096310677475799
 31
0.0
210
0.0
220
0.0
230
1.0
 40
0.026176936
 41
3.841553832103668
 42
4.7117030429504
  0
SPLINE
  5
257
330
1F
100
AcDbEntity
  8
0
  6
Continuous
 62
     7
370
    25
100
AcDbSpline
210
0.0
220
0.0
230
1.0
 70
     8
 71
     3
 72
    12
 73
     8
 74
     0
 42
0.00000001
 43
0.00000001
 40
0.0
 40
0.0
 40
0.0
 40
0.0
 40
0.2198610998683202
 40
0.4397399767664986
 40
0.6583294271823332
 40
0.8791242261983154
 40
1.0
 40
1.0
 40
1.0
 40
1.0
 10
91.50558103080712
 20
130.0392896755386
 30
0.0
 10
91.51168398070244
 20
130.1179805852578
 30
0.0
 10
91.52389037395156
 20
130.2753687673071
 30
0.0
 10
91.61641431504994
 20
130.4846505157921
 30
0.0
 10
91.75219826247165
 20
130.6432998364564
 30
0.0
 10
91.89662612583504
 20
130.7233998991717
 30
0.0
 10
91.98950313748381
 20
130.7347829364734
 30
0.0
 10
92.02236104666473
 20
130.7388100127027
 30
0.0
  0
SPLINE
  5
258
330
1F
100
AcDbEntity
  8
0
  6
Continuous
 62
     7
370
    25
100
AcDbSpline
210
0.0
220
0.0
230
1.0
 70
     8
 71
     3
 72
    11
 73
     7
 74
     0
 42
0.00000001
 43
0.00000001
 40
0.0
 40
0.0
 40
0.0
 40
0.0
 40
0.2561894651307129
 40
0.5096044939206584
 40
0.7692742066444705
 40
1.0
 40
1.0
 40
1.0
 40
1.0
 10
128.7341847575057
 20
130.1816818235481
 30
0.0
 10
128.6898197668889
 20
130.2951893588694
 30
0.0
 10
128.6015702419542
 20
130.5209751852462
 30
0.0
 10
128.3917581550297
 20
130.8461775210057
 30
0.0
 10
128.1442502855382
 20
131.1361338789349
 30
0.0
 10
127.9495004548
 20
131.2871957001133
 30
0.0
 10
127.8578727611407
 20
131.3582686567474
 30
0.0
  0
SPLINE
  5
259
330
1F
100
AcDbEntity
  8
0
  6
Continuous
 62
     7
370
    25
100
AcDbSpline
210
0.0
220
0.0
230
1.0
 70
    24
 71
     3
 72
    10
 73
     6
 74
     0
 42
0.00000001
 43
0.00000001
 40
0.0
 40
0.0
 40
0.0
 40
0.0
 40
0.2808335173386709
 40
0.5616510917414143
 40
0.9999999999999999
 40
0.9999999999999999
 40
0.9999999999999999
 40
0.9999999999999999
 10
127.8578727611407
 20
131.3582686567474
 30
0.0
 10
127.8396646414959
 20
131.3267886539523
 30
0.0
 10
127.8032494358823
 20
131.263830435484
 30
0.0
 10
127.6934663510819
 20
131.0740265521742
 30
0.0
 10
127.5945043983481
 20
130.9029313150259
 30
0.0
 10
127.5341847575057
 20
130.7986447385231
 30
0.0
  0
ELLIPSE
  5
25A
330
1F
100
AcDbEntity
  8
0
  6
Continuous
 62
     7
370
    25
100
AcDbEllipse
 10
126.9341847575
 20
130.1450143523
 30
0.0
 11
1.557390436637235
 21
0.09517594847733335
 31
0.0
210
0.0
220
0.0
230
1.0
 40
0.9613560848
 41
0.8784769082856184
 42
1.527206254409851
  0
SPLINE
  5
25B
330
1F
100
AcDbEntity
  8
0
  6
Continuous
 62
     7
370
    25
100
AcDbSpline
210
0.0
220
0.0
230
1.0
 70
    24
 71
     3
 72
    10
 73
     6
 74
     0
 42
0.00000001
 43
0.00000001
 40
0.0
 40
0.0
 40
0.0
 40
0.0
 40
0.2808335173386708
 40
0.5616510917414125
 40
1.0
 40
1.0
 40
1.0
 40
1.0
 10
127.5341847575057
 20
127.5398864393062
 30
0.0
 10
127.5725352064682
 20
127.4735823802339
 30
0.0
 10
127.6492339272357
 20
127.3409780261748
 30
0.0
 10
127.7743882772777
 20
127.1245987752703
 30
0.0
 10
127.826257343631
 20
127.03492238992
 30
0.0
 10
127.8578727611407
 20
126.980262521082
 30
0.0
  0
ELLIPSE
  5
25C
330
1F
100
AcDbEntity
  8
0
  6
Continuous
 62
     7
370
    25
100
AcDbEllipse
 10
126.9341847575
 20
128.1935168255
 30
0.0
 11
1.557390436637235
 21
-0.09517594847730494
 31
0.0
210
0.0
220
0.0
230
1.0
 40
0.9613560848
 41
4.755979052769733
 42
5.404708398893979
  0
SPLINE
  5
25D
330
1F
100
AcDbEntity
  8
0
  6
Continuous
 62
     7
370
    25
100
AcDbSpline
210
0.0
220
0.0
230
1.0
 70
     8
 71
     3
 72
    11
 73
     7
 74
     0
 42
0.00000001
 43
0.00000001
 40
0.0
 40
0.0
 40
0.0
 40
0.0
 40
0.2307374805226512
 40
0.4903955403005855
 40
0.7438105520730652
 40
0.9999999999999999
 40
0.9999999999999999
 40
0.9999999999999999
 40
0.9999999999999999
 10
127.8578727611407
 20
126.980262521082
 30
0.0
 10
127.9495047659003
 20
127.0513395392721
 30
0.0
 10
128.1442539084369
 20
127.2024023516915
 30
0.0
 10
128.3917614756749
 20
127.492358380847
 30
0.0
 10
128.6015702050689
 20
127.8175560413956
 30
0.0
 10
128.6898197545493
 20
128.0433418352897
 30
0.0
 10
128.7341847575057
 20
128.1568493542812
 30
0.0
  0
LINE
  5
25E
330
1F
100
AcDbEntity
  8
0
  6
Continuous
 62
     7
370
    25
100
AcDbLine
 10
129.0341982128
 20
131.774722259
 30
0.0
 11
126.9106389593
 21
131.6449463458
 31
0.0
  0
SPLINE
  5
25F
330
1F
100
AcDbEntity
  8
0
  6
Continuous
 62
     7
370
    25
100
AcDbSpline
210
0.0
220
0.0
230
1.0
 70
     8
 71
     3
 72
    13
 73
     9
 74
     0
 42
0.00000001
 43
0.00000001
 40
0.0
 40
0.0
 40
0.0
 40
0.0
 40
0.1035746466401555
 40
0.2111076158583393
 40
0.3219769626223817
 40
0.4454462032504118
 40
0.7113049728010379
 40
1.0
 40
1.0
 40
1.0
 40
1.0
 10
131.1341847575057
 20
130.3283517086149
 30
0.0
 10
131.1269285927453
 20
130.4266944870637
 30
0.0
 10
131.1121389536537
 20
130.627138419712
 30
0.0
 10
130.9858663440918
 20
130.910080469942
 30
0.0
 10
130.789318955961
 20
131.168338694961
 30
0.0
 10
130.4254672828737
 20
131.471434044716
 30
0.0
 10
129.8278798961385
 20
131.7369637109995
 30
0.0
 10
129.3059234125787
 20
131.7617952264143
 30
0.0
 10
129.0341982127853
 20
131.7747222590306
 30
0.0
  0
LINE
  5
260
330
1F
100
AcDbEntity
  8
0
  6
Continuous
 62
     7
370
    25
100
AcDbLine
 10
128.7341847575
 20
130.1816818235
 30
0.0
 11
131.1341847575
 21
130.3283517086
 31
0.0
  0
LINE
  5
261
330
1F
100
AcDbEntity
  8
0
  6
Continuous
 62
     7
370
    25
100
AcDbLine
 10
131.1341847575
 20
128.0101794692
 30
0.0
 11
128.7341847575
 21
128.1568493543
 31
0.0
  0
SPLINE
  5
262
330
1F
100
AcDbEntity
  8
0
  6
Continuous
 62
     7
370
    25
100
AcDbSpline
210
0.0
220
0.0
230
1.0
 70
     8
 71
     3
 72
    13
 73
     9
 74
     0
 42
0.00000001
 43
0.00000001
 40
0.0
 40
0.0
 40
0.0
 40
0.0
 40
0.2886949682914851
 40
0.554553683594315
 40
0.6780091910936104
 40
0.7888922083801199
 40
0.8964194071406489
 40
1.0
 40
1.0
 40
1.0
 40
1.0
 10
129.0341982127853
 20
126.5638089187988
 30
0.0
 10
129.3059234033615
 20
126.5767359242815
 30
0.0
 10
129.827879869216
 20
126.6015673875756
 30
0.0
 10
130.4254552773193
 20
126.8670919890081
 30
0.0
 10
130.7893094574988
 20
127.1701829856123
 30
0.0
 10
130.9858569490644
 20
127.4284347397329
 30
0.0
 10
131.1121402381706
 20
127.7113861059012
 30
0.0
 10
131.1269287401417
 20
127.9118307685923
 30
0.0
 10
131.1341847575057
 20
128.0101794692145
 30
0.0
  0
LINE
  5
263
330
1F
100
AcDbEntity
  8
0
  6
Continuous
 62
     7
370
    25
100
AcDbLine
 10
126.9106389593
 20
126.693584832
 30
0.0
 11
129.0341982128
 21
126.5638089188
 31
0.0
  0
SPLINE
  5
264
330
1F
100
AcDbEntity
  8
0
  6
Continuous
 62
     7
370
    25
100
AcDbSpline
210
0.0
220
0.0
230
1.0
 70
     8
 71
     3
 72
    12
 73
     8
 74
     0
 42
0.00000001
 43
0.00000001
 40
0.0
 40
0.0
 40
0.0
 40
0.0
 40
0.2225634137434379
 40
0.4462063173695244
 40
0.6680851268156933
 40
0.8917990985568367
 40
1.0
 40
1.0
 40
1.0
 40
1.0
 10
91.98024546363223
 20
130.7378647768307
 30
0.0
 10
91.91854889799733
 20
130.7255116692639
 30
0.0
 10
91.79485652249295
 20
130.7007455383769
 30
0.0
 10
91.63569018069944
 20
130.5681616103791
 30
0.0
 10
91.5196082926825
 20
130.3818042068845
 30
0.0
 10
91.46789324195464
 20
130.1937133955312
 30
0.0
 10
91.46405482017772
 20
130.0771333626428
 30
0.0
 10
91.46280353338723
 20
130.0391294475794
 30
0.0
  0
SPLINE
  5
265
330
1F
100
AcDbEntity
  8
0
  6
Continuous
 62
     7
370
    25
100
AcDbSpline
210
0.0
220
0.0
230
1.0
 70
     8
 71
     3
 72
    12
 73
     8
 74
     0
 42
0.00000001
 43
0.00000001
 40
0.0
 40
0.0
 40
0.0
 40
0.0
 40
0.2225634137435274
 40
0.446206317369568
 40
0.6680851268158019
 40
0.8917990985569294
 40
1.0
 40
1.0
 40
1.0
 40
1.0
 10
91.46280353338723
 20
128.29940173025
 30
0.0
 10
91.46839009948974
 20
128.2208980702074
 30
0.0
 10
91.4795903279793
 20
128.0635099871508
 30
0.0
 10
91.57364110566637
 20
127.8541584495234
 30
0.0
 10
91.71313216906441
 20
127.6953991550533
 30
0.0
 10
91.85835626890074
 20
127.6175502847367
 30
0.0
 10
91.9502794376308
 20
127.6048172439033
 30
0.0
 10
91.98024546363223
 20
127.6006664009987
 30
0.0
  0
ELLIPSE
  5
266
330
1F
100
AcDbEntity
  8
0
  6
Continuous
 62
     7
370
    25
100
AcDbEllipse
 10
92.6146002438
 20
127.5533927271
 30
0.0
 11
0.7999991634988675
 21
-0.04310148564323413
 31
0.0
210
0.0
220
0.0
230
1.0
 40
0.0268411366
 41
2.487867318783687
 42
2.679391161175739
  0
SPLINE
  5
267
330
1F
100
AcDbEntity
  8
0
  6
Continuous
 62
     7
370
    25
100
AcDbSpline
210
0.0
220
0.0
230
1.0
 70
     8
 71
     3
 72
    11
 73
     7
 74
     0
 42
0.00000001
 43
0.00000001
 40
0.0
 40
0.0
 40
0.0
 40
0.0
 40
0.2499999999999991
 40
0.4999999999999979
 40
0.7499999999999996
 40
1.0
 40
1.0
 40
1.0
 40
1.0
 10
91.89905849102877
 20
127.6015468851447
 30
0.0
 10
91.82082338269649
 20
127.6165461903112
 30
0.0
 10
91.66435316603196
 20
127.6465448006444
 30
0.0
 10
91.4710270146155
 20
127.8100645034411
 30
0.0
 10
91.33665058233655
 20
128.0356441175234
 30
0.0
 10
91.31926883394934
 20
128.2120695154385
 30
0.0
 10
91.31057795975573
 20
128.300282214396
 30
0.0
  0
SPLINE
  5
268
330
1F
100
AcDbEntity
  8
0
  6
Continuous
 62
     7
370
    25
100
AcDbSpline
210
0.0
220
0.0
230
1.0
 70
     8
 71
     3
 72
    11
 73
     7
 74
     0
 42
0.00000001
 43
0.00000001
 40
0.0
 40
0.0
 40
0.0
 40
0.0
 40
0.249999999999999
 40
0.4999999999999998
 40
0.7499999999999988
 40
1.0
 40
1.0
 40
1.0
 40
1.0
 10
91.8990584910288
 20
130.7369842926847
 30
0.0
 10
91.82082338269652
 20
130.7219849875181
 30
0.0
 10
91.664353166032
 20
130.691986377185
 30
0.0
 10
91.47102701461552
 20
130.5284666743883
 30
0.0
 10
91.3366505823365
 20
130.3028870603059
 30
0.0
 10
91.31926883394934
 20
130.1264616623909
 30
0.0
 10
91.31057795975573
 20
130.0382489634334
 30
0.0
  0
ELLIPSE
  5
269
330
1F
100
AcDbEntity
  8
0
  6
Continuous
 62
     7
370
    25
100
AcDbEllipse
 10
92.6146002438
 20
130.7851384507
 30
0.0
 11
0.7999991634988676
 21
0.04310148564320571
 31
0.0
210
0.0
220
0.0
230
0.9999999999999998
 40
0.0268411366
 41
3.603794146006
 42
3.795317988398103
  0
LINE
  5
26A
330
1F
100
AcDbEntity
  8
0
  6
Continuous
 62
     7
370
    25
100
AcDbLine
 10
131.1341847575
 20
130.3283517086
 30
0.0
 11
131.1341847575
 21
128.0101794692
 31
0.0
  0
LINE
  5
26B
330
1F
100
AcDbEntity
  8
0
  6
Continuous
 62
     7
370
    25
100
AcDbLine
 10
91.7999161355
 20
130.9555062513
 30
0.0
 11
113.4274643042
 21
131.5218435314
 31
0.0
  0
SPLINE
  5
26C
330
1F
100
AcDbEntity
  8
0
  6
Continuous
 62
     7
370
    25
100
AcDbSpline
210
0.0
220
0.0
230
1.0
 70
     8
 71
     3
 72
     9
 73
     5
 74
     0
 42
0.00000001
 43
0.00000001
 40
0.0
 40
0.0
 40
0.0
 40
0.0
 40
0.5600012771711205
 40
0.9999999999999999
 40
0.9999999999999999
 40
0.9999999999999999
 40
0.9999999999999999
 10
113.4274643042246
 20
131.5218435314118
 30
0.0
 10
113.9048944407496
 20
131.5100091190668
 30
0.0
 10
114.7574463115895
 20
131.488876288076
 30
0.0
 10
115.614335516233
 20
131.4679155586635
 30
0.0
 10
115.9913656718819
 20
131.4586928644925
 30
0.0
  0
SPLINE
  5
26D
330
1F
100
AcDbEntity
  8
0
  6
Continuous
 62
     7
370
    25
100
AcDbSpline
210
0.0
220
0.0
230
1.0
 70
     8
 71
     3
 72
     9
 73
     5
 74
     0
 42
0.00000001
 43
0.00000001
 40
0.0
 40
0.0
 40
0.0
 40
0.0
 40
0.5599999095971039
 40
1.0
 40
1.0
 40
1.0
 40
1.0
 10
115.9913656718819
 20
131.4586928644925
 30
0.0
 10
116.0854951625444
 20
131.4563954545953
 30
0.0
 10
116.2535835658626
 20
131.4522929362594
 30
0.0
 10
116.4218260855584
 20
131.4481965430663
 30
0.0
 10
116.4958528094341
 20
131.446394129691
 30
0.0
  0
LINE
  5
26E
330
1F
100
AcDbEntity
  8
0
  6
Continuous
 62
     7
370
    25
100
AcDbLine
 10
116.4958528094
 20
131.4463941297
 30
0.0
 11
129.0341982128
 21
131.774722259
 31
0.0
  0
LINE
  5
26F
330
1F
100
AcDbEntity
  8
0
  6
Continuous
 62
     7
370
    25
100
AcDbLine
 10
92.0223610467
 20
130.7388100127
 30
0.0
 11
91.7999161355
 21
130.9555062513
 31
0.0
  0
LINE
  5
270
330
1F
100
AcDbEntity
  8
0
  6
Continuous
 62
     7
370
    25
100
AcDbLine
 10
129.0341982128
 20
126.5638089188
 30
0.0
 11
116.4958528094
 21
126.8921370481
 31
0.0
  0
SPLINE
  5
271
330
1F
100
AcDbEntity
  8
0
  6
Continuous
 62
     7
370
    25
100
AcDbSpline
210
0.0
220
0.0
230
1.0
 70
     8
 71
     3
 72
     9
 73
     5
 74
     0
 42
0.00000001
 43
0.00000001
 40
0.0
 40
0.0
 40
0.0
 40
0.0
 40
0.5600000882143319
 40
1.0
 40
1.0
 40
1.0
 40
1.0
 10
116.4958528094341
 20
126.8921370481383
 30
0.0
 10
116.4016403939024
 20
126.8898429319972
 30
0.0
 10
116.2334039640974
 20
126.8857462966763
 30
0.0
 10
116.0653218064288
 20
126.881643530217
 30
0.0
 10
115.991365671882
 20
126.8798383133369
 30
0.0
  0
SPLINE
  5
272
330
1F
100
AcDbEntity
  8
0
  6
Continuous
 62
     7
370
    25
100
AcDbSpline
210
0.0
220
0.0
230
1.0
 70
     8
 71
     3
 72
     9
 73
     5
 74
     0
 42
0.00000001
 43
0.00000001
 40
0.0
 40
0.0
 40
0.0
 40
0.0
 40
0.5599987526606142
 40
1.0
 40
1.0
 40
1.0
 40
1.0
 10
115.991365671882
 20
126.8798383133369
 30
0.0
 10
115.5115994139948
 20
126.8680967268145
 30
0.0
 10
114.6548720452145
 20
126.8471295613224
 30
0.0
 10
113.8025062967419
 20
126.8259893609503
 30
0.0
 10
113.4274643042246
 20
126.8166876464176
 30
0.0
  0
LINE
  5
273
330
1F
100
AcDbEntity
  8
0
  6
Continuous
 62
     7
370
    25
100
AcDbLine
 10
113.4274643042
 20
126.8166876464
 30
0.0
 11
91.7999161355
 21
127.3830249265
 31
0.0
  0
LINE
  5
274
330
1F
100
AcDbEntity
  8
0
  6
Continuous
 62
     7
370
    25
100
AcDbLine
 10
91.7999161355
 20
127.3830249265
 30
0.0
 11
92.0223610467
 21
127.5997211651
 31
0.0
  0
LINE
  5
275
330
1F
100
AcDbEntity
  8
0
  6
Continuous
 62
     7
370
    25
100
AcDbLine
 10
86.7316278166
 20
130.0382489634
 30
0.0
 11
91.3105779598
 21
130.0382489634
 31
0.0
  0
SPLINE
  5
276
330
1F
100
AcDbEntity
  8
0
  6
Continuous
 62
     7
370
    25
100
AcDbSpline
210
0.0
220
0.0
230
1.0
 70
     8
 71
     3
 72
    13
 73
     9
 74
     0
 42
0.00000001
 43
0.00000001
 40
0.0
 40
0.0
 40
0.0
 40
0.0
 40
0.1143463544469914
 40
0.2890454840074685
 40
0.5294852105593209
 40
0.7014879056604271
 40
0.9335094878266192
 40
1.0
 40
1.0
 40
1.0
 40
1.0
 10
87.49358866682421
 20
130.7369842926847
 30
0.0
 10
87.45238746611525
 20
130.7321497011796
 30
0.0
 10
87.3482387937924
 20
130.7199287882495
 30
0.0
 10
87.16087929941254
 20
130.6472806932085
 30
0.0
 10
86.97885156940377
 20
130.5167684268017
 30
0.0
 10
86.82656798818941
 20
130.3299008276321
 30
0.0
 10
86.75406471130943
 20
130.1685274228755
 30
0.0
 10
86.7357150219907
 20
130.0619810720235
 30
0.0
 10
86.73162781660052
 20
130.0382489634334
 30
0.0
  0
LINE
  5
277
330
1F
100
AcDbEntity
  8
0
  6
Continuous
 62
     7
370
    25
100
AcDbLine
 10
91.899058491
 20
130.7369842927
 30
0.0
 11
87.4935886668
 21
130.7369842927
 31
0.0
  0
ELLIPSE
  5
278
330
1F
100
AcDbEntity
  8
0
  6
Continuous
 62
     7
370
    25
100
AcDbEllipse
 10
87.086971162
 20
129.343804144
 30
0.0
 11
0.008721666502694349
 21
1.000418978703721
 31
0.0
210
0.0
220
0.0
230
0.9999999999999999
 40
0.499714557
 41
0.8079180407726557
 42
1.588240544501543
  0
LINE
  5
279
330
1F
100
AcDbEntity
  8
0
  6
Continuous
 62
     7
370
    25
100
AcDbLine
 10
91.3105779598
 20
128.3002822144
 30
0.0
 11
86.7316278166
 21
128.3002822144
 31
0.0
  0
ELLIPSE
  5
27A
330
1F
100
AcDbEntity
  8
0
  6
Continuous
 62
     7
370
    25
100
AcDbEllipse
 10
87.086971162
 20
128.9947270338
 30
0.0
 11
-0.008721666502694349
 21
1.000418978703721
 31
0.0
210
0.0
220
0.0
230
0.9999999999999999
 40
0.499714557
 41
1.553352109088307
 42
2.333674612817158
  0
LINE
  5
27B
330
1F
100
AcDbEntity
  8
0
  6
Continuous
 62
     7
370
    25
100
AcDbLine
 10
86.586971162
 20
129.3307111832
 30
0.0
 11
86.586971162
 21
129.0078199946
 31
0.0
  0
LINE
  5
27C
330
1F
100
AcDbEntity
  8
0
  6
Continuous
 62
     7
370
    25
100
AcDbLine
 10
87.4935886668
 20
127.6015468851
 30
0.0
 11
91.899058491
 21
127.6015468851
 31
0.0
  0
SPLINE
  5
27D
330
1F
100
AcDbEntity
  8
0
  6
Continuous
 62
     7
370
    25
100
AcDbSpline
210
0.0
220
0.0
230
1.0
 70
     8
 71
     3
 72
    12
 73
     8
 74
     0
 42
0.00000001
 43
0.00000001
 40
0.0
 40
0.0
 40
0.0
 40
0.0
 40
0.139683458618249
 40
0.3831896274038307
 40
0.55131692930133
 40
0.8194729461607051
 40
0.9999999999999999
 40
0.9999999999999999
 40
0.9999999999999999
 40
0.9999999999999999
 10
86.73162781660052
 20
128.300282214396
 30
0.0
 10
86.74186919734679
 20
128.2505672939175
 30
0.0
 10
86.76996408353511
 20
128.1141857778597
 30
0.0
 10
86.8771144448899
 20
127.9342696686476
 30
0.0
 10
87.05745153230289
 20
127.7559282402627
 30
0.0
 10
87.26590767687186
 20
127.6354080157112
 30
0.0
 10
87.4282645775758
 20
127.6112620024043
 30
0.0
 10
87.4935886668242
 20
127.6015468851447
 30
0.0
  0
LINE
  5
27E
330
1F
100
AcDbEntity
  8
0
  6
Continuous
 62
     7
370
    25
100
AcDbLine
 10
91.8010439927
 20
130.912435121
 30
0.0
 11
91.7999161355
 21
130.9555062513
 31
0.0
  0
LINE
  5
27F
330
1F
100
AcDbEntity
  8
0
  6
Continuous
 62
     7
370
    25
100
AcDbLine
 10
91.8010439927
 20
127.4260960568
 30
0.0
 11
91.7999161355
 21
127.3830249265
 31
0.0
  0
ELLIPSE
  5
280
330
1F
100
AcDbEntity
  8
0
  6
Continuous
 62
     7
370
    25
100
AcDbEllipse
 10
55.583177558
 20
129.0069378643
 30
0.0
 11
36.18915845259203
 21
1.947628334984216
 31
0.0
210
0.0
220
0.0
230
1.0
 40
0.0007414247
 41
0.0282885576639685
 42
0.4911607830434358
  0
LINE
  5
281
330
1F
100
AcDbEntity
  8
0
  6
Continuous
 62
     7
370
    25
100
AcDbLine
 10
91.7578160812
 20
130.954545888
 30
0.0
 11
91.9802454636
 21
130.7378647768
 31
0.0
  0
LINE
  5
282
330
1F
100
AcDbEntity
  8
0
  6
Continuous
 62
     7
370
    25
100
AcDbLine
 10
91.9802454636
 20
127.600666401
 30
0.0
 11
91.7578160812
 21
127.3839852898
 31
0.0
  0
ELLIPSE
  5
283
330
1F
100
AcDbEntity
  8
0
  6
Continuous
 62
     7
370
    25
100
AcDbEllipse
 10
55.583177558
 20
129.3315933135
 30
0.0
 11
36.18915845257634
 21
-1.947628334983378
 31
0.0
210
0.0
220
0.0
230
1.0
 40
0.0007414247
 41
5.792024524149827
 42
6.254896749546782
  0
LINE
  5
284
330
1F
100
AcDbEntity
  8
0
  6
Continuous
 62
     7
370
    25
100
AcDbLine
 10
119.6020603355
 20
132.0342140011
 30
0.0
 11
120.2527138015
 21
132.2683091349
 31
0.0
  0
SPLINE
  5
285
330
1F
100
AcDbEntity
  8
0
  6
Continuous
 62
     7
370
    25
100
AcDbSpline
210
0.0
220
0.0
230
1.0
 70
     8
 71
     3
 72
    10
 73
     6
 74
     0
 42
0.00000001
 43
0.00000001
 40
0.0
 40
0.0
 40
0.0
 40
0.0
 40
0.2383396858856107
 40
0.571650633368965
 40
1.0
 40
1.0
 40
1.0
 40
1.0
 10
119.6041604954228
 20
132.0277880309694
 30
0.0
 10
119.3598942403228
 20
131.9531898285425
 30
0.0
 10
118.7740289073224
 20
131.7742682632687
 30
0.0
 10
117.7374741063168
 20
131.5379241510137
 30
0.0
 10
116.9427800107173
 20
131.4793407748282
 30
0.0
 10
116.4958528094343
 20
131.446394129691
 30
0.0
  0
SPLINE
  5
286
330
1F
100
AcDbEntity
  8
0
  6
Continuous
 62
     7
370
    25
100
AcDbSpline
210
0.0
220
0.0
230
1.0
 70
     8
 71
     3
 72
    11
 73
     7
 74
     0
 42
0.00000001
 43
0.00000001
 40
0.0
 40
0.0
 40
0.0
 40
0.0
 40
0.2506671725023492
 40
0.5010414677145718
 40
0.7508849997170933
 40
1.0
 40
1.0
 40
1.0
 40
1.0
 10
113.4274643042246
 20
131.5218435314118
 30
0.0
 10
113.9031523167852
 20
131.548718098067
 30
0.0
 10
114.8539725522723
 20
131.6024358313732
 30
0.0
 10
116.2546451694846
 20
131.8879012950271
 30
0.0
 10
117.6182109307364
 20
132.3094294416467
 30
0.0
 10
118.4708784772922
 20
132.7257865193437
 30
0.0
 10
118.8965897586057
 20
132.9336610957202
 30
0.0
  0
SPLINE
  5
287
330
1F
100
AcDbEntity
  8
0
  6
Continuous
 62
     7
370
    25
100
AcDbSpline
210
0.0
220
0.0
230
1.0
 70
     8
 71
     3
 72
     9
 73
     5
 74
     0
 42
0.00000001
 43
0.00000001
 40
0.0
 40
0.0
 40
0.0
 40
0.0
 40
0.501325902198991
 40
1.0
 40
1.0
 40
1.0
 40
1.0
 10
118.8965897291638
 20
132.9336611490844
 30
0.0
 10
119.1206654299979
 20
133.0587038065545
 30
0.0
 10
119.5676315649037
 20
133.308127698122
 30
0.0
 10
119.9816768445992
 20
133.6098958065432
 30
0.0
 10
120.1881505009002
 20
133.7603797457554
 30
0.0
  0
LINE
  5
288
330
1F
100
AcDbEntity
  8
0
  6
Continuous
 62
     7
370
    25
100
AcDbLine
 10
122.2539309609
 20
133.8751461851
 30
0.0
 11
120.187977226
 21
133.7603709776
 31
0.0
  0
SPLINE
  5
289
330
1F
100
AcDbEntity
  8
0
  6
Continuous
 62
     7
370
    25
100
AcDbSpline
210
0.0
220
0.0
230
1.0
 70
     8
 71
     3
 72
    14
 73
    10
 74
     0
 42
0.00000001
 43
0.00000001
 40
0.0
 40
0.0
 40
0.0
 40
0.0
 40
0.0829413618596714
 40
0.1664594845668882
 40
0.2437726390188662
 40
0.3161479456895724
 40
0.4353725718192331
 40
0.6486290670514194
 40
1.0
 40
1.0
 40
1.0
 40
1.0
 10
122.2539309480594
 20
133.875146180252
 30
0.0
 10
122.2997302493344
 20
133.8733309906696
 30
0.0
 10
122.3916473328354
 20
133.8696879889694
 30
0.0
 10
122.4421923653717
 20
133.7880268564818
 30
0.0
 10
122.4012874689315
 20
133.654743376197
 30
0.0
 10
122.265686422827
 20
133.4664169199593
 30
0.0
 10
121.9487781520822
 20
133.168149840297
 30
0.0
 10
121.271789541849
 20
132.7101226815117
 30
0.0
 10
120.6436227256356
 20
132.4377871528338
 30
0.0
 10
120.2527108619108
 20
132.268311169184
 30
0.0
  0
LINE
  5
28A
330
1F
100
AcDbEntity
  8
0
  6
Continuous
 62
     7
370
    25
100
AcDbLine
 10
120.187977226
 20
124.5781602002
 30
0.0
 11
122.2539309609
 21
124.4633849928
 31
0.0
  0
SPLINE
  5
28B
330
1F
100
AcDbEntity
  8
0
  6
Continuous
 62
     7
370
    25
100
AcDbSpline
210
0.0
220
0.0
230
1.0
 70
     8
 71
     3
 72
     9
 73
     5
 74
     0
 42
0.00000001
 43
0.00000001
 40
0.0
 40
0.0
 40
0.0
 40
0.0
 40
0.4986740982738612
 40
1.0
 40
1.0
 40
1.0
 40
1.0
 10
120.1881502996746
 20
124.5781512502388
 30
0.0
 10
119.9816766586048
 20
124.7286351865178
 30
0.0
 10
119.5676314098452
 20
125.0304032887712
 30
0.0
 10
119.1206653079003
 20
125.2798271803934
 30
0.0
 10
118.8965896238018
 20
125.404869837773
 30
0.0
  0
SPLINE
  5
28C
330
1F
100
AcDbEntity
  8
0
  6
Continuous
 62
     7
370
    25
100
AcDbSpline
210
0.0
220
0.0
230
1.0
 70
     8
 71
     3
 72
    11
 73
     7
 74
     0
 42
0.00000001
 43
0.00000001
 40
0.0
 40
0.0
 40
0.0
 40
0.0
 40
0.2491150002829079
 40
0.4989585322854286
 40
0.7493328274976518
 40
1.0
 40
1.0
 40
1.0
 40
1.0
 10
118.8965897586057
 20
125.4048700821092
 30
0.0
 10
118.4708784772923
 20
125.6127446584857
 30
0.0
 10
117.6182109307364
 20
126.0291017361827
 30
0.0
 10
116.2546451694846
 20
126.4506298828023
 30
0.0
 10
114.8539725522723
 20
126.7360953464562
 30
0.0
 10
113.9031523167852
 20
126.7898130797624
 30
0.0
 10
113.4274643042246
 20
126.8166876464176
 30
0.0
  0
SPLINE
  5
28D
330
1F
100
AcDbEntity
  8
0
  6
Continuous
 62
     7
370
    25
100
AcDbSpline
210
0.0
220
0.0
230
1.0
 70
     8
 71
     3
 72
    10
 73
     6
 74
     0
 42
0.00000001
 43
0.00000001
 40
0.0
 40
0.0
 40
0.0
 40
0.0
 40
0.428349366631063
 40
0.7616603141144169
 40
1.0
 40
1.0
 40
1.0
 40
1.0
 10
116.4958528094343
 20
126.8921370481383
 30
0.0
 10
116.9427800107173
 20
126.8591904030012
 30
0.0
 10
117.7374741063169
 20
126.8006070268157
 30
0.0
 10
118.7740289073224
 20
126.5642629145608
 30
0.0
 10
119.3598942403229
 20
126.385341349287
 30
0.0
 10
119.6041604954228
 20
126.3107431468601
 30
0.0
  0
LINE
  5
28E
330
1F
100
AcDbEntity
  8
0
  6
Continuous
 62
     7
370
    25
100
AcDbLine
 10
119.6020603354
 20
126.3043171765
 30
0.0
 11
120.2527138014
 21
126.0702220427
 31
0.0
  0
SPLINE
  5
28F
330
1F
100
AcDbEntity
  8
0
  6
Continuous
 62
     7
370
    25
100
AcDbSpline
210
0.0
220
0.0
230
1.0
 70
     8
 71
     3
 72
    15
 73
    11
 74
     0
 42
0.00000001
 43
0.00000001
 40
0.0
 40
0.0
 40
0.0
 40
0.0
 40
0.2091652517822448
 40
0.4176299509274911
 40
0.5931463878153098
 40
0.6923603779431111
 40
0.7731125739307029
 40
0.8543366880968446
 40
0.9261517123972134
 40
1.0
 40
1.0
 40
1.0
 40
1.0
 10
120.2527108618202
 20
126.0702200084139
 30
0.0
 10
120.4862950739156
 20
125.9725223759244
 30
0.0
 10
120.9526811595757
 20
125.7774543275051
 30
0.0
 10
121.5763313067549
 20
125.4281744741526
 30
0.0
 10
122.0361809360555
 20
125.0952842872092
 30
0.0
 10
122.2980653068253
 20
124.8336662011733
 30
0.0
 10
122.4185352873405
 20
124.6530721882594
 30
0.0
 10
122.4373285142502
 20
124.5309780249491
 30
0.0
 10
122.3762903129438
 20
124.4669280356307
 30
0.0
 10
122.2950951944324
 20
124.4645769495927
 30
0.0
 10
122.2539309480245
 20
124.4633849975793
 30
0.0
  0
SPLINE
  5
290
330
1F
100
AcDbEntity
  8
0
  6
Continuous
 62
     7
370
    25
100
AcDbSpline
210
0.0
220
0.0
230
1.0
 70
    24
 71
     3
 72
    11
 73
     7
 74
     0
 42
0.00000001
 43
0.00000001
 40
0.0
 40
0.0
 40
0.0
 40
0.0
 40
0.2499999999999989
 40
0.4999999999999996
 40
0.749999999999999
 40
1.0
 40
1.0
 40
1.0
 40
1.0
 10
129.0211142237246
 20
126.0641515351101
 30
0.0
 10
129.0228006942286
 20
126.1285552453052
 30
0.0
 10
129.0261736352364
 20
126.2573626656954
 30
0.0
 10
129.0304535321377
 20
126.4208053343057
 30
0.0
 10
129.0334956529515
 20
126.536979241179
 30
0.0
 10
129.0339640261741
 20
126.5548656929255
 30
0.0
 10
129.0341982127853
 20
126.5638089187988
 30
0.0
  0
LINE
  5
291
330
1F
100
AcDbEntity
  8
0
  6
Continuous
 62
     7
370
    25
100
AcDbLine
 10
119.6041604954
 20
126.3107431469
 30
0.0
 11
129.0211142237
 21
126.0641515351
 31
0.0
  0
LINE
  5
292
330
1F
100
AcDbEntity
  8
0
  6
Continuous
 62
     7
370
    25
100
AcDbLine
 10
129.0211142237
 20
132.2743796427
 30
0.0
 11
119.6041604954
 21
132.027788031
 31
0.0
  0
SPLINE
  5
293
330
1F
100
AcDbEntity
  8
0
  6
Continuous
 62
     7
370
    25
100
AcDbSpline
210
0.0
220
0.0
230
1.0
 70
    24
 71
     3
 72
    11
 73
     7
 74
     0
 42
0.00000001
 43
0.00000001
 40
0.0
 40
0.0
 40
0.0
 40
0.0
 40
0.2500000000000009
 40
0.5000000000000002
 40
0.7500000000000007
 40
0.9999999999999999
 40
0.9999999999999999
 40
0.9999999999999999
 40
0.9999999999999999
 10
129.0341982127853
 20
131.7747222590306
 30
0.0
 10
129.033964026174
 20
131.7836654849038
 30
0.0
 10
129.0334956529515
 20
131.8015519366504
 30
0.0
 10
129.0304535321377
 20
131.9177258435237
 30
0.0
 10
129.0261736352364
 20
132.081168512134
 30
0.0
 10
129.0228006942285
 20
132.2099759325241
 30
0.0
 10
129.0211142237246
 20
132.2743796427192
 30
0.0
  0
ELLIPSE
  5
294
330
1F
100
AcDbEntity
  8
0
  6
Continuous
 62
     7
370
    25
100
AcDbEllipse
 10
129.0341847575
 20
128.0651806761
 30
0.0
 11
2.497021557391548
 21
-0.1525991103465856
 31
2.131628207280301E-14
210
-8.504919643681511E-15
220
5.197564944335965E-16
230
0.9999999999999998
 40
0.7994627403
 41
4.75597905276978
 42
6.332003616895593
  0
SPLINE
  5
295
330
1F
100
AcDbEntity
  8
0
  6
Continuous
 62
     7
370
    25
100
AcDbSpline
210
0.0
220
0.0
230
1.0
 70
    24
 71
     3
 72
    11
 73
     7
 74
     0
 42
0.00000001
 43
0.00000001
 40
0.0
 40
0.0
 40
0.0
 40
0.0
 40
0.2500000000000007
 40
0.5000000000000022
 40
0.7500000000000036
 40
1.0
 40
1.0
 40
1.0
 40
1.0
 10
131.1341847575057
 20
128.0101794692145
 30
0.0
 10
131.1594446957099
 20
128.0101794692145
 30
0.0
 10
131.2099645721182
 20
128.0101794692145
 30
0.0
 10
131.3088231813186
 20
128.0101794692145
 30
0.0
 10
131.418210461142
 20
128.0101794692145
 30
0.0
 10
131.4955266587178
 20
128.0101794692145
 30
0.0
 10
131.5341847575057
 20
128.0101794692145
 30
0.0
  0
ELLIPSE
  5
296
330
1F
100
AcDbEntity
  8
0
  6
Continuous
 62
     7
370
    25
100
AcDbEllipse
 10
129.0341847575
 20
130.2733505017
 30
0.0
 11
2.497021557391548
 21
0.1525991103465856
 31
2.131628207280301E-14
210
-8.504919643681511E-15
220
-5.197564944335965E-16
230
0.9999999999999998
 40
0.7994627403
 41
6.234366997463598
 42
7.810391561589415
  0
SPLINE
  5
297
330
1F
100
AcDbEntity
  8
0
  6
Continuous
 62
     7
370
    25
100
AcDbSpline
210
0.0
220
0.0
230
1.0
 70
    24
 71
     3
 72
    11
 73
     7
 74
     0
 42
0.00000001
 43
0.00000001
 40
0.0
 40
0.0
 40
0.0
 40
0.0
 40
0.2500000000000002
 40
0.500000000000003
 40
0.7499999999999994
 40
1.0
 40
1.0
 40
1.0
 40
1.0
 10
131.5341847575057
 20
130.3283517086149
 30
0.0
 10
131.4955266587178
 20
130.3283517086149
 30
0.0
 10
131.418210461142
 20
130.3283517086149
 30
0.0
 10
131.3088231813186
 20
130.3283517086149
 30
0.0
 10
131.2099645721182
 20
130.3283517086149
 30
0.0
 10
131.1594446957099
 20
130.3283517086149
 30
0.0
 10
131.1341847575057
 20
130.3283517086149
 30
0.0
  0
LINE
  5
298
330
1F
100
AcDbEntity
  8
0
  6
Continuous
 62
     7
370
    25
100
AcDbLine
 10
131.671006432
 20
125.4425271647
 30
0.0
 11
120.2552771485
 21
126.0767343471
 31
0.0
  0
LINE
  5
299
330
1F
100
AcDbEntity
  8
0
  6
Continuous
 62
     7
370
    25
100
AcDbLine
 10
131.5878014026
 20
123.9448366349
 30
0.0
 11
131.671006432
 21
125.4425271647
 31
0.0
  0
LINE
  5
29A
330
1F
100
AcDbEntity
  8
0
  6
Continuous
 62
     7
370
    25
100
AcDbLine
 10
122.2541233911
 20
124.4633743022
 30
0.0
 11
131.5878014026
 21
123.9448366349
 31
0.0
  0
LINE
  5
29B
330
1F
100
AcDbEntity
  8
0
  6
Continuous
 62
     7
370
    25
100
AcDbLine
 10
131.5341847575
 20
128.0101794692
 30
0.0
 11
131.5341847575
 21
130.3283517086
 31
0.0
  0
LINE
  5
29C
330
1F
100
AcDbEntity
  8
0
  6
Continuous
 62
     7
370
    25
100
AcDbLine
 10
131.5878014026
 20
134.3936945429
 30
0.0
 11
122.2541233911
 21
133.8751568756
 31
0.0
  0
LINE
  5
29D
330
1F
100
AcDbEntity
  8
0
  6
Continuous
 62
     7
370
    25
100
AcDbLine
 10
131.671006432
 20
132.8960040131
 30
0.0
 11
131.5878014026
 21
134.3936945429
 31
0.0
  0
LINE
  5
29E
330
1F
100
AcDbEntity
  8
0
  6
Continuous
 62
     7
370
    25
100
AcDbLine
 10
120.2552771485
 20
132.2617968307
 30
0.0
 11
131.671006432
 21
132.8960040131
 31
0.0
  0
LINE
  5
29F
330
1F
100
AcDbEntity
  8
0
  6
Continuous
 62
     7
370
    25
100
AcDbLine
 10
132.0341847575
 20
125.8057054902
 30
0.0
 11
131.671006432
 21
125.4425271647
 31
0.0
  0
LINE
  5
2A0
330
1F
100
AcDbEntity
  8
0
  6
Continuous
 62
     7
370
    25
100
AcDbLine
 10
131.671006432
 20
132.8960040131
 30
0.0
 11
132.0341847575
 21
132.5328256877
 31
0.0
  0
LINE
  5
2A1
330
1F
100
AcDbEntity
  8
0
  6
Continuous
 62
     7
370
    25
100
AcDbLine
 10
132.0341847575
 20
125.8057054902
 30
0.0
 11
132.0341847575
 21
132.5328256877
 31
0.0
  0
LINE
  5
2A2
330
1F
100
AcDbEntity
  8
0
  6
Continuous
 62
     7
370
    25
100
AcDbLine
 10
132.0341847575
 20
133.2591823386
 30
0.0
 11
131.671006432
 21
132.8960040131
 31
0.0
  0
ARC
  5
2A3
330
1F
100
AcDbEntity
  8
0
  6
Continuous
 62
     7
370
    25
100
AcDbCircle
 10
131.671006432
 20
132.8960040131
 30
0.0
 40
1.500000000000034
100
AcDbArc
 50
75.9883675978
 51
93.1798301199
  0
LINE
  5
2A4
330
1F
100
AcDbEntity
  8
0
  6
Continuous
 62
     7
370
    25
100
AcDbLine
 10
132.0341847575
 20
133.2591823386
 30
0.0
 11
132.0341847575
 21
134.3513738987
 31
0.0
  0
LINE
  5
2A5
330
1F
100
AcDbEntity
  8
0
  6
Continuous
 62
     7
370
    25
100
AcDbLine
 10
132.0341847575
 20
132.5328256877
 30
0.0
 11
132.0341847575
 21
133.2591823386
 31
0.0
  0
LINE
  5
2A6
330
1F
100
AcDbEntity
  8
0
  6
Continuous
 62
     7
370
    25
100
AcDbLine
 10
131.671006432
 20
125.4425271647
 30
0.0
 11
132.0341847575
 21
125.0793488392
 31
0.0
  0
LINE
  5
2A7
330
1F
100
AcDbEntity
  8
0
  6
Continuous
 62
     7
370
    25
100
AcDbLine
 10
132.0341847575
 20
125.0793488392
 30
0.0
 11
132.0341847575
 21
125.8057054902
 31
0.0
  0
ARC
  5
2A8
330
1F
100
AcDbEntity
  8
0
  6
Continuous
 62
     7
370
    25
100
AcDbCircle
 10
131.671006432
 20
125.4425271647
 30
0.0
 40
1.500000000000025
100
AcDbArc
 50
266.8201698801
 51
284.0116324022
  0
LINE
  5
2A9
330
1F
100
AcDbEntity
  8
0
  6
Continuous
 62
     7
370
    25
100
AcDbLine
 10
132.0341847575
 20
123.9871572791
 30
0.0
 11
132.0341847575
 21
125.0793488392
 31
0.0
  0
SPLINE
  5
2AA
330
1F
100
AcDbEntity
  8
0
  6
Continuous
 62
     7
370
    25
100
AcDbSpline
210
0.0
220
0.0
230
1.0
 70
    24
 71
     3
 72
     9
 73
     5
 74
     0
 42
0.00000001
 43
0.00000001
 40
0.0
 40
0.0
 40
0.0
 40
0.0
 40
0.5389665913333133
 40
0.9999999999999999
 40
0.9999999999999999
 40
0.9999999999999999
 40
0.9999999999999999
 10
120.188151296305
 20
133.7603806481563
 30
0.0
 10
120.1422253545275
 20
133.7578292069464
 30
0.0
 10
120.0570142440135
 20
133.7530952563623
 30
0.0
 10
120.0695954361766
 20
133.7537942114825
 30
0.0
 10
120.0753957860846
 20
133.754116453144
 30
0.0
  0
SPLINE
  5
2AB
330
1F
100
AcDbEntity
  8
0
  6
Continuous
 62
     7
370
    25
100
AcDbSpline
210
0.0
220
0.0
230
1.0
 70
    24
 71
     3
 72
     9
 73
     5
 74
     0
 42
0.00000001
 43
0.00000001
 40
0.0
 40
0.0
 40
0.0
 40
0.0
 40
0.449000901028251
 40
1.0
 40
1.0
 40
1.0
 40
1.0
 10
120.08149385725
 20
124.5840759429539
 30
0.0
 10
120.0731083046582
 20
124.5845418069868
 30
0.0
 10
120.0544322784576
 20
124.585579363998
 30
0.0
 10
120.1406470402432
 20
124.5807896550099
 30
0.0
 10
120.188151296305
 20
124.5781505296731
 30
0.0
  0
SPLINE
  5
2AC
330
1F
100
AcDbEntity
  8
0
  6
Continuous
 62
     7
370
    25
100
AcDbSpline
210
0.0
220
0.0
230
1.0
 70
     8
 71
     3
 72
     9
 73
     5
 74
     0
 42
0.00000001
 43
0.00000001
 40
0.0
 40
0.0
 40
0.0
 40
0.0
 40
0.5407747560677784
 40
1.0
 40
1.0
 40
1.0
 40
1.0
 10
91.79991613548363
 20
130.9555062513313
 30
0.0
 10
91.79216009343618
 20
130.9555357517442
 30
0.0
 10
91.77781763021943
 20
130.9555903038706
 30
0.0
 10
91.76349912641149
 20
130.9549860587356
 30
0.0
 10
91.75692370800752
 20
130.9547085741162
 30
0.0
  0
LINE
  5
2AD
330
1F
100
AcDbEntity
  8
0
  6
Continuous
 62
     7
370
    25
100
AcDbLine
 10
91.7999161355
 20
127.3830249265
 30
0.0
 11
91.756923708
 21
127.3838226037
 31
0.0
  0
CIRCLE
  5
2AE
330
1F
100
AcDbEntity
  8
0
  6
Continuous
 62
     7
370
    25
100
AcDbCircle
 10
142.0341847575
 20
129.1692655889
 30
0.0
 40
7.558608890731335
  0
CIRCLE
  5
2AF
330
1F
100
AcDbEntity
  8
0
  6
Continuous
 62
     7
370
    25
100
AcDbCircle
 10
142.0341847575
 20
129.1692655889
 30
0.0
 40
8.0547478290882
  0
CIRCLE
  5
2B0
330
1F
100
AcDbEntity
  8
0
  6
Continuous
 62
     7
370
    25
100
AcDbCircle
 10
142.0341847575
 20
129.1692655889
 30
0.0
 40
5.5
  0
SPLINE
  5
2B1
330
1F
100
AcDbEntity
  8
0
  6
Continuous
 62
     7
370
    25
100
AcDbSpline
210
0.0
220
0.0
230
1.0
 70
     8
 71
     3
 72
    11
 73
     7
 74
     0
 42
0.00000001
 43
0.00000001
 40
0.0
 40
0.0
 40
0.0
 40
0.0
 40
0.2920574028183094
 40
0.5665622171831318
 40
0.8065682389915578
 40
1.0
 40
1.0
 40
1.0
 40
1.0
 10
133.9179791504523
 20
127.6894998831237
 30
0.0
 10
133.9496396867679
 20
127.5218993477001
 30
0.0
 10
134.0110579678285
 20
127.1967710337645
 30
0.0
 10
134.0909703270931
 20
126.7961673678983
 30
0.0
 10
134.1300691408206
 20
126.5383271718931
 30
0.0
 10
134.1146527778909
 20
126.4876817436115
 30
0.0
 10
134.1077728649068
 20
126.4650800352051
 30
0.0
  0
ARC
  5
2B2
330
1F
100
AcDbEntity
  8
0
  6
Continuous
 62
     7
370
    25
100
AcDbCircle
 10
142.0341847575
 20
129.1692655889
 30
0.0
 40
8.249999999999968
100
AcDbArc
 50
169.6671934996
 51
190.3328065004
  0
SPLINE
  5
2B3
330
1F
100
AcDbEntity
  8
0
  6
Continuous
 62
     7
370
    25
100
AcDbSpline
210
0.0
220
0.0
230
1.0
 70
     8
 71
     3
 72
    12
 73
     8
 74
     0
 42
0.00000001
 43
0.00000001
 40
0.0
 40
0.0
 40
0.0
 40
0.0
 40
0.1882084234719069
 40
0.3759134198095928
 40
0.5768476463044282
 40
0.8018243756979397
 40
1.0
 40
1.0
 40
1.0
 40
1.0
 10
134.1077728649101
 20
131.8734511426209
 30
0.0
 10
134.1146444562796
 20
131.8518479481083
 30
0.0
 10
134.1283692586216
 20
131.8086993441391
 30
0.0
 10
134.1025445586635
 20
131.6151594863565
 30
0.0
 10
134.0514647640219
 20
131.3403304283175
 30
0.0
 10
133.9842247623537
 20
131.0045902909481
 30
0.0
 10
133.9391085152334
 20
130.7624385909353
 30
0.0
 10
133.9179791504523
 20
130.6490312947057
 30
0.0
  0
ARC
  5
2B4
330
1F
100
AcDbEntity
  8
0
  6
Continuous
 62
     7
370
    25
100
AcDbCircle
 10
142.0341847575
 20
129.1692655889
 30
0.0
 40
8.986048245082019
100
AcDbArc
 50
200.7364869057
 51
159.2635130943
  0
LINE
  5
2B5
330
1F
100
AcDbEntity
  8
0
  6
Continuous
 62
     7
370
    25
100
AcDbLine
 10
134.1077728649
 20
126.4650800352
 30
0.0
 11
132.3781132132
 21
124.7354203835
 31
0.0
  0
LINE
  5
2B6
330
1F
100
AcDbEntity
  8
0
  6
Continuous
 62
     7
370
    25
100
AcDbLine
 10
132.3781132132
 20
133.6031107943
 30
0.0
 11
134.1077728649
 21
131.8734511426
 31
0.0
  0
ARC
  5
2B7
330
1F
100
AcDbEntity
  8
0
  6
Continuous
 62
     7
370
    25
100
AcDbCircle
 10
131.671006432
 20
132.8960040131
 30
0.0
 40
1.000000000000016
100
AcDbArc
 50
45.0
 51
68.7044833353
  0
ARC
  5
2B8
330
1F
100
AcDbEntity
  8
0
  6
Continuous
 62
     7
370
    25
100
AcDbCircle
 10
131.671006432
 20
125.4425271647
 30
0.0
 40
1.000000000000018
100
AcDbArc
 50
291.2955166647
 51
315.0
  0
LINE
  5
2B9
330
1F
100
AcDbEntity
  8
0
  6
Continuous
 62
     7
370
    25
100
AcDbLine
 10
126.0341847575
 20
117.4192655889
 30
0.0
 11
126.0341847575
 21
124.2533708929
 31
0.0
  0
LINE
  5
2BA
330
1F
100
AcDbEntity
  8
0
  6
Continuous
 62
     7
370
    25
100
AcDbLine
 10
126.0341847575
 20
134.0851602849
 30
0.0
 11
126.0341847575
 21
140.9192655889
 31
0.0
  0
LINE
  5
2BB
330
1F
100
AcDbEntity
  8
0
  6
Continuous
 62
     7
370
    25
100
AcDbLine
 10
126.2841847575
 20
141.1692655889
 30
0.0
 11
126.2841847575
 21
134.0990491738
 31
0.0
  0
LINE
  5
2BC
330
1F
100
AcDbEntity
  8
0
  6
Continuous
 62
     7
370
    25
100
AcDbLine
 10
126.2841847575
 20
124.2394820041
 30
0.0
 11
126.2841847575
 21
117.1692655889
 31
0.0
  0
LINE
  5
2BD
330
1F
100
AcDbEntity
  8
0
  6
Continuous
 62
     7
370
    25
100
AcDbLine
 10
119.5341847575
 20
124.4327833035
 30
0.0
 11
119.5341847575
 21
124.8988118608
 31
0.0
  0
LINE
  5
2BE
330
1F
100
AcDbEntity
  8
0
  6
Continuous
 62
     7
370
    25
100
AcDbLine
 10
119.5341847575
 20
133.4429939468
 30
0.0
 11
119.5341847575
 21
136.1692655889
 31
0.0
  0
LINE
  5
2BF
330
1F
100
AcDbEntity
  8
0
  6
Continuous
 62
     7
370
    25
100
AcDbLine
 10
119.5341847575
 20
122.1692655889
 30
0.0
 11
119.5341847575
 21
124.4327833035
 31
0.0
  0
LINE
  5
2C0
330
1F
100
AcDbEntity
  8
0
  6
Continuous
 62
     7
370
    25
100
AcDbLine
 10
110.5341847575
 20
124.4327833035
 30
0.0
 11
110.5341847575
 21
126.891936649
 31
0.0
  0
LINE
  5
2C1
330
1F
100
AcDbEntity
  8
0
  6
Continuous
 62
     7
370
    25
100
AcDbLine
 10
110.5341847575
 20
131.4465945289
 30
0.0
 11
110.5341847575
 21
136.1692655889
 31
0.0
  0
LINE
  5
2C2
330
1F
100
AcDbEntity
  8
0
  6
Continuous
 62
     7
370
    25
100
AcDbLine
 10
110.5341847575
 20
122.1692655889
 30
0.0
 11
110.5341847575
 21
124.4327833035
 31
0.0
  0
LINE
  5
2C3
330
1F
100
AcDbEntity
  8
0
  6
Continuous
 62
     7
370
    25
100
AcDbLine
 10
106.0341847575
 20
124.4327833035
 30
0.0
 11
106.0341847575
 21
127.009773296
 31
0.0
  0
LINE
  5
2C4
330
1F
100
AcDbEntity
  8
0
  6
Continuous
 62
     7
370
    25
100
AcDbLine
 10
106.0341847575
 20
131.3287578818
 30
0.0
 11
106.0341847575
 21
136.1692655889
 31
0.0
  0
LINE
  5
2C5
330
1F
100
AcDbEntity
  8
0
  6
Continuous
 62
     7
370
    25
100
AcDbLine
 10
106.0341847575
 20
122.1692655889
 30
0.0
 11
106.0341847575
 21
124.4327833035
 31
0.0
  0
LINE
  5
2C6
330
1F
100
AcDbEntity
  8
0
  6
Continuous
 62
     7
370
    25
100
AcDbLine
 10
115.0341847575
 20
124.4327833035
 30
0.0
 11
115.0341847575
 21
126.6565786815
 31
0.0
  0
LINE
  5
2C7
330
1F
100
AcDbEntity
  8
0
  6
Continuous
 62
     7
370
    25
100
AcDbLine
 10
115.0341847575
 20
131.6790467318
 30
0.0
 11
115.0341847575
 21
136.1692655889
 31
0.0
  0
LINE
  5
2C8
330
1F
100
AcDbEntity
  8
0
  6
Continuous
 62
     7
370
    25
100
AcDbLine
 10
115.0341847575
 20
122.1692655889
 30
0.0
 11
115.0341847575
 21
124.4327833035
 31
0.0
  0
LINE
  5
2C9
330
1F
100
AcDbEntity
  8
0
  6
Continuous
 62
     7
370
    25
100
AcDbLine
 10
101.5341847575
 20
124.4327833035
 30
0.0
 11
101.5341847575
 21
127.1276099431
 31
0.0
  0
LINE
  5
2CA
330
1F
100
AcDbEntity
  8
0
  6
Continuous
 62
     7
370
    25
100
AcDbLine
 10
101.5341847575
 20
131.2109212347
 30
0.0
 11
101.5341847575
 21
136.1692655889
 31
0.0
  0
LINE
  5
2CB
330
1F
100
AcDbEntity
  8
0
  6
Continuous
 62
     7
370
    25
100
AcDbLine
 10
101.5341847575
 20
122.1692655889
 30
0.0
 11
101.5341847575
 21
124.4327833035
 31
0.0
  0
LINE
  5
2CC
330
1F
100
AcDbEntity
  8
0
  6
Continuous
 62
     7
370
    25
100
AcDbLine
 10
97.0341847575
 20
125.2268637232
 30
0.0
 11
97.0341847575
 21
127.2454465902
 31
0.0
  0
LINE
  5
2CD
330
1F
100
AcDbEntity
  8
0
  6
Continuous
 62
     7
370
    25
100
AcDbLine
 10
97.0341847575
 20
131.0930845877
 30
0.0
 11
97.0341847575
 21
134.9957020447
 31
0.0
  0
LINE
  5
2CE
330
1F
100
AcDbEntity
  8
0
  6
Continuous
 62
     7
370
    25
100
AcDbLine
 10
97.0341847575
 20
123.3428291331
 30
0.0
 11
97.0341847575
 21
125.2268637232
 31
0.0
  0
LINE
  5
2CF
330
1F
100
AcDbEntity
  8
0
  6
Continuous
 62
     7
370
    25
100
AcDbLine
 10
154.5341847575
 20
141.6692655889
 30
0.0
 11
154.5341847575
 21
129.1692655889
 31
0.0
  0
SPLINE
  5
2D0
330
1F
100
AcDbEntity
  8
0
  6
Continuous
 62
     7
370
    25
100
AcDbSpline
210
0.0
220
0.0
230
1.0
 70
     8
 71
     3
 72
    12
 73
     8
 74
     0
 42
0.00000001
 43
0.00000001
 40
0.0
 40
0.0
 40
0.0
 40
0.0
 40
0.2500000000000001
 40
0.2500000000000001
 40
0.5000000000000001
 40
0.5000000000000001
 40
1.0
 40
1.0
 40
1.0
 40
1.0
 10
152.9464715172342
 20
137.9049681937428
 30
0.0
 10
153.1799224920857
 20
137.1990923461883
 30
0.0
 10
153.3967693612265
 20
136.4863906516286
 30
0.0
 10
153.7857530124302
 20
135.0426072172778
 30
0.0
 10
153.9561168125986
 20
134.317599641846
 30
0.0
 10
154.3767686459374
 20
132.1319966753001
 30
0.0
 10
154.5341847575057
 20
130.6601111045976
 30
0.0
 10
154.5341847575057
 20
129.1692655889147
 30
0.0
  0
LINE
  5
2D1
330
1F
100
AcDbEntity
  8
0
  6
Continuous
 62
     7
370
    25
100
AcDbLine
 10
152.9464715172
 20
141.6692655889
 30
0.0
 11
152.9464715172
 21
137.9049681937
 31
0.0
  0
SPLINE
  5
2D2
330
1F
100
AcDbEntity
  8
0
  6
Continuous
 62
     7
370
    25
100
AcDbSpline
210
0.0
220
0.0
230
1.0
 70
    24
 71
     3
 72
    12
 73
     8
 74
     0
 42
0.00000001
 43
0.00000001
 40
0.0
 40
0.0
 40
0.0
 40
0.0
 40
0.25
 40
0.25
 40
0.5
 40
0.5
 40
1.0
 40
1.0
 40
1.0
 40
1.0
 10
154.5341847575057
 20
141.6692655889147
 30
0.0
 10
154.5341847575057
 20
141.6692655889147
 30
0.0
 10
154.4948352319549
 20
141.6692655889147
 30
0.0
 10
154.3441757225813
 20
141.6692655889147
 30
0.0
 10
154.2332675398765
 20
141.6692655889147
 30
0.0
 10
153.8120185148817
 20
141.6692655889147
 30
0.0
 10
153.4143260262693
 20
141.6692655889147
 30
0.0
 10
152.9464715172342
 20
141.6692655889147
 30
0.0
  0
LINE
  5
2D3
330
1F
100
AcDbEntity
  8
0
  6
Continuous
 62
     7
370
    25
100
AcDbLine
 10
130.6218979978
 20
137.9049681937
 30
0.0
 11
130.6218979978
 21
141.6692655889
 31
0.0
  0
SPLINE
  5
2D4
330
1F
100
AcDbEntity
  8
0
  6
Continuous
 62
     7
370
    25
100
AcDbSpline
210
0.0
220
0.0
230
1.0
 70
     8
 71
     3
 72
     9
 73
     5
 74
     0
 42
0.00000001
 43
0.00000001
 40
0.0
 40
0.0
 40
0.0
 40
0.0
 40
0.4287809552668792
 40
0.9999999999999999
 40
0.9999999999999999
 40
0.9999999999999999
 40
0.9999999999999999
 10
129.6668296519564
 20
134.2869738901368
 30
0.0
 10
129.7693762671126
 20
134.8128315794831
 30
0.0
 10
130.0085347789278
 20
136.039233272205
 30
0.0
 10
130.3989088778833
 20
137.2266774594378
 30
0.0
 10
130.6218979977772
 20
137.9049681937428
 30
0.0
  0
SPLINE
  5
2D5
330
1F
100
AcDbEntity
  8
0
  6
Continuous
 62
     7
370
    25
100
AcDbSpline
210
0.0
220
0.0
230
1.0
 70
    24
 71
     3
 72
    12
 73
     8
 74
     0
 42
0.00000001
 43
0.00000001
 40
0.0
 40
0.0
 40
0.0
 40
0.0
 40
0.25
 40
0.25
 40
0.5
 40
0.5
 40
1.0
 40
1.0
 40
1.0
 40
1.0
 10
129.0341847575057
 20
141.6692655889147
 30
0.0
 10
129.0341847575057
 20
141.6692655889147
 30
0.0
 10
129.0735778428753
 20
141.6692655889147
 30
0.0
 10
129.2242092456407
 20
141.6692655889147
 30
0.0
 10
129.3350896748125
 20
141.6692655889147
 30
0.0
 10
129.7562770807769
 20
141.6692655889147
 30
0.0
 10
130.1539648262566
 20
141.6692655889147
 30
0.0
 10
130.6218979977772
 20
141.6692655889147
 30
0.0
  0
LINE
  5
2D6
330
1F
100
AcDbEntity
  8
0
  6
Continuous
 62
     7
370
    25
100
AcDbLine
 10
129.0341847575
 20
134.2518269516
 30
0.0
 11
129.0341847575
 21
141.6692655889
 31
0.0
  0
LINE
  5
2D7
330
1F
100
AcDbEntity
  8
0
  6
Continuous
 62
     7
370
    25
100
AcDbLine
 10
152.9464715172
 20
137.9049681937
 30
0.0
 11
144.1732044954
 21
137.9049681937
 31
0.0
  0
LINE
  5
2D8
330
1F
100
AcDbEntity
  8
0
  6
Continuous
 62
     7
370
    25
100
AcDbLine
 10
139.8951650197
 20
137.9049681937
 30
0.0
 11
130.6218979978
 21
137.9049681937
 31
0.0
  0
LINE
  5
2D9
330
1F
100
AcDbEntity
  8
0
  6
Continuous
 62
     7
370
    25
100
AcDbLine
 10
152.9464715172
 20
141.6692655889
 30
0.0
 11
130.6218979978
 21
141.6692655889
 31
0.0
  0
SPLINE
  5
2DA
330
1F
100
AcDbEntity
  8
0
  6
Continuous
 62
     7
370
    25
100
AcDbSpline
210
0.0
220
0.0
230
1.0
 70
     8
 71
     3
 72
    12
 73
     8
 74
     0
 42
0.00000001
 43
0.00000001
 40
0.0
 40
0.0
 40
0.0
 40
0.0
 40
0.2500000000000001
 40
0.2500000000000001
 40
0.5000000000000001
 40
0.5000000000000001
 40
1.0
 40
1.0
 40
1.0
 40
1.0
 10
154.5341847575057
 20
129.1692655889147
 30
0.0
 10
154.5341847575057
 20
128.4244382404659
 30
0.0
 10
154.4948352319549
 20
127.6726137628842
 30
0.0
 10
154.3441757225813
 20
126.1914509615578
 30
0.0
 10
154.2332675398765
 20
125.4583320511093
 30
0.0
 10
153.8120185148817
 20
123.2775431171416
 30
0.0
 10
153.4143260262693
 20
121.8481948925953
 30
0.0
 10
152.9464715172342
 20
120.4335629840866
 30
0.0
  0
LINE
  5
2DB
330
1F
100
AcDbEntity
  8
0
  6
Continuous
 62
     7
370
    25
100
AcDbLine
 10
152.9464715172
 20
120.4335629841
 30
0.0
 11
144.1732044954
 21
120.4335629841
 31
0.0
  0
LINE
  5
2DC
330
1F
100
AcDbEntity
  8
0
  6
Continuous
 62
     7
370
    25
100
AcDbLine
 10
139.8951650197
 20
120.4335629841
 30
0.0
 11
130.6218979978
 21
120.4335629841
 31
0.0
  0
SPLINE
  5
2DD
330
1F
100
AcDbEntity
  8
0
  6
Continuous
 62
     7
370
    25
100
AcDbSpline
210
0.0
220
0.0
230
1.0
 70
     8
 71
     3
 72
     9
 73
     5
 74
     0
 42
0.00000001
 43
0.00000001
 40
0.0
 40
0.0
 40
0.0
 40
0.0
 40
0.5268904349897643
 40
0.9999999999999999
 40
0.9999999999999999
 40
0.9999999999999999
 40
0.9999999999999999
 10
130.6218979977772
 20
120.4335629840866
 30
0.0
 10
130.4201047069162
 20
121.0622931105924
 30
0.0
 10
130.037115611916
 20
122.2555774914676
 30
0.0
 10
129.7546208200644
 20
123.4764829873797
 30
0.0
 10
129.6209698319738
 20
124.0541050554692
 30
0.0
  0
SPLINE
  5
2DE
330
1F
100
AcDbEntity
  8
0
  6
Continuous
 62
     7
370
    25
100
AcDbSpline
210
0.0
220
0.0
230
1.0
 70
    24
 71
     3
 72
    12
 73
     8
 74
     0
 42
0.00000001
 43
0.00000001
 40
0.0
 40
0.0
 40
0.0
 40
0.0
 40
0.2500000000000001
 40
0.2500000000000001
 40
0.5
 40
0.5
 40
1.0
 40
1.0
 40
1.0
 40
1.0
 10
154.5341847575057
 20
116.6692655889147
 30
0.0
 10
154.5341847575057
 20
116.6692655889147
 30
0.0
 10
154.4948352319549
 20
116.6692655889147
 30
0.0
 10
154.3441757225813
 20
116.6692655889147
 30
0.0
 10
154.2332675398765
 20
116.6692655889147
 30
0.0
 10
153.8120185148817
 20
116.6692655889147
 30
0.0
 10
153.4143260262693
 20
116.6692655889147
 30
0.0
 10
152.9464715172342
 20
116.6692655889147
 30
0.0
  0
LINE
  5
2DF
330
1F
100
AcDbEntity
  8
0
  6
Continuous
 62
     7
370
    25
100
AcDbLine
 10
152.9464715172
 20
120.4335629841
 30
0.0
 11
152.9464715172
 21
116.6692655889
 31
0.0
  0
LINE
  5
2E0
330
1F
100
AcDbEntity
  8
0
  6
Continuous
 62
     7
370
    25
100
AcDbLine
 10
154.5341847575
 20
129.1692655889
 30
0.0
 11
154.5341847575
 21
116.6692655889
 31
0.0
  0
LINE
  5
2E1
330
1F
100
AcDbEntity
  8
0
  6
Continuous
 62
     7
370
    25
100
AcDbLine
 10
130.6218979978
 20
116.6692655889
 30
0.0
 11
130.6218979978
 21
120.4335629841
 31
0.0
  0
SPLINE
  5
2E2
330
1F
100
AcDbEntity
  8
0
  6
Continuous
 62
     7
370
    25
100
AcDbSpline
210
0.0
220
0.0
230
1.0
 70
    24
 71
     3
 72
    12
 73
     8
 74
     0
 42
0.00000001
 43
0.00000001
 40
0.0
 40
0.0
 40
0.0
 40
0.0
 40
0.2500000000000001
 40
0.2500000000000001
 40
0.5000000000000001
 40
0.5000000000000001
 40
1.0
 40
1.0
 40
1.0
 40
1.0
 10
129.0341847575057
 20
116.6692655889147
 30
0.0
 10
129.0341847575057
 20
116.6692655889147
 30
0.0
 10
129.0735778428753
 20
116.6692655889147
 30
0.0
 10
129.2242092456407
 20
116.6692655889147
 30
0.0
 10
129.3350896748125
 20
116.6692655889147
 30
0.0
 10
129.7562770807769
 20
116.6692655889147
 30
0.0
 10
130.1539648262566
 20
116.6692655889147
 30
0.0
 10
130.6218979977772
 20
116.6692655889147
 30
0.0
  0
LINE
  5
2E3
330
1F
100
AcDbEntity
  8
0
  6
Continuous
 62
     7
370
    25
100
AcDbLine
 10
129.0341847575
 20
116.6692655889
 30
0.0
 11
129.0341847575
 21
124.0867042263
 31
0.0
  0
LINE
  5
2E4
330
1F
100
AcDbEntity
  8
0
  6
Continuous
 62
     7
370
    25
100
AcDbLine
 10
152.9464715172
 20
116.6692655889
 30
0.0
 11
130.6218979978
 21
116.6692655889
 31
0.0
  0
LINE
  5
2E5
330
1F
100
AcDbEntity
  8
0
  6
Continuous
 62
     7
370
    25
100
AcDbLine
 10
166.8377934846
 20
118.8625033616
 30
0.0
 11
166.8377934846
 21
139.4760278162
 31
0.0
  0
LINE
  5
2E6
330
1F
100
AcDbEntity
  8
0
  6
Continuous
 62
     7
370
    25
100
AcDbLine
 10
169.5341847575
 20
137.9192655889
 30
0.0
 11
169.5341847575
 21
120.4192655889
 31
0.0
  0
LINE
  5
2E7
330
1F
100
AcDbEntity
  8
0
  6
Continuous
 62
     7
370
    25
100
AcDbLine
 10
118.8835134543
 20
125.3811688863
 30
0.0
 11
118.8965897586
 21
125.4048700821
 31
0.0
  0
ARC
  5
2E8
330
1F
100
AcDbEntity
  8
0
  6
Continuous
 62
     7
370
    25
100
AcDbCircle
 10
86.9700626193
 20
128.1882707699
 30
0.0
 40
0.263434467851268
100
AcDbArc
 50
154.8368907458
 51
203.8328861643
  0
ARC
  5
2E9
330
1F
100
AcDbEntity
  8
0
  6
Continuous
 62
     7
370
    25
100
AcDbCircle
 10
86.9698061647
 20
130.1502084823
 30
0.0
 40
0.2631802791688144
100
AcDbArc
 50
155.8684497842
 51
205.1766169394
  0
LINE
  5
2EA
330
1F
100
AcDbEntity
  8
0
  6
Continuous
 62
     7
370
    25
100
AcDbLine
 10
86.586971162
 20
129.3307111832
 30
0.0
 11
86.5341848462
 21
129.3307111832
 31
0.0
  0
LINE
  5
2EB
330
1F
100
AcDbEntity
  8
0
  6
Continuous
 62
     7
370
    25
100
AcDbLine
 10
86.586971162
 20
129.0078199946
 30
0.0
 11
86.5341848248
 21
129.0078199946
 31
0.0
  0
LINE
  5
2EC
330
1F
100
AcDbEntity
  8
0
  6
Continuous
 62
     7
370
    25
100
AcDbLine
 10
132.3781132132
 20
124.7354203835
 30
0.0
 11
132.0341847575
 21
125.0793488392
 31
0.0
  0
LINE
  5
2ED
330
1F
100
AcDbEntity
  8
0
  6
Continuous
 62
     7
370
    25
100
AcDbLine
 10
132.0341847575
 20
125.8057054902
 30
0.0
 11
133.9179791505
 21
127.6894998831
 31
0.0
  0
LINE
  5
2EE
330
1F
100
AcDbEntity
  8
0
  6
Continuous
 62
     7
370
    25
100
AcDbLine
 10
133.9179791505
 20
130.6490312947
 30
0.0
 11
132.0341847575
 21
132.5328256877
 31
0.0
  0
LINE
  5
2EF
330
1F
100
AcDbEntity
  8
0
  6
Continuous
 62
     7
370
    25
100
AcDbLine
 10
132.3781132132
 20
133.6031107943
 30
0.0
 11
132.0341847575
 21
133.2591823386
 31
0.0
  0
LINE
  5
2F0
330
1F
100
AcDbEntity
  8
0
  6
Continuous
 62
     7
370
    25
100
AcDbLine
 10
97.4519852639
 20
124.8931467698
 30
0.0
 11
97.4519852639
 21
122.8496321712
 31
0.0
  0
LINE
  5
2F1
330
1F
100
AcDbEntity
  8
0
  6
Continuous
 62
     7
370
    25
100
AcDbLine
 10
97.4519852639
 20
135.4888990066
 30
0.0
 11
97.4519852639
 21
131.104025079
 31
0.0
  0
LINE
  5
2F2
330
1F
100
AcDbEntity
  8
0
  6
Continuous
 62
     7
370
    25
100
AcDbLine
 10
97.4519852639
 20
127.2345060989
 30
0.0
 11
97.4519852639
 21
124.8931467698
 31
0.0
  0
INSERT
  5
2FE
330
1F
100
AcDbEntity
  8
0
  6
Continuous
 62
     7
370
    18
100
AcDbBlockReference
  2
SW_CENTERMARKSYMBOL_1
 10
142.0341847575
 20
129.1692655889
 30
0.0
  0
LINE
  5
2FF
330
1F
100
AcDbEntity
  8
0
  6
Continuous
 62
     7
370
    18
100
AcDbLine
 10
155.0341847575
 20
119.4006405889
 30
0.0
 11
168.4986606388
 21
119.8214054602
 31
0.0
  0
LINE
  5
300
330
1F
100
AcDbEntity
  8
0
  6
Continuous
 62
     7
370
    18
100
AcDbLine
 10
168.4986606388
 20
138.5171257176
 30
0.0
 11
155.0341847575
 21
138.9378905889
 31
0.0
  0
ENDSEC
  0
SECTION
  2
OBJECTS
  0
DICTIONARY
  5
C
330
0
100
AcDbDictionary
281
     1
  3
ACAD_GROUP
350
D
  3
ACAD_LAYOUT
350
1A
  3
ACAD_MLINESTYLE
350
17
  3
ACAD_PLOTSETTINGS
350
19
  3
ACAD_PLOTSTYLENAME
350
E
  3
ACAD_SCALELIST
350
47
  3
DWGPROPS
350
301
  0
DICTIONARY
  5
D
102
{ACAD_REACTORS
330
C
102
}
330
C
100
AcDbDictionary
281
     1
  0
DICTIONARY
  5
1A
102
{ACAD_REACTORS
330
C
102
}
330
C
100
AcDbDictionary
281
     1
  3
Layout1
350
1E
  3
Layout2
350
26
  3
Model
350
22
  0
DICTIONARY
  5
17
102
{ACAD_REACTORS
330
C
102
}
330
C
100
AcDbDictionary
281
     1
  3
Standard
350
18
  0
DICTIONARY
  5
19
102
{ACAD_REACTORS
330
C
102
}
330
C
100
AcDbDictionary
281
     1
  0
ACDBDICTIONARYWDFLT
  5
E
102
{ACAD_REACTORS
330
C
102
}
330
C
100
AcDbDictionary
281
     1
  3
Normal
350
F
100
AcDbDictionaryWithDefault
340
F
  0
DICTIONARY
  5
47
102
{ACAD_REACTORS
330
C
102
}
330
C
100
AcDbDictionary
281
     1
  3
A0
350
48
  3
A1
350
49
  3
A2
350
4A
  3
A3
350
4B
  3
A4
350
4C
  3
A5
350
4D
  3
A6
350
4E
  3
A7
350
4F
  3
A8
350
50
  3
A9
350
51
  3
B0
350
52
  3
B1
350
53
  3
B2
350
54
  3
B3
350
55
  3
B4
350
56
  3
B5
350
57
  3
B6
350
58
  0
XRECORD
  5
301
102
{ACAD_REACTORS
330
C
102
}
330
C
100
AcDbXrecord
280
     1
  1
DWGPROPS COOKIE
  2

  3

  4

  6

  7

  8
user28
  9

300
=
301
=
302
=
303
=
304
=
305
=
306
=
307
=
308
=
309
=
 40
0.0
 41
2460299.030616412
 42
2460299.030618032
  1

 90
        0
  0
LAYOUT
  5
1E
102
{ACAD_REACTORS
330
1A
102
}
330
1A
100
AcDbPlotSettings
  1

  2
none_device
  4

  6

 40
0.0
 41
0.0
 42
0.0
 43
0.0
 44
0.0
 45
0.0
 46
0.0
 47
0.0
 48
0.0
 49
0.0
140
0.0
141
0.0
142
1.0
143
1.0
 70
   688
 72
     1
 73
     0
 74
     5
  7

 75
    16
147
1.0
148
0.0
149
0.0
100
AcDbLayout
  1
Layout1
 70
     1
 71
     1
 10
0.0
 20
0.0
 11
420.0
 21
297.0
 12
0.0
 22
0.0
 32
0.0
 14
1.0000000000E+20
 24
1.0000000000E+20
 34
1.0000000000E+20
 15
-1.0000000000E+20
 25
-1.0000000000E+20
 35
-1.0000000000E+20
146
0.0
 13
0.0
 23
0.0
 33
0.0
 16
1.0
 26
0.0
 36
0.0
 17
0.0
 27
1.0
 37
0.0
 76
     0
330
1B
  0
LAYOUT
  5
26
102
{ACAD_REACTORS
330
1A
102
}
330
1A
100
AcDbPlotSettings
  1

  2
none_device
  4

  6

 40
0.0
 41
0.0
 42
0.0
 43
0.0
 44
0.0
 45
0.0
 46
0.0
 47
0.0
 48
0.0
 49
0.0
140
0.0
141
0.0
142
1.0
143
1.0
 70
   688
 72
     1
 73
     0
 74
     5
  7

 75
    16
147
1.0
148
0.0
149
0.0
100
AcDbLayout
  1
Layout2
 70
     1
 71
     2
 10
0.0
 20
0.0
 11
0.0
 21
0.0
 12
0.0
 22
0.0
 32
0.0
 14
0.0
 24
0.0
 34
0.0
 15
0.0
 25
0.0
 35
0.0
146
0.0
 13
0.0
 23
0.0
 33
0.0
 16
1.0
 26
0.0
 36
0.0
 17
0.0
 27
1.0
 37
0.0
 76
     0
330
23
  0
LAYOUT
  5
22
102
{ACAD_REACTORS
330
1A
102
}
330
1A
100
AcDbPlotSettings
  1

  2
none_device
  4
Letter_(8.50_x_11.00_Inches)
  6

 40
6.35
 41
6.35
 42
6.35000508
 43
6.35000508
 44
215.9
 45
279.4
 46
0.0
 47
0.0
 48
0.0
 49
0.0
140
0.0
141
0.0
142
1.0
143
1.0
 70
  1712
 72
     1
 73
     0
 74
     0
  7

 75
     0
147
1.0
148
0.0
149
0.0
100
AcDbLayout
  1
Model
 70
     1
 71
     0
 10
0.0
 20
0.0
 11
431.8
 21
279.4
 12
0.0
 22
0.0
 32
0.0
 14
0.0
 24
0.0
 34
0.0
 15
431.8
 25
279.4
 35
0.0
146
0.0
 13
0.0
 23
0.0
 33
0.0
 16
1.0
 26
0.0
 36
0.0
 17
0.0
 27
1.0
 37
0.0
 76
     0
330
1F
331
29
  0
MLINESTYLE
  5
18
102
{ACAD_REACTORS
330
17
102
}
330
17
100
AcDbMlineStyle
  2
Standard
 70
     0
  3

 62
   256
 51
90.0
 52
90.0
 71
     2
 49
0.5
 62
   256
  6
BYLAYER
 49
-0.5
 62
   256
  6
BYLAYER
  0
ACDBPLACEHOLDER
  5
F
102
{ACAD_REACTORS
330
E
102
}
330
E
  0
SCALE
  5
48
102
{ACAD_REACTORS
330
47
102
}
330
47
100
AcDbScale
 70
     0
300
1:1
140
1.0
141
1.0
290
     1
  0
SCALE
  5
49
102
{ACAD_REACTORS
330
47
102
}
330
47
100
AcDbScale
 70
     0
300
1:2
140
1.0
141
2.0
290
     0
  0
SCALE
  5
4A
102
{ACAD_REACTORS
330
47
102
}
330
47
100
AcDbScale
 70
     0
300
1:4
140
1.0
141
4.0
290
     0
  0
SCALE
  5
4B
102
{ACAD_REACTORS
330
47
102
}
330
47
100
AcDbScale
 70
     0
300
1:5
140
1.0
141
5.0
290
     0
  0
SCALE
  5
4C
102
{ACAD_REACTORS
330
47
102
}
330
47
100
AcDbScale
 70
     0
300
1:8
140
1.0
141
8.0
290
     0
  0
SCALE
  5
4D
102
{ACAD_REACTORS
330
47
102
}
330
47
100
AcDbScale
 70
     0
300
1:10
140
1.0
141
10.0
290
     0
  0
SCALE
  5
4E
102
{ACAD_REACTORS
330
47
102
}
330
47
100
AcDbScale
 70
     0
300
1:16
140
1.0
141
16.0
290
     0
  0
SCALE
  5
4F
102
{ACAD_REACTORS
330
47
102
}
330
47
100
AcDbScale
 70
     0
300
1:20
140
1.0
141
20.0
290
     0
  0
SCALE
  5
50
102
{ACAD_REACTORS
330
47
102
}
330
47
100
AcDbScale
 70
     0
300
1:30
140
1.0
141
30.0
290
     0
  0
SCALE
  5
51
102
{ACAD_REACTORS
330
47
102
}
330
47
100
AcDbScale
 70
     0
300
1:40
140
1.0
141
40.0
290
     0
  0
SCALE
  5
52
102
{ACAD_REACTORS
330
47
102
}
330
47
100
AcDbScale
 70
     0
300
1:50
140
1.0
141
50.0
290
     0
  0
SCALE
  5
53
102
{ACAD_REACTORS
330
47
102
}
330
47
100
AcDbScale
 70
     0
300
1:100
140
1.0
141
100.0
290
     0
  0
SCALE
  5
54
102
{ACAD_REACTORS
330
47
102
}
330
47
100
AcDbScale
 70
     0
300
2:1
140
2.0
141
1.0
290
     0
  0
SCALE
  5
55
102
{ACAD_REACTORS
330
47
102
}
330
47
100
AcDbScale
 70
     0
300
4:1
140
4.0
141
1.0
290
     0
  0
SCALE
  5
56
102
{ACAD_REACTORS
330
47
102
}
330
47
100
AcDbScale
 70
     0
300
8:1
140
8.0
141
1.0
290
     0
  0
SCALE
  5
57
102
{ACAD_REACTORS
330
47
102
}
330
47
100
AcDbScale
 70
     0
300
10:1
140
10.0
141
1.0
290
     0
  0
SCALE
  5
58
102
{ACAD_REACTORS
330
47
102
}
330
47
100
AcDbScale
 70
     0
300
100:1
140
100.0
141
1.0
290
     0
  0
ENDSEC
  0
EOF
