  0
SECTION
  2
HEADER
  9
$ACADVER
  1
AC1015
  9
$ACADMAINTVER
 70
     6
  9
$DWGCODEPAGE
  3
DOS932
  9
$INSBASE
 10
0.0
 20
0.0
 30
0.0
  9
$EXTMIN
 10
0.0
 20
0.0
 30
0.0
  9
$EXTMAX
 10
297.0
 20
210.0
 30
0.0
  9
$LIMMIN
 10
0.0
 20
0.0
  9
$LIMMAX
 10
297.0
 20
210.0
  9
$ORTHOMODE
 70
     0
  9
$REGENMODE
 70
     1
  9
$FILLMODE
 70
     1
  9
$QTEXTMODE
 70
     0
  9
$MIRRTEXT
 70
     1
  9
$LTSCALE
 40
1.0
  9
$ATTMODE
 70
     1
  9
$TEXTSIZE
 40
3.5277777778
  9
$TRACEWID
 40
1.0
  9
$TEXTSTYLE
  7
Standard
  9
$CLAYER
  8
0
  9
$CELTYPE
  6
ByLayer
  9
$CECOLOR
 62
   256
  9
$CELTSCALE
 40
1.0
  9
$DISPSILH
 70
     0
  9
$DIMSCALE
 40
1.0
  9
$DIMASZ
 40
2.728515625
  9
$DIMEXO
 40
1.0
  9
$DIMDLI
 40
3.75
  9
$DIMRND
 40
0.0
  9
$DIMDLE
 40
0.0
  9
$DIMEXE
 40
1.0
  9
$DIMTP
 40
0.0
  9
$DIMTM
 40
0.0
  9
$DIMTXT
 40
3.5277777778
  9
$DIMCEN
 40
2.5
  9
$DIMTSZ
 40
0.0
  9
$DIMTOL
 70
     0
  9
$DIMLIM
 70
     0
  9
$DIMTIH
 70
     1
  9
$DIMTOH
 70
     1
  9
$DIMSE1
 70
     0
  9
$DIMSE2
 70
     0
  9
$DIMTAD
 70
     1
  9
$DIMZIN
 70
     0
  9
$DIMBLK
  1

  9
$DIMASO
 70
     1
  9
$DIMSHO
 70
     1
  9
$DIMPOST
  1

  9
$DIMAPOST
  1

  9
$DIMALT
 70
     0
  9
$DIMALTD
 70
     3
  9
$DIMALTF
 40
0.0393700787
  9
$DIMLFAC
 40
1.0
  9
$DIMTOFL
 70
     1
  9
$DIMTVP
 40
0.0
  9
$DIMTIX
 70
     0
  9
$DIMSOXD
 70
     0
  9
$DIMSAH
 70
     0
  9
$DIMBLK1
  1

  9
$DIMBLK2
  1

  9
$DIMSTYLE
  2
ISO-25
  9
$DIMCLRD
 70
     0
  9
$DIMCLRE
 70
     0
  9
$DIMCLRT
 70
     0
  9
$DIMTFAC
 40
1.0
  9
$DIMGAP
 40
1.524
  9
$DIMJUST
 70
     0
  9
$DIMSD1
 70
     0
  9
$DIMSD2
 70
     0
  9
$DIMTOLJ
 70
     0
  9
$DIMTZIN
 70
     0
  9
$DIMALTZ
 70
     0
  9
$DIMALTTZ
 70
     0
  9
$DIMUPT
 70
     0
  9
$DIMDEC
 70
     2
  9
$DIMTDEC
 70
     2
  9
$DIMALTU
 70
     2
  9
$DIMALTTD
 70
     3
  9
$DIMTXSTY
  7
Standard
  9
$DIMAUNIT
 70
     0
  9
$DIMADEC
 70
     2
  9
$DIMALTRND
 40
0.0
  9
$DIMAZIN
 70
     0
  9
$DIMDSEP
 70
    44
  9
$DIMATFIT
 70
     3
  9
$DIMFRAC
 70
     0
  9
$DIMLDRBLK
  1

  9
$DIMLUNIT
 70
     2
  9
$DIMLWD
 70
    -2
  9
$DIMLWE
 70
    -2
  9
$DIMTMOVE
 70
     0
  9
$LUNITS
 70
     2
  9
$LUPREC
 70
     2
  9
$SKETCHINC
 40
1.0
  9
$FILLETRAD
 40
0.0
  9
$AUNITS
 70
     0
  9
$AUPREC
 70
     2
  9
$MENU
  1
.
  9
$ELEVATION
 40
0.0
  9
$PELEVATION
 40
0.0
  9
$THICKNESS
 40
0.0
  9
$LIMCHECK
 70
     0
  9
$CHAMFERA
 40
0.0
  9
$CHAMFERB
 40
0.0
  9
$CHAMFERC
 40
0.0
  9
$CHAMFERD
 40
0.0
  9
$SKPOLY
 70
     0
  9
$TDCREATE
 40
2460333.385061227
  9
$TDUCREATE
 40
2460333.010061227
  9
$TDUPDATE
 40
2460333.385061979
  9
$TDUUPDATE
 40
2460333.010061979
  9
$TDINDWG
 40
0.0000000116
  9
$TDUSRTIMER
 40
0.0000000116
  9
$USRTIMER
 70
     1
  9
$ANGBASE
 50
0.0
  9
$ANGDIR
 70
     0
  9
$PDMODE
 70
     0
  9
$PDSIZE
 40
-1.0
  9
$PLINEWID
 40
0.0
  9
$SPLFRAME
 70
     0
  9
$SPLINETYPE
 70
     6
  9
$SPLINESEGS
 70
     8
  9
$HANDSEED
  5
280
  9
$SURFTAB1
 70
     6
  9
$SURFTAB2
 70
     6
  9
$SURFTYPE
 70
     6
  9
$SURFU
 70
     6
  9
$SURFV
 70
     6
  9
$UCSBASE
  2

  9
$UCSNAME
  2

  9
$UCSORG
 10
0.0
 20
0.0
 30
0.0
  9
$UCSXDIR
 10
1.0
 20
0.0
 30
0.0
  9
$UCSYDIR
 10
0.0
 20
1.0
 30
0.0
  9
$UCSORTHOREF
  2

  9
$UCSORTHOVIEW
 70
     0
  9
$UCSORGTOP
 10
0.0
 20
0.0
 30
0.0
  9
$UCSORGBOTTOM
 10
0.0
 20
0.0
 30
0.0
  9
$UCSORGLEFT
 10
0.0
 20
0.0
 30
0.0
  9
$UCSORGRIGHT
 10
0.0
 20
0.0
 30
0.0
  9
$UCSORGFRONT
 10
0.0
 20
0.0
 30
0.0
  9
$UCSORGBACK
 10
0.0
 20
0.0
 30
0.0
  9
$PUCSBASE
  2

  9
$PUCSNAME
  2

  9
$PUCSORG
 10
0.0
 20
0.0
 30
0.0
  9
$PUCSXDIR
 10
1.0
 20
0.0
 30
0.0
  9
$PUCSYDIR
 10
0.0
 20
1.0
 30
0.0
  9
$PUCSORTHOREF
  2

  9
$PUCSORTHOVIEW
 70
     0
  9
$PUCSORGTOP
 10
0.0
 20
0.0
 30
0.0
  9
$PUCSORGBOTTOM
 10
0.0
 20
0.0
 30
0.0
  9
$PUCSORGLEFT
 10
0.0
 20
0.0
 30
0.0
  9
$PUCSORGRIGHT
 10
0.0
 20
0.0
 30
0.0
  9
$PUCSORGFRONT
 10
0.0
 20
0.0
 30
0.0
  9
$PUCSORGBACK
 10
0.0
 20
0.0
 30
0.0
  9
$USERI1
 70
     0
  9
$USERI2
 70
     0
  9
$USERI3
 70
     0
  9
$USERI4
 70
     0
  9
$USERI5
 70
     0
  9
$USERR1
 40
0.0
  9
$USERR2
 40
0.0
  9
$USERR3
 40
0.0
  9
$USERR4
 40
0.0
  9
$USERR5
 40
0.0
  9
$WORLDVIEW
 70
     1
  9
$SHADEDGE
 70
     3
  9
$SHADEDIF
 70
    70
  9
$TILEMODE
 70
     1
  9
$MAXACTVP
 70
    64
  9
$PINSBASE
 10
0.0
 20
0.0
 30
0.0
  9
$PLIMCHECK
 70
     0
  9
$PEXTMIN
 10
1.0000000000E+20
 20
1.0000000000E+20
 30
1.0000000000E+20
  9
$PEXTMAX
 10
-1.0000000000E+20
 20
-1.0000000000E+20
 30
-1.0000000000E+20
  9
$PLIMMIN
 10
0.0
 20
0.0
  9
$PLIMMAX
 10
420.0
 20
297.0
  9
$UNITMODE
 70
     0
  9
$VISRETAIN
 70
     1
  9
$PLINEGEN
 70
     0
  9
$PSLTSCALE
 70
     1
  9
$TREEDEPTH
 70
  3020
  9
$CMLSTYLE
  2
Standard
  9
$CMLJUST
 70
     0
  9
$CMLSCALE
 40
20.0
  9
$PROXYGRAPHICS
 70
     1
  9
$MEASUREMENT
 70
     1
  9
$CELWEIGHT
370
    -1
  9
$ENDCAPS
280
     0
  9
$JOINSTYLE
280
     0
  9
$LWDISPLAY
290
     1
  9
$INSUNITS
 70
     4
  9
$HYPERLINKBASE
  1

  9
$STYLESHEET
  1

  9
$XEDIT
290
     1
  9
$CEPSNTYPE
380
     0
  9
$PSTYLEMODE
290
     1
  9
$FINGERPRINTGUID
  2
{d1838377-e89e-4502-abb9-2cdd3a9cf5d4}
  9
$VERSIONGUID
  2
{FAEB1C32-E019-11D5-929B-00C0DF256EC4}
  9
$EXTNAMES
290
     1
  9
$PSVPSCALE
 40
0.0
  9
$OLESTARTUP
290
     0
  0
ENDSEC
  0
SECTION
  2
CLASSES
  0
CLASS
  1
ACDBDICTIONARYWDFLT
  2
AcDbDictionaryWithDefault
  3
ObjectDBX Classes
 90
        0
280
     0
281
     0
  0
CLASS
  1
VISUALSTYLE
  2
AcDbVisualStyle
  3
ObjectDBX Classes
 90
     4095
280
     0
281
     0
  0
CLASS
  1
MATERIAL
  2
AcDbMaterial
  3
ObjectDBX Classes
 90
     1153
280
     0
281
     0
  0
CLASS
  1
SCALE
  2
AcDbScale
  3
ObjectDBX Classes
 90
     1153
280
     0
281
     0
  0
CLASS
  1
TABLESTYLE
  2
AcDbTableStyle
  3
ObjectDBX Classes
 90
     4095
280
     0
281
     0
  0
CLASS
  1
MLEADERSTYLE
  2
AcDbMLeaderStyle
  3
ACDB_MLEADERSTYLE_CLASS
 90
     4095
280
     0
281
     0
  0
CLASS
  1
SUN
  2
AcDbSun
  3
SCENEOE
 90
     1153
280
     0
281
     0
  0
CLASS
  1
ACDBPLACEHOLDER
  2
AcDbPlaceHolder
  3
ObjectDBX Classes
 90
        0
280
     0
281
     0
  0
CLASS
  1
LAYOUT
  2
AcDbLayout
  3
ObjectDBX Classes
 90
        0
280
     0
281
     0
  0
ENDSEC
  0
SECTION
  2
TABLES
  0
TABLE
  2
VPORT
  5
8
330
0
100
AcDbSymbolTable
 70
     1
  0
VPORT
  5
29
330
8
100
AcDbSymbolTableRecord
100
AcDbViewportTableRecord
  2
*Active
 70
     0
 10
0.0
 20
0.0
 11
1.0
 21
1.0
 12
148.5
 22
105.0
 13
0.0
 23
0.0
 14
10.0
 24
10.0
 15
10.0
 25
10.0
 16
0.0
 26
0.0
 36
1.0
 17
0.0
 27
0.0
 37
0.0
 40
210.0
 41
1.4142857143
 42
50.0
 43
0.0
 44
0.0
 50
0.0
 51
0.0
 71
     0
 72
  2000
 73
     1
 74
     3
 75
     0
 76
     0
 77
     0
 78
     0
281
     0
 65
     1
110
0.0
120
0.0
130
0.0
111
1.0
121
0.0
131
0.0
112
0.0
122
1.0
132
0.0
 79
     0
146
0.0
  0
ENDTAB
  0
TABLE
  2
LTYPE
  5
5
330
0
100
AcDbSymbolTable
 70
     6
  0
LTYPE
  5
14
330
5
100
AcDbSymbolTableRecord
100
AcDbLinetypeTableRecord
  2
ByBlock
 70
     0
  3

 72
    65
 73
     0
 40
0.0
  0
LTYPE
  5
15
330
5
100
AcDbSymbolTableRecord
100
AcDbLinetypeTableRecord
  2
ByLayer
 70
     0
  3

 72
    65
 73
     0
 40
0.0
  0
LTYPE
  5
16
330
5
100
AcDbSymbolTableRecord
100
AcDbLinetypeTableRecord
  2
Continuous
 70
     0
  3
Solid line
 72
    65
 73
     0
 40
0.0
  0
LTYPE
  5
5E
330
5
100
AcDbSymbolTableRecord
100
AcDbLinetypeTableRecord
  2
HIDDEN
 70
     0
  3
Hidden __ __ __ __ __ __ __ __ __ __ __ __ __ __
 72
    65
 73
     2
 40
1.905
 49
1.27
 74
     0
 49
-0.635
 74
     0
  0
LTYPE
  5
5F
330
5
100
AcDbSymbolTableRecord
100
AcDbLinetypeTableRecord
  2
PHANTOM
 70
     0
  3
Phantom ______  __  __  ______  __  __  ______
 72
    65
 73
     6
 40
12.7
 49
6.35
 74
     0
 49
-1.27
 74
     0
 49
1.27
 74
     0
 49
-1.27
 74
     0
 49
1.27
 74
     0
 49
-1.27
 74
     0
  0
LTYPE
  5
60
330
5
100
AcDbSymbolTableRecord
100
AcDbLinetypeTableRecord
  2
CENTER
 70
     0
  3
Center ____ _ ____ _ ____ _ ____ _ ____ _ ____
 72
    65
 73
     4
 40
10.16
 49
6.35
 74
     0
 49
-1.27
 74
     0
 49
1.27
 74
     0
 49
-1.27
 74
     0
  0
LTYPE
  5
61
330
5
100
AcDbSymbolTableRecord
100
AcDbLinetypeTableRecord
  2
CENTERX2
 70
     0
  3
Center (2x) ________  __  ________  __  _____
 72
    65
 73
     4
 40
20.32
 49
12.7
 74
     0
 49
-2.54
 74
     0
 49
2.54
 74
     0
 49
-2.54
 74
     0
  0
LTYPE
  5
62
330
5
100
AcDbSymbolTableRecord
100
AcDbLinetypeTableRecord
  2
DOT2
 70
     0
  3
Dot (.5x) ........................................
 72
    65
 73
     2
 40
0.635
 49
0.0
 74
     0
 49
-0.635
 74
     0
  0
ENDTAB
  0
TABLE
  2
LAYER
  5
2
330
0
100
AcDbSymbolTable
 70
     2
  0
LAYER
  5
10
330
2
100
AcDbSymbolTableRecord
100
AcDbLayerTableRecord
  2
0
 70
     0
 62
     7
  6
Continuous
370
    -3
390
F
  0
LAYER
  5
63
330
2
100
AcDbSymbolTableRecord
100
AcDbLayerTableRecord
  2
FORMAT
 70
     0
 62
     7
  6
Continuous
370
    -3
390
F
  0
ENDTAB
  0
TABLE
  2
STYLE
  5
3
330
0
100
AcDbSymbolTable
 70
     2
  0
STYLE
  5
11
330
3
100
AcDbSymbolTableRecord
100
AcDbTextStyleTableRecord
  2
Standard
 70
     0
 40
0.0
 41
1.0
 50
0.0
 71
     0
 42
3.5277777778
  3
txt
  4
bigfont
  0
STYLE
  5
64
330
3
100
AcDbSymbolTableRecord
100
AcDbTextStyleTableRecord
  2
SLDTEXTSTYLE0
 70
     0
 40
0.0
 41
0.7
 50
0.0
 71
     0
 42
3.5277777778
  3
TXT
  4
bigfont
  0
ENDTAB
  0
TABLE
  2
VIEW
  5
6
330
0
100
AcDbSymbolTable
 70
     0
  0
ENDTAB
  0
TABLE
  2
UCS
  5
7
330
0
100
AcDbSymbolTable
 70
     0
  0
ENDTAB
  0
TABLE
  2
APPID
  5
9
330
0
100
AcDbSymbolTable
 70
     1
  0
APPID
  5
12
330
9
100
AcDbSymbolTableRecord
100
AcDbRegAppTableRecord
  2
ACAD
 70
     0
  0
ENDTAB
  0
TABLE
  2
DIMSTYLE
  5
A
330
0
100
AcDbSymbolTable
 70
     1
100
AcDbDimStyleTable
  0
DIMSTYLE
105
27
330
A
100
AcDbSymbolTableRecord
100
AcDbDimStyleTableRecord
  2
ISO-25
 70
     0
 41
2.5
 42
0.625
 43
3.75
 44
1.25
 73
     0
 74
     0
 77
     1
 78
     8
140
2.5
141
2.5
143
0.0393700787
147
0.625
171
     3
172
     1
178
     0
271
     2
272
     2
274
     3
278
    44
283
     0
284
     8
340
11
  0
ENDTAB
  0
TABLE
  2
BLOCK_RECORD
  5
1
330
0
100
AcDbSymbolTable
 70
     3
  0
BLOCK_RECORD
  5
1F
330
1
100
AcDbSymbolTableRecord
100
AcDbBlockTableRecord
  2
*Model_Space
340
22
  0
BLOCK_RECORD
  5
1B
330
1
100
AcDbSymbolTableRecord
100
AcDbBlockTableRecord
  2
*Paper_Space
340
1E
  0
BLOCK_RECORD
  5
23
330
1
100
AcDbSymbolTableRecord
100
AcDbBlockTableRecord
  2
*Paper_Space0
340
26
  0
BLOCK_RECORD
  5
1CE
330
1
100
AcDbSymbolTableRecord
100
AcDbBlockTableRecord
  2
SW_CENTERMARKSYMBOL_0
340
0
102
{BLKREFS
331
1D9
102
}
  0
BLOCK_RECORD
  5
273
330
1
100
AcDbSymbolTableRecord
100
AcDbBlockTableRecord
  2
SW_CENTERMARKSYMBOL_1
340
0
102
{BLKREFS
331
27E
102
}
  0
ENDTAB
  0
ENDSEC
  0
SECTION
  2
BLOCKS
  0
BLOCK
  5
20
330
1F
100
AcDbEntity
  8
0
100
AcDbBlockBegin
  2
*Model_Space
 70
     0
 10
0.0
 20
0.0
 30
0.0
  3
*Model_Space
  1

  0
ENDBLK
  5
21
330
1F
100
AcDbEntity
  8
0
100
AcDbBlockEnd
  0
BLOCK
  5
1C
330
1B
100
AcDbEntity
 67
     1
  8
0
100
AcDbBlockBegin
  2
*Paper_Space
 70
     0
 10
0.0
 20
0.0
 30
0.0
  3
*Paper_Space
  1

  0
ENDBLK
  5
1D
330
1B
100
AcDbEntity
 67
     1
  8
0
100
AcDbBlockEnd
  0
BLOCK
  5
24
330
23
100
AcDbEntity
  8
0
100
AcDbBlockBegin
  2
*Paper_Space0
 70
     0
 10
0.0
 20
0.0
 30
0.0
  3
*Paper_Space0
  1

  0
ENDBLK
  5
25
330
23
100
AcDbEntity
  8
0
100
AcDbBlockEnd
  0
BLOCK
  5
1CF
330
1CE
100
AcDbEntity
  8
0
100
AcDbBlockBegin
  2
SW_CENTERMARKSYMBOL_0
 70
     0
 10
0.0
 20
0.0
 30
0.0
  3
SW_CENTERMARKSYMBOL_0
  1

  0
LINE
  5
1D1
330
1CE
100
AcDbEntity
  8
FORMAT
 62
     0
100
AcDbLine
 10
0.0
 20
0.0
 30
0.0
 11
0.0
 21
2.5
 31
0.0
  0
LINE
  5
1D2
330
1CE
100
AcDbEntity
  8
FORMAT
 62
     0
100
AcDbLine
 10
0.0
 20
0.0
 30
0.0
 11
-2.5
 21
0.0
 31
0.0
  0
LINE
  5
1D3
330
1CE
100
AcDbEntity
  8
FORMAT
 62
     0
100
AcDbLine
 10
0.0
 20
0.0
 30
0.0
 11
0.0
 21
-2.5
 31
0.0
  0
LINE
  5
1D4
330
1CE
100
AcDbEntity
  8
FORMAT
 62
     0
100
AcDbLine
 10
0.0
 20
0.0
 30
0.0
 11
2.5
 21
0.0
 31
0.0
  0
LINE
  5
1D5
330
1CE
100
AcDbEntity
  8
FORMAT
 62
     0
100
AcDbLine
 10
0.0
 20
5.0
 30
0.0
 11
0.0
 21
29.9245482573
 31
0.0
  0
LINE
  5
1D6
330
1CE
100
AcDbEntity
  8
FORMAT
 62
     0
100
AcDbLine
 10
-5.0
 20
0.0
 30
0.0
 11
-10.75
 21
0.0
 31
0.0
  0
LINE
  5
1D7
330
1CE
100
AcDbEntity
  8
FORMAT
 62
     0
100
AcDbLine
 10
0.0
 20
-5.0
 30
0.0
 11
0.0
 21
-25.2037557723
 31
0.0
  0
LINE
  5
1D8
330
1CE
100
AcDbEntity
  8
FORMAT
 62
     0
100
AcDbLine
 10
5.0
 20
0.0
 30
0.0
 11
10.75
 21
0.0
 31
0.0
  0
ENDBLK
  5
1D0
330
1CE
100
AcDbEntity
  8
0
100
AcDbBlockEnd
  0
BLOCK
  5
274
330
273
100
AcDbEntity
  8
0
100
AcDbBlockBegin
  2
SW_CENTERMARKSYMBOL_1
 70
     0
 10
0.0
 20
0.0
 30
0.0
  3
SW_CENTERMARKSYMBOL_1
  1

  0
LINE
  5
276
330
273
100
AcDbEntity
  8
FORMAT
 62
     0
100
AcDbLine
 10
0.0
 20
0.0
 30
0.0
 11
0.0
 21
2.5
 31
0.0
  0
LINE
  5
277
330
273
100
AcDbEntity
  8
FORMAT
 62
     0
100
AcDbLine
 10
0.0
 20
0.0
 30
0.0
 11
-2.5
 21
0.0
 31
0.0
  0
LINE
  5
278
330
273
100
AcDbEntity
  8
FORMAT
 62
     0
100
AcDbLine
 10
0.0
 20
0.0
 30
0.0
 11
0.0
 21
-2.5
 31
0.0
  0
LINE
  5
279
330
273
100
AcDbEntity
  8
FORMAT
 62
     0
100
AcDbLine
 10
0.0
 20
0.0
 30
0.0
 11
2.5
 21
0.0
 31
0.0
  0
LINE
  5
27A
330
273
100
AcDbEntity
  8
FORMAT
 62
     0
100
AcDbLine
 10
0.0
 20
5.0
 30
0.0
 11
0.0
 21
9.95
 31
0.0
  0
LINE
  5
27B
330
273
100
AcDbEntity
  8
FORMAT
 62
     0
100
AcDbLine
 10
-5.0
 20
0.0
 30
0.0
 11
-41.394388022
 21
0.0
 31
0.0
  0
LINE
  5
27C
330
273
100
AcDbEntity
  8
FORMAT
 62
     0
100
AcDbLine
 10
0.0
 20
-5.0
 30
0.0
 11
0.0
 21
-9.95
 31
0.0
  0
LINE
  5
27D
330
273
100
AcDbEntity
  8
FORMAT
 62
     0
100
AcDbLine
 10
5.0
 20
0.0
 30
0.0
 11
13.2698730443
 21
0.0
 31
0.0
  0
ENDBLK
  5
275
330
273
100
AcDbEntity
  8
0
100
AcDbBlockEnd
  0
ENDSEC
  0
SECTION
  2
ENTITIES
  0
MTEXT
  5
65
330
1F
100
AcDbEntity
  8
FORMAT
100
AcDbMText
 10
124.3090094976
 20
89.4940069969
 30
0.0
 40
3.175
 41
0.0
 71
     1
 72
     1
  1
エースボール　アングル型　BD-3300
  7
SLDTEXTSTYLE0
 73
     1
 44
1.0
  0
LINE
  5
66
330
1F
100
AcDbEntity
  8
0
  6
Continuous
 62
     7
370
    25
100
AcDbLine
 10
117.1783636124
 20
35.0989104041
 30
0.0
 11
118.4240304194
 21
34.3797243378
 31
0.0
  0
LINE
  5
67
330
1F
100
AcDbEntity
  8
0
  6
Continuous
 62
     7
370
    25
100
AcDbLine
 10
135.4079054194
 20
34.3797243378
 30
0.0
 11
136.6535722264
 21
35.0989104041
 31
0.0
  0
LINE
  5
68
330
1F
100
AcDbEntity
  8
0
  6
Continuous
 62
     7
370
    25
100
AcDbLine
 10
138.0570991723
 20
36.6421200308
 30
0.0
 11
138.9159679194
 21
38.1297243378
 31
0.0
  0
LINE
  5
69
330
1F
100
AcDbEntity
  8
0
  6
Continuous
 62
     7
370
    25
100
AcDbLine
 10
138.9159679194
 20
54.6297243378
 30
0.0
 11
138.0570991723
 21
56.1173286448
 31
0.0
  0
LINE
  5
6A
330
1F
100
AcDbEntity
  8
0
  6
Continuous
 62
     7
370
    25
100
AcDbLine
 10
118.4240304194
 20
34.3797243378
 30
0.0
 11
118.7185957496
 21
24.9536337715
 31
0.0
  0
LINE
  5
6B
330
1F
100
AcDbEntity
  8
0
  6
Continuous
 62
     7
370
    25
100
AcDbLine
 10
135.1133400892
 20
24.9536337715
 30
0.0
 11
135.4079054194
 21
34.3797243378
 31
0.0
  0
LINE
  5
6C
330
1F
100
AcDbEntity
  8
0
  6
Continuous
 62
     7
370
    25
100
AcDbLine
 10
118.7185957496
 20
24.9536337715
 30
0.0
 11
119.9159679194
 21
22.8797243378
 31
0.0
  0
LINE
  5
6D
330
1F
100
AcDbEntity
  8
0
  6
Continuous
 62
     7
370
    25
100
AcDbLine
 10
133.9159679194
 20
22.8797243378
 30
0.0
 11
135.1133400892
 21
24.9536337715
 31
0.0
  0
SPLINE
  5
6E
330
1F
100
AcDbEntity
  8
0
  6
Continuous
 62
     7
370
    25
100
AcDbSpline
210
0.0
220
0.0
230
1.0
 70
     8
 71
     3
 72
    12
 73
     8
 74
     0
 42
0.00000001
 43
0.00000001
 40
0.0
 40
0.0
 40
0.0
 40
0.0
 40
0.0310509226032735
 40
0.2822810581185659
 40
0.5409991204285768
 40
0.8030759020055599
 40
1.0
 40
1.0
 40
1.0
 40
1.0
 10
121.0278560018066
 20
55.88012113892176
 30
0.0
 10
121.028619214222
 20
55.87202113597864
 30
0.0
 10
121.0355575075193
 20
55.79838476031398
 30
0.0
 10
121.0132047978647
 20
55.65590055185465
 30
0.0
 10
120.9538370380424
 20
55.46277887822937
 30
0.0
 10
120.863539506377
 20
55.29473830088386
 30
0.0
 10
120.7803373729957
 20
55.20749729096425
 30
0.0
 10
120.7446413519279
 20
55.17006847992889
 30
0.0
  0
SPLINE
  5
6F
330
1F
100
AcDbEntity
  8
0
  6
Continuous
 62
     7
370
    25
100
AcDbSpline
210
0.0
220
0.0
230
1.0
 70
     8
 71
     3
 72
    12
 73
     8
 74
     0
 42
0.00000001
 43
0.00000001
 40
0.0
 40
0.0
 40
0.0
 40
0.0
 40
0.1087363380453217
 40
0.3997275173950278
 40
0.665297849644116
 40
0.9100504354243718
 40
0.9999999999999999
 40
0.9999999999999999
 40
0.9999999999999999
 40
0.9999999999999999
 10
133.1018649656076
 20
55.18552517417926
 30
0.0
 10
133.0816239448328
 20
55.20457001849962
 30
0.0
 10
133.0072155811769
 20
55.27458109737358
 30
0.0
 10
132.918119937439
 20
55.42282932176099
 30
0.0
 10
132.8454760030206
 20
55.61386281577865
 30
0.0
 10
132.815164106529
 20
55.76613399113865
 30
0.0
 10
132.8181110322332
 20
55.85158608922841
 30
0.0
 10
132.8189030040913
 20
55.87455092231082
 30
0.0
  0
LINE
  5
70
330
1F
100
AcDbEntity
  8
0
  6
Continuous
 62
     7
370
    25
100
AcDbLine
 10
132.8159679194
 20
55.8751935177
 30
0.0
 11
132.8159679194
 21
56.8797243378
 31
0.0
  0
LINE
  5
71
330
1F
100
AcDbEntity
  8
0
  6
Continuous
 62
     7
370
    25
100
AcDbLine
 10
121.0159679194
 20
56.8797243378
 30
0.0
 11
121.0159679194
 21
55.8797243378
 31
0.0
  0
LINE
  5
72
330
1F
100
AcDbEntity
  8
0
  6
Continuous
 62
     7
370
    25
100
AcDbLine
 10
120.7458010121
 20
55.1744620671
 30
0.0
 11
120.2014367396
 21
56.1173286448
 31
0.0
  0
LINE
  5
73
330
1F
100
AcDbEntity
  8
0
  6
Continuous
 62
     7
370
    25
100
AcDbLine
 10
133.6304990992
 20
56.1173286448
 30
0.0
 11
133.0861348267
 21
55.1744620671
 31
0.0
  0
LINE
  5
74
330
1F
100
AcDbEntity
  8
0
  6
Continuous
 62
     7
370
    25
100
AcDbLine
 10
116.1304990992
 20
56.1173286448
 30
0.0
 11
115.4159679194
 21
54.8797243378
 31
0.0
  0
LINE
  5
75
330
1F
100
AcDbEntity
  8
0
  6
Continuous
 62
     7
370
    25
100
AcDbLine
 10
115.4159679194
 20
37.8797243378
 30
0.0
 11
116.1304990992
 21
36.6421200308
 31
0.0
  0
LINE
  5
76
330
1F
100
AcDbEntity
  8
0
  6
Continuous
 62
     7
370
    25
100
AcDbLine
 10
136.6535722264
 20
35.0963500228
 30
0.0
 11
136.6535722264
 21
36.6421200308
 31
0.0
  0
LINE
  5
77
330
1F
100
AcDbEntity
  8
0
  6
Continuous
 62
     7
370
    25
100
AcDbLine
 10
136.6535722264
 20
36.6421200308
 30
0.0
 11
138.0596672278
 21
36.6421200308
 31
0.0
  0
LINE
  5
78
330
1F
100
AcDbEntity
  8
0
  6
Continuous
 62
     7
370
    25
100
AcDbLine
 10
120.2040047951
 20
56.1173286448
 30
0.0
 11
116.1279387179
 21
56.1173286448
 31
0.0
  0
LINE
  5
79
330
1F
100
AcDbEntity
  8
0
  6
Continuous
 62
     7
370
    25
100
AcDbLine
 10
138.0596672278
 20
56.1173286448
 30
0.0
 11
133.6279310438
 21
56.1173286448
 31
0.0
  0
LINE
  5
7A
330
1F
100
AcDbEntity
  8
0
  6
Continuous
 62
     7
370
    25
100
AcDbLine
 10
117.1783636124
 20
36.6421200308
 30
0.0
 11
117.1783636124
 21
35.0963500228
 31
0.0
  0
LINE
  5
7B
330
1F
100
AcDbEntity
  8
0
  6
Continuous
 62
     7
370
    25
100
AcDbLine
 10
116.1279387179
 20
36.6421200308
 30
0.0
 11
117.1783636124
 21
36.6421200308
 31
0.0
  0
LINE
  5
7C
330
1F
100
AcDbEntity
  8
0
  6
Continuous
 62
     7
370
    25
100
AcDbLine
 10
134.3659679194
 20
64.8797243378
 30
0.0
 11
132.4159679194
 21
72.8797243378
 31
0.0
  0
LINE
  5
7D
330
1F
100
AcDbEntity
  8
0
  6
Continuous
 62
     7
370
    25
100
AcDbLine
 10
133.9159679194
 20
56.8797243378
 30
0.0
 11
134.3659679194
 21
64.8797243378
 31
0.0
  0
LINE
  5
7E
330
1F
100
AcDbEntity
  8
0
  6
Continuous
 62
     7
370
    25
100
AcDbLine
 10
119.8453112936
 20
58.1358421291
 30
0.0
 11
119.9159679194
 21
56.8797243378
 31
0.0
  0
LINE
  5
7F
330
1F
100
AcDbEntity
  8
0
  6
Continuous
 62
     7
370
    25
100
AcDbLine
 10
121.4159679194
 20
72.8797243378
 30
0.0
 11
121.1627363849
 21
71.8408257346
 31
0.0
  0
LINE
  5
80
330
1F
100
AcDbEntity
  8
0
  6
Continuous
 62
     7
370
    25
100
AcDbLine
 10
112.6159679194
 20
54.3797243378
 30
0.0
 11
112.4159679194
 21
54.1797243378
 31
0.0
  0
LINE
  5
81
330
1F
100
AcDbEntity
  8
0
  6
Continuous
 62
     7
370
    25
100
AcDbLine
 10
112.4159679194
 20
38.5797243378
 30
0.0
 11
112.6159679194
 21
38.3797243378
 31
0.0
  0
LINE
  5
82
330
1F
100
AcDbEntity
  8
0
  6
Continuous
 62
     7
370
    25
100
AcDbLine
 10
115.4159679194
 20
54.3797243378
 30
0.0
 11
112.6159679194
 21
54.3797243378
 31
0.0
  0
LINE
  5
83
330
1F
100
AcDbEntity
  8
0
  6
Continuous
 62
     7
370
    25
100
AcDbLine
 10
112.6159679194
 20
38.3797243378
 30
0.0
 11
115.4159679194
 21
38.3797243378
 31
0.0
  0
LINE
  5
84
330
1F
100
AcDbEntity
  8
0
  6
Continuous
 62
     7
370
    25
100
AcDbLine
 10
103.9259679194
 20
52.3797243378
 30
0.0
 11
103.9059679194
 21
52.3797243378
 31
0.0
  0
LINE
  5
85
330
1F
100
AcDbEntity
  8
0
  6
Continuous
 62
     7
370
    25
100
AcDbLine
 10
103.9059679194
 20
40.3797243378
 30
0.0
 11
103.9259679194
 21
40.3797243378
 31
0.0
  0
ARC
  5
86
330
1F
100
AcDbEntity
  8
0
  6
Continuous
 62
     7
370
    25
100
AcDbCircle
 10
103.9059679194
 20
51.3897243378
 30
0.0
 40
0.990000000000002
100
AcDbArc
 50
90.0
 51
180.0
  0
ARC
  5
87
330
1F
100
AcDbEntity
  8
0
  6
Continuous
 62
     7
370
    25
100
AcDbCircle
 10
103.9059679194
 20
41.3697243378
 30
0.0
 40
0.990000000000002
100
AcDbArc
 50
180.0
 51
270.0
  0
ARC
  5
88
330
1F
100
AcDbEntity
  8
0
  6
Continuous
 62
     7
370
    25
100
AcDbCircle
 10
103.9259679194
 20
51.3897243378
 30
0.0
 40
0.990000000000002
100
AcDbArc
 50
19.1995397339
 51
90.0
  0
ARC
  5
89
330
1F
100
AcDbEntity
  8
0
  6
Continuous
 62
     7
370
    25
100
AcDbCircle
 10
103.9259679194
 20
41.3697243378
 30
0.0
 40
0.990000000000002
100
AcDbArc
 50
270.0
 51
340.8004602661
  0
ARC
  5
8A
330
1F
100
AcDbEntity
  8
0
  6
Continuous
 62
     7
370
    25
100
AcDbCircle
 10
105.3330926473
 20
51.8797243378
 30
0.0
 40
0.5000000000000078
100
AcDbArc
 50
199.1995397339
 51
270.0
  0
ARC
  5
8B
330
1F
100
AcDbEntity
  8
0
  6
Continuous
 62
     7
370
    25
100
AcDbCircle
 10
105.3330926473
 20
40.8797243378
 30
0.0
 40
0.5000000000000078
100
AcDbArc
 50
90.0
 51
160.8004602661
  0
LINE
  5
8C
330
1F
100
AcDbEntity
  8
0
  6
Continuous
 62
     7
370
    25
100
AcDbLine
 10
112.4159679194
 20
51.3797243378
 30
0.0
 11
105.3330926473
 21
51.3797243378
 31
0.0
  0
LINE
  5
8D
330
1F
100
AcDbEntity
  8
0
  6
Continuous
 62
     7
370
    25
100
AcDbLine
 10
105.3330926473
 20
41.3797243378
 30
0.0
 11
112.4159679194
 21
41.3797243378
 31
0.0
  0
SPLINE
  5
8E
330
1F
100
AcDbEntity
  8
0
  6
Continuous
 62
     7
370
    25
100
AcDbSpline
210
0.0
220
0.0
230
1.0
 70
     8
 71
     3
 72
     8
 73
     4
 74
     0
 42
0.00000001
 43
0.00000001
 40
0.0
 40
0.0
 40
0.0
 40
0.0
 40
1.0
 40
1.0
 40
1.0
 40
1.0
 10
122.2971657658853
 20
38.41332779793137
 30
0.0
 10
122.5023515884286
 20
38.46988876505559
 30
0.0
 10
122.7085747891359
 20
38.52382883646943
 30
0.0
 10
122.9159679194024
 20
38.57481312621239
 30
0.0
  0
LINE
  5
8F
330
1F
100
AcDbEntity
  8
0
  6
Continuous
 62
     7
370
    25
100
AcDbLine
 10
122.9159679194
 20
38.5748131262
 30
0.0
 11
122.9159679194
 21
42.3797243378
 31
0.0
  0
LINE
  5
90
330
1F
100
AcDbEntity
  8
0
  6
Continuous
 62
     7
370
    25
100
AcDbLine
 10
122.9159679194
 20
42.3797243378
 30
0.0
 11
120.3997318424
 21
42.3797243378
 31
0.0
  0
SPLINE
  5
91
330
1F
100
AcDbEntity
  8
0
  6
Continuous
 62
     7
370
    25
100
AcDbSpline
210
0.0
220
0.0
230
1.0
 70
     8
 71
     3
 72
     8
 73
     4
 74
     0
 42
0.00000001
 43
0.00000001
 40
0.0
 40
0.0
 40
0.0
 40
0.0
 40
1.0
 40
1.0
 40
1.0
 40
1.0
 10
120.2382465141422
 20
41.76092218426933
 30
0.0
 10
120.2948098836104
 20
41.96611672177909
 30
0.0
 10
120.3487498064317
 20
42.17234037529626
 30
0.0
 10
120.3997318424232
 20
42.37972433778636
 30
0.0
  0
LINE
  5
92
330
1F
100
AcDbEntity
  8
0
  6
Continuous
 62
     7
370
    25
100
AcDbLine
 10
116.0936893247
 20
41.7609221843
 30
0.0
 11
120.2382465141
 21
41.7609221843
 31
0.0
  0
SPLINE
  5
93
330
1F
100
AcDbEntity
  8
0
  6
Continuous
 62
     7
370
    25
100
AcDbSpline
210
0.0
220
0.0
230
1.0
 70
     8
 71
     3
 72
    10
 73
     6
 74
     0
 42
0.00000001
 43
0.00000001
 40
0.0
 40
0.0
 40
0.0
 40
0.0
 40
0.5
 40
0.5
 40
1.0
 40
1.0
 40
1.0
 40
1.0
 10
116.0936893246626
 20
41.76092218426935
 30
0.0
 10
115.8856206484313
 20
42.51573145731864
 30
0.0
 10
115.7152216424068
 20
43.27647784455055
 30
0.0
 10
115.480061662708
 20
44.81462022217381
 30
0.0
 10
115.4159679194024
 20
45.59212137469862
 30
0.0
 10
115.4159679194024
 20
46.37972433778636
 30
0.0
  0
SPLINE
  5
94
330
1F
100
AcDbEntity
  8
0
  6
Continuous
 62
     7
370
    25
100
AcDbSpline
210
0.0
220
0.0
230
1.0
 70
     8
 71
     3
 72
    12
 73
     8
 74
     0
 42
0.00000001
 43
0.00000001
 40
0.0
 40
0.0
 40
0.0
 40
0.0
 40
0.2500000000000001
 40
0.2500000000000001
 40
0.5000000000000001
 40
0.5000000000000001
 40
1.0
 40
1.0
 40
1.0
 40
1.0
 10
115.4159679194024
 20
46.37972433778636
 30
0.0
 10
115.4159679194024
 20
46.77404241845821
 30
0.0
 10
115.4319667243834
 20
47.16770146240864
 30
0.0
 10
115.4937368626978
 20
47.94723746195399
 30
0.0
 10
115.5394789869994
 20
48.33419065007941
 30
0.0
 10
115.7161491343463
 20
49.48757721293341
 30
0.0
 10
115.8864041998266
 20
50.24655970213845
 30
0.0
 10
116.0936893246626
 20
50.99852649130337
 30
0.0
  0
LINE
  5
95
330
1F
100
AcDbEntity
  8
0
  6
Continuous
 62
     7
370
    25
100
AcDbLine
 10
120.2382465141
 20
50.9985264913
 30
0.0
 11
116.0936893247
 21
50.9985264913
 31
0.0
  0
SPLINE
  5
96
330
1F
100
AcDbEntity
  8
0
  6
Continuous
 62
     7
370
    25
100
AcDbSpline
210
0.0
220
0.0
230
1.0
 70
     8
 71
     3
 72
     8
 73
     4
 74
     0
 42
0.00000001
 43
0.00000001
 40
0.0
 40
0.0
 40
0.0
 40
0.0
 40
1.0
 40
1.0
 40
1.0
 40
1.0
 10
120.3997318424232
 20
50.37972433778637
 30
0.0
 10
120.3488331255007
 20
50.58676937621536
 30
0.0
 10
120.2948989892499
 20
50.793008705892
 30
0.0
 10
120.2382465141422
 20
50.99852649130338
 30
0.0
  0
LINE
  5
97
330
1F
100
AcDbEntity
  8
0
  6
Continuous
 62
     7
370
    25
100
AcDbLine
 10
133.4322039964
 20
50.3797243378
 30
0.0
 11
120.3997318424
 21
50.3797243378
 31
0.0
  0
SPLINE
  5
98
330
1F
100
AcDbEntity
  8
0
  6
Continuous
 62
     7
370
    25
100
AcDbSpline
210
0.0
220
0.0
230
1.0
 70
     8
 71
     3
 72
     8
 73
     4
 74
     0
 42
0.00000001
 43
0.00000001
 40
0.0
 40
0.0
 40
0.0
 40
0.0
 40
1.0
 40
1.0
 40
1.0
 40
1.0
 10
133.4322039963816
 20
50.37972433778644
 30
0.0
 10
133.4831002296366
 20
50.5867592731902
 30
0.0
 10
133.5370341846003
 20
50.79299903825519
 30
0.0
 10
133.5936893246626
 20
50.99852649130339
 30
0.0
  0
LINE
  5
99
330
1F
100
AcDbEntity
  8
0
  6
Continuous
 62
     7
370
    25
100
AcDbLine
 10
138.0939089468
 20
50.9985264913
 30
0.0
 11
133.5936893247
 21
50.9985264913
 31
0.0
  0
SPLINE
  5
9A
330
1F
100
AcDbEntity
  8
0
  6
Continuous
 62
     7
370
    25
100
AcDbSpline
210
0.0
220
0.0
230
1.0
 70
     8
 71
     3
 72
    14
 73
    10
 74
     0
 42
0.00000001
 43
0.00000001
 40
0.0
 40
0.0
 40
0.0
 40
0.0
 40
0.25
 40
0.25
 40
0.5
 40
0.5
 40
0.75
 40
0.75
 40
1.0
 40
1.0
 40
1.0
 40
1.0
 10
138.0939089468448
 20
41.76092218426931
 30
0.0
 10
138.3018593075506
 20
42.5153022449193
 30
0.0
 10
138.4740811162394
 20
43.28474341238479
 30
0.0
 10
138.7087162389903
 20
44.82525477332596
 30
0.0
 10
138.771660297618
 20
45.60010915333298
 30
0.0
 10
138.7716003848865
 20
47.16047010821853
 30
0.0
 10
138.7069857185944
 20
47.95092630100357
 30
0.0
 10
138.4704263791932
 20
49.49320596381203
 30
0.0
 10
138.3000812391138
 20
50.25059671701322
 30
0.0
 10
138.0939089468447
 20
50.99852649130338
 30
0.0
  0
LINE
  5
9B
330
1F
100
AcDbEntity
  8
0
  6
Continuous
 62
     7
370
    25
100
AcDbLine
 10
133.5936893247
 20
41.7609221843
 30
0.0
 11
138.0939089468
 21
41.7609221843
 31
0.0
  0
SPLINE
  5
9C
330
1F
100
AcDbEntity
  8
0
  6
Continuous
 62
     7
370
    25
100
AcDbSpline
210
0.0
220
0.0
230
1.0
 70
     8
 71
     3
 72
     8
 73
     4
 74
     0
 42
0.00000001
 43
0.00000001
 40
0.0
 40
0.0
 40
0.0
 40
0.0
 40
1.0
 40
1.0
 40
1.0
 40
1.0
 10
133.5936893246626
 20
41.76092218426933
 30
0.0
 10
133.5371274812256
 20
41.96611118580615
 30
0.0
 10
133.4831874639692
 20
42.17233455187085
 30
0.0
 10
133.4322039963816
 20
42.37972433778631
 30
0.0
  0
LINE
  5
9D
330
1F
100
AcDbEntity
  8
0
  6
Continuous
 62
     7
370
    25
100
AcDbLine
 10
133.4322039964
 20
42.3797243378
 30
0.0
 11
130.9159679194
 21
42.3797243378
 31
0.0
  0
SPLINE
  5
9E
330
1F
100
AcDbEntity
  8
0
  6
Continuous
 62
     7
370
    25
100
AcDbSpline
210
0.0
220
0.0
230
1.0
 70
     8
 71
     3
 72
     8
 73
     4
 74
     0
 42
0.00000001
 43
0.00000001
 40
0.0
 40
0.0
 40
0.0
 40
0.0
 40
1.0
 40
1.0
 40
1.0
 40
1.0
 10
130.9159679194024
 20
38.57481312621239
 30
0.0
 10
131.1229969827378
 20
38.52391833651156
 30
0.0
 10
131.3292370000071
 20
38.46998448715012
 30
0.0
 10
131.5347700729194
 20
38.41332779793137
 30
0.0
  0
LINE
  5
9F
330
1F
100
AcDbEntity
  8
0
  6
Continuous
 62
     7
370
    25
100
AcDbLine
 10
131.5347700729
 20
35.0621006296
 30
0.0
 11
131.5347700729
 21
38.4133277979
 31
0.0
  0
SPLINE
  5
A0
330
1F
100
AcDbEntity
  8
0
  6
Continuous
 62
     7
370
    25
100
AcDbSpline
210
0.0
220
0.0
230
1.0
 70
     8
 71
     3
 72
    14
 73
    10
 74
     0
 42
0.00000001
 43
0.00000001
 40
0.0
 40
0.0
 40
0.0
 40
0.0
 40
0.4999999999999999
 40
0.4999999999999999
 40
0.6249999999999999
 40
0.6249999999999999
 40
0.7499999999999998
 40
0.7499999999999998
 40
1.0
 40
1.0
 40
1.0
 40
1.0
 10
122.2971657658854
 20
35.0621006295919
 30
0.0
 10
123.7954886904859
 20
34.6490769975039
 30
0.0
 10
125.3233887438331
 20
34.38577305050233
 30
0.0
 10
127.2979406555645
 20
34.38403787355261
 30
0.0
 10
127.6948075515915
 20
34.39984519382881
 30
0.0
 10
128.4779636311261
 20
34.46152329876042
 30
0.0
 10
128.8663340474834
 20
34.50733329775706
 30
0.0
 10
130.0229764759258
 20
34.68428983655554
 30
0.0
 10
130.7828108073187
 20
34.85481757868121
 30
0.0
 10
131.5347700729194
 20
35.0621006295919
 30
0.0
  0
LINE
  5
A1
330
1F
100
AcDbEntity
  8
0
  6
Continuous
 62
     7
370
    25
100
AcDbLine
 10
122.2971657659
 20
38.4133277979
 30
0.0
 11
122.2971657659
 21
35.0621006296
 31
0.0
  0
LINE
  5
A2
330
1F
100
AcDbEntity
  8
0
  6
Continuous
 62
     7
370
    25
100
AcDbLine
 10
126.0142090054
 20
44.9573513202
 30
0.0
 11
125.9725586861
 21
44.9335463904
 31
0.0
  0
ELLIPSE
  5
A3
330
1F
100
AcDbEntity
  8
0
  6
Continuous
 62
     7
370
    25
100
AcDbEllipse
 10
125.6237155066
 20
45.4882288616
 30
0.0
 11
0.6784129479252811
 21
6.039613253960851E-13
 31
0.0
210
0.0
220
0.0
230
1.0
 40
0.9533039403
 41
3.470145824140299
 42
5.252469180536304
  0
LINE
  5
A4
330
1F
100
AcDbEntity
  8
0
  6
Continuous
 62
     7
370
    25
100
AcDbLine
 10
124.9815907396
 20
45.2795447466
 30
0.0
 11
123.7219365347
 21
48.8019891432
 31
0.0
  0
ELLIPSE
  5
A5
330
1F
100
AcDbEntity
  8
0
  6
Continuous
 62
     7
370
    25
100
AcDbEllipse
 10
123.1309539767
 20
48.5396499072
 30
0.0
 11
0.6519124952381361
 21
6.039613253960852E-13
 31
0.0
210
0.0
220
0.0
230
1.0
 40
0.9533023292
 41
0.4357905044354985
 42
2.705800116361543
  0
LINE
  5
A6
330
1F
100
AcDbEntity
  8
0
  6
Continuous
 62
     7
370
    25
100
AcDbLine
 10
122.5399719782
 20
48.8019902885
 30
0.0
 11
121.2806071766
 21
45.2803668868
 31
0.0
  0
ELLIPSE
  5
A7
330
1F
100
AcDbEntity
  8
0
  6
Continuous
 62
     7
370
    25
100
AcDbEllipse
 10
120.6384859926
 20
45.4890497204
 30
0.0
 11
-0.6784085062757725
 21
3.268496584496461E-13
 31
0.0
210
0.0
220
0.0
230
1.0
 40
0.9533122623
 41
1.04719377118796
 42
2.813042320199924
  0
LINE
  5
A8
330
1F
100
AcDbEntity
  8
0
  6
Continuous
 62
     7
370
    25
100
AcDbLine
 10
120.2992795186
 20
44.9289618752
 30
0.0
 11
120.2476989481
 21
44.9573513202
 31
0.0
  0
LINE
  5
A9
330
1F
100
AcDbEntity
  8
0
  6
Continuous
 62
     7
370
    25
100
AcDbLine
 10
120.2476989481
 20
44.9573513202
 30
0.0
 11
121.0439676076
 21
43.4391792188
 31
0.0
  0
ELLIPSE
  5
AA
330
1F
100
AcDbEntity
  8
0
  6
Continuous
 62
     7
370
    25
100
AcDbEllipse
 10
121.119816481
 20
43.4753327337
 30
0.0
 11
0.08480161849064416
 21
-2.131628207280301E-14
 31
0.0
210
0.0
220
0.0
230
1.0
 40
0.9533039403
 41
3.605240262590911
 42
5.462183310215275
  0
ELLIPSE
  5
AB
330
1F
100
AcDbEntity
  8
0
  6
Continuous
 62
     7
370
    25
100
AcDbEllipse
 10
123.1309539767
 20
41.4164841132
 30
0.0
 11
2.866293551216216
 21
-1.485034317738609E-12
 31
0.0
210
0.0
220
0.0
230
1.0
 40
0.9533046568
 41
0.8210016221243798
 42
2.320591031466437
  0
ELLIPSE
  5
AC
330
1F
100
AcDbEntity
  8
0
  6
Continuous
 62
     7
370
    25
100
AcDbEllipse
 10
125.1420914725
 20
43.4753327337
 30
0.0
 11
0.08480161849058732
 21
0.0
 31
0.0
210
0.0
220
0.0
230
1.0
 40
0.9533039403
 41
3.962594650556384
 42
5.819537698177241
  0
LINE
  5
AD
330
1F
100
AcDbEntity
  8
0
  6
Continuous
 62
     7
370
    25
100
AcDbLine
 10
125.2179403459
 20
43.4391792188
 30
0.0
 11
126.0142090054
 21
44.9573513202
 31
0.0
  0
ARC
  5
AE
330
1F
100
AcDbEntity
  8
0
  6
Continuous
 62
     7
370
    25
100
AcDbCircle
 10
131.8088438715
 20
45.8028053445
 30
0.0
 40
0.8889999999999919
100
AcDbArc
 50
45.0
 51
159.0751675724
  0
LINE
  5
AF
330
1F
100
AcDbEntity
  8
0
  6
Continuous
 62
     7
370
    25
100
AcDbLine
 10
132.4374618
 20
46.431423273
 30
0.0
 11
132.9040721856
 21
46.8980336586
 31
0.0
  0
ARC
  5
B0
330
1F
100
AcDbEntity
  8
0
  6
Continuous
 62
     7
370
    25
100
AcDbCircle
 10
131.8088438715
 20
45.8028053445
 30
0.0
 40
1.548886735692384
100
AcDbArc
 50
45.0
 51
315.0
  0
LINE
  5
B1
330
1F
100
AcDbEntity
  8
0
  6
Continuous
 62
     7
370
    25
100
AcDbLine
 10
132.9040721856
 20
44.7075770304
 30
0.0
 11
132.4374618
 21
45.174187416
 31
0.0
  0
ARC
  5
B2
330
1F
100
AcDbEntity
  8
0
  6
Continuous
 62
     7
370
    25
100
AcDbCircle
 10
131.8088438715
 20
45.8028053445
 30
0.0
 40
0.889000000000017
100
AcDbArc
 50
200.9248324276
 51
315.0
  0
LINE
  5
B3
330
1F
100
AcDbEntity
  8
0
  6
Continuous
 62
     7
370
    25
100
AcDbLine
 10
130.9784736227
 20
45.4853053445
 30
0.0
 11
132.9040721856
 21
45.4853053445
 31
0.0
  0
LINE
  5
B4
330
1F
100
AcDbEntity
  8
0
  6
Continuous
 62
     7
370
    25
100
AcDbLine
 10
132.9040721856
 20
45.4853053445
 30
0.0
 11
132.9040721856
 21
46.1203053445
 31
0.0
  0
LINE
  5
B5
330
1F
100
AcDbEntity
  8
0
  6
Continuous
 62
     7
370
    25
100
AcDbLine
 10
132.9040721856
 20
46.1203053445
 30
0.0
 11
130.9784736227
 21
46.1203053445
 31
0.0
  0
ARC
  5
B6
330
1F
100
AcDbEntity
  8
0
  6
Continuous
 62
     7
370
    25
100
AcDbCircle
 10
128.4666992751
 20
45.8028053445
 30
0.0
 40
0.889000000000007
100
AcDbArc
 50
45.0
 51
315.0
  0
LINE
  5
B7
330
1F
100
AcDbEntity
  8
0
  6
Continuous
 62
     7
370
    25
100
AcDbLine
 10
129.0953172036
 20
46.431423273
 30
0.0
 11
129.5619275892
 21
46.8980336586
 31
0.0
  0
ARC
  5
B8
330
1F
100
AcDbEntity
  8
0
  6
Continuous
 62
     7
370
    25
100
AcDbCircle
 10
128.4666992751
 20
45.8028053445
 30
0.0
 40
1.548886735692414
100
AcDbArc
 50
45.0
 51
315.0
  0
LINE
  5
B9
330
1F
100
AcDbEntity
  8
0
  6
Continuous
 62
     7
370
    25
100
AcDbLine
 10
129.5619275892
 20
44.7075770304
 30
0.0
 11
129.0953172036
 21
45.174187416
 31
0.0
  0
LINE
  5
BA
330
1F
100
AcDbEntity
  8
0
  6
Continuous
 62
     7
370
    25
100
AcDbLine
 10
130.9159679194
 20
38.5748131262
 30
0.0
 11
130.9159679194
 21
42.3797243378
 31
0.0
  0
LINE
  5
BB
330
1F
100
AcDbEntity
  8
0
  6
Continuous
 62
     7
370
    25
100
AcDbLine
 10
120.9159679194
 20
53.74094027
 30
0.0
 11
120.9159679194
 21
50.3797243378
 31
0.0
  0
SPLINE
  5
BC
330
1F
100
AcDbEntity
  8
0
  6
Continuous
 62
     7
370
    25
100
AcDbSpline
210
0.0
220
0.0
230
1.0
 70
     8
 71
     3
 72
    10
 73
     6
 74
     0
 42
0.00000001
 43
0.00000001
 40
0.0
 40
0.0
 40
0.0
 40
0.0
 40
0.5
 40
0.5
 40
1.0
 40
1.0
 40
1.0
 40
1.0
 10
120.2382465141422
 20
51.4315391931956
 30
0.0
 10
120.2145711197178
 20
51.38859566229436
 30
0.0
 10
120.2014800098331
 20
51.32515321767024
 30
0.0
 10
120.2013936885449
 20
51.17267438055128
 30
0.0
 10
120.2145626224887
 20
51.084444378444
 30
0.0
 10
120.2382465141422
 20
50.99852649130338
 30
0.0
  0
SPLINE
  5
BD
330
1F
100
AcDbEntity
  8
0
  6
Continuous
 62
     7
370
    25
100
AcDbSpline
210
0.0
220
0.0
230
1.0
 70
     8
 71
     3
 72
    12
 73
     8
 74
     0
 42
0.00000001
 43
0.00000001
 40
0.0
 40
0.0
 40
0.0
 40
0.0
 40
0.2500000000000001
 40
0.2500000000000001
 40
0.5000000000000002
 40
0.5000000000000002
 40
1.0
 40
1.0
 40
1.0
 40
1.0
 10
120.9159679194024
 20
53.7409402699541
 30
0.0
 10
120.9159679194024
 20
53.54519800707459
 30
0.0
 10
120.9001249833134
 20
53.34853139788402
 30
0.0
 10
120.8386221230758
 20
52.95926317055574
 30
0.0
 10
120.7930184820321
 20
52.76585913760282
 30
0.0
 10
120.6165674645428
 20
52.18893008634606
 30
0.0
 10
120.446170097291
 20
51.80868065314306
 30
0.0
 10
120.2382465141422
 20
51.4315391931956
 30
0.0
  0
SPLINE
  5
BE
330
1F
100
AcDbEntity
  8
0
  6
Continuous
 62
     7
370
    25
100
AcDbSpline
210
0.0
220
0.0
230
1.0
 70
     8
 71
     3
 72
     8
 73
     4
 74
     0
 42
0.00000001
 43
0.00000001
 40
0.0
 40
0.0
 40
0.0
 40
0.0
 40
1.0
 40
1.0
 40
1.0
 40
1.0
 10
119.6265917347857
 20
39.09034815315763
 30
0.0
 10
119.9356088774275
 20
39.19135326098776
 30
0.0
 10
120.2509266337455
 20
39.28801005005369
 30
0.0
 10
120.5734059605885
 20
39.37972433778637
 30
0.0
  0
SPLINE
  5
BF
330
1F
100
AcDbEntity
  8
0
  6
Continuous
 62
     7
370
    25
100
AcDbSpline
210
0.0
220
0.0
230
1.0
 70
     8
 71
     3
 72
    10
 73
     6
 74
     0
 42
0.00000001
 43
0.00000001
 40
0.0
 40
0.0
 40
0.0
 40
0.0
 40
0.5
 40
0.5
 40
1.0
 40
1.0
 40
1.0
 40
1.0
 10
121.8641530639931
 20
38.41332779793137
 30
0.0
 10
121.9070965948944
 20
38.38965240350698
 30
0.0
 10
121.9705390395185
 20
38.37656129362234
 30
0.0
 10
122.1230178766375
 20
38.37647497233405
 30
0.0
 10
122.2112478787447
 20
38.3896439062779
 30
0.0
 10
122.2971657658854
 20
38.41332779793137
 30
0.0
  0
SPLINE
  5
C0
330
1F
100
AcDbEntity
  8
0
  6
Continuous
 62
     7
370
    25
100
AcDbSpline
210
0.0
220
0.0
230
1.0
 70
     8
 71
     3
 72
    12
 73
     8
 74
     0
 42
0.00000001
 43
0.00000001
 40
0.0
 40
0.0
 40
0.0
 40
0.0
 40
0.2500000000000002
 40
0.2500000000000002
 40
0.5000000000000004
 40
0.5000000000000004
 40
1.0
 40
1.0
 40
1.0
 40
1.0
 10
119.6265917347805
 20
39.0903481531515
 30
0.0
 10
119.8166179100837
 20
39.08663966729508
 30
0.0
 10
120.0068329727695
 20
39.06805716445739
 30
0.0
 10
120.3837697319019
 20
39.00319012749124
 30
0.0
 10
120.5710925231614
 20
38.95692457424099
 30
0.0
 10
121.1300024794755
 20
38.78120004393403
 30
0.0
 10
121.4985381375859
 20
38.61489663515727
 30
0.0
 10
121.8641530639931
 20
38.41332779793137
 30
0.0
  0
LINE
  5
C1
330
1F
100
AcDbEntity
  8
0
  6
Continuous
 62
     7
370
    25
100
AcDbLine
 10
120.9159679194
 20
42.3797243378
 30
0.0
 11
120.9159679194
 21
40.3797243378
 31
0.0
  0
SPLINE
  5
C2
330
1F
100
AcDbEntity
  8
0
  6
Continuous
 62
     7
370
    25
100
AcDbSpline
210
0.0
220
0.0
230
1.0
 70
     8
 71
     3
 72
     8
 73
     4
 74
     0
 42
0.00000001
 43
0.00000001
 40
0.0
 40
0.0
 40
0.0
 40
0.0
 40
1.0
 40
1.0
 40
1.0
 40
1.0
 10
120.9159679194024
 20
40.37972433778636
 30
0.0
 10
120.8761892612122
 20
40.24233924878627
 30
0.0
 10
120.835700298384
 20
40.10563516697449
 30
0.0
 10
120.7945844279062
 20
39.96960280446113
 30
0.0
  0
SPLINE
  5
C3
330
1F
100
AcDbEntity
  8
0
  6
Continuous
 62
     7
370
    25
100
AcDbSpline
210
0.0
220
0.0
230
1.0
 70
     8
 71
     3
 72
     8
 73
     4
 74
     0
 42
0.00000001
 43
0.00000001
 40
0.0
 40
0.0
 40
0.0
 40
0.0
 40
1.0
 40
1.0
 40
1.0
 40
1.0
 10
120.2382465141422
 20
41.32790948237715
 30
0.0
 10
120.4854202950261
 20
40.87957418932582
 30
0.0
 10
120.6791419633301
 20
40.42739969858222
 30
0.0
 10
120.7945844279062
 20
39.96960280446113
 30
0.0
  0
SPLINE
  5
C4
330
1F
100
AcDbEntity
  8
0
  6
Continuous
 62
     7
370
    25
100
AcDbSpline
210
0.0
220
0.0
230
1.0
 70
     8
 71
     3
 72
    10
 73
     6
 74
     0
 42
0.00000001
 43
0.00000001
 40
0.0
 40
0.0
 40
0.0
 40
0.0
 40
0.5
 40
0.5
 40
1.0
 40
1.0
 40
1.0
 40
1.0
 10
120.2382465141421
 20
41.76092218426935
 30
0.0
 10
120.2145711197177
 20
41.6750351224669
 30
0.0
 10
120.2014800098331
 20
41.58762791348678
 30
0.0
 10
120.2013936885449
 20
41.43499147089305
 30
0.0
 10
120.2145626224887
 20
41.37086842594746
 30
0.0
 10
120.2382465141422
 20
41.32790948237715
 30
0.0
  0
LINE
  5
C5
330
1F
100
AcDbEntity
  8
0
  6
Continuous
 62
     7
370
    25
100
AcDbLine
 10
138.0939089468
 20
41.3279094824
 30
0.0
 11
133.5936893247
 21
41.3279094824
 31
0.0
  0
SPLINE
  5
C6
330
1F
100
AcDbEntity
  8
0
  6
Continuous
 62
     7
370
    25
100
AcDbSpline
210
0.0
220
0.0
230
1.0
 70
     8
 71
     3
 72
    10
 73
     6
 74
     0
 42
0.00000001
 43
0.00000001
 40
0.0
 40
0.0
 40
0.0
 40
0.0
 40
0.5
 40
0.5
 40
1.0
 40
1.0
 40
1.0
 40
1.0
 10
133.5936893246593
 20
41.32790948237714
 30
0.0
 10
133.6173647190836
 20
41.3708530132783
 30
0.0
 10
133.6304558289715
 20
41.4342954579021
 30
0.0
 10
133.6305421502599
 20
41.58677429502118
 30
0.0
 10
133.6173732163161
 20
41.6750042971286
 30
0.0
 10
133.5936893246626
 20
41.76092218426935
 30
0.0
  0
SPLINE
  5
C7
330
1F
100
AcDbEntity
  8
0
  6
Continuous
 62
     7
370
    25
100
AcDbSpline
210
0.0
220
0.0
230
1.0
 70
     8
 71
     3
 72
    10
 73
     6
 74
     0
 42
0.00000001
 43
0.00000001
 40
0.0
 40
0.0
 40
0.0
 40
0.0
 40
0.5
 40
0.5
 40
1.0
 40
1.0
 40
1.0
 40
1.0
 10
138.0939089468446
 20
41.76092218426936
 30
0.0
 10
138.0702335524203
 20
41.6750351224669
 30
0.0
 10
138.0571424425358
 20
41.58762791348676
 30
0.0
 10
138.0570561212475
 20
41.43499147089304
 30
0.0
 10
138.0702250551913
 20
41.37086842594745
 30
0.0
 10
138.0939089468447
 20
41.32790948237714
 30
0.0
  0
SPLINE
  5
C8
330
1F
100
AcDbEntity
  8
0
  6
Continuous
 62
     7
370
    25
100
AcDbSpline
210
0.0
220
0.0
230
1.0
 70
     8
 71
     3
 72
    10
 73
     6
 74
     0
 42
0.00000001
 43
0.00000001
 40
0.0
 40
0.0
 40
0.0
 40
0.0
 40
0.5
 40
0.5
 40
1.0
 40
1.0
 40
1.0
 40
1.0
 10
133.5936893246626
 20
50.99852649130338
 30
0.0
 10
133.617364719087
 20
51.08441355310583
 30
0.0
 10
133.6304558289716
 20
51.17182076208594
 30
0.0
 10
133.6305421502599
 20
51.32445720467967
 30
0.0
 10
133.617373216316
 20
51.38858024962525
 30
0.0
 10
133.5936893246626
 20
51.43153919319557
 30
0.0
  0
LINE
  5
C9
330
1F
100
AcDbEntity
  8
0
  6
Continuous
 62
     7
370
    25
100
AcDbLine
 10
133.5936893247
 20
51.4315391932
 30
0.0
 11
138.0939089468
 21
51.4315391932
 31
0.0
  0
SPLINE
  5
CA
330
1F
100
AcDbEntity
  8
0
  6
Continuous
 62
     7
370
    25
100
AcDbSpline
210
0.0
220
0.0
230
1.0
 70
     8
 71
     3
 72
    10
 73
     6
 74
     0
 42
0.00000001
 43
0.00000001
 40
0.0
 40
0.0
 40
0.0
 40
0.0
 40
0.5
 40
0.5
 40
1.0
 40
1.0
 40
1.0
 40
1.0
 10
138.0939089468447
 20
51.4315391931956
 30
0.0
 10
138.0702335524204
 20
51.38859566229436
 30
0.0
 10
138.0571424425358
 20
51.32515321767024
 30
0.0
 10
138.0570561212475
 20
51.17267438055128
 30
0.0
 10
138.0702250551913
 20
51.084444378444
 30
0.0
 10
138.0939089468447
 20
50.99852649130338
 30
0.0
  0
LINE
  5
CB
330
1F
100
AcDbEntity
  8
0
  6
Continuous
 62
     7
370
    25
100
AcDbLine
 10
122.8622069129
 20
45.8052924813
 30
0.0
 11
123.4695552717
 21
45.8052924813
 31
0.0
  0
ELLIPSE
  5
CC
330
1F
100
AcDbEntity
  8
0
  6
Continuous
 62
     7
370
    25
100
AcDbEllipse
 10
123.1658810941
 20
46.6967168154
 30
0.0
 11
0.08480161849065837
 21
7.105427357601002E-15
 31
0.0
210
0.0
220
0.0
230
1.0
 40
0.9533039403
 41
0.3430239404205784
 42
2.798568713169097
  0
LINE
  5
CD
330
1F
100
AcDbEntity
  8
0
  6
Continuous
 62
     7
370
    25
100
AcDbLine
 10
123.54941651
 20
45.9133242101
 30
0.0
 11
123.2457423324
 21
46.7239068272
 31
0.0
  0
ELLIPSE
  5
CE
330
1F
100
AcDbEntity
  8
0
  6
Continuous
 62
     7
370
    25
100
AcDbEllipse
 10
123.4695552717
 20
45.8861341984
 30
0.0
 11
-0.08480161849067258
 21
-4.263256414560601E-14
 31
0.0
210
0.0
220
0.0
230
1.0
 40
0.9533039403
 41
1.570796326794417
 42
3.484616592149308
  0
ELLIPSE
  5
CF
330
1F
100
AcDbEntity
  8
0
  6
Continuous
 62
     7
370
    25
100
AcDbEllipse
 10
122.8622069129
 20
45.8861341984
 30
0.0
 11
0.08480161849064416
 21
-1.421085471520200E-14
 31
0.0
210
0.0
220
0.0
230
1.0
 40
0.9533039403
 41
2.798568711308466
 42
4.712388980384862
  0
LINE
  5
D0
330
1F
100
AcDbEntity
  8
0
  6
Continuous
 62
     7
370
    25
100
AcDbLine
 10
123.0860198558
 20
46.7239068272
 30
0.0
 11
122.7823456746
 21
45.9133242103
 31
0.0
  0
LINE
  5
D1
330
1F
100
AcDbEntity
  8
0
  6
Continuous
 62
     7
370
    25
100
AcDbLine
 10
115.4159679194
 20
46.3797243378
 30
0.0
 11
115.4159679194
 21
39.0185084056
 31
0.0
  0
SPLINE
  5
D2
330
1F
100
AcDbEntity
  8
0
  6
Continuous
 62
     7
370
    25
100
AcDbSpline
210
0.0
220
0.0
230
1.0
 70
     8
 71
     3
 72
    10
 73
     6
 74
     0
 42
0.00000001
 43
0.00000001
 40
0.0
 40
0.0
 40
0.0
 40
0.0
 40
0.5
 40
0.5
 40
1.0
 40
1.0
 40
1.0
 40
1.0
 10
116.0936893246626
 20
41.76092218426935
 30
0.0
 10
116.1173632252185
 20
41.6750405417629
 30
0.0
 10
116.1304557823977
 20
41.58763133579747
 30
0.0
 10
116.1305421963799
 20
41.43498885072254
 30
0.0
 10
116.1173718047813
 20
41.37086586564017
 30
0.0
 10
116.0936893246626
 20
41.32790948237714
 30
0.0
  0
SPLINE
  5
D3
330
1F
100
AcDbEntity
  8
0
  6
Continuous
 62
     7
370
    25
100
AcDbSpline
210
0.0
220
0.0
230
1.0
 70
     8
 71
     3
 72
    12
 73
     8
 74
     0
 42
0.00000001
 43
0.00000001
 40
0.0
 40
0.0
 40
0.0
 40
0.0
 40
0.2499999999999999
 40
0.2499999999999999
 40
0.4999999999999998
 40
0.4999999999999998
 40
1.0
 40
1.0
 40
1.0
 40
1.0
 10
115.4159679194024
 20
39.01850840561864
 30
0.0
 10
115.4159679194024
 20
39.21351188562443
 30
0.0
 10
115.4317142494243
 20
39.41004654464884
 30
0.0
 10
115.4931592740098
 20
39.7994662322544
 30
0.0
 10
115.5387480332635
 20
39.99295092531466
 30
0.0
 10
115.7151990355201
 20
40.57013452407026
 30
0.0
 10
115.8856567374836
 20
40.95057030585322
 30
0.0
 10
116.0936893246624
 20
41.32790948237715
 30
0.0
  0
LINE
  5
D4
330
1F
100
AcDbEntity
  8
0
  6
Continuous
 62
     7
370
    25
100
AcDbLine
 10
115.4159679194
 20
46.3797243378
 30
0.0
 11
115.4159679194
 21
53.74094027
 31
0.0
  0
SPLINE
  5
D5
330
1F
100
AcDbEntity
  8
0
  6
Continuous
 62
     7
370
    25
100
AcDbSpline
210
0.0
220
0.0
230
1.0
 70
     8
 71
     3
 72
    10
 73
     6
 74
     0
 42
0.00000001
 43
0.00000001
 40
0.0
 40
0.0
 40
0.0
 40
0.0
 40
0.5
 40
0.5
 40
1.0
 40
1.0
 40
1.0
 40
1.0
 10
116.0936893246621
 20
51.43153919319557
 30
0.0
 10
115.8848793999958
 20
51.81028834058685
 30
0.0
 10
115.7143452602486
 20
52.19149361699816
 30
0.0
 10
115.4795594552297
 20
52.96072423818594
 30
0.0
 10
115.4159679194024
 20
53.34879194298426
 30
0.0
 10
115.4159679194024
 20
53.7409402699541
 30
0.0
  0
SPLINE
  5
D6
330
1F
100
AcDbEntity
  8
0
  6
Continuous
 62
     7
370
    25
100
AcDbSpline
210
0.0
220
0.0
230
1.0
 70
     8
 71
     3
 72
    10
 73
     6
 74
     0
 42
0.00000001
 43
0.00000001
 40
0.0
 40
0.0
 40
0.0
 40
0.0
 40
0.5
 40
0.5
 40
1.0
 40
1.0
 40
1.0
 40
1.0
 10
116.0936893246626
 20
51.4315391931956
 30
0.0
 10
116.1173615645741
 20
51.38860138409636
 30
0.0
 10
116.1304555545094
 20
51.32516079420417
 30
0.0
 10
116.1305424219708
 20
51.17267164869532
 30
0.0
 10
116.1173726322115
 20
51.08444225949201
 30
0.0
 10
116.0936893246626
 20
50.99852649130337
 30
0.0
  0
SPLINE
  5
D7
330
1F
100
AcDbEntity
  8
0
  6
Continuous
 62
     7
370
    25
100
AcDbSpline
210
0.0
220
0.0
230
1.0
 70
     8
 71
     3
 72
    10
 73
     6
 74
     0
 42
0.00000001
 43
0.00000001
 40
0.0
 40
0.0
 40
0.0
 40
0.0
 40
0.5
 40
0.5
 40
1.0
 40
1.0
 40
1.0
 40
1.0
 10
131.5347700729194
 20
38.41332779793135
 30
0.0
 10
131.6206571347219
 20
38.38965240350693
 30
0.0
 10
131.7080643437021
 20
38.37656129362231
 30
0.0
 10
131.860700786296
 20
38.37647497233409
 30
0.0
 10
131.9248238312418
 20
38.38964390627802
 30
0.0
 10
131.967782774812
 20
38.41332779793158
 30
0.0
  0
LINE
  5
D8
330
1F
100
AcDbEntity
  8
0
  6
Continuous
 62
     7
370
    25
100
AcDbLine
 10
131.9677827748
 20
38.4133277979
 30
0.0
 11
131.9677827748
 21
35.0621006296
 31
0.0
  0
SPLINE
  5
D9
330
1F
100
AcDbEntity
  8
0
  6
Continuous
 62
     7
370
    25
100
AcDbSpline
210
0.0
220
0.0
230
1.0
 70
     8
 71
     3
 72
    10
 73
     6
 74
     0
 42
0.00000001
 43
0.00000001
 40
0.0
 40
0.0
 40
0.0
 40
0.0
 40
0.5
 40
0.5
 40
1.0
 40
1.0
 40
1.0
 40
1.0
 10
131.9677827748116
 20
35.0621006295919
 30
0.0
 10
131.9248449657124
 20
35.08577286950346
 30
0.0
 10
131.8614043758202
 20
35.09886685943872
 30
0.0
 10
131.7089152303113
 20
35.09895372690017
 30
0.0
 10
131.620685841108
 20
35.08578393714081
 30
0.0
 10
131.5347700729194
 20
35.0621006295919
 30
0.0
  0
SPLINE
  5
DA
330
1F
100
AcDbEntity
  8
0
  6
Continuous
 62
     7
370
    25
100
AcDbSpline
210
0.0
220
0.0
230
1.0
 70
     8
 71
     3
 72
     8
 73
     4
 74
     0
 42
0.00000001
 43
0.00000001
 40
0.0
 40
0.0
 40
0.0
 40
0.0
 40
1.0
 40
1.0
 40
1.0
 40
1.0
 10
133.0373514108985
 20
39.96960280446113
 30
0.0
 10
132.9962361352573
 20
40.10563319895068
 30
0.0
 10
132.9557471523894
 20
40.24233726358811
 30
0.0
 10
132.9159679194024
 20
40.37972433778636
 30
0.0
  0
LINE
  5
DB
330
1F
100
AcDbEntity
  8
0
  6
Continuous
 62
     7
370
    25
100
AcDbLine
 10
132.9159679194
 20
42.3797243378
 30
0.0
 11
132.9159679194
 21
40.3797243378
 31
0.0
  0
SPLINE
  5
DC
330
1F
100
AcDbEntity
  8
0
  6
Continuous
 62
     7
370
    25
100
AcDbSpline
210
0.0
220
0.0
230
1.0
 70
     8
 71
     3
 72
     8
 73
     4
 74
     0
 42
0.00000001
 43
0.00000001
 40
0.0
 40
0.0
 40
0.0
 40
0.0
 40
1.0
 40
1.0
 40
1.0
 40
1.0
 10
133.0373514108985
 20
39.96960280446113
 30
0.0
 10
133.1529840209276
 20
40.42815373651888
 30
0.0
 10
133.346873425748
 20
40.88022333227714
 30
0.0
 10
133.5936893246624
 20
41.32790948237688
 30
0.0
  0
LINE
  5
DD
330
1F
100
AcDbEntity
  8
0
  6
Continuous
 62
     7
370
    25
100
AcDbLine
 10
118.4240304194
 20
34.3797243378
 30
0.0
 11
135.4079054194
 21
34.3797243378
 31
0.0
  0
SPLINE
  5
DE
330
1F
100
AcDbEntity
  8
0
  6
Continuous
 62
     7
370
    25
100
AcDbSpline
210
0.0
220
0.0
230
1.0
 70
     8
 71
     3
 72
    16
 73
    12
 74
     0
 42
0.00000001
 43
0.00000001
 40
0.0
 40
0.0
 40
0.0
 40
0.0
 40
0.2499999999999999
 40
0.2499999999999999
 40
0.4999999999999998
 40
0.4999999999999998
 40
0.6249999999999998
 40
0.6249999999999998
 40
0.7499999999999997
 40
0.7499999999999997
 40
1.0
 40
1.0
 40
1.0
 40
1.0
 10
131.9677827748116
 20
35.06210062959143
 30
0.0
 10
132.3454978225346
 20
34.85386081914278
 30
0.0
 10
132.7256555711605
 20
34.68368753273335
 30
0.0
 10
133.4927489030519
 20
34.4489652731175
 30
0.0
 10
133.8797262603896
 20
34.38506729804303
 30
0.0
 10
134.4662770354142
 20
34.38404359595653
 30
0.0
 10
134.6633561953373
 20
34.39953014310122
 30
0.0
 10
135.0538853348456
 20
34.46065386455922
 30
0.0
 10
135.2479170385186
 20
34.50617559185424
 30
0.0
 10
135.8267211109397
 20
34.6826749555994
 30
0.0
 10
136.2082098451062
 20
34.85349693195323
 30
0.0
 10
136.5865849283286
 20
35.06210062959175
 30
0.0
  0
SPLINE
  5
DF
330
1F
100
AcDbEntity
  8
0
  6
Continuous
 62
     7
370
    25
100
AcDbSpline
210
0.0
220
0.0
230
1.0
 70
     8
 71
     3
 72
    10
 73
     6
 74
     0
 42
0.00000001
 43
0.00000001
 40
0.0
 40
0.0
 40
0.0
 40
0.0
 40
0.1593935213061874
 40
0.7189934545756529
 40
1.0
 40
1.0
 40
1.0
 40
1.0
 10
136.6488770077949
 20
35.09633761916929
 30
0.0
 10
136.6502669266216
 20
35.09709914616676
 30
0.0
 10
136.6565365825684
 20
35.1005342476826
 30
0.0
 10
136.6300526407444
 20
35.086039625216
 30
0.0
 10
136.5974752366977
 20
35.06809825472339
 30
0.0
 10
136.5865849283286
 20
35.0621006295919
 30
0.0
  0
SPLINE
  5
E0
330
1F
100
AcDbEntity
  8
0
  6
Continuous
 62
     7
370
    25
100
AcDbSpline
210
0.0
220
0.0
230
1.0
 70
     8
 71
     3
 72
     9
 73
     5
 74
     0
 42
0.00000001
 43
0.00000001
 40
0.0
 40
0.0
 40
0.0
 40
0.0
 40
0.5789479223911734
 40
1.0
 40
1.0
 40
1.0
 40
1.0
 10
117.2453509104761
 20
35.0621006295919
 30
0.0
 10
117.2229095432835
 20
35.07444151990631
 30
0.0
 10
117.184147218859
 20
35.09575758278022
 30
0.0
 10
117.1833813159999
 20
35.09616575669461
 30
0.0
 10
117.1830588310098
 20
35.09633761916929
 30
0.0
  0
SPLINE
  5
E1
330
1F
100
AcDbEntity
  8
0
  6
Continuous
 62
     7
370
    25
100
AcDbSpline
210
0.0
220
0.0
230
1.0
 70
     8
 71
     3
 72
    16
 73
    12
 74
     0
 42
0.00000001
 43
0.00000001
 40
0.0
 40
0.0
 40
0.0
 40
0.0
 40
0.2500000000000001
 40
0.2500000000000001
 40
0.5000000000000001
 40
0.5000000000000001
 40
0.6250000000000001
 40
0.6250000000000001
 40
0.7500000000000002
 40
0.7500000000000002
 40
1.0
 40
1.0
 40
1.0
 40
1.0
 10
117.2453509104761
 20
35.06210062959143
 30
0.0
 10
117.6230659581991
 20
34.85386081914279
 30
0.0
 10
118.0032237068251
 20
34.68368753273335
 30
0.0
 10
118.7703170387165
 20
34.4489652731175
 30
0.0
 10
119.1572943960541
 20
34.38506729804303
 30
0.0
 10
119.7438451710788
 20
34.38404359595653
 30
0.0
 10
119.9409243310019
 20
34.39953014310122
 30
0.0
 10
120.3314534705101
 20
34.46065386455922
 30
0.0
 10
120.5254851741832
 20
34.50617559185424
 30
0.0
 10
121.1042892466042
 20
34.6826749555994
 30
0.0
 10
121.4857779807707
 20
34.85349693195323
 30
0.0
 10
121.8641530639932
 20
35.06210062959175
 30
0.0
  0
SPLINE
  5
E2
330
1F
100
AcDbEntity
  8
0
  6
Continuous
 62
     7
370
    25
100
AcDbSpline
210
0.0
220
0.0
230
1.0
 70
     8
 71
     3
 72
    10
 73
     6
 74
     0
 42
0.00000001
 43
0.00000001
 40
0.0
 40
0.0
 40
0.0
 40
0.0
 40
0.5
 40
0.5
 40
1.0
 40
1.0
 40
1.0
 40
1.0
 10
122.2971657658854
 20
35.0621006295919
 30
0.0
 10
122.2112841233789
 20
35.08577453014786
 30
0.0
 10
122.1238749174135
 20
35.098867087327
 30
0.0
 10
121.9712324323385
 20
35.09895350130927
 30
0.0
 10
121.9071094472562
 20
35.08578310971065
 30
0.0
 10
121.8641530639931
 20
35.0621006295919
 30
0.0
  0
SPLINE
  5
E3
330
1F
100
AcDbEntity
  8
0
  6
Continuous
 62
     7
370
    25
100
AcDbSpline
210
0.0
220
0.0
230
1.0
 70
     8
 71
     3
 72
     8
 73
     4
 74
     0
 42
0.00000001
 43
0.00000001
 40
0.0
 40
0.0
 40
0.0
 40
0.0
 40
1.0
 40
1.0
 40
1.0
 40
1.0
 10
133.2585298782162
 20
39.37972433778637
 30
0.0
 10
133.5810092050655
 20
39.28801005005191
 30
0.0
 10
133.8963269613895
 20
39.19135326098401
 30
0.0
 10
134.205344104037
 20
39.09034815315175
 30
0.0
  0
SPLINE
  5
E4
330
1F
100
AcDbEntity
  8
0
  6
Continuous
 62
     7
370
    25
100
AcDbSpline
210
0.0
220
0.0
230
1.0
 70
     8
 71
     3
 72
    10
 73
     6
 74
     0
 42
0.00000001
 43
0.00000001
 40
0.0
 40
0.0
 40
0.0
 40
0.0
 40
0.5
 40
0.5
 40
1.0
 40
1.0
 40
1.0
 40
1.0
 10
131.9677827748119
 20
38.41332779793152
 30
0.0
 10
132.3343007216524
 20
38.61539448348245
 30
0.0
 10
132.7033809471182
 20
38.78178725575309
 30
0.0
 10
133.4486332953456
 20
39.01583422962314
 30
0.0
 10
133.8248460672934
 20
39.08292248358197
 30
0.0
 10
134.205344104037
 20
39.09034815315175
 30
0.0
  0
LINE
  5
E5
330
1F
100
AcDbEntity
  8
0
  6
Continuous
 62
     7
370
    25
100
AcDbLine
 10
132.9159679194
 20
53.74094027
 30
0.0
 11
132.9159679194
 21
50.3797243378
 31
0.0
  0
SPLINE
  5
E6
330
1F
100
AcDbEntity
  8
0
  6
Continuous
 62
     7
370
    25
100
AcDbSpline
210
0.0
220
0.0
230
1.0
 70
     8
 71
     3
 72
    10
 73
     6
 74
     0
 42
0.00000001
 43
0.00000001
 40
0.0
 40
0.0
 40
0.0
 40
0.0
 40
0.5
 40
0.5
 40
1.0
 40
1.0
 40
1.0
 40
1.0
 10
133.5936893246626
 20
51.43153919319558
 30
0.0
 10
133.3852685718452
 20
51.80958244259774
 30
0.0
 10
133.2148047365677
 20
52.19035194739358
 30
0.0
 10
132.9798223016293
 20
52.95950047295113
 30
0.0
 10
132.9159679194024
 20
53.34792720112637
 30
0.0
 10
132.9159679194024
 20
53.7409402699541
 30
0.0
  0
SPLINE
  5
E7
330
1F
100
AcDbEntity
  8
0
  6
Continuous
 62
     7
370
    25
100
AcDbSpline
210
0.0
220
0.0
230
1.0
 70
     8
 71
     3
 72
    16
 73
    12
 74
     0
 42
0.00000001
 43
0.00000001
 40
0.0
 40
0.0
 40
0.0
 40
0.0
 40
0.2500000000000001
 40
0.2500000000000001
 40
0.5000000000000001
 40
0.5000000000000001
 40
0.6250000000000001
 40
0.6250000000000001
 40
0.7500000000000002
 40
0.7500000000000002
 40
1.0
 40
1.0
 40
1.0
 40
1.0
 10
138.0939089468447
 20
56.05034134671261
 30
0.0
 10
138.3019243949505
 20
55.67303325783611
 30
0.0
 10
138.4721306999235
 20
55.2930095274619
 30
0.0
 10
138.7070667314911
 20
54.52538621205121
 30
0.0
 10
138.7711388631547
 20
54.13773939526241
 30
0.0
 10
138.7718718120758
 20
53.54941884337457
 30
0.0
 10
138.7562123319927
 20
53.35234565081892
 30
0.0
 10
138.6949372053558
 20
52.96228867326482
 30
0.0
 10
138.6493809328567
 20
52.76849577267678
 30
0.0
 10
138.4728949001004
 20
52.19041478791335
 30
0.0
 10
138.3022384466147
 20
51.80941692357853
 30
0.0
 10
138.0939089468447
 20
51.4315391931956
 30
0.0
  0
SPLINE
  5
E8
330
1F
100
AcDbEntity
  8
0
  6
Continuous
 62
     7
370
    25
100
AcDbSpline
210
0.0
220
0.0
230
1.0
 70
     8
 71
     3
 72
    10
 73
     6
 74
     0
 42
0.00000001
 43
0.00000001
 40
0.0
 40
0.0
 40
0.0
 40
0.0
 40
0.1601790552921226
 40
0.7197651707803578
 40
1.0
 40
1.0
 40
1.0
 40
1.0
 10
138.0596795137278
 20
56.11261962546235
 30
0.0
 10
138.0589167236346
 20
56.11401185348872
 30
0.0
 10
138.0554891235608
 20
56.12026783521704
 30
0.0
 10
138.0699965883592
 20
56.09376057048913
 30
0.0
 10
138.087926141477
 20
56.06120471534398
 30
0.0
 10
138.0939089468447
 20
56.05034134671261
 30
0.0
  0
SPLINE
  5
E9
330
1F
100
AcDbEntity
  8
0
  6
Continuous
 62
     7
370
    25
100
AcDbSpline
210
0.0
220
0.0
230
1.0
 70
     8
 71
     3
 72
     9
 73
     5
 74
     0
 42
0.00000001
 43
0.00000001
 40
0.0
 40
0.0
 40
0.0
 40
0.0
 40
0.5797912171256352
 40
1.0
 40
1.0
 40
1.0
 40
1.0
 10
138.0939089468447
 20
36.70910732886014
 30
0.0
 10
138.0815503434983
 20
36.686633680619
 30
0.0
 10
138.0602347337039
 20
36.64787205819818
 30
0.0
 10
138.0598437912011
 20
36.64713765343998
 30
0.0
 10
138.0596795137278
 20
36.64682905011039
 30
0.0
  0
SPLINE
  5
EA
330
1F
100
AcDbEntity
  8
0
  6
Continuous
 62
     7
370
    25
100
AcDbSpline
210
0.0
220
0.0
230
1.0
 70
     8
 71
     3
 72
    16
 73
    12
 74
     0
 42
0.00000001
 43
0.00000001
 40
0.0
 40
0.0
 40
0.0
 40
0.0
 40
0.2500000000000001
 40
0.2500000000000001
 40
0.5000000000000002
 40
0.5000000000000002
 40
0.6250000000000001
 40
0.6250000000000001
 40
0.7500000000000001
 40
0.7500000000000001
 40
1.0
 40
1.0
 40
1.0
 40
1.0
 10
138.0939089468447
 20
41.32790948237715
 30
0.0
 10
138.3019243949505
 20
40.95060139350065
 30
0.0
 10
138.4721306999235
 20
40.57057766312644
 30
0.0
 10
138.7070667314911
 20
39.80295434771575
 30
0.0
 10
138.7711388631548
 20
39.41530753092695
 30
0.0
 10
138.7718718120758
 20
38.82698697903911
 30
0.0
 10
138.7562123319927
 20
38.62991378648346
 30
0.0
 10
138.6949372053558
 20
38.23985680892935
 30
0.0
 10
138.6493809328567
 20
38.04606390834132
 30
0.0
 10
138.4728949001004
 20
37.46798292357789
 30
0.0
 10
138.3022384466147
 20
37.08698505924307
 30
0.0
 10
138.0939089468447
 20
36.70910732886014
 30
0.0
  0
LINE
  5
EB
330
1F
100
AcDbEntity
  8
0
  6
Continuous
 62
     7
370
    25
100
AcDbLine
 10
138.9159679194
 20
54.6297243378
 30
0.0
 11
138.9159679194
 21
38.1297243378
 31
0.0
  0
LINE
  5
EC
330
1F
100
AcDbEntity
  8
0
  6
Continuous
 62
     7
370
    25
100
AcDbLine
 10
121.864153064
 20
35.0621006296
 30
0.0
 11
121.864153064
 21
38.4133277979
 31
0.0
  0
LINE
  5
ED
330
1F
100
AcDbEntity
  8
0
  6
Continuous
 62
     7
370
    25
100
AcDbLine
 10
120.2382465141
 20
41.3279094824
 30
0.0
 11
116.0936893247
 21
41.3279094824
 31
0.0
  0
LINE
  5
EE
330
1F
100
AcDbEntity
  8
0
  6
Continuous
 62
     7
370
    25
100
AcDbLine
 10
116.0936893247
 20
51.4315391932
 30
0.0
 11
120.2382465141
 21
51.4315391932
 31
0.0
  0
LINE
  5
EF
330
1F
100
AcDbEntity
  8
0
  6
Continuous
 62
     7
370
    25
100
AcDbLine
 10
135.1133400892
 20
24.9536337715
 30
0.0
 11
118.7185957496
 21
24.9536337715
 31
0.0
  0
SPLINE
  5
F0
330
1F
100
AcDbEntity
  8
0
  6
Continuous
 62
     7
370
    25
100
AcDbSpline
210
0.0
220
0.0
230
1.0
 70
     8
 71
     3
 72
    12
 73
     8
 74
     0
 42
0.00000001
 43
0.00000001
 40
0.0
 40
0.0
 40
0.0
 40
0.0
 40
0.2499999999999999
 40
0.2499999999999999
 40
0.4999999999999998
 40
0.4999999999999998
 40
1.0
 40
1.0
 40
1.0
 40
1.0
 10
132.9159679194024
 20
53.7409402699541
 30
0.0
 10
132.9159679194024
 20
53.93668253283361
 30
0.0
 10
132.9318108554913
 20
54.13334914202417
 30
0.0
 10
132.993313715729
 20
54.52261736935245
 30
0.0
 10
133.0389173567727
 20
54.71602140230537
 30
0.0
 10
133.2153683742619
 20
55.29295045356214
 30
0.0
 10
133.3857657415138
 20
55.67319988676514
 30
0.0
 10
133.5936893246626
 20
56.05034134671261
 30
0.0
  0
LINE
  5
F1
330
1F
100
AcDbEntity
  8
0
  6
Continuous
 62
     7
370
    25
100
AcDbLine
 10
138.0939089468
 20
56.0503413467
 30
0.0
 11
133.5936893247
 21
56.0503413467
 31
0.0
  0
ELLIPSE
  5
F2
330
1F
100
AcDbEntity
  8
0
  6
Continuous
 62
     7
370
    25
100
AcDbEllipse
 10
126.9159679194
 20
36.5647697616
 30
0.0
 11
8.499999999999986
 21
0.0
 31
0.0
210
0.0
220
0.0
230
1.0
 40
0.5773502692
 41
2.374833212873086
 42
2.53069227991306
  0
LINE
  5
F3
330
1F
100
AcDbEntity
  8
0
  6
Continuous
 62
     7
370
    25
100
AcDbLine
 10
119.6265917348
 20
39.0903481532
 30
0.0
 11
117.2453509105
 21
36.7091073289
 31
0.0
  0
LINE
  5
F4
330
1F
100
AcDbEntity
  8
0
  6
Continuous
 62
     7
370
    25
100
AcDbLine
 10
116.0936893247
 20
36.7091073289
 30
0.0
 11
117.2453509105
 21
36.7091073289
 31
0.0
  0
SPLINE
  5
F5
330
1F
100
AcDbEntity
  8
0
  6
Continuous
 62
     7
370
    25
100
AcDbSpline
210
0.0
220
0.0
230
1.0
 70
     8
 71
     3
 72
    10
 73
     6
 74
     0
 42
0.00000001
 43
0.00000001
 40
0.0
 40
0.0
 40
0.0
 40
0.0
 40
0.5
 40
0.5
 40
1.0
 40
1.0
 40
1.0
 40
1.0
 10
116.0936893246621
 20
36.70910732886011
 30
0.0
 10
115.8848793999958
 20
37.0878564762514
 30
0.0
 10
115.7143452602486
 20
37.4690617526627
 30
0.0
 10
115.4795594552297
 20
38.23829237385048
 30
0.0
 10
115.4159679194024
 20
38.62636007864879
 30
0.0
 10
115.4159679194024
 20
39.01850840561864
 30
0.0
  0
ELLIPSE
  5
F6
330
1F
100
AcDbEntity
  8
0
  6
Continuous
 62
     7
370
    25
100
AcDbEllipse
 10
126.9159679194
 20
36.5647697616
 30
0.0
 11
8.499999999999986
 21
0.0
 31
0.0
210
0.0
220
0.0
230
1.0
 40
0.5773502692
 41
0.6109003736767338
 42
0.7667594407167085
  0
LINE
  5
F7
330
1F
100
AcDbEntity
  8
0
  6
Continuous
 62
     7
370
    25
100
AcDbLine
 10
136.5865849283
 20
36.7091073289
 30
0.0
 11
138.0939089468
 21
36.7091073289
 31
0.0
  0
LINE
  5
F8
330
1F
100
AcDbEntity
  8
0
  6
Continuous
 62
     7
370
    25
100
AcDbLine
 10
136.5865849283
 20
36.7091073289
 30
0.0
 11
134.205344104
 21
39.0903481532
 31
0.0
  0
LINE
  5
F9
330
1F
100
AcDbEntity
  8
0
  6
Continuous
 62
     7
370
    25
100
AcDbLine
 10
136.5865849283
 20
35.0621006296
 30
0.0
 11
136.5865849283
 21
36.7091073289
 31
0.0
  0
LINE
  5
FA
330
1F
100
AcDbEntity
  8
0
  6
Continuous
 62
     7
370
    25
100
AcDbLine
 10
117.2453509105
 20
36.7091073289
 30
0.0
 11
117.2453509105
 21
35.0621006296
 31
0.0
  0
SPLINE
  5
FB
330
1F
100
AcDbEntity
  8
0
  6
Continuous
 62
     7
370
    25
100
AcDbSpline
210
0.0
220
0.0
230
1.0
 70
     8
 71
     3
 72
    12
 73
     8
 74
     0
 42
0.00000001
 43
0.00000001
 40
0.0
 40
0.0
 40
0.0
 40
0.0
 40
0.2499999999999999
 40
0.2499999999999999
 40
0.5
 40
0.5
 40
1.0
 40
1.0
 40
1.0
 40
1.0
 10
115.4159679194024
 20
53.7409402699541
 30
0.0
 10
115.4159679194024
 20
53.93594374995989
 30
0.0
 10
115.4317142494243
 20
54.1324784089843
 30
0.0
 10
115.4931592740098
 20
54.52189809658985
 30
0.0
 10
115.5387480332635
 20
54.71538278965011
 30
0.0
 10
115.7151990355201
 20
55.29256638840571
 30
0.0
 10
115.8856567374836
 20
55.67300217018868
 30
0.0
 10
116.0936893246624
 20
56.05034134671261
 30
0.0
  0
LINE
  5
FC
330
1F
100
AcDbEntity
  8
0
  6
Continuous
 62
     7
370
    25
100
AcDbLine
 10
120.2382465141
 20
56.0503413467
 30
0.0
 11
116.0936893247
 21
56.0503413467
 31
0.0
  0
SPLINE
  5
FD
330
1F
100
AcDbEntity
  8
0
  6
Continuous
 62
     7
370
    25
100
AcDbSpline
210
0.0
220
0.0
230
1.0
 70
     8
 71
     3
 72
    10
 73
     6
 74
     0
 42
0.00000001
 43
0.00000001
 40
0.0
 40
0.0
 40
0.0
 40
0.0
 40
0.5
 40
0.5
 40
1.0
 40
1.0
 40
1.0
 40
1.0
 10
120.2382465141422
 20
56.05034134671263
 30
0.0
 10
120.4466672669596
 20
55.67229809731047
 30
0.0
 10
120.617131102237
 20
55.29152859251462
 30
0.0
 10
120.8521135371754
 20
54.52238006695708
 30
0.0
 10
120.9159679194024
 20
54.13395333878184
 30
0.0
 10
120.9159679194024
 20
53.7409402699541
 30
0.0
  0
LINE
  5
FE
330
1F
100
AcDbEntity
  8
0
  6
Continuous
 62
     7
370
    25
100
AcDbLine
 10
133.9159679194
 20
22.8797243378
 30
0.0
 11
119.9159679194
 21
22.8797243378
 31
0.0
  0
LINE
  5
FF
330
1F
100
AcDbEntity
  8
0
  6
Continuous
 62
     7
370
    25
100
AcDbLine
 10
132.9159679194
 20
40.3797243378
 30
0.0
 11
130.9159679194
 21
42.3797243378
 31
0.0
  0
LINE
  5
100
330
1F
100
AcDbEntity
  8
0
  6
Continuous
 62
     7
370
    25
100
AcDbLine
 10
130.9159679194
 20
39.3797243378
 30
0.0
 11
133.8785889921
 21
39.3797243378
 31
0.0
  0
LINE
  5
101
330
1F
100
AcDbEntity
  8
0
  6
Continuous
 62
     7
370
    25
100
AcDbLine
 10
122.9159679194
 20
42.3797243378
 30
0.0
 11
120.9159679194
 21
40.3797243378
 31
0.0
  0
LINE
  5
102
330
1F
100
AcDbEntity
  8
0
  6
Continuous
 62
     7
370
    25
100
AcDbLine
 10
119.9533468467
 20
39.3797243378
 30
0.0
 11
122.9159679194
 21
39.3797243378
 31
0.0
  0
LINE
  5
103
330
1F
100
AcDbEntity
  8
0
  6
Continuous
 62
     7
370
    25
100
AcDbLine
 10
120.9159679194
 20
54.314178816
 30
0.0
 11
120.9159679194
 21
53.74094027
 31
0.0
  0
SPLINE
  5
104
330
1F
100
AcDbEntity
  8
0
  6
Continuous
 62
     7
370
    25
100
AcDbSpline
210
0.0
220
0.0
230
1.0
 70
     8
 71
     3
 72
    32
 73
    28
 74
     0
 42
0.00000001
 43
0.00000001
 40
0.0
 40
0.0
 40
0.0
 40
0.0
 40
0.0625000000000001
 40
0.0625000000000001
 40
0.1250000000000001
 40
0.1250000000000001
 40
0.1875000000000002
 40
0.1875000000000002
 40
0.2500000000000003
 40
0.2500000000000003
 40
0.3750000000000003
 40
0.3750000000000003
 40
0.4375000000000003
 40
0.4375000000000003
 40
0.5000000000000002
 40
0.5000000000000002
 40
0.5625000000000002
 40
0.5625000000000002
 40
0.6250000000000001
 40
0.6250000000000001
 40
0.7500000000000001
 40
0.7500000000000001
 40
0.8750000000000002
 40
0.8750000000000002
 40
0.9375000000000001
 40
0.9375000000000001
 40
1.0
 40
1.0
 40
1.0
 40
1.0
 10
132.9159679193939
 20
54.31417881600701
 30
0.0
 10
132.759111583477
 20
54.21922183811133
 30
0.0
 10
132.5861131493214
 20
54.11646866348615
 30
0.0
 10
132.2094085626956
 20
53.89975746183787
 30
0.0
 10
132.0065557822389
 20
53.78633875134787
 30
0.0
 10
131.5805745194363
 20
53.55824861464969
 30
0.0
 10
131.3563965591483
 20
53.44294173219784
 30
0.0
 10
130.8850454655719
 20
53.21461862982306
 30
0.0
 10
130.6363599502068
 20
53.10096861368931
 30
0.0
 10
129.8657874655151
 20
52.77790458245527
 30
0.0
 10
129.3201500554329
 20
52.58500605829177
 30
0.0
 10
128.4373703069366
 20
52.37341213301806
 30
0.0
 10
128.1387312070638
 20
52.31776974690032
 30
0.0
 10
127.532229606348
 20
52.24210167753648
 30
0.0
 10
127.2220823676821
 20
52.22212843176017
 30
0.0
 10
126.6019968789983
 20
52.22246219801342
 30
0.0
 10
126.2954258415303
 20
52.24246116333619
 30
0.0
 10
125.6887710942221
 20
52.31849994953267
 30
0.0
 10
125.3863980295968
 20
52.37515304966422
 30
0.0
 10
124.5097617268438
 20
52.58593159971007
 30
0.0
 10
123.9617075948669
 20
52.77947743028182
 30
0.0
 10
122.9312103276236
 20
53.21209672355761
 30
0.0
 10
122.4636502923442
 20
53.44457336824804
 30
0.0
 10
121.8254366887162
 20
53.78631136916708
 30
0.0
 10
121.6222269505264
 20
53.89992888459548
 30
0.0
 10
121.245890024132
 20
54.1164312769517
 30
0.0
 10
121.0729114156405
 20
54.2191690733961
 30
0.0
 10
120.9159679194024
 20
54.31417881601218
 30
0.0
  0
LINE
  5
105
330
1F
100
AcDbEntity
  8
0
  6
Continuous
 62
     7
370
    25
100
AcDbLine
 10
132.9159679194
 20
54.314178816
 30
0.0
 11
132.9159679194
 21
53.74094027
 31
0.0
  0
SPLINE
  5
106
330
1F
100
AcDbEntity
  8
0
  6
Continuous
 62
     7
370
    25
100
AcDbSpline
210
0.0
220
0.0
230
1.0
 70
     8
 71
     3
 72
    12
 73
     8
 74
     0
 42
0.00000001
 43
0.00000001
 40
0.0
 40
0.0
 40
0.0
 40
0.0
 40
0.0821685349195592
 40
0.3096897199422396
 40
0.5425026699013663
 40
0.7710670754315414
 40
1.0
 40
1.0
 40
1.0
 40
1.0
 10
133.0894071567307
 20
55.1729339649704
 30
0.0
 10
133.0905391381871
 20
55.17670361163562
 30
0.0
 10
133.0948055282419
 20
55.19091124989003
 30
0.0
 10
133.062350214946
 20
55.08355493734325
 30
0.0
 10
133.0063856554949
 20
54.87761681983887
 30
0.0
 10
132.9381762501679
 20
54.59432143771856
 30
0.0
 10
132.9233746706016
 20
54.40760982265007
 30
0.0
 10
132.9159679194024
 20
54.31417881600505
 30
0.0
  0
SPLINE
  5
107
330
1F
100
AcDbEntity
  8
0
  6
Continuous
 62
     7
370
    25
100
AcDbSpline
210
0.0
220
0.0
230
1.0
 70
     8
 71
     3
 72
    11
 73
     7
 74
     0
 42
0.00000001
 43
0.00000001
 40
0.0
 40
0.0
 40
0.0
 40
0.0
 40
0.3176361187757176
 40
0.6359593706157778
 40
0.8656887257024612
 40
0.9999999999999999
 40
0.9999999999999999
 40
0.9999999999999999
 40
0.9999999999999999
 10
120.9159679194024
 20
54.31417881601208
 30
0.0
 10
120.9023291636109
 20
54.44544344301655
 30
0.0
 10
120.8750221477006
 20
54.70825665801124
 30
0.0
 10
120.7870174798634
 20
55.01990123313112
 30
0.0
 10
120.7424571210026
 20
55.17364767797678
 30
0.0
 10
120.7428058604011
 20
55.17213423554808
 30
0.0
 10
120.74293452635
 20
55.17157585726619
 30
0.0
  0
LINE
  5
108
330
1F
100
AcDbEntity
  8
0
  6
Continuous
 62
     7
370
    25
100
AcDbLine
 10
121.0159679194
 20
55.8797243378
 30
0.0
 11
121.0166197627
 21
55.8791707375
 31
0.0
  0
SPLINE
  5
109
330
1F
100
AcDbEntity
  8
0
  6
Continuous
 62
     7
370
    25
100
AcDbSpline
210
0.0
220
0.0
230
1.0
 70
     8
 71
     3
 72
    10
 73
     6
 74
     0
 42
0.00000001
 43
0.00000001
 40
0.0
 40
0.0
 40
0.0
 40
0.0
 40
0.1601790552921523
 40
0.7197651707804853
 40
1.0
 40
1.0
 40
1.0
 40
1.0
 10
120.2040170810253
 20
56.11261962546235
 30
0.0
 10
120.203254290932
 20
56.11401185348872
 30
0.0
 10
120.1998266908583
 20
56.12026783521705
 30
0.0
 10
120.2143341556566
 20
56.09376057048913
 30
0.0
 10
120.2322637087744
 20
56.06120471534398
 30
0.0
 10
120.2382465141422
 20
56.05034134671263
 30
0.0
  0
SPLINE
  5
10A
330
1F
100
AcDbEntity
  8
0
  6
Continuous
 62
     7
370
    25
100
AcDbSpline
210
0.0
220
0.0
230
1.0
 70
     8
 71
     3
 72
     9
 73
     5
 74
     0
 42
0.00000001
 43
0.00000001
 40
0.0
 40
0.0
 40
0.0
 40
0.0
 40
0.5797912171256431
 40
1.0
 40
1.0
 40
1.0
 40
1.0
 10
133.5936893246626
 20
56.05034134671261
 30
0.0
 10
133.606047928009
 20
56.07281499495374
 30
0.0
 10
133.6273635378034
 20
56.11157661737456
 30
0.0
 10
133.6277544803062
 20
56.11231102213277
 30
0.0
 10
133.6279187577795
 20
56.11261962546235
 30
0.0
  0
SPLINE
  5
10B
330
1F
100
AcDbEntity
  8
0
  6
Continuous
 62
     7
370
    25
100
AcDbSpline
210
0.0
220
0.0
230
1.0
 70
     8
 71
     3
 72
    10
 73
     6
 74
     0
 42
0.00000001
 43
0.00000001
 40
0.0
 40
0.0
 40
0.0
 40
0.0
 40
0.1593935212994522
 40
0.7189934545690309
 40
1.0
 40
1.0
 40
1.0
 40
1.0
 10
116.12792631424
 20
56.11263342617907
 30
0.0
 10
116.1286878412375
 20
56.11402334500568
 30
0.0
 10
116.1321229427534
 20
56.12029300095261
 30
0.0
 10
116.1176283202869
 20
56.09380905912882
 30
0.0
 10
116.0996869497942
 20
56.06123165508195
 30
0.0
 10
116.0936893246626
 20
56.05034134671261
 30
0.0
  0
LINE
  5
10C
330
1F
100
AcDbEntity
  8
0
  6
Continuous
 62
     7
370
    25
100
AcDbLine
 10
115.4159679194
 20
54.8797243378
 30
0.0
 11
115.4159679194
 21
53.74094027
 31
0.0
  0
SPLINE
  5
10D
330
1F
100
AcDbEntity
  8
0
  6
Continuous
 62
     7
370
    25
100
AcDbSpline
210
0.0
220
0.0
230
1.0
 70
     8
 71
     3
 72
     9
 73
     5
 74
     0
 42
0.00000001
 43
0.00000001
 40
0.0
 40
0.0
 40
0.0
 40
0.0
 40
0.5789479223839474
 40
0.9999999999999999
 40
0.9999999999999999
 40
0.9999999999999999
 40
0.9999999999999999
 10
116.0936893246626
 20
36.70910732886013
 30
0.0
 10
116.1060302149768
 20
36.68666596166776
 30
0.0
 10
116.1273462778507
 20
36.64790363724321
 30
0.0
 10
116.1277544517653
 20
36.64713773438385
 30
0.0
 10
116.12792631424
 20
36.64681524939366
 30
0.0
  0
LINE
  5
10E
330
1F
100
AcDbEntity
  8
0
  6
Continuous
 62
     7
370
    25
100
AcDbLine
 10
115.4159679194
 20
39.0185084056
 30
0.0
 11
115.4159679194
 21
37.8797243378
 31
0.0
  0
LINE
  5
10F
330
1F
100
AcDbEntity
  8
0
  6
Continuous
 62
     7
370
    25
100
AcDbLine
 10
136.6535722264
 20
36.6421200308
 30
0.0
 11
136.5865849283
 21
36.7091073289
 31
0.0
  0
LINE
  5
110
330
1F
100
AcDbEntity
  8
0
  6
Continuous
 62
     7
370
    25
100
AcDbLine
 10
117.2453509105
 20
36.7091073289
 30
0.0
 11
117.1783636124
 21
36.6421200308
 31
0.0
  0
LINE
  5
111
330
1F
100
AcDbEntity
  8
0
  6
Continuous
 62
     7
370
    25
100
AcDbLine
 10
121.6768825867
 20
73.4797243378
 30
0.0
 11
121.6768825867
 21
72.8797243378
 31
0.0
  0
LINE
  5
112
330
1F
100
AcDbEntity
  8
0
  6
Continuous
 62
     7
370
    25
100
AcDbLine
 10
132.1550532521
 20
73.4797243378
 30
0.0
 11
121.6768825867
 21
73.4797243378
 31
0.0
  0
LINE
  5
113
330
1F
100
AcDbEntity
  8
0
  6
Continuous
 62
     7
370
    25
100
AcDbLine
 10
132.1550532521
 20
72.8797243378
 30
0.0
 11
132.1550532521
 21
73.4797243378
 31
0.0
  0
LINE
  5
114
330
1F
100
AcDbEntity
  8
0
  6
Continuous
 62
     7
370
    25
100
AcDbLine
 10
121.6768825867
 20
72.8797243378
 30
0.0
 11
132.1550532521
 21
72.8797243378
 31
0.0
  0
SPLINE
  5
115
330
1F
100
AcDbEntity
  8
0
  6
Continuous
 62
     7
370
    25
100
AcDbSpline
210
0.0
220
0.0
230
1.0
 70
     8
 71
     3
 72
    15
 73
    11
 74
     0
 42
0.00000001
 43
0.00000001
 40
0.0
 40
0.0
 40
0.0
 40
0.0
 40
0.0081667445812695
 40
0.3321939991490083
 40
0.4756279600585602
 40
0.6866830973284899
 40
0.8457435502264811
 40
0.8967566214763185
 40
0.9909540928118029
 40
1.0
 40
1.0
 40
1.0
 40
1.0
 10
121.8169484058096
 20
73.72972433778637
 30
0.0
 10
121.8164608716667
 20
73.72972166144059
 30
0.0
 10
121.7966297241346
 20
73.72961279725375
 30
0.0
 10
121.7683489441254
 20
73.72006678498435
 30
0.0
 10
121.7305196456365
 20
73.68270440172981
 30
0.0
 10
121.703935749069
 20
73.63783888699513
 30
0.0
 10
121.6867659253141
 20
73.57996258741821
 30
0.0
 10
121.6789489290976
 20
73.52928654744629
 30
0.0
 10
121.6769532426617
 20
73.50059226792627
 30
0.0
 10
121.6768882787109
 20
73.48140543637079
 30
0.0
 10
121.6768825867443
 20
73.47972433778637
 30
0.0
  0
LINE
  5
116
330
1F
100
AcDbEntity
  8
0
  6
Continuous
 62
     7
370
    25
100
AcDbLine
 10
121.8169484058
 20
73.7297243378
 30
0.0
 11
132.014987433
 21
73.7297243378
 31
0.0
  0
SPLINE
  5
117
330
1F
100
AcDbEntity
  8
0
  6
Continuous
 62
     7
370
    25
100
AcDbSpline
210
0.0
220
0.0
230
1.0
 70
     8
 71
     3
 72
    15
 73
    11
 74
     0
 42
0.00000001
 43
0.00000001
 40
0.0
 40
0.0
 40
0.0
 40
0.0
 40
0.0090459071881971
 40
0.1032433785236874
 40
0.1542564497735246
 40
0.313316902671511
 40
0.5243720399414428
 40
0.6678060008509903
 40
0.9918332554187292
 40
1.0
 40
1.0
 40
1.0
 40
1.0
 10
132.1550532520605
 20
73.47972433778637
 30
0.0
 10
132.1550475600938
 20
73.48140543637078
 30
0.0
 10
132.154982596143
 20
73.50059226792632
 30
0.0
 10
132.1529869097072
 20
73.52928654744628
 30
0.0
 10
132.1451699134907
 20
73.57996258741825
 30
0.0
 10
132.1280000897357
 20
73.63783888699511
 30
0.0
 10
132.1014161931682
 20
73.68270440172981
 30
0.0
 10
132.0635868946794
 20
73.72006678498434
 30
0.0
 10
132.0353061146701
 20
73.72961279725381
 30
0.0
 10
132.0154749671381
 20
73.72972166144059
 30
0.0
 10
132.0149874329952
 20
73.72972433778637
 30
0.0
  0
LINE
  5
118
330
1F
100
AcDbEntity
  8
0
  6
Continuous
 62
     7
370
    25
100
AcDbLine
 10
121.4387423444
 20
73.4797243378
 30
0.0
 11
121.6768825867
 21
73.4797243378
 31
0.0
  0
SPLINE
  5
119
330
1F
100
AcDbEntity
  8
0
  6
Continuous
 62
     7
370
    25
100
AcDbSpline
210
0.0
220
0.0
230
1.0
 70
     8
 71
     3
 72
    15
 73
    11
 74
     0
 42
0.00000001
 43
0.00000001
 40
0.0
 40
0.0
 40
0.0
 40
0.0
 40
0.0089557228015919
 40
0.0999003359608148
 40
0.153163246058169
 40
0.3125636920784848
 40
0.5249666935694999
 40
0.6689893599352451
 40
0.9919152533810159
 40
1.0
 40
1.0
 40
1.0
 40
1.0
 10
121.4387423443507
 20
73.47972433778637
 30
0.0
 10
121.4387580999293
 20
73.48140546335927
 30
0.0
 10
121.4389338520859
 20
73.50015827798372
 30
0.0
 10
121.4443628681054
 20
73.52892050709119
 30
0.0
 10
121.4658983518127
 20
73.57980758055955
 30
0.0
 10
121.5136037800775
 20
73.63794323069217
 30
0.0
 10
121.5859947250694
 20
73.68265110387557
 30
0.0
 10
121.6879138370872
 20
73.71993292733734
 30
0.0
 10
121.7632689285417
 20
73.72961208217491
 30
0.0
 10
121.8156685742654
 20
73.72972166137667
 30
0.0
 10
121.8169484058096
 20
73.72972433778637
 30
0.0
  0
LINE
  5
11A
330
1F
100
AcDbEntity
  8
0
  6
Continuous
 62
     7
370
    25
100
AcDbLine
 10
132.1550532521
 20
73.4797243378
 30
0.0
 11
132.3931934945
 21
73.4797243378
 31
0.0
  0
SPLINE
  5
11B
330
1F
100
AcDbEntity
  8
0
  6
Continuous
 62
     7
370
    25
100
AcDbSpline
210
0.0
220
0.0
230
1.0
 70
     8
 71
     3
 72
    15
 73
    11
 74
     0
 42
0.00000001
 43
0.00000001
 40
0.0
 40
0.0
 40
0.0
 40
0.0
 40
0.0080847466189818
 40
0.3310106400647567
 40
0.4750333064304972
 40
0.6874363079215137
 40
0.8468367539418253
 40
0.9000996640391794
 40
0.9910442771984082
 40
1.0
 40
1.0
 40
1.0
 40
1.0
 10
132.0149874329952
 20
73.72972433778637
 30
0.0
 10
132.0162672645393
 20
73.72972166137669
 30
0.0
 10
132.0686669102631
 20
73.7296120821749
 30
0.0
 10
132.1440220017175
 20
73.71993292733734
 30
0.0
 10
132.2459411137353
 20
73.68265110387559
 30
0.0
 10
132.3183320587272
 20
73.63794323069217
 30
0.0
 10
132.366037486992
 20
73.57980758055952
 30
0.0
 10
132.3875729706993
 20
73.52892050709121
 30
0.0
 10
132.3930019867189
 20
73.50015827798373
 30
0.0
 10
132.3931777388754
 20
73.48140546335928
 30
0.0
 10
132.393193494454
 20
73.47972433778637
 30
0.0
  0
LINE
  5
11C
330
1F
100
AcDbEntity
  8
0
  6
Continuous
 62
     7
370
    25
100
AcDbLine
 10
121.4387423444
 20
72.8797243378
 30
0.0
 11
121.4387423444
 21
73.4797243378
 31
0.0
  0
LINE
  5
11D
330
1F
100
AcDbEntity
  8
0
  6
Continuous
 62
     7
370
    25
100
AcDbLine
 10
121.6768825867
 20
72.8797243378
 30
0.0
 11
121.4387423444
 21
72.8797243378
 31
0.0
  0
LINE
  5
11E
330
1F
100
AcDbEntity
  8
0
  6
Continuous
 62
     7
370
    25
100
AcDbLine
 10
132.3931934945
 20
73.4797243378
 30
0.0
 11
132.3931934945
 21
72.8797243378
 31
0.0
  0
LINE
  5
11F
330
1F
100
AcDbEntity
  8
0
  6
Continuous
 62
     7
370
    25
100
AcDbLine
 10
132.3931934945
 20
72.8797243378
 30
0.0
 11
132.1550532521
 21
72.8797243378
 31
0.0
  0
LINE
  5
120
330
1F
100
AcDbEntity
  8
0
  6
Continuous
 62
     7
370
    25
100
AcDbLine
 10
121.1659679194
 20
73.4797243378
 30
0.0
 11
121.1659679194
 21
72.8797243378
 31
0.0
  0
LINE
  5
121
330
1F
100
AcDbEntity
  8
0
  6
Continuous
 62
     7
370
    25
100
AcDbLine
 10
121.4387423444
 20
73.4797243378
 30
0.0
 11
121.1659679194
 21
73.4797243378
 31
0.0
  0
LINE
  5
122
330
1F
100
AcDbEntity
  8
0
  6
Continuous
 62
     7
370
    25
100
AcDbLine
 10
121.4387423444
 20
72.8797243378
 30
0.0
 11
121.1659679194
 21
72.8797243378
 31
0.0
  0
LINE
  5
123
330
1F
100
AcDbEntity
  8
0
  6
Continuous
 62
     7
370
    25
100
AcDbLine
 10
120.9159679194
 20
73.4797243378
 30
0.0
 11
121.1659679194
 21
73.4797243378
 31
0.0
  0
ARC
  5
124
330
1F
100
AcDbEntity
  8
0
  6
Continuous
 62
     7
370
    25
100
AcDbCircle
 10
121.1659679194
 20
73.4797243378
 30
0.0
 40
0.25
100
AcDbArc
 50
90.0
 51
180.0
  0
LINE
  5
125
330
1F
100
AcDbEntity
  8
0
  6
Continuous
 62
     7
370
    25
100
AcDbLine
 10
121.1659679194
 20
73.7297243378
 30
0.0
 11
121.1659679194
 21
73.4797243378
 31
0.0
  0
LINE
  5
126
330
1F
100
AcDbEntity
  8
0
  6
Continuous
 62
     7
370
    25
100
AcDbLine
 10
121.1659679194
 20
73.7297243378
 30
0.0
 11
121.8169484058
 21
73.7297243378
 31
0.0
  0
LINE
  5
127
330
1F
100
AcDbEntity
  8
0
  6
Continuous
 62
     7
370
    25
100
AcDbLine
 10
120.9159679194
 20
72.8797243378
 30
0.0
 11
120.9159679194
 21
73.4797243378
 31
0.0
  0
LINE
  5
128
330
1F
100
AcDbEntity
  8
0
  6
Continuous
 62
     7
370
    25
100
AcDbLine
 10
121.1659679194
 20
72.8797243378
 30
0.0
 11
120.9159679194
 21
72.8797243378
 31
0.0
  0
LINE
  5
129
330
1F
100
AcDbEntity
  8
0
  6
Continuous
 62
     7
370
    25
100
AcDbLine
 10
132.6659679194
 20
73.4797243378
 30
0.0
 11
132.6659679194
 21
73.7297243378
 31
0.0
  0
LINE
  5
12A
330
1F
100
AcDbEntity
  8
0
  6
Continuous
 62
     7
370
    25
100
AcDbLine
 10
132.6659679194
 20
73.4797243378
 30
0.0
 11
132.3931934945
 21
73.4797243378
 31
0.0
  0
LINE
  5
12B
330
1F
100
AcDbEntity
  8
0
  6
Continuous
 62
     7
370
    25
100
AcDbLine
 10
132.014987433
 20
73.7297243378
 30
0.0
 11
132.6659679194
 21
73.7297243378
 31
0.0
  0
ARC
  5
12C
330
1F
100
AcDbEntity
  8
0
  6
Continuous
 62
     7
370
    25
100
AcDbCircle
 10
132.6659679194
 20
73.4797243378
 30
0.0
 40
0.25
100
AcDbArc
 50
0.0
 51
90.0
  0
LINE
  5
12D
330
1F
100
AcDbEntity
  8
0
  6
Continuous
 62
     7
370
    25
100
AcDbLine
 10
132.6659679194
 20
73.4797243378
 30
0.0
 11
132.9159679194
 21
73.4797243378
 31
0.0
  0
LINE
  5
12E
330
1F
100
AcDbEntity
  8
0
  6
Continuous
 62
     7
370
    25
100
AcDbLine
 10
132.6659679194
 20
72.8797243378
 30
0.0
 11
132.6659679194
 21
73.4797243378
 31
0.0
  0
LINE
  5
12F
330
1F
100
AcDbEntity
  8
0
  6
Continuous
 62
     7
370
    25
100
AcDbLine
 10
132.9159679194
 20
73.4797243378
 30
0.0
 11
132.9159679194
 21
72.8797243378
 31
0.0
  0
LINE
  5
130
330
1F
100
AcDbEntity
  8
0
  6
Continuous
 62
     7
370
    25
100
AcDbLine
 10
132.9159679194
 20
72.8797243378
 30
0.0
 11
132.6659679194
 21
72.8797243378
 31
0.0
  0
LINE
  5
131
330
1F
100
AcDbEntity
  8
0
  6
Continuous
 62
     7
370
    25
100
AcDbLine
 10
132.6659679194
 20
72.8797243378
 30
0.0
 11
132.3931934945
 21
72.8797243378
 31
0.0
  0
LINE
  5
132
330
1F
100
AcDbEntity
  8
0
  6
Continuous
 62
     7
370
    25
100
AcDbLine
 10
121.9159679194
 20
73.7397243378
 30
0.0
 11
131.9159679194
 21
73.7397243378
 31
0.0
  0
LINE
  5
133
330
1F
100
AcDbEntity
  8
0
  6
Continuous
 62
     7
370
    25
100
AcDbLine
 10
121.9159679194
 20
73.7297243378
 30
0.0
 11
121.9159679194
 21
73.7397243378
 31
0.0
  0
LINE
  5
134
330
1F
100
AcDbEntity
  8
0
  6
Continuous
 62
     7
370
    25
100
AcDbLine
 10
131.9159679194
 20
73.7297243378
 30
0.0
 11
131.9159679194
 21
73.7397243378
 31
0.0
  0
LINE
  5
135
330
1F
100
AcDbEntity
  8
0
  6
Continuous
 62
     7
370
    25
100
AcDbLine
 10
122.4414210353
 20
64.8797243378
 30
0.0
 11
134.3659679194
 21
64.8797243378
 31
0.0
  0
SPLINE
  5
136
330
1F
100
AcDbEntity
  8
0
  6
Continuous
 62
     7
370
    25
100
AcDbSpline
210
0.0
220
0.0
230
1.0
 70
     8
 71
     3
 72
     9
 73
     5
 74
     0
 42
0.00000001
 43
0.00000001
 40
0.0
 40
0.0
 40
0.0
 40
0.0
 40
0.4978401817595094
 40
1.0
 40
1.0
 40
1.0
 40
1.0
 10
123.201631791082
 20
65.8744679157533
 30
0.0
 10
123.0653098827113
 20
65.71795673306069
 30
0.0
 10
122.7914832343904
 20
65.40357635874167
 30
0.0
 10
122.5584439832938
 20
65.05484381071541
 30
0.0
 10
122.4414210353202
 20
64.879724337784
 30
0.0
  0
LINE
  5
137
330
1F
100
AcDbEntity
  8
0
  6
Continuous
 62
     7
370
    25
100
AcDbLine
 10
121.6921657451
 20
72.8797243378
 30
0.0
 11
119.9640270811
 21
65.8744679158
 31
0.0
  0
LINE
  5
138
330
1F
100
AcDbEntity
  8
0
  6
Continuous
 62
     7
370
    25
100
AcDbLine
 10
132.1550532521
 20
72.8797243377
 30
0.0
 11
121.6921657451
 21
72.8797243378
 31
0.0
  0
LINE
  5
139
330
1F
100
AcDbEntity
  8
0
  6
Continuous
 62
     7
370
    25
100
AcDbLine
 10
124.9159679194
 20
56.8797243378
 30
0.0
 11
133.9159679194
 21
56.8797243378
 31
0.0
  0
LINE
  5
13A
330
1F
100
AcDbEntity
  8
0
  6
Continuous
 62
     7
370
    25
100
AcDbLine
 10
124.9159679194
 20
56.9175412616
 30
0.0
 11
124.9159679194
 21
56.8797243378
 31
0.0
  0
SPLINE
  5
13B
330
1F
100
AcDbEntity
  8
0
  6
Continuous
 62
     7
370
    25
100
AcDbSpline
210
0.0
220
0.0
230
1.0
 70
     8
 71
     3
 72
     9
 73
     5
 74
     0
 42
0.00000001
 43
0.00000001
 40
0.0
 40
0.0
 40
0.0
 40
0.0
 40
0.4875141023677128
 40
0.9999999999999999
 40
0.9999999999999999
 40
0.9999999999999999
 40
0.9999999999999999
 10
124.7600226689752
 20
56.87972433778643
 30
0.0
 10
124.7863292428978
 20
56.88145168375813
 30
0.0
 10
124.840289884846
 20
56.88499485504961
 30
0.0
 10
124.8903254155408
 20
56.90651334099891
 30
0.0
 10
124.9159679194024
 20
56.91754126158634
 30
0.0
  0
SPLINE
  5
13C
330
1F
100
AcDbEntity
  8
0
  6
Continuous
 62
     7
370
    25
100
AcDbSpline
210
0.0
220
0.0
230
1.0
 70
     8
 71
     3
 72
    17
 73
    13
 74
     0
 42
0.00000001
 43
0.00000001
 40
0.0
 40
0.0
 40
0.0
 40
0.0
 40
0.3241697628029873
 40
0.5422758463620719
 40
0.689509052693928
 40
0.7894036290694505
 40
0.8577090008137825
 40
0.9049823971474137
 40
0.9551712229700868
 40
0.9753097783197817
 40
0.9919572060138848
 40
1.0
 40
1.0
 40
1.0
 40
1.0
 10
122.4414210353202
 20
64.879724337784
 30
0.0
 10
122.5841363953374
 20
63.96711083517832
 30
0.0
 10
122.8228727042794
 20
62.44047782891698
 30
0.0
 10
123.202459898731
 20
60.51370492663601
 30
0.0
 10
123.5115941070781
 20
59.22606945570324
 30
0.0
 10
123.7677076352782
 20
58.3669174889815
 30
0.0
 10
123.9820186381732
 20
57.79344960060409
 30
0.0
 10
124.1852528592011
 20
57.37191744657413
 30
0.0
 10
124.3697981237437
 20
57.0914249037787
 30
0.0
 10
124.5558692101118
 20
56.93587623519804
 30
0.0
 10
124.6710798093677
 20
56.88526563600053
 30
0.0
 10
124.7381686148406
 20
56.8810858841959
 30
0.0
 10
124.7600226689752
 20
56.87972433778643
 30
0.0
  0
SPLINE
  5
13D
330
1F
100
AcDbEntity
  8
0
  6
Continuous
 62
     7
370
    25
100
AcDbSpline
210
0.0
220
0.0
230
1.0
 70
     8
 71
     3
 72
    14
 73
    10
 74
     0
 42
0.00000001
 43
0.00000001
 40
0.0
 40
0.0
 40
0.0
 40
0.0
 40
0.1576095309202822
 40
0.3152382602707094
 40
0.4726926441579498
 40
0.6301650083177254
 40
0.7907313191165901
 40
0.9513050385928076
 40
1.0
 40
1.0
 40
1.0
 40
1.0
 10
120.4159679194024
 20
56.87972433778637
 30
0.0
 10
120.3493969046203
 20
57.09322612626376
 30
0.0
 10
120.2162467660354
 20
57.52025570988927
 30
0.0
 10
119.8876798042847
 20
58.1055027887456
 30
0.0
 10
119.4742901635527
 20
58.62765732956801
 30
0.0
 10
118.978615244608
 20
59.07663545698788
 30
0.0
 10
118.4123255393235
 20
59.43591718879426
 30
0.0
 10
117.9360748829305
 20
59.64048336789544
 30
0.0
 10
117.6558803147377
 20
59.72127791624675
 30
0.0
 10
117.5906815299647
 20
59.74007808929352
 30
0.0
  0
LINE
  5
13E
330
1F
100
AcDbEntity
  8
0
  6
Continuous
 62
     7
370
    25
100
AcDbLine
 10
117.59068153
 20
59.7400780893
 30
0.0
 11
111.8109246801
 21
61.3086995298
 31
0.0
  0
SPLINE
  5
13F
330
1F
100
AcDbEntity
  8
0
  6
Continuous
 62
     7
370
    25
100
AcDbSpline
210
0.0
220
0.0
230
1.0
 70
     8
 71
     3
 72
    11
 73
     7
 74
     0
 42
0.00000001
 43
0.00000001
 40
0.0
 40
0.0
 40
0.0
 40
0.0
 40
0.2488466353289361
 40
0.4976946020535204
 40
0.7488461225871278
 40
1.0
 40
1.0
 40
1.0
 40
1.0
 10
104.7405310578657
 20
62.63190003076191
 30
0.0
 10
105.334967107002
 20
62.56237565426828
 30
0.0
 10
106.5238423856654
 20
62.4233265293071
 30
0.0
 10
108.2985670563744
 20
62.12299779118182
 30
0.0
 10
110.0651476981168
 20
61.76108817292667
 30
0.0
 10
111.2289971991365
 20
61.45949621586212
 30
0.0
 10
111.8109246801095
 20
61.3086995297764
 30
0.0
  0
LINE
  5
140
330
1F
100
AcDbEntity
  8
0
  6
Continuous
 62
     7
370
    25
100
AcDbLine
 10
104.7405310579
 20
62.6319000308
 30
0.0
 11
104.7405310579
 21
65.8744679158
 31
0.0
  0
LINE
  5
141
330
1F
100
AcDbEntity
  8
0
  6
Continuous
 62
     7
370
    25
100
AcDbLine
 10
104.7405310579
 20
65.8744679158
 30
0.0
 11
123.2016317911
 21
65.8744679158
 31
0.0
  0
LINE
  5
142
330
1F
100
AcDbEntity
  8
0
  6
Continuous
 62
     7
370
    25
100
AcDbLine
 10
124.760022669
 20
56.8797243378
 30
0.0
 11
120.4159679194
 21
56.8797243378
 31
0.0
  0
LINE
  5
143
330
1F
100
AcDbEntity
  8
0
  6
Continuous
 62
     7
370
    25
100
AcDbLine
 10
124.9159679194
 20
56.9175412616
 30
0.0
 11
124.9091685615
 21
56.8797243378
 31
0.0
  0
LINE
  5
144
330
1F
100
AcDbEntity
  8
0
  6
Continuous
 62
     7
370
    25
100
AcDbLine
 10
124.9159679194
 20
56.8797243378
 30
0.0
 11
124.9091685615
 21
56.8797243378
 31
0.0
  0
LINE
  5
145
330
1F
100
AcDbEntity
  8
0
  6
Continuous
 62
     7
370
    25
100
AcDbLine
 10
124.9091685615
 20
56.8797243378
 30
0.0
 11
124.760022669
 21
56.8797243378
 31
0.0
  0
LINE
  5
146
330
1F
100
AcDbEntity
  8
0
  6
Continuous
 62
     7
370
    25
100
AcDbLine
 10
86.9159679194
 20
74.8797243378
 30
0.0
 11
104.7405310579
 21
74.8797243378
 31
0.0
  0
LINE
  5
147
330
1F
100
AcDbEntity
  8
0
  6
Continuous
 62
     7
370
    25
100
AcDbLine
 10
104.7405310579
 20
74.8797243378
 30
0.0
 11
104.7405310579
 21
65.8744679158
 31
0.0
  0
LINE
  5
148
330
1F
100
AcDbEntity
  8
0
  6
Continuous
 62
     7
370
    25
100
AcDbLine
 10
100.0243000616
 20
62.8797243378
 30
0.0
 11
91.9159679194
 21
62.8797243378
 31
0.0
  0
ARC
  5
149
330
1F
100
AcDbEntity
  8
0
  6
Continuous
 62
     7
370
    25
100
AcDbCircle
 10
91.9159679194
 20
67.8797243378
 30
0.0
 40
4.999999999999993
100
AcDbArc
 50
180.0
 51
270.0
  0
LINE
  5
14A
330
1F
100
AcDbEntity
  8
0
  6
Continuous
 62
     7
370
    25
100
AcDbLine
 10
86.9159679194
 20
67.8797243378
 30
0.0
 11
86.9159679194
 21
74.8797243378
 31
0.0
  0
ARC
  5
14B
330
1F
100
AcDbEntity
  8
0
  6
Continuous
 62
     7
370
    25
100
AcDbCircle
 10
100.0243000616
 20
17.8795950836
 30
0.0
 40
45.00012925418374
100
AcDbArc
 50
83.9840777705
 51
90.0
  0
LINE
  5
14C
330
1F
100
AcDbEntity
  8
0
  6
Continuous
 62
     7
370
    25
100
AcDbLine
 10
104.7405310579
 20
74.8797243378
 30
0.0
 11
106.9159679194
 21
74.8797243378
 31
0.0
  0
LINE
  5
14D
330
1F
100
AcDbEntity
  8
0
  6
Continuous
 62
     7
370
    25
100
AcDbLine
 10
106.9159679194
 20
74.8797243378
 30
0.0
 11
106.9159679194
 21
72.8986798612
 31
0.0
  0
ARC
  5
14E
330
1F
100
AcDbEntity
  8
0
  6
Continuous
 62
     7
370
    25
100
AcDbCircle
 10
112.9159679194
 20
72.8986798612
 30
0.0
 40
6.000000000000004
100
AcDbArc
 50
180.0
 51
275.5801667845
  0
ARC
  5
14F
330
1F
100
AcDbEntity
  8
0
  6
Continuous
 62
     7
370
    25
100
AcDbCircle
 10
112.5270143551
 20
76.8797243378
 30
0.0
 40
10.00000000000846
100
AcDbArc
 50
275.5801667845
 51
336.4218215217
  0
LINE
  5
150
330
1F
100
AcDbEntity
  8
0
  6
Continuous
 62
     7
370
    25
100
AcDbLine
 10
120.4159679194
 20
56.8797243378
 30
0.0
 11
119.9159679194
 21
56.8797243378
 31
0.0
  0
LINE
  5
151
330
1F
100
AcDbEntity
  8
0
  6
Continuous
 62
     7
370
    25
100
AcDbLine
 10
121.6768825867
 20
72.8797243377
 30
0.0
 11
121.6921657451
 21
72.8797243378
 31
0.0
  0
LINE
  5
152
330
1F
100
AcDbEntity
  8
0
  6
Continuous
 62
     7
370
    25
100
AcDbLine
 10
112.6159679194
 20
51.3732047204
 30
0.0
 11
112.6159679194
 21
38.3797243378
 31
0.0
  0
LINE
  5
153
330
1F
100
AcDbEntity
  8
0
  6
Continuous
 62
     7
370
    25
100
AcDbLine
 10
112.6159679194
 20
54.3797243378
 30
0.0
 11
112.6159679194
 21
51.3732047204
 31
0.0
  0
LINE
  5
154
330
1F
100
AcDbEntity
  8
0
  6
Continuous
 62
     7
370
    25
100
AcDbLine
 10
112.4159679194
 20
51.2483677108
 30
0.0
 11
112.4159679194
 21
54.1797243378
 31
0.0
  0
LINE
  5
155
330
1F
100
AcDbEntity
  8
0
  6
Continuous
 62
     7
370
    25
100
AcDbLine
 10
112.4159679194
 20
38.5797243378
 30
0.0
 11
112.4159679194
 21
51.2483677108
 31
0.0
  0
LINE
  5
156
330
1F
100
AcDbEntity
  8
0
  6
Continuous
 62
     7
370
    25
100
AcDbLine
 10
102.9159679194
 20
49.5068914274
 30
0.0
 11
102.9159679194
 21
41.3697243378
 31
0.0
  0
LINE
  5
157
330
1F
100
AcDbEntity
  8
0
  6
Continuous
 62
     7
370
    25
100
AcDbLine
 10
102.9159679194
 20
51.3897243378
 30
0.0
 11
102.9159679194
 21
49.5068914274
 31
0.0
  0
SPLINE
  5
158
330
1F
100
AcDbEntity
  8
0
  6
Continuous
 62
     7
370
    25
100
AcDbSpline
210
0.0
220
0.0
230
1.0
 70
     8
 71
     3
 72
    31
 73
    27
 74
     0
 42
0.00000001
 43
0.00000001
 40
0.0
 40
0.0
 40
0.0
 40
0.0
 40
0.00927315049237
 40
0.0517139038437353
 40
0.0941819206898643
 40
0.1321039048356122
 40
0.1702160386303429
 40
0.2082072846436239
 40
0.2154700520826105
 40
0.2764855853830928
 40
0.3375003413648153
 40
0.3848205600539791
 40
0.4320455865711681
 40
0.4692145831710517
 40
0.5063446618800971
 40
0.5434324684081577
 40
0.5805695780597955
 40
0.6303325910266734
 40
0.6801877778409449
 40
0.7334674231046968
 40
0.7867383450145984
 40
0.8315826494611374
 40
0.876391993683346
 40
0.9190678024465381
 40
0.9617084416625173
 40
1.0
 40
1.0
 40
1.0
 40
1.0
 10
121.0166197627224
 20
55.87917073749357
 30
0.0
 10
121.017364543871
 20
55.87853968795817
 30
0.0
 10
121.0215179910444
 20
55.87502049186385
 30
0.0
 10
121.0917993325749
 20
55.81509498115911
 30
0.0
 10
121.2831185477708
 20
55.65470479006471
 30
0.0
 10
121.5580399861832
 20
55.42841002741162
 30
0.0
 10
121.8904570797091
 20
55.1630402719256
 30
0.0
 10
122.1775202339756
 20
54.94296149347947
 30
0.0
 10
122.5734676403166
 20
54.64916252383524
 30
0.0
 10
123.1090868876771
 20
54.26874014482993
 30
0.0
 10
123.9248403743295
 20
53.7707156648965
 30
0.0
 10
124.7663995320429
 20
53.35859798557049
 30
0.0
 10
125.5498066020164
 20
53.08159882429727
 30
0.0
 10
126.3227914466834
 20
52.9301816809252
 30
0.0
 10
127.0533817606697
 20
52.89203220963932
 30
0.0
 10
127.778104214008
 20
52.97136410075743
 30
0.0
 10
128.5514738335618
 20
53.16386730857117
 30
0.0
 10
129.3418686557937
 20
53.4810267777705
 30
0.0
 10
130.1386732024671
 20
53.90630531549445
 30
0.0
 10
130.8660403096772
 20
54.36876602636081
 30
0.0
 10
131.4802461426083
 20
54.80917939921204
 30
0.0
 10
131.9737043819277
 20
55.18763859145341
 30
0.0
 10
132.3487726473963
 20
55.48940945234765
 30
0.0
 10
132.6189618032076
 20
55.71299916391148
 30
0.0
 10
132.787421309603
 20
55.85549068018818
 30
0.0
 10
132.8028356845435
 20
55.86850948633027
 30
0.0
 10
132.8101287082734
 20
55.87466909140641
 30
0.0
  0
LINE
  5
159
330
1F
100
AcDbEntity
  8
0
  6
Continuous
 62
     7
370
    25
100
AcDbLine
 10
103.9059679194
 20
50.1248346247
 30
0.0
 11
103.9059679194
 21
40.3797243378
 31
0.0
  0
LINE
  5
15A
330
1F
100
AcDbEntity
  8
0
  6
Continuous
 62
     7
370
    25
100
AcDbLine
 10
103.9059679194
 20
52.3797243378
 30
0.0
 11
103.9059679194
 21
50.1248346247
 31
0.0
  0
LINE
  5
15B
330
1F
100
AcDbEntity
  8
0
  6
Continuous
 62
     7
370
    25
100
AcDbLine
 10
103.9259679194
 20
50.1248346247
 30
0.0
 11
103.9259679194
 21
40.3797243378
 31
0.0
  0
LINE
  5
15C
330
1F
100
AcDbEntity
  8
0
  6
Continuous
 62
     7
370
    25
100
AcDbLine
 10
103.9259679194
 20
52.3797243378
 30
0.0
 11
103.9259679194
 21
50.1248346247
 31
0.0
  0
LINE
  5
15D
330
1F
100
AcDbEntity
  8
0
  6
Continuous
 62
     7
370
    25
100
AcDbLine
 10
104.8609031413
 20
49.7101076466
 30
0.0
 11
104.8609031413
 21
41.044153868
 31
0.0
  0
LINE
  5
15E
330
1F
100
AcDbEntity
  8
0
  6
Continuous
 62
     7
370
    25
100
AcDbLine
 10
104.8609031413
 20
51.7152948076
 30
0.0
 11
104.8609031413
 21
49.7101076466
 31
0.0
  0
LINE
  5
15F
330
1F
100
AcDbEntity
  8
0
  6
Continuous
 62
     7
370
    25
100
AcDbLine
 10
105.3330926473
 20
49.5006495769
 30
0.0
 11
105.3330926473
 21
41.3797243378
 31
0.0
  0
LINE
  5
160
330
1F
100
AcDbEntity
  8
0
  6
Continuous
 62
     7
370
    25
100
AcDbLine
 10
105.3330926473
 20
51.3797243378
 30
0.0
 11
105.3330926473
 21
49.5006495769
 31
0.0
  0
LINE
  5
161
330
1F
100
AcDbEntity
  8
FORMAT
100
AcDbLine
 10
119.4823048891
 20
23.6308507395
 30
0.0
 11
119.1620275892
 21
33.8797243378
 31
0.0
  0
LINE
  5
162
330
1F
100
AcDbEntity
  8
FORMAT
100
AcDbLine
 10
134.3496309497
 20
23.6308507395
 30
0.0
 11
134.6699082496
 21
33.8797243378
 31
0.0
  0
LINE
  5
163
330
1F
100
AcDbEntity
  8
FORMAT
100
AcDbLine
 10
135.3922804194
 20
33.8797243378
 30
0.0
 11
118.4396554194
 21
33.8797243378
 31
0.0
  0
LINE
  5
164
330
1F
100
AcDbEntity
  8
FORMAT
  6
CENTERX2
370
    18
100
AcDbLine
 10
126.9159679194
 20
75.6546124466
 30
0.0
 11
126.9159679194
 21
20.9903513802
 31
0.0
  0
LINE
  5
165
330
1F
100
AcDbEntity
  8
FORMAT
  6
CENTERX2
370
    18
100
AcDbLine
 10
140.5570753343
 20
46.3797243378
 30
0.0
 11
100.9159679194
 21
46.3797243378
 31
0.0
  0
LINE
  5
166
330
1F
100
AcDbEntity
  8
0
  6
Continuous
 62
     7
370
    25
100
AcDbLine
 10
170.0996233555
 20
34.3843792243
 30
0.0
 11
170.1076858555
 21
34.3797243378
 31
0.0
  0
LINE
  5
167
330
1F
100
AcDbEntity
  8
0
  6
Continuous
 62
     7
370
    25
100
AcDbLine
 10
170.1076858555
 20
34.3797243378
 30
0.0
 11
170.4022511857
 21
24.9536337715
 31
0.0
  0
LINE
  5
168
330
1F
100
AcDbEntity
  8
0
  6
Continuous
 62
     7
370
    25
100
AcDbLine
 10
186.7969955253
 20
24.9536337715
 30
0.0
 11
187.0915608555
 21
34.3797243378
 31
0.0
  0
LINE
  5
169
330
1F
100
AcDbEntity
  8
0
  6
Continuous
 62
     7
370
    25
100
AcDbLine
 10
170.4022511857
 20
24.9536337715
 30
0.0
 11
171.5996233555
 21
22.8797243378
 31
0.0
  0
LINE
  5
16A
330
1F
100
AcDbEntity
  8
0
  6
Continuous
 62
     7
370
    25
100
AcDbLine
 10
185.5996233555
 20
22.8797243378
 30
0.0
 11
186.7969955253
 21
24.9536337715
 31
0.0
  0
LINE
  5
16B
330
1F
100
AcDbEntity
  8
0
  6
Continuous
 62
     7
370
    25
100
AcDbLine
 10
184.5121958749
 20
52.7810535783
 30
0.0
 11
184.4991674675
 21
52.912444324
 31
0.0
  0
SPLINE
  5
16C
330
1F
100
AcDbEntity
  8
0
  6
Continuous
 62
     7
370
    25
100
AcDbSpline
210
0.0
220
0.0
230
1.0
 70
     8
 71
     3
 72
     9
 73
     5
 74
     0
 42
0.00000001
 43
0.00000001
 40
0.0
 40
0.0
 40
0.0
 40
0.0
 40
0.5948782015576977
 40
1.0
 40
1.0
 40
1.0
 40
1.0
 10
172.6975111510409
 20
52.91905683142567
 30
0.0
 10
172.6989261674895
 20
52.89178706637809
 30
0.0
 10
172.7013048333152
 20
52.84594614469668
 30
0.0
 10
172.6930914694975
 20
52.80087810310511
 30
0.0
 10
172.6897640567765
 20
52.78262005704325
 30
0.0
  0
LINE
  5
16D
330
1F
100
AcDbEntity
  8
0
  6
Continuous
 62
     7
370
    25
100
AcDbLine
 10
184.4996233555
 20
52.912950591
 30
0.0
 11
184.4996233555
 21
56.8797243378
 31
0.0
  0
LINE
  5
16E
330
1F
100
AcDbEntity
  8
0
  6
Continuous
 62
     7
370
    25
100
AcDbLine
 10
172.6996233555
 20
56.8797243378
 30
0.0
 11
172.6996233555
 21
52.9182530017
 31
0.0
  0
ARC
  5
16F
330
1F
100
AcDbEntity
  8
0
  6
Continuous
 62
     7
370
    25
100
AcDbCircle
 10
183.8496233555
 20
73.4797243378
 30
0.0
 40
0.25
100
AcDbArc
 50
0.0
 51
90.0
  0
ARC
  5
170
330
1F
100
AcDbEntity
  8
0
  6
Continuous
 62
     7
370
    25
100
AcDbCircle
 10
173.3496233555
 20
73.4797243378
 30
0.0
 40
0.25
100
AcDbArc
 50
90.0
 51
180.0
  0
LINE
  5
171
330
1F
100
AcDbEntity
  8
0
  6
Continuous
 62
     7
370
    25
100
AcDbLine
 10
184.0996233555
 20
72.8797243378
 30
0.0
 11
184.0996233555
 21
73.4797243378
 31
0.0
  0
LINE
  5
172
330
1F
100
AcDbEntity
  8
0
  6
Continuous
 62
     7
370
    25
100
AcDbLine
 10
173.0996233555
 20
73.4797243378
 30
0.0
 11
173.0996233555
 21
72.8797243378
 31
0.0
  0
LINE
  5
173
330
1F
100
AcDbEntity
  8
0
  6
Continuous
 62
     7
370
    25
100
AcDbLine
 10
171.1496233555
 20
64.8797243378
 30
0.0
 11
171.5996233555
 21
56.8797243378
 31
0.0
  0
LINE
  5
174
330
1F
100
AcDbEntity
  8
0
  6
Continuous
 62
     7
370
    25
100
AcDbLine
 10
185.5996233555
 20
56.8797243378
 30
0.0
 11
186.0496233555
 21
64.8797243378
 31
0.0
  0
LINE
  5
175
330
1F
100
AcDbEntity
  8
0
  6
Continuous
 62
     7
370
    25
100
AcDbLine
 10
186.0496233555
 20
64.8797243378
 30
0.0
 11
184.0996233555
 21
72.8797243378
 31
0.0
  0
LINE
  5
176
330
1F
100
AcDbEntity
  8
0
  6
Continuous
 62
     7
370
    25
100
AcDbLine
 10
173.0996233555
 20
72.8797243378
 30
0.0
 11
171.1496233555
 21
64.8797243378
 31
0.0
  0
CIRCLE
  5
177
330
1F
100
AcDbEntity
  8
0
  6
Continuous
 62
     7
370
    25
100
AcDbCircle
 10
178.5996233555
 20
46.3797243378
 30
0.0
 40
8.250000000000028
  0
SPLINE
  5
178
330
1F
100
AcDbEntity
  8
0
  6
Continuous
 62
     7
370
    25
100
AcDbSpline
210
0.0
220
0.0
230
1.0
 70
     8
 71
     3
 72
    10
 73
     6
 74
     0
 42
0.00000001
 43
0.00000001
 40
0.0
 40
0.0
 40
0.0
 40
0.0
 40
0.5
 40
0.5
 40
1.0
 40
1.0
 40
1.0
 40
1.0
 10
170.0996233554582
 20
41.76092218426936
 30
0.0
 10
170.0996233554582
 20
41.6750351224669
 30
0.0
 10
170.1224158047881
 20
41.58762791348676
 30
0.0
 10
170.2103585088811
 20
41.43499147089304
 30
0.0
 10
170.275216282555
 20
41.37086842594745
 30
0.0
 10
170.3496233554582
 20
41.32790948237714
 30
0.0
  0
SPLINE
  5
179
330
1F
100
AcDbEntity
  8
0
  6
Continuous
 62
     7
370
    25
100
AcDbSpline
210
0.0
220
0.0
230
1.0
 70
    24
 71
     3
 72
    14
 73
    10
 74
     0
 42
0.00000001
 43
0.00000001
 40
0.0
 40
0.0
 40
0.0
 40
0.0
 40
0.25
 40
0.25
 40
0.5
 40
0.5
 40
0.75
 40
0.75
 40
1.0
 40
1.0
 40
1.0
 40
1.0
 10
170.0996233554582
 20
41.76092218426931
 30
0.0
 10
170.0996233554582
 20
42.5153022449193
 30
0.0
 10
170.0996233554582
 20
43.28474341238479
 30
0.0
 10
170.0996233554582
 20
44.82525477332596
 30
0.0
 10
170.0996233554582
 20
45.60010915333298
 30
0.0
 10
170.0996233554582
 20
47.16047010821853
 30
0.0
 10
170.0996233554582
 20
47.95092630100357
 30
0.0
 10
170.0996233554582
 20
49.49320596381203
 30
0.0
 10
170.0996233554582
 20
50.25059671701322
 30
0.0
 10
170.0996233554582
 20
50.99852649130338
 30
0.0
  0
SPLINE
  5
17A
330
1F
100
AcDbEntity
  8
0
  6
Continuous
 62
     7
370
    25
100
AcDbSpline
210
0.0
220
0.0
230
1.0
 70
     8
 71
     3
 72
    10
 73
     6
 74
     0
 42
0.00000001
 43
0.00000001
 40
0.0
 40
0.0
 40
0.0
 40
0.0
 40
0.5
 40
0.5
 40
1.0
 40
1.0
 40
1.0
 40
1.0
 10
170.3496233554582
 20
51.4315391931956
 30
0.0
 10
170.2752429780809
 20
51.38859566229436
 30
0.0
 10
170.2109423392951
 20
51.32515321767024
 30
0.0
 10
170.1227266545122
 20
51.17267438055128
 30
0.0
 10
170.0996233554582
 20
51.084444378444
 30
0.0
 10
170.0996233554582
 20
50.99852649130338
 30
0.0
  0
SPLINE
  5
17B
330
1F
100
AcDbEntity
  8
0
  6
Continuous
 62
     7
370
    25
100
AcDbSpline
210
0.0
220
0.0
230
1.0
 70
    24
 71
     3
 72
    16
 73
    12
 74
     0
 42
0.00000001
 43
0.00000001
 40
0.0
 40
0.0
 40
0.0
 40
0.0
 40
0.2500000000000001
 40
0.2500000000000001
 40
0.5000000000000001
 40
0.5000000000000001
 40
0.6250000000000001
 40
0.6250000000000001
 40
0.7500000000000002
 40
0.7500000000000002
 40
1.0
 40
1.0
 40
1.0
 40
1.0
 10
178.3496233554582
 20
56.05034134671261
 30
0.0
 10
177.6961065754174
 20
55.67303325783611
 30
0.0
 10
177.0378861663275
 20
55.2930095274619
 30
0.0
 10
175.7083235829617
 20
54.52538621205121
 30
0.0
 10
175.0368996008911
 20
54.13773939526241
 30
0.0
 10
174.0178985138844
 20
53.54941884337457
 30
0.0
 10
173.6765577315682
 20
53.35234565081892
 30
0.0
 10
173.0009592285978
 20
52.96228867326482
 30
0.0
 10
172.6653000786332
 20
52.76849577267678
 30
0.0
 10
171.6640344421335
 20
52.19041478791335
 30
0.0
 10
171.0041267835303
 20
51.80941692357853
 30
0.0
 10
170.3496233554582
 20
51.4315391931956
 30
0.0
  0
SPLINE
  5
17C
330
1F
100
AcDbEntity
  8
0
  6
Continuous
 62
     7
370
    25
100
AcDbSpline
210
0.0
220
0.0
230
1.0
 70
     8
 71
     3
 72
    10
 73
     6
 74
     0
 42
0.00000001
 43
0.00000001
 40
0.0
 40
0.0
 40
0.0
 40
0.0
 40
0.5
 40
0.5
 40
1.0
 40
1.0
 40
1.0
 40
1.0
 10
178.8496233554582
 20
56.05034134671261
 30
0.0
 10
178.7752429780809
 20
56.09328487761383
 30
0.0
 10
178.6881498899654
 20
56.11724964196982
 30
0.0
 10
178.5119915010893
 20
56.1174072474446
 30
0.0
 10
178.4240304283615
 20
56.09330029028292
 30
0.0
 10
178.3496233554582
 20
56.05034134671261
 30
0.0
  0
SPLINE
  5
17D
330
1F
100
AcDbEntity
  8
0
  6
Continuous
 62
     7
370
    25
100
AcDbSpline
210
0.0
220
0.0
230
1.0
 70
    24
 71
     3
 72
    16
 73
    12
 74
     0
 42
0.00000001
 43
0.00000001
 40
0.0
 40
0.0
 40
0.0
 40
0.0
 40
0.2499999999999997
 40
0.2499999999999997
 40
0.4999999999999993
 40
0.4999999999999993
 40
0.6249999999999993
 40
0.6249999999999993
 40
0.7499999999999996
 40
0.7499999999999996
 40
1.0
 40
1.0
 40
1.0
 40
1.0
 10
186.8496233554583
 20
51.4315391931956
 30
0.0
 10
186.1961065754175
 20
51.80884728207209
 30
0.0
 10
185.5378861663275
 20
52.1888710124463
 30
0.0
 10
184.2083235829617
 20
52.95649432785699
 30
0.0
 10
183.5368996008911
 20
53.3441411446458
 30
0.0
 10
182.5178985138844
 20
53.93246169653364
 30
0.0
 10
182.1765577315682
 20
54.12953488908929
 30
0.0
 10
181.5009592285978
 20
54.51959186664339
 30
0.0
 10
181.1653000786332
 20
54.71338476723142
 30
0.0
 10
180.1640344421335
 20
55.29146575199486
 30
0.0
 10
179.5041267835303
 20
55.67246361632967
 30
0.0
 10
178.8496233554582
 20
56.05034134671261
 30
0.0
  0
SPLINE
  5
17E
330
1F
100
AcDbEntity
  8
0
  6
Continuous
 62
     7
370
    25
100
AcDbSpline
210
0.0
220
0.0
230
1.0
 70
     8
 71
     3
 72
    10
 73
     6
 74
     0
 42
0.00000001
 43
0.00000001
 40
0.0
 40
0.0
 40
0.0
 40
0.0
 40
0.5
 40
0.5
 40
1.0
 40
1.0
 40
1.0
 40
1.0
 10
187.0996233554583
 20
50.99852649130338
 30
0.0
 10
187.0996233554583
 20
51.08441355310583
 30
0.0
 10
187.0768309061285
 20
51.17182076208595
 30
0.0
 10
186.9888882020354
 20
51.3244572046797
 30
0.0
 10
186.9240304283615
 20
51.38858024962529
 30
0.0
 10
186.8496233554583
 20
51.4315391931956
 30
0.0
  0
SPLINE
  5
17F
330
1F
100
AcDbEntity
  8
0
  6
Continuous
 62
     7
370
    25
100
AcDbSpline
210
0.0
220
0.0
230
1.0
 70
    24
 71
     3
 72
    14
 73
    10
 74
     0
 42
0.00000001
 43
0.00000001
 40
0.0
 40
0.0
 40
0.0
 40
0.0
 40
0.25
 40
0.25
 40
0.5
 40
0.5
 40
0.75
 40
0.75
 40
1.0
 40
1.0
 40
1.0
 40
1.0
 10
187.0996233554583
 20
41.7609221842693
 30
0.0
 10
187.0996233554583
 20
42.51530224491929
 30
0.0
 10
187.0996233554583
 20
43.28474341238478
 30
0.0
 10
187.0996233554583
 20
44.82525477332595
 30
0.0
 10
187.0996233554583
 20
45.60010915333297
 30
0.0
 10
187.0996233554583
 20
47.16047010821853
 30
0.0
 10
187.0996233554583
 20
47.95092630100357
 30
0.0
 10
187.0996233554583
 20
49.49320596381203
 30
0.0
 10
187.0996233554583
 20
50.25059671701322
 30
0.0
 10
187.0996233554583
 20
50.99852649130338
 30
0.0
  0
SPLINE
  5
180
330
1F
100
AcDbEntity
  8
0
  6
Continuous
 62
     7
370
    25
100
AcDbSpline
210
0.0
220
0.0
230
1.0
 70
     8
 71
     3
 72
    10
 73
     6
 74
     0
 42
0.00000001
 43
0.00000001
 40
0.0
 40
0.0
 40
0.0
 40
0.0
 40
0.5
 40
0.5
 40
1.0
 40
1.0
 40
1.0
 40
1.0
 10
186.8496233554583
 20
41.32790948237714
 30
0.0
 10
186.9240037328354
 20
41.37085301327827
 30
0.0
 10
186.988304371621
 20
41.43429545790195
 30
0.0
 10
187.0765200564042
 20
41.58677429502107
 30
0.0
 10
187.0996233554583
 20
41.67500429712855
 30
0.0
 10
187.0996233554583
 20
41.76092218426934
 30
0.0
  0
SPLINE
  5
181
330
1F
100
AcDbEntity
  8
0
  6
Continuous
 62
     7
370
    25
100
AcDbSpline
210
0.0
220
0.0
230
1.0
 70
    24
 71
     3
 72
    16
 73
    12
 74
     0
 42
0.00000001
 43
0.00000001
 40
0.0
 40
0.0
 40
0.0
 40
0.0
 40
0.2500000000000002
 40
0.2500000000000002
 40
0.5000000000000004
 40
0.5000000000000004
 40
0.6250000000000003
 40
0.6250000000000003
 40
0.7500000000000002
 40
0.7500000000000002
 40
1.0
 40
1.0
 40
1.0
 40
1.0
 10
178.8496233554582
 20
36.70910732886014
 30
0.0
 10
179.503140135499
 20
37.0864154177366
 30
0.0
 10
180.1613605445889
 20
37.46643914811078
 30
0.0
 10
181.4909231279546
 20
38.23406246352142
 30
0.0
 10
182.1623471100251
 20
38.62170928031018
 30
0.0
 10
183.1813481970318
 20
39.21002983219797
 30
0.0
 10
183.5226889793479
 20
39.40710302475362
 30
0.0
 10
184.1982874823183
 20
39.79716000230768
 30
0.0
 10
184.5339466322829
 20
39.99095290289571
 30
0.0
 10
185.5352122687825
 20
40.56903388765909
 30
0.0
 10
186.1951199273857
 20
40.95003175199389
 30
0.0
 10
186.8496233554577
 20
41.3279094823768
 30
0.0
  0
SPLINE
  5
182
330
1F
100
AcDbEntity
  8
0
  6
Continuous
 62
     7
370
    25
100
AcDbSpline
210
0.0
220
0.0
230
1.0
 70
     8
 71
     3
 72
    10
 73
     6
 74
     0
 42
0.00000001
 43
0.00000001
 40
0.0
 40
0.0
 40
0.0
 40
0.0
 40
0.5
 40
0.5
 40
1.0
 40
1.0
 40
1.0
 40
1.0
 10
178.3496233554582
 20
36.70910732886014
 30
0.0
 10
178.4240037328356
 20
36.66616379795891
 30
0.0
 10
178.5110968209511
 20
36.64219903360293
 30
0.0
 10
178.6872552098272
 20
36.64204142812815
 30
0.0
 10
178.775216282555
 20
36.66614838528982
 30
0.0
 10
178.8496233554582
 20
36.70910732886014
 30
0.0
  0
SPLINE
  5
183
330
1F
100
AcDbEntity
  8
0
  6
Continuous
 62
     7
370
    25
100
AcDbSpline
210
0.0
220
0.0
230
1.0
 70
    24
 71
     3
 72
    16
 73
    12
 74
     0
 42
0.00000001
 43
0.00000001
 40
0.0
 40
0.0
 40
0.0
 40
0.0
 40
0.2500000000000001
 40
0.2500000000000001
 40
0.5000000000000002
 40
0.5000000000000002
 40
0.6250000000000001
 40
0.6250000000000001
 40
0.7500000000000001
 40
0.7500000000000001
 40
1.0
 40
1.0
 40
1.0
 40
1.0
 10
170.3496233554582
 20
41.32790948237715
 30
0.0
 10
171.0031401354991
 20
40.95060139350065
 30
0.0
 10
171.661360544589
 20
40.57057766312644
 30
0.0
 10
172.9909231279548
 20
39.80295434771575
 30
0.0
 10
173.6623471100254
 20
39.41530753092695
 30
0.0
 10
174.6813481970321
 20
38.82698697903911
 30
0.0
 10
175.0226889793483
 20
38.62991378648346
 30
0.0
 10
175.6982874823187
 20
38.23985680892935
 30
0.0
 10
176.0339466322834
 20
38.04606390834132
 30
0.0
 10
177.0352122687831
 20
37.46798292357789
 30
0.0
 10
177.6951199273862
 20
37.08698505924307
 30
0.0
 10
178.3496233554582
 20
36.70910732886014
 30
0.0
  0
LINE
  5
184
330
1F
100
AcDbEntity
  8
0
  6
Continuous
 62
     7
370
    25
100
AcDbLine
 10
178.3496233555
 20
35.0621006296
 30
0.0
 11
178.3496233555
 21
36.7091073289
 31
0.0
  0
LINE
  5
185
330
1F
100
AcDbEntity
  8
0
  6
Continuous
 62
     7
370
    25
100
AcDbLine
 10
178.8496233555
 20
36.7091073289
 30
0.0
 11
178.8496233555
 21
35.0621006296
 31
0.0
  0
SPLINE
  5
186
330
1F
100
AcDbEntity
  8
0
  6
Continuous
 62
     7
370
    25
100
AcDbSpline
210
0.0
220
0.0
230
1.0
 70
     8
 71
     3
 72
    10
 73
     6
 74
     0
 42
0.00000001
 43
0.00000001
 40
0.0
 40
0.0
 40
0.0
 40
0.0
 40
0.5
 40
0.5
 40
1.0
 40
1.0
 40
1.0
 40
1.0
 10
178.8496233554582
 20
35.0621006295919
 30
0.0
 10
178.7752486014682
 20
35.08577423408302
 30
0.0
 10
178.6881548699023
 20
35.09886700987625
 30
0.0
 10
178.5119890413579
 20
35.0989535779772
 30
0.0
 10
178.4240280174675
 20
35.08578375385392
 30
0.0
 10
178.3496233554582
 20
35.0621006295919
 30
0.0
  0
LINE
  5
187
330
1F
100
AcDbEntity
  8
0
  6
Continuous
 62
     7
370
    25
100
AcDbLine
 10
170.1076858555
 20
34.3797243378
 30
0.0
 11
187.0915608555
 21
34.3797243378
 31
0.0
  0
SPLINE
  5
188
330
1F
100
AcDbEntity
  8
0
  6
Continuous
 62
     7
370
    25
100
AcDbSpline
210
0.0
220
0.0
230
1.0
 70
     8
 71
     3
 72
    10
 73
     6
 74
     0
 42
0.00000001
 43
0.00000001
 40
0.0
 40
0.0
 40
0.0
 40
0.0
 40
0.5
 40
0.5
 40
1.0
 40
1.0
 40
1.0
 40
1.0
 10
170.3496233554582
 20
35.0621006295919
 30
0.0
 10
170.2752528885327
 20
35.08577286950346
 30
0.0
 10
170.2109472922448
 20
35.09886685943872
 30
0.0
 10
170.122724504439
 20
35.09895372690017
 30
0.0
 10
170.0996233554582
 20
35.08578393714081
 30
0.0
 10
170.0996233554582
 20
35.0621006295919
 30
0.0
  0
SPLINE
  5
189
330
1F
100
AcDbEntity
  8
0
  6
Continuous
 62
     7
370
    25
100
AcDbSpline
210
0.0
220
0.0
230
1.0
 70
     8
 71
     3
 72
    16
 73
    12
 74
     0
 42
0.00000001
 43
0.00000001
 40
0.0
 40
0.0
 40
0.0
 40
0.0
 40
0.2499999999999999
 40
0.2499999999999999
 40
0.4999999999999998
 40
0.4999999999999998
 40
0.6249999999999998
 40
0.6249999999999998
 40
0.7499999999999997
 40
0.7499999999999997
 40
1.0
 40
1.0
 40
1.0
 40
1.0
 10
170.3496233554582
 20
35.06210062959143
 30
0.0
 10
171.0038450088977
 20
34.85386081914278
 30
0.0
 10
171.6622975444089
 20
34.68368753273335
 30
0.0
 10
172.9909421693921
 20
34.4489652731175
 30
0.0
 10
173.6612066136797
 20
34.38506729804303
 30
0.0
 10
174.6771423572413
 20
34.38404359595653
 30
0.0
 10
175.018493475341
 20
34.39953014310122
 30
0.0
 10
175.6949097868055
 20
34.46065386455922
 30
0.0
 10
176.0309825558464
 20
34.50617559185424
 30
0.0
 10
177.0335006169074
 20
34.6826749555994
 30
0.0
 10
177.6942584869989
 20
34.85349693195323
 30
0.0
 10
178.3496233554583
 20
35.06210062959175
 30
0.0
  0
SPLINE
  5
18A
330
1F
100
AcDbEntity
  8
0
  6
Continuous
 62
     7
370
    25
100
AcDbSpline
210
0.0
220
0.0
230
1.0
 70
     8
 71
     3
 72
    16
 73
    12
 74
     0
 42
0.00000001
 43
0.00000001
 40
0.0
 40
0.0
 40
0.0
 40
0.0
 40
0.2500000000000001
 40
0.2500000000000001
 40
0.5000000000000001
 40
0.5000000000000001
 40
0.6250000000000001
 40
0.6250000000000001
 40
0.7500000000000002
 40
0.7500000000000002
 40
1.0
 40
1.0
 40
1.0
 40
1.0
 10
178.8496233554582
 20
35.06210062959143
 30
0.0
 10
179.5038450088977
 20
34.85386081914279
 30
0.0
 10
180.1622975444089
 20
34.68368753273335
 30
0.0
 10
181.4909421693921
 20
34.4489652731175
 30
0.0
 10
182.1612066136797
 20
34.38506729804303
 30
0.0
 10
183.1771423572413
 20
34.38404359595653
 30
0.0
 10
183.518493475341
 20
34.39953014310122
 30
0.0
 10
184.1949097868055
 20
34.46065386455922
 30
0.0
 10
184.5309825558464
 20
34.50617559185424
 30
0.0
 10
185.5335006169074
 20
34.68267495559941
 30
0.0
 10
186.1942584869989
 20
34.85349693195324
 30
0.0
 10
186.8496233554583
 20
35.06210062959176
 30
0.0
  0
SPLINE
  5
18B
330
1F
100
AcDbEntity
  8
0
  6
Continuous
 62
     7
370
    25
100
AcDbSpline
210
0.0
220
0.0
230
1.0
 70
     8
 71
     3
 72
    10
 73
     6
 74
     0
 42
0.00000001
 43
0.00000001
 40
0.0
 40
0.0
 40
0.0
 40
0.0
 40
0.5
 40
0.5
 40
1.0
 40
1.0
 40
1.0
 40
1.0
 10
187.0996233554583
 20
35.0621006295919
 30
0.0
 10
187.0996233554583
 20
35.08577453014786
 30
0.0
 10
187.0768327838108
 20
35.098867087327
 30
0.0
 10
186.988886786512
 20
35.09895350130927
 30
0.0
 10
186.9240259937793
 20
35.08578310971065
 30
0.0
 10
186.8496233554583
 20
35.0621006295919
 30
0.0
  0
SPLINE
  5
18C
330
1F
100
AcDbEntity
  8
0
  6
Continuous
 62
     7
370
    25
100
AcDbSpline
210
0.0
220
0.0
230
1.0
 70
    24
 71
     3
 72
    12
 73
     8
 74
     0
 42
0.00000001
 43
0.00000001
 40
0.0
 40
0.0
 40
0.0
 40
0.0
 40
0.2328642324708655
 40
0.4656905567186608
 40
0.7019919530700085
 40
0.9382618479897168
 40
1.0
 40
1.0
 40
1.0
 40
1.0
 10
187.0996233554583
 20
35.0621006295919
 30
0.0
 10
187.0996233554583
 20
34.97018616969331
 30
0.0
 10
187.0996233554583
 20
34.78637221275157
 30
0.0
 10
187.0996233554583
 20
34.57765777305099
 30
0.0
 10
187.0996233554583
 20
34.44164685593496
 30
0.0
 10
187.0996233554583
 20
34.37698873735805
 30
0.0
 10
187.0996233554583
 20
34.39080380022509
 30
0.0
 10
187.0996233554583
 20
34.39366585868326
 30
0.0
  0
SPLINE
  5
18D
330
1F
100
AcDbEntity
  8
0
  6
Continuous
 62
     7
370
    25
100
AcDbSpline
210
0.0
220
0.0
230
1.0
 70
    24
 71
     3
 72
    12
 73
     8
 74
     0
 42
0.00000001
 43
0.00000001
 40
0.0
 40
0.0
 40
0.0
 40
0.0
 40
0.0617571580340976
 40
0.2943286854734785
 40
0.5269295588271141
 40
0.7634445546488585
 40
1.0
 40
1.0
 40
1.0
 40
1.0
 10
170.0996233554582
 20
34.39392986213556
 30
0.0
 10
170.0996233554582
 20
34.39096455803152
 30
0.0
 10
170.0996233554582
 20
34.37683220339025
 30
0.0
 10
170.0996233554582
 20
34.44044109407233
 30
0.0
 10
170.0996233554582
 20
34.57387840474635
 30
0.0
 10
170.0996233554582
 20
34.78222679462638
 30
0.0
 10
170.0996233554582
 20
34.96880403355495
 30
0.0
 10
170.0996233554582
 20
35.0621006295919
 30
0.0
  0
SPLINE
  5
18E
330
1F
100
AcDbEntity
  8
0
  6
Continuous
 62
     7
370
    25
100
AcDbSpline
210
0.0
220
0.0
230
1.0
 70
     8
 71
     3
 72
    12
 73
     8
 74
     0
 42
0.00000001
 43
0.00000001
 40
0.0
 40
0.0
 40
0.0
 40
0.0
 40
0.2499999999999999
 40
0.2499999999999999
 40
0.4999999999999998
 40
0.4999999999999998
 40
1.0
 40
1.0
 40
1.0
 40
1.0
 10
182.9740534482106
 20
39.0903481531515
 30
0.0
 10
183.3031884386038
 20
39.08663966729508
 30
0.0
 10
183.6326505915405
 20
39.06805716445739
 30
0.0
 10
184.2855242095982
 20
39.00319012749124
 30
0.0
 10
184.6099768014753
 20
38.95692457424099
 30
0.0
 10
185.5780372426674
 20
38.78120004393403
 30
0.0
 10
186.2163597269153
 20
38.61489663515727
 30
0.0
 10
186.8496233554583
 20
38.41332779793137
 30
0.0
  0
LINE
  5
18F
330
1F
100
AcDbEntity
  8
0
  6
Continuous
 62
     7
370
    25
100
AcDbLine
 10
186.8496233555
 20
35.0621006296
 30
0.0
 11
186.8496233555
 21
38.4133277979
 31
0.0
  0
SPLINE
  5
190
330
1F
100
AcDbEntity
  8
0
  6
Continuous
 62
     7
370
    25
100
AcDbSpline
210
0.0
220
0.0
230
1.0
 70
     8
 71
     3
 72
    10
 73
     6
 74
     0
 42
0.00000001
 43
0.00000001
 40
0.0
 40
0.0
 40
0.0
 40
0.0
 40
0.5
 40
0.5
 40
1.0
 40
1.0
 40
1.0
 40
1.0
 10
170.3496233554587
 20
38.41332779793152
 30
0.0
 10
170.9844510612724
 20
38.61539448348245
 30
0.0
 10
171.6237167638482
 20
38.78178725575309
 30
0.0
 10
172.9145316954381
 20
39.01583422962314
 30
0.0
 10
173.5661513309079
 20
39.08292248358197
 30
0.0
 10
174.225193262728
 20
39.09034815315175
 30
0.0
  0
LINE
  5
191
330
1F
100
AcDbEntity
  8
0
  6
Continuous
 62
     7
370
    25
100
AcDbLine
 10
170.3496233555
 20
38.4133277979
 30
0.0
 11
170.3496233555
 21
35.0621006296
 31
0.0
  0
LINE
  5
192
330
1F
100
AcDbEntity
  8
0
  6
Continuous
 62
     7
370
    25
100
AcDbLine
 10
178.5996233555
 20
24.9536337715
 30
0.0
 11
170.4022511857
 21
24.9536337715
 31
0.0
  0
LINE
  5
193
330
1F
100
AcDbEntity
  8
0
  6
Continuous
 62
     7
370
    25
100
AcDbLine
 10
186.7969955253
 20
24.9536337715
 30
0.0
 11
178.5996233555
 21
24.9536337715
 31
0.0
  0
LINE
  5
194
330
1F
100
AcDbEntity
  8
0
  6
Continuous
 62
     7
370
    25
100
AcDbLine
 10
185.5996233555
 20
22.8797243378
 30
0.0
 11
171.5996233555
 21
22.8797243378
 31
0.0
  0
SPLINE
  5
195
330
1F
100
AcDbEntity
  8
0
  6
Continuous
 62
     7
370
    25
100
AcDbSpline
210
0.0
220
0.0
230
1.0
 70
     8
 71
     3
 72
     8
 73
     4
 74
     0
 42
0.00000001
 43
0.00000001
 40
0.0
 40
0.0
 40
0.0
 40
0.0
 40
1.0
 40
1.0
 40
1.0
 40
1.0
 10
170.0996233554582
 20
38.57481312621239
 30
0.0
 10
170.6214295067601
 20
38.84740326188174
 30
0.0
 10
171.1450829756162
 20
39.11655576300313
 30
0.0
 10
171.6714201251827
 20
39.37972433778637
 30
0.0
  0
SPLINE
  5
196
330
1F
100
AcDbEntity
  8
0
  6
Continuous
 62
     7
370
    25
100
AcDbSpline
210
0.0
220
0.0
230
1.0
 70
     8
 71
     3
 72
    10
 73
     6
 74
     0
 42
0.00000001
 43
0.00000001
 40
0.0
 40
0.0
 40
0.0
 40
0.0
 40
0.5
 40
0.5
 40
1.0
 40
1.0
 40
1.0
 40
1.0
 10
170.0996233554582
 20
38.41332779793135
 30
0.0
 10
170.0996233554582
 20
38.38965240350693
 30
0.0
 10
170.1224158047881
 20
38.37656129362231
 30
0.0
 10
170.2103585088814
 20
38.37647497233409
 30
0.0
 10
170.2752162825555
 20
38.38964390627802
 30
0.0
 10
170.3496233554589
 20
38.41332779793158
 30
0.0
  0
SPLINE
  5
197
330
1F
100
AcDbEntity
  8
0
  6
Continuous
 62
     7
370
    25
100
AcDbSpline
210
0.0
220
0.0
230
1.0
 70
    24
 71
     3
 72
     8
 73
     4
 74
     0
 42
0.00000001
 43
0.00000001
 40
0.0
 40
0.0
 40
0.0
 40
0.0
 40
1.0
 40
1.0
 40
1.0
 40
1.0
 10
170.0996233554582
 20
38.57481312621239
 30
0.0
 10
170.0996233554582
 20
38.52391833651156
 30
0.0
 10
170.0996233554582
 20
38.46998448715012
 30
0.0
 10
170.0996233554582
 20
38.41332779793137
 30
0.0
  0
SPLINE
  5
198
330
1F
100
AcDbEntity
  8
0
  6
Continuous
 62
     7
370
    25
100
AcDbSpline
210
0.0
220
0.0
230
1.0
 70
     8
 71
     3
 72
     8
 73
     4
 74
     0
 42
0.00000001
 43
0.00000001
 40
0.0
 40
0.0
 40
0.0
 40
0.0
 40
1.0
 40
1.0
 40
1.0
 40
1.0
 10
185.5278265857338
 20
39.37972433778636
 30
0.0
 10
186.054247446943
 20
39.11651390718176
 30
0.0
 10
186.5777919036567
 20
38.84741647879505
 30
0.0
 10
187.0996233554583
 20
38.5748131262124
 30
0.0
  0
SPLINE
  5
199
330
1F
100
AcDbEntity
  8
0
  6
Continuous
 62
     7
370
    25
100
AcDbSpline
210
0.0
220
0.0
230
1.0
 70
     8
 71
     3
 72
    10
 73
     6
 74
     0
 42
0.00000001
 43
0.00000001
 40
0.0
 40
0.0
 40
0.0
 40
0.0
 40
0.5
 40
0.5
 40
1.0
 40
1.0
 40
1.0
 40
1.0
 10
186.8496233554583
 20
38.41332779793137
 30
0.0
 10
186.9240037328356
 20
38.38965240350698
 30
0.0
 10
186.9883043716214
 20
38.37656129362234
 30
0.0
 10
187.0765200564043
 20
38.37647497233406
 30
0.0
 10
187.0996233554583
 20
38.3896439062779
 30
0.0
 10
187.0996233554583
 20
38.41332779793137
 30
0.0
  0
SPLINE
  5
19A
330
1F
100
AcDbEntity
  8
0
  6
Continuous
 62
     7
370
    25
100
AcDbSpline
210
0.0
220
0.0
230
1.0
 70
    24
 71
     3
 72
     8
 73
     4
 74
     0
 42
0.00000001
 43
0.00000001
 40
0.0
 40
0.0
 40
0.0
 40
0.0
 40
1.0
 40
1.0
 40
1.0
 40
1.0
 10
187.0996233554583
 20
38.57481312621239
 30
0.0
 10
187.0996233554583
 20
38.52391833651156
 30
0.0
 10
187.0996233554583
 20
38.46998448715012
 30
0.0
 10
187.0996233554583
 20
38.41332779793137
 30
0.0
  0
LINE
  5
19B
330
1F
100
AcDbEntity
  8
0
  6
Continuous
 62
     7
370
    25
100
AcDbLine
 10
171.0996233555
 20
39.3797243378
 30
0.0
 11
173.7239790084
 21
39.3797243378
 31
0.0
  0
LINE
  5
19C
330
1F
100
AcDbEntity
  8
0
  6
Continuous
 62
     7
370
    25
100
AcDbLine
 10
171.0996233555
 20
39.3797243378
 30
0.0
 11
171.0996233555
 21
40.8948967805
 31
0.0
  0
LINE
  5
19D
330
1F
100
AcDbEntity
  8
0
  6
Continuous
 62
     7
370
    25
100
AcDbLine
 10
183.4752677025
 20
39.3797243378
 30
0.0
 11
186.0996233555
 21
39.3797243378
 31
0.0
  0
LINE
  5
19E
330
1F
100
AcDbEntity
  8
0
  6
Continuous
 62
     7
370
    25
100
AcDbLine
 10
186.0996233555
 20
40.8948967805
 30
0.0
 11
186.0996233555
 21
39.3797243378
 31
0.0
  0
LINE
  5
19F
330
1F
100
AcDbEntity
  8
0
  6
Continuous
 62
     7
370
    25
100
AcDbLine
 10
170.0996233555
 20
35.0621006296
 30
0.0
 11
170.0996233555
 21
38.4133277979
 31
0.0
  0
LINE
  5
1A0
330
1F
100
AcDbEntity
  8
0
  6
Continuous
 62
     7
370
    25
100
AcDbLine
 10
187.0996233555
 20
38.4133277979
 30
0.0
 11
187.0996233555
 21
35.0621006296
 31
0.0
  0
LINE
  5
1A1
330
1F
100
AcDbEntity
  8
0
  6
Continuous
 62
     7
370
    25
100
AcDbLine
 10
170.0996233555
 20
38.5748131262
 30
0.0
 11
170.0996233555
 21
41.7346698984
 31
0.0
  0
LINE
  5
1A2
330
1F
100
AcDbEntity
  8
0
  6
Continuous
 62
     7
370
    25
100
AcDbLine
 10
187.0996233555
 20
38.5748131262
 30
0.0
 11
187.0996233555
 21
41.7346698984
 31
0.0
  0
LINE
  5
1A3
330
1F
100
AcDbEntity
  8
0
  6
Continuous
 62
     7
370
    25
100
AcDbLine
 10
179.8496233555
 20
72.8797243378
 30
0.0
 11
179.8496233555
 21
73.4797243378
 31
0.0
  0
LINE
  5
1A4
330
1F
100
AcDbEntity
  8
0
  6
Continuous
 62
     7
370
    25
100
AcDbLine
 10
179.8496233555
 20
73.4797243378
 30
0.0
 11
180.0996233555
 21
73.4797243378
 31
0.0
  0
LINE
  5
1A5
330
1F
100
AcDbEntity
  8
0
  6
Continuous
 62
     7
370
    25
100
AcDbLine
 10
180.0996233555
 20
73.4797243378
 30
0.0
 11
180.0996233555
 21
72.8797243378
 31
0.0
  0
LINE
  5
1A6
330
1F
100
AcDbEntity
  8
0
  6
Continuous
 62
     7
370
    25
100
AcDbLine
 10
180.0996233555
 20
72.8797243378
 30
0.0
 11
179.8496233555
 21
72.8797243378
 31
0.0
  0
LINE
  5
1A7
330
1F
100
AcDbEntity
  8
0
  6
Continuous
 62
     7
370
    25
100
AcDbLine
 10
177.3496233555
 20
73.4797243378
 30
0.0
 11
177.3496233555
 21
72.8797243378
 31
0.0
  0
LINE
  5
1A8
330
1F
100
AcDbEntity
  8
0
  6
Continuous
 62
     7
370
    25
100
AcDbLine
 10
179.8496233555
 20
73.4797243378
 30
0.0
 11
177.3496233555
 21
73.4797243378
 31
0.0
  0
LINE
  5
1A9
330
1F
100
AcDbEntity
  8
0
  6
Continuous
 62
     7
370
    25
100
AcDbLine
 10
179.8496233555
 20
72.8797243378
 30
0.0
 11
177.3496233555
 21
72.8797243378
 31
0.0
  0
LINE
  5
1AA
330
1F
100
AcDbEntity
  8
0
  6
Continuous
 62
     7
370
    25
100
AcDbLine
 10
179.8496233555
 20
73.4797243378
 30
0.0
 11
179.8496233555
 21
73.7297243378
 31
0.0
  0
ARC
  5
1AB
330
1F
100
AcDbEntity
  8
0
  6
Continuous
 62
     7
370
    25
100
AcDbCircle
 10
179.8496233555
 20
73.4797243378
 30
0.0
 40
0.25
100
AcDbArc
 50
0.0
 51
90.0
  0
LINE
  5
1AC
330
1F
100
AcDbEntity
  8
0
  6
Continuous
 62
     7
370
    25
100
AcDbLine
 10
177.3496233555
 20
73.7297243378
 30
0.0
 11
177.3496233555
 21
73.4797243378
 31
0.0
  0
LINE
  5
1AD
330
1F
100
AcDbEntity
  8
0
  6
Continuous
 62
     7
370
    25
100
AcDbLine
 10
177.3496233555
 20
73.7297243378
 30
0.0
 11
179.8496233555
 21
73.7297243378
 31
0.0
  0
ARC
  5
1AE
330
1F
100
AcDbEntity
  8
0
  6
Continuous
 62
     7
370
    25
100
AcDbCircle
 10
177.3496233555
 20
73.4797243378
 30
0.0
 40
0.25
100
AcDbArc
 50
90.0
 51
180.0
  0
LINE
  5
1AF
330
1F
100
AcDbEntity
  8
0
  6
Continuous
 62
     7
370
    25
100
AcDbLine
 10
177.0996233555
 20
73.4797243378
 30
0.0
 11
177.3496233555
 21
73.4797243378
 31
0.0
  0
LINE
  5
1B0
330
1F
100
AcDbEntity
  8
0
  6
Continuous
 62
     7
370
    25
100
AcDbLine
 10
177.0996233555
 20
72.8797243378
 30
0.0
 11
177.0996233555
 21
73.4797243378
 31
0.0
  0
LINE
  5
1B1
330
1F
100
AcDbEntity
  8
0
  6
Continuous
 62
     7
370
    25
100
AcDbLine
 10
177.3496233555
 20
72.8797243378
 30
0.0
 11
177.0996233555
 21
72.8797243378
 31
0.0
  0
SPLINE
  5
1B2
330
1F
100
AcDbEntity
  8
0
  6
Continuous
 62
     7
370
    25
100
AcDbSpline
210
0.0
220
0.0
230
1.0
 70
     8
 71
     3
 72
    15
 73
    11
 74
     0
 42
0.00000001
 43
0.00000001
 40
0.0
 40
0.0
 40
0.0
 40
0.0
 40
0.0081667445812973
 40
0.3321939991490804
 40
0.475627960058556
 40
0.6866830973284891
 40
0.8457435502264751
 40
0.8967566214763124
 40
0.9909540928118028
 40
1.0
 40
1.0
 40
1.0
 40
1.0
 10
179.8496233554582
 20
73.72972433778637
 30
0.0
 10
179.8510608183973
 20
73.72972166144058
 30
0.0
 10
179.9095316763493
 20
73.72961279725376
 30
0.0
 10
179.9939568540684
 20
73.72006678498435
 30
0.0
 10
180.108535926091
 20
73.68270440172981
 30
0.0
 10
180.1899068132875
 20
73.63783888699513
 30
0.0
 10
180.2429258052892
 20
73.57996258741822
 30
0.0
 10
180.2671277371333
 20
73.52928654744629
 30
0.0
 10
180.2733173577995
 20
73.5005922679263
 30
0.0
 10
180.2735187532121
 20
73.48140543637079
 30
0.0
 10
180.2735363989365
 20
73.47972433778637
 30
0.0
  0
LINE
  5
1B3
330
1F
100
AcDbEntity
  8
0
  6
Continuous
 62
     7
370
    25
100
AcDbLine
 10
180.0996233555
 20
73.4797243378
 30
0.0
 11
180.2735363989
 21
73.4797243378
 31
0.0
  0
LINE
  5
1B4
330
1F
100
AcDbEntity
  8
0
  6
Continuous
 62
     7
370
    25
100
AcDbLine
 10
176.925710312
 20
73.4797243378
 30
0.0
 11
177.0996233555
 21
73.4797243378
 31
0.0
  0
SPLINE
  5
1B5
330
1F
100
AcDbEntity
  8
0
  6
Continuous
 62
     7
370
    25
100
AcDbSpline
210
0.0
220
0.0
230
1.0
 70
     8
 71
     3
 72
    15
 73
    11
 74
     0
 42
0.00000001
 43
0.00000001
 40
0.0
 40
0.0
 40
0.0
 40
0.0
 40
0.0090459071881971
 40
0.1032433785236874
 40
0.1542564497735246
 40
0.313316902671511
 40
0.5243720399414428
 40
0.6678060008509903
 40
0.9918332554187292
 40
1.0
 40
1.0
 40
1.0
 40
1.0
 10
176.92571031198
 20
73.47972433778637
 30
0.0
 10
176.9257279577045
 20
73.48140543637078
 30
0.0
 10
176.925929353117
 20
73.50059226792632
 30
0.0
 10
176.9321189737832
 20
73.52928654744628
 30
0.0
 10
176.9563209056274
 20
73.57996258741825
 30
0.0
 10
177.009339897629
 20
73.63783888699511
 30
0.0
 10
177.0907107848256
 20
73.68270440172981
 30
0.0
 10
177.2052898568481
 20
73.72006678498434
 30
0.0
 10
177.2897150345675
 20
73.72961279725381
 30
0.0
 10
177.3481858925192
 20
73.72972166144059
 30
0.0
 10
177.3496233554582
 20
73.72972433778637
 30
0.0
  0
LINE
  5
1B6
330
1F
100
AcDbEntity
  8
0
  6
Continuous
 62
     7
370
    25
100
AcDbLine
 10
176.925710312
 20
72.8797243378
 30
0.0
 11
176.925710312
 21
73.4797243378
 31
0.0
  0
LINE
  5
1B7
330
1F
100
AcDbEntity
  8
0
  6
Continuous
 62
     7
370
    25
100
AcDbLine
 10
177.0996233555
 20
72.8797243378
 30
0.0
 11
176.925710312
 21
72.8797243378
 31
0.0
  0
LINE
  5
1B8
330
1F
100
AcDbEntity
  8
0
  6
Continuous
 62
     7
370
    25
100
AcDbLine
 10
180.2735363989
 20
73.4797243378
 30
0.0
 11
180.2735363989
 21
72.8797243378
 31
0.0
  0
LINE
  5
1B9
330
1F
100
AcDbEntity
  8
0
  6
Continuous
 62
     7
370
    25
100
AcDbLine
 10
180.2735363989
 20
72.8797243378
 30
0.0
 11
180.0996233555
 21
72.8797243378
 31
0.0
  0
LINE
  5
1BA
330
1F
100
AcDbEntity
  8
0
  6
Continuous
 62
     7
370
    25
100
AcDbLine
 10
179.8496233555
 20
73.7297243378
 30
0.0
 11
183.8496233555
 21
73.7297243378
 31
0.0
  0
LINE
  5
1BB
330
1F
100
AcDbEntity
  8
0
  6
Continuous
 62
     7
370
    25
100
AcDbLine
 10
173.3496233555
 20
73.7297243378
 30
0.0
 11
177.3496233555
 21
73.7297243378
 31
0.0
  0
LINE
  5
1BC
330
1F
100
AcDbEntity
  8
0
  6
Continuous
 62
     7
370
    25
100
AcDbLine
 10
180.2735363989
 20
72.8797243378
 30
0.0
 11
184.0996233555
 21
72.8797243378
 31
0.0
  0
LINE
  5
1BD
330
1F
100
AcDbEntity
  8
0
  6
Continuous
 62
     7
370
    25
100
AcDbLine
 10
173.0996233555
 20
72.8797243378
 30
0.0
 11
176.925710312
 21
72.8797243378
 31
0.0
  0
LINE
  5
1BE
330
1F
100
AcDbEntity
  8
0
  6
Continuous
 62
     7
370
    25
100
AcDbLine
 10
179.1996233555
 20
73.7297243378
 30
0.0
 11
179.1996233555
 21
73.7397243378
 31
0.0
  0
LINE
  5
1BF
330
1F
100
AcDbEntity
  8
0
  6
Continuous
 62
     7
370
    25
100
AcDbLine
 10
177.9996233555
 20
73.7297243378
 30
0.0
 11
177.9996233555
 21
73.7397243378
 31
0.0
  0
LINE
  5
1C0
330
1F
100
AcDbEntity
  8
0
  6
Continuous
 62
     7
370
    25
100
AcDbLine
 10
177.9996233555
 20
73.7397243378
 30
0.0
 11
179.1996233555
 21
73.7397243378
 31
0.0
  0
LINE
  5
1C1
330
1F
100
AcDbEntity
  8
0
  6
Continuous
 62
     7
370
    25
100
AcDbLine
 10
171.5996233555
 20
56.8797243378
 30
0.0
 11
185.5996233555
 21
56.8797243378
 31
0.0
  0
LINE
  5
1C2
330
1F
100
AcDbEntity
  8
0
  6
Continuous
 62
     7
370
    25
100
AcDbLine
 10
171.1496233555
 20
64.8797243378
 30
0.0
 11
186.0496233555
 21
64.8797243378
 31
0.0
  0
LINE
  5
1C3
330
1F
100
AcDbEntity
  8
0
  6
Continuous
 62
     7
370
    25
100
AcDbLine
 10
175.0996233555
 20
74.8797243378
 30
0.0
 11
175.0996233555
 21
73.7297243378
 31
0.0
  0
LINE
  5
1C4
330
1F
100
AcDbEntity
  8
0
  6
Continuous
 62
     7
370
    25
100
AcDbLine
 10
175.0996233555
 20
74.8797243378
 30
0.0
 11
175.3279240914
 21
74.8797243378
 31
0.0
  0
LINE
  5
1C5
330
1F
100
AcDbEntity
  8
0
  6
Continuous
 62
     7
370
    25
100
AcDbLine
 10
175.3279240914
 20
74.8797243378
 30
0.0
 11
175.3279240914
 21
73.7297243378
 31
0.0
  0
LINE
  5
1C6
330
1F
100
AcDbEntity
  8
0
  6
Continuous
 62
     7
370
    25
100
AcDbLine
 10
181.8713226195
 20
74.8797243378
 30
0.0
 11
181.8713226195
 21
73.7297243378
 31
0.0
  0
LINE
  5
1C7
330
1F
100
AcDbEntity
  8
0
  6
Continuous
 62
     7
370
    25
100
AcDbLine
 10
181.8713226195
 20
74.8797243378
 30
0.0
 11
182.0996233555
 21
74.8797243378
 31
0.0
  0
LINE
  5
1C8
330
1F
100
AcDbEntity
  8
0
  6
Continuous
 62
     7
370
    25
100
AcDbLine
 10
182.0996233555
 20
73.7297243378
 30
0.0
 11
182.0996233555
 21
74.8797243378
 31
0.0
  0
LINE
  5
1C9
330
1F
100
AcDbEntity
  8
0
  6
Continuous
 62
     7
370
    25
100
AcDbLine
 10
175.3279240914
 20
74.8797243378
 30
0.0
 11
181.8713226195
 21
74.8797243378
 31
0.0
  0
SPLINE
  5
1CA
330
1F
100
AcDbEntity
  8
0
  6
Continuous
 62
     7
370
    25
100
AcDbSpline
210
0.0
220
0.0
230
1.0
 70
     8
 71
     3
 72
    19
 73
    15
 74
     0
 42
0.00000001
 43
0.00000001
 40
0.0
 40
0.0
 40
0.0
 40
0.0
 40
0.0167573826826194
 40
0.0954755060510614
 40
0.1742982743076084
 40
0.2799192683922351
 40
0.3857358996139616
 40
0.4988208750148552
 40
0.6118873352726639
 40
0.707068469458202
 40
0.8021754012707921
 40
0.8927539469857374
 40
0.9832578460441271
 40
1.0
 40
1.0
 40
1.0
 40
1.0
 10
172.707263367389
 20
52.91912366226827
 30
0.0
 10
172.7047405457384
 20
52.91599236179435
 30
0.0
 10
172.6903667214767
 20
52.89815171788191
 30
0.0
 10
172.753812106474
 20
52.97721476563404
 30
0.0
 10
172.9089153461728
 20
53.16169632199402
 30
0.0
 10
173.1972138255616
 20
53.48167644252461
 30
0.0
 10
173.6296474635457
 20
53.90612436036479
 30
0.0
 10
174.1840802992191
 20
54.36878903944253
 30
0.0
 10
174.8269758324386
 20
54.80926900789196
 30
0.0
 10
175.5264127622829
 20
55.18732994752288
 30
0.0
 10
176.2484130811071
 20
55.49055347597714
 30
0.0
 10
177.0261324706776
 20
55.70895259452746
 30
0.0
 10
177.6141809433706
 20
55.8303523542245
 30
0.0
 10
177.9437711218865
 20
55.84365218157575
 30
0.0
 10
177.9952233605094
 20
55.84572841422806
 30
0.0
  0
SPLINE
  5
1CB
330
1F
100
AcDbEntity
  8
0
  6
Continuous
 62
     7
370
    25
100
AcDbSpline
210
0.0
220
0.0
230
1.0
 70
     8
 71
     3
 72
    20
 73
    16
 74
     0
 42
0.00000001
 43
0.00000001
 40
0.0
 40
0.0
 40
0.0
 40
0.0
 40
0.0313496571532458
 40
0.0973827920587142
 40
0.1973819577193631
 40
0.2974933726048342
 40
0.4180636397194386
 40
0.5387303357032754
 40
0.6171107651945357
 40
0.6956726178065843
 40
0.773937980113099
 40
0.8504615539000254
 40
0.9268844326762161
 40
0.9967412916389355
 40
1.0
 40
1.0
 40
1.0
 40
1.0
 10
179.2118205653993
 20
55.8412266900534
 30
0.0
 10
179.307692476631
 20
55.83600665822029
 30
0.0
 10
179.6055035292403
 20
55.81979144820829
 30
0.0
 10
180.1883894754427
 20
55.70541858006085
 30
0.0
 10
180.9376304138265
 20
55.49614859389277
 30
0.0
 10
181.7581096339488
 20
55.15181596165549
 30
0.0
 10
182.5251915422118
 20
54.71626491838735
 30
0.0
 10
183.1322169483793
 20
54.27486472820657
 30
0.0
 10
183.5774487411535
 20
53.89248568540098
 30
0.0
 10
183.8992401920387
 20
53.58374979052787
 30
0.0
 10
184.1589382833753
 20
53.30975803201141
 30
0.0
 10
184.3540317331059
 20
53.08670424297751
 30
0.0
 10
184.4651079461373
 20
52.95227085027482
 30
0.0
 10
184.5090904306177
 20
52.89836798123099
 30
0.0
 10
184.4981657673532
 20
52.91170098674191
 30
0.0
 10
184.497678862952
 20
52.91229522922852
 30
0.0
  0
LINE
  5
1CC
330
1F
100
AcDbEntity
  8
0
  6
Continuous
 62
     7
370
    25
100
AcDbLine
 10
184.0996233555
 20
73.4797243378
 30
0.0
 11
180.2735363989
 21
73.4797243378
 31
0.0
  0
LINE
  5
1CD
330
1F
100
AcDbEntity
  8
0
  6
Continuous
 62
     7
370
    25
100
AcDbLine
 10
176.925710312
 20
73.4797243378
 30
0.0
 11
173.0996233555
 21
73.4797243378
 31
0.0
  0
INSERT
  5
1D9
330
1F
100
AcDbEntity
  8
FORMAT
100
AcDbBlockReference
  2
SW_CENTERMARKSYMBOL_0
 10
178.5996233555
 20
46.3797243378
 30
0.0
  0
ARC
  5
1DA
330
1F
100
AcDbEntity
  8
FORMAT
100
AcDbCircle
 10
178.5996233555
 20
46.3797243378
 30
0.0
 40
7.000000000000012
100
AcDbArc
 50
75.0
 51
345.0
  0
LINE
  5
1DB
330
1F
100
AcDbEntity
  8
FORMAT
100
AcDbLine
 10
171.1659603252
 20
23.6308507395
 30
0.0
 11
170.8456830253
 21
33.8797243378
 31
0.0
  0
LINE
  5
1DC
330
1F
100
AcDbEntity
  8
FORMAT
100
AcDbLine
 10
186.0332863857
 20
23.6308507395
 30
0.0
 11
186.3535636857
 21
33.8797243378
 31
0.0
  0
LINE
  5
1DD
330
1F
100
AcDbEntity
  8
FORMAT
100
AcDbLine
 10
187.0759358555
 20
33.8797243378
 30
0.0
 11
170.1233108555
 21
33.8797243378
 31
0.0
  0
LINE
  5
1DE
330
1F
100
AcDbEntity
  8
0
  6
Continuous
 62
     7
370
    25
100
AcDbLine
 10
138.7716303521
 20
102.7230571256
 30
0.0
 11
138.9159679194
 21
102.9730571256
 31
0.0
  0
LINE
  5
1DF
330
1F
100
AcDbEntity
  8
0
  6
Continuous
 62
     7
370
    25
100
AcDbLine
 10
138.9159679194
 20
119.4730571256
 30
0.0
 11
138.7716303521
 21
119.7230571256
 31
0.0
  0
LINE
  5
1E0
330
1F
100
AcDbEntity
  8
0
  6
Continuous
 62
     7
370
    25
100
AcDbLine
 10
115.4159679194
 20
119.2230571256
 30
0.0
 11
112.6159679194
 21
119.2230571256
 31
0.0
  0
LINE
  5
1E1
330
1F
100
AcDbEntity
  8
0
  6
Continuous
 62
     7
370
    25
100
AcDbLine
 10
112.6159679194
 20
103.2230571256
 30
0.0
 11
115.4159679194
 21
103.2230571256
 31
0.0
  0
LINE
  5
1E2
330
1F
100
AcDbEntity
  8
0
  6
Continuous
 62
     7
370
    25
100
AcDbLine
 10
112.6159679194
 20
119.2230571256
 30
0.0
 11
112.4159679194
 21
119.0230571256
 31
0.0
  0
LINE
  5
1E3
330
1F
100
AcDbEntity
  8
0
  6
Continuous
 62
     7
370
    25
100
AcDbLine
 10
112.4159679194
 20
103.4230571256
 30
0.0
 11
112.6159679194
 21
103.2230571256
 31
0.0
  0
LINE
  5
1E4
330
1F
100
AcDbEntity
  8
0
  6
Continuous
 62
     7
370
    25
100
AcDbLine
 10
103.9259679194
 20
117.2230571256
 30
0.0
 11
103.9059679194
 21
117.2230571256
 31
0.0
  0
LINE
  5
1E5
330
1F
100
AcDbEntity
  8
0
  6
Continuous
 62
     7
370
    25
100
AcDbLine
 10
103.9059679194
 20
105.2230571256
 30
0.0
 11
103.9259679194
 21
105.2230571256
 31
0.0
  0
ARC
  5
1E6
330
1F
100
AcDbEntity
  8
0
  6
Continuous
 62
     7
370
    25
100
AcDbCircle
 10
103.9259679194
 20
116.2330571256
 30
0.0
 40
0.9899999999999992
100
AcDbArc
 50
19.1995397339
 51
90.0
  0
ARC
  5
1E7
330
1F
100
AcDbEntity
  8
0
  6
Continuous
 62
     7
370
    25
100
AcDbCircle
 10
103.9259679194
 20
106.2130571256
 30
0.0
 40
0.9900000000000091
100
AcDbArc
 50
270.0
 51
340.8004602661
  0
ARC
  5
1E8
330
1F
100
AcDbEntity
  8
0
  6
Continuous
 62
     7
370
    25
100
AcDbCircle
 10
103.9059679194
 20
116.2330571256
 30
0.0
 40
0.9899999999999949
100
AcDbArc
 50
90.0
 51
180.0
  0
ARC
  5
1E9
330
1F
100
AcDbEntity
  8
0
  6
Continuous
 62
     7
370
    25
100
AcDbCircle
 10
103.9059679194
 20
106.2130571256
 30
0.0
 40
0.9900000000000091
100
AcDbArc
 50
180.0
 51
270.0
  0
ARC
  5
1EA
330
1F
100
AcDbEntity
  8
0
  6
Continuous
 62
     7
370
    25
100
AcDbCircle
 10
105.3330926473
 20
116.7230571256
 30
0.0
 40
0.5000000000000054
100
AcDbArc
 50
199.1995397339
 51
270.0
  0
ARC
  5
1EB
330
1F
100
AcDbEntity
  8
0
  6
Continuous
 62
     7
370
    25
100
AcDbCircle
 10
105.3330926473
 20
105.7230571256
 30
0.0
 40
0.5000000000000101
100
AcDbArc
 50
90.0
 51
160.8004602661
  0
LINE
  5
1EC
330
1F
100
AcDbEntity
  8
0
  6
Continuous
 62
     7
370
    25
100
AcDbLine
 10
112.4159679194
 20
116.2230571256
 30
0.0
 11
105.3330926473
 21
116.2230571256
 31
0.0
  0
LINE
  5
1ED
330
1F
100
AcDbEntity
  8
0
  6
Continuous
 62
     7
370
    25
100
AcDbLine
 10
105.3330926473
 20
106.2230571256
 30
0.0
 11
112.4159679194
 21
106.2230571256
 31
0.0
  0
SPLINE
  5
1EE
330
1F
100
AcDbEntity
  8
0
  6
Continuous
 62
     7
370
    25
100
AcDbSpline
210
0.0
220
0.0
230
1.0
 70
    24
 71
     3
 72
    10
 73
     6
 74
     0
 42
0.00000001
 43
0.00000001
 40
0.0
 40
0.0
 40
0.0
 40
0.0
 40
0.3696337614891489
 40
0.7423132045605928
 40
1.0
 40
1.0
 40
1.0
 40
1.0
 10
138.0939089468448
 20
102.7230571255984
 30
0.0
 10
138.2351115023305
 20
102.7230571255984
 30
0.0
 10
138.5186800839245
 20
102.7230571255984
 30
0.0
 10
138.7378135493236
 20
102.7230571255984
 30
0.0
 10
138.7602044692164
 20
102.7230571255984
 30
0.0
 10
138.769357631365
 20
102.7230571255984
 30
0.0
  0
SPLINE
  5
1EF
330
1F
100
AcDbEntity
  8
0
  6
Continuous
 62
     7
370
    25
100
AcDbSpline
210
0.0
220
0.0
230
1.0
 70
     8
 71
     3
 72
    10
 73
     6
 74
     0
 42
0.00000001
 43
0.00000001
 40
0.0
 40
0.0
 40
0.0
 40
0.0
 40
0.5
 40
0.5
 40
1.0
 40
1.0
 40
1.0
 40
1.0
 10
138.0939089468448
 20
102.9730571255984
 30
0.0
 10
138.0702335524204
 20
102.898676748221
 30
0.0
 10
138.0571424425358
 20
102.8343761094353
 30
0.0
 10
138.0570561212475
 20
102.7461604246523
 30
0.0
 10
138.0702250551913
 20
102.7230571255984
 30
0.0
 10
138.0939089468448
 20
102.7230571255984
 30
0.0
  0
SPLINE
  5
1F0
330
1F
100
AcDbEntity
  8
0
  6
Continuous
 62
     7
370
    25
100
AcDbSpline
210
0.0
220
0.0
230
1.0
 70
     8
 71
     3
 72
    16
 73
    12
 74
     0
 42
0.00000001
 43
0.00000001
 40
0.0
 40
0.0
 40
0.0
 40
0.0
 40
0.2500000000000001
 40
0.2500000000000001
 40
0.5000000000000001
 40
0.5000000000000001
 40
0.6250000000000001
 40
0.6250000000000001
 40
0.7500000000000002
 40
0.7500000000000002
 40
1.0
 40
1.0
 40
1.0
 40
1.0
 10
138.0939089468448
 20
110.9730571255984
 30
0.0
 10
138.3019243949505
 20
110.3195403455576
 30
0.0
 10
138.4721306999235
 20
109.6613199364676
 30
0.0
 10
138.7070667314911
 20
108.3317573531018
 30
0.0
 10
138.7711388631548
 20
107.6603333710313
 30
0.0
 10
138.7718718120758
 20
106.6413322840245
 30
0.0
 10
138.7562123319927
 20
106.2999915017084
 30
0.0
 10
138.6949372053558
 20
105.6243929987379
 30
0.0
 10
138.6493809328567
 20
105.2887338487733
 30
0.0
 10
138.4728949001004
 20
104.2874682122736
 30
0.0
 10
138.3022384466147
 20
103.6275605536704
 30
0.0
 10
138.0939089468448
 20
102.9730571255984
 30
0.0
  0
SPLINE
  5
1F1
330
1F
100
AcDbEntity
  8
0
  6
Continuous
 62
     7
370
    25
100
AcDbSpline
210
0.0
220
0.0
230
1.0
 70
     8
 71
     3
 72
    10
 73
     6
 74
     0
 42
0.00000001
 43
0.00000001
 40
0.0
 40
0.0
 40
0.0
 40
0.0
 40
0.5
 40
0.5
 40
1.0
 40
1.0
 40
1.0
 40
1.0
 10
138.0939089468448
 20
111.4730571255984
 30
0.0
 10
138.0702335524204
 20
111.398676748221
 30
0.0
 10
138.0571424425358
 20
111.3115836601055
 30
0.0
 10
138.0570561212475
 20
111.1354252712295
 30
0.0
 10
138.0702250551913
 20
111.0474641985016
 30
0.0
 10
138.0939089468448
 20
110.9730571255984
 30
0.0
  0
SPLINE
  5
1F2
330
1F
100
AcDbEntity
  8
0
  6
Continuous
 62
     7
370
    25
100
AcDbSpline
210
0.0
220
0.0
230
1.0
 70
     8
 71
     3
 72
    16
 73
    12
 74
     0
 42
0.00000001
 43
0.00000001
 40
0.0
 40
0.0
 40
0.0
 40
0.0
 40
0.2499999999999997
 40
0.2499999999999997
 40
0.4999999999999993
 40
0.4999999999999993
 40
0.6249999999999993
 40
0.6249999999999993
 40
0.7499999999999996
 40
0.7499999999999996
 40
1.0
 40
1.0
 40
1.0
 40
1.0
 10
138.0939089468448
 20
119.4730571255984
 30
0.0
 10
138.3019243949505
 20
118.8195403455576
 30
0.0
 10
138.4721306999235
 20
118.1613199364676
 30
0.0
 10
138.7070667314911
 20
116.8317573531018
 30
0.0
 10
138.7711388631548
 20
116.1603333710313
 30
0.0
 10
138.7718718120758
 20
115.1413322840245
 30
0.0
 10
138.7562123319927
 20
114.7999915017084
 30
0.0
 10
138.6949372053558
 20
114.1243929987379
 30
0.0
 10
138.6493809328567
 20
113.7887338487733
 30
0.0
 10
138.4728949001004
 20
112.7874682122736
 30
0.0
 10
138.3022384466147
 20
112.1275605536704
 30
0.0
 10
138.0939089468448
 20
111.4730571255984
 30
0.0
  0
SPLINE
  5
1F3
330
1F
100
AcDbEntity
  8
0
  6
Continuous
 62
     7
370
    25
100
AcDbSpline
210
0.0
220
0.0
230
1.0
 70
     8
 71
     3
 72
    10
 73
     6
 74
     0
 42
0.00000001
 43
0.00000001
 40
0.0
 40
0.0
 40
0.0
 40
0.0
 40
0.5
 40
0.5
 40
1.0
 40
1.0
 40
1.0
 40
1.0
 10
138.0939089468448
 20
119.7230571255984
 30
0.0
 10
138.0702335524204
 20
119.7230571255984
 30
0.0
 10
138.0571424425358
 20
119.7002646762686
 30
0.0
 10
138.0570561212475
 20
119.6123219721755
 30
0.0
 10
138.0702250551913
 20
119.5474641985016
 30
0.0
 10
138.0939089468448
 20
119.4730571255984
 30
0.0
  0
SPLINE
  5
1F4
330
1F
100
AcDbEntity
  8
0
  6
Continuous
 62
     7
370
    25
100
AcDbSpline
210
0.0
220
0.0
230
1.0
 70
    24
 71
     3
 72
    10
 73
     6
 74
     0
 42
0.00000001
 43
0.00000001
 40
0.0
 40
0.0
 40
0.0
 40
0.0
 40
0.2576837039100913
 40
0.6270640449786942
 40
1.0
 40
1.0
 40
1.0
 40
1.0
 10
138.7680162351871
 20
119.7230571255984
 30
0.0
 10
138.7594133983441
 20
119.7230571255984
 30
0.0
 10
138.7384787036499
 20
119.7230571255984
 30
0.0
 10
138.5195144038553
 20
119.7230571255984
 30
0.0
 10
138.2362297333883
 20
119.7230571255984
 30
0.0
 10
138.0939089468448
 20
119.7230571255984
 30
0.0
  0
LINE
  5
1F5
330
1F
100
AcDbEntity
  8
0
  6
Continuous
 62
     7
370
    25
100
AcDbLine
 10
138.9159679194
 20
119.4730571256
 30
0.0
 11
138.9159679194
 21
102.9730571256
 31
0.0
  0
SPLINE
  5
1F6
330
1F
100
AcDbEntity
  8
0
  6
Continuous
 62
     7
370
    25
100
AcDbSpline
210
0.0
220
0.0
230
1.0
 70
     8
 71
     3
 72
    12
 73
     8
 74
     0
 42
0.00000001
 43
0.00000001
 40
0.0
 40
0.0
 40
0.0
 40
0.0
 40
0.0372792167147373
 40
0.2759853223174244
 40
0.5147210750773147
 40
0.757340675295321
 40
1.0
 40
1.0
 40
1.0
 40
1.0
 10
132.9181145041083
 20
115.6299784229568
 30
0.0
 10
132.9186355427329
 20
115.6784123749538
 30
0.0
 10
132.9224928934348
 20
116.0369783811896
 30
0.0
 10
132.9730728020041
 20
116.7051537640366
 30
0.0
 10
133.1116317937638
 20
117.6333889453185
 30
0.0
 10
133.3172603345159
 20
118.5578907763561
 30
0.0
 10
133.5015412995902
 20
119.1679850285994
 30
0.0
 10
133.5936893246626
 20
119.4730571255984
 30
0.0
  0
LINE
  5
1F7
330
1F
100
AcDbEntity
  8
0
  6
Continuous
 62
     7
370
    25
100
AcDbLine
 10
138.0939089468
 20
119.4730571256
 30
0.0
 11
133.5936893247
 21
119.4730571256
 31
0.0
  0
SPLINE
  5
1F8
330
1F
100
AcDbEntity
  8
0
  6
Continuous
 62
     7
370
    25
100
AcDbSpline
210
0.0
220
0.0
230
1.0
 70
     8
 71
     3
 72
    12
 73
     8
 74
     0
 42
0.00000001
 43
0.00000001
 40
0.0
 40
0.0
 40
0.0
 40
0.0
 40
0.0896343442505597
 40
0.3155884109119514
 40
0.5415684684891218
 40
0.7707684121709246
 40
0.9999999999999999
 40
0.9999999999999999
 40
0.9999999999999999
 40
0.9999999999999999
 10
115.4192935417191
 20
115.6207485517371
 30
0.0
 10
115.4210864936179
 20
115.7374837670667
 30
0.0
 10
115.4273991949081
 20
116.1484900773307
 30
0.0
 10
115.4915296638061
 20
116.8524507191985
 30
0.0
 10
115.6317155132449
 20
117.7315057286272
 30
0.0
 10
115.8312370277003
 20
118.6066420957512
 30
0.0
 10
116.0062011999253
 20
119.1842388257287
 30
0.0
 10
116.0936893246626
 20
119.4730571255984
 30
0.0
  0
LINE
  5
1F9
330
1F
100
AcDbEntity
  8
0
  6
Continuous
 62
     7
370
    25
100
AcDbLine
 10
120.2382465141
 20
119.4730571256
 30
0.0
 11
116.0936893247
 21
119.4730571256
 31
0.0
  0
SPLINE
  5
1FA
330
1F
100
AcDbEntity
  8
0
  6
Continuous
 62
     7
370
    25
100
AcDbSpline
210
0.0
220
0.0
230
1.0
 70
     8
 71
     3
 72
    10
 73
     6
 74
     0
 42
0.00000001
 43
0.00000001
 40
0.0
 40
0.0
 40
0.0
 40
0.0
 40
0.364878018469117
 40
0.7296838523336513
 40
1.0
 40
1.0
 40
1.0
 40
1.0
 10
120.2382465141422
 20
119.4730571255984
 30
0.0
 10
120.3353166044768
 20
119.1487500101777
 30
0.0
 10
120.5294375815611
 20
118.5001999377117
 30
0.0
 10
120.7317933055097
 20
117.5974844028308
 30
0.0
 10
120.8016601821731
 20
117.0173077360557
 30
0.0
 10
120.8313964304818
 20
116.7703770265398
 30
0.0
  0
SPLINE
  5
1FB
330
1F
100
AcDbEntity
  8
0
  6
Continuous
 62
     7
370
    25
100
AcDbSpline
210
0.0
220
0.0
230
1.0
 70
     8
 71
     3
 72
    10
 73
     6
 74
     0
 42
0.00000001
 43
0.00000001
 40
0.0
 40
0.0
 40
0.0
 40
0.0
 40
0.3126046489374005
 40
0.6562741896929457
 40
1.0
 40
1.0
 40
1.0
 40
1.0
 10
120.8372401748134
 20
105.6723105178187
 30
0.0
 10
120.7989961624543
 20
105.3874192792933
 30
0.0
 10
120.718707662885
 20
104.7893259132816
 30
0.0
 10
120.5137585082629
 20
103.8883157258569
 30
0.0
 10
120.330088857192
 20
103.2781599746142
 30
0.0
 10
120.2382465141422
 20
102.9730571255984
 30
0.0
  0
LINE
  5
1FC
330
1F
100
AcDbEntity
  8
0
  6
Continuous
 62
     7
370
    25
100
AcDbLine
 10
116.0936893247
 20
102.9730571256
 30
0.0
 11
120.2382465141
 21
102.9730571256
 31
0.0
  0
SPLINE
  5
1FD
330
1F
100
AcDbEntity
  8
0
  6
Continuous
 62
     7
370
    25
100
AcDbSpline
210
0.0
220
0.0
230
1.0
 70
     8
 71
     3
 72
    11
 73
     7
 74
     0
 42
0.00000001
 43
0.00000001
 40
0.0
 40
0.0
 40
0.0
 40
0.0
 40
0.2569480758776447
 40
0.5138453191638019
 40
0.775220387037738
 40
1.0
 40
1.0
 40
1.0
 40
1.0
 10
116.0936893246626
 20
102.9730571255984
 30
0.0
 10
115.9959279763642
 20
103.2973110485942
 30
0.0
 10
115.8004246201058
 20
103.9457547467335
 30
0.0
 10
115.5880881415774
 20
104.9403100214779
 30
0.0
 10
115.4490912204365
 20
105.9030440856649
 30
0.0
 10
115.4309678744199
 20
106.5370377814661
 30
0.0
 10
115.4225883218541
 20
106.8301725864578
 30
0.0
  0
LINE
  5
1FE
330
1F
100
AcDbEntity
  8
0
  6
Continuous
 62
     7
370
    25
100
AcDbLine
 10
133.5936893247
 20
102.9730571256
 30
0.0
 11
138.0939089468
 21
102.9730571256
 31
0.0
  0
SPLINE
  5
1FF
330
1F
100
AcDbEntity
  8
0
  6
Continuous
 62
     7
370
    25
100
AcDbSpline
210
0.0
220
0.0
230
1.0
 70
     8
 71
     3
 72
    11
 73
     7
 74
     0
 42
0.00000001
 43
0.00000001
 40
0.0
 40
0.0
 40
0.0
 40
0.0
 40
0.2551217387389628
 40
0.5101930061946495
 40
0.7697102707285406
 40
1.0
 40
1.0
 40
1.0
 40
1.0
 10
133.5936893246626
 20
102.9730571255983
 30
0.0
 10
133.495935095085
 20
103.2973114502091
 30
0.0
 10
133.3004459748598
 20
103.945755951499
 30
0.0
 10
133.0880021220612
 20
104.9403051685376
 30
0.0
 10
132.9480652965492
 20
105.9123368991489
 30
0.0
 10
132.9298541685374
 20
106.5556763353375
 30
0.0
 10
132.9212919475144
 20
106.858151527532
 30
0.0
  0
LINE
  5
200
330
1F
100
AcDbEntity
  8
0
  6
Continuous
 62
     7
370
    25
100
AcDbLine
 10
132.9159679194
 20
106.8068936322
 30
0.0
 11
132.9159679194
 21
103.7230571256
 31
0.0
  0
LINE
  5
201
330
1F
100
AcDbEntity
  8
0
  6
Continuous
 62
     7
370
    25
100
AcDbLine
 10
132.9159679194
 20
103.7230571256
 30
0.0
 11
120.9159679194
 21
103.7230571256
 31
0.0
  0
LINE
  5
202
330
1F
100
AcDbEntity
  8
0
  6
Continuous
 62
     7
370
    25
100
AcDbLine
 10
120.9159679194
 20
105.6782415216
 30
0.0
 11
120.9159679194
 21
103.7230571256
 31
0.0
  0
LINE
  5
203
330
1F
100
AcDbEntity
  8
0
  6
Continuous
 62
     7
370
    25
100
AcDbLine
 10
120.9159679194
 20
118.7230571256
 30
0.0
 11
120.9159679194
 21
116.7678727296
 31
0.0
  0
LINE
  5
204
330
1F
100
AcDbEntity
  8
0
  6
Continuous
 62
     7
370
    25
100
AcDbLine
 10
120.9159679194
 20
118.7230571256
 30
0.0
 11
132.9159679194
 21
118.7230571256
 31
0.0
  0
LINE
  5
205
330
1F
100
AcDbEntity
  8
0
  6
Continuous
 62
     7
370
    25
100
AcDbLine
 10
132.9159679194
 20
118.7230571256
 30
0.0
 11
132.9159679194
 21
115.639220619
 31
0.0
  0
SPLINE
  5
206
330
1F
100
AcDbEntity
  8
0
  6
Continuous
 62
     7
370
    25
100
AcDbSpline
210
0.0
220
0.0
230
1.0
 70
     8
 71
     3
 72
     8
 73
     4
 74
     0
 42
0.00000001
 43
0.00000001
 40
0.0
 40
0.0
 40
0.0
 40
0.0
 40
1.0
 40
1.0
 40
1.0
 40
1.0
 10
120.3997318424232
 20
119.7230571255984
 30
0.0
 10
120.573434918643
 20
119.3905457034629
 30
0.0
 10
120.7457371377057
 20
119.057218603564
 30
0.0
 10
120.9159679194024
 20
118.7230571255984
 30
0.0
  0
SPLINE
  5
207
330
1F
100
AcDbEntity
  8
0
  6
Continuous
 62
     7
370
    25
100
AcDbSpline
210
0.0
220
0.0
230
1.0
 70
     8
 71
     3
 72
    10
 73
     6
 74
     0
 42
0.00000001
 43
0.00000001
 40
0.0
 40
0.0
 40
0.0
 40
0.0
 40
0.5
 40
0.5
 40
1.0
 40
1.0
 40
1.0
 40
1.0
 10
120.2382465141478
 20
119.7230571255984
 30
0.0
 10
120.2145711197235
 20
119.7230571255984
 30
0.0
 10
120.2014800098332
 20
119.7002646762689
 30
0.0
 10
120.2013936885448
 20
119.6123219721758
 30
0.0
 10
120.2145626224887
 20
119.5474641985019
 30
0.0
 10
120.2382465141422
 20
119.4730571255984
 30
0.0
  0
SPLINE
  5
208
330
1F
100
AcDbEntity
  8
0
  6
Continuous
 62
     7
370
    25
100
AcDbSpline
210
0.0
220
0.0
230
1.0
 70
    24
 71
     3
 72
     8
 73
     4
 74
     0
 42
0.00000001
 43
0.00000001
 40
0.0
 40
0.0
 40
0.0
 40
0.0
 40
1.0
 40
1.0
 40
1.0
 40
1.0
 10
120.3997318424232
 20
119.7230571255984
 30
0.0
 10
120.3488331255008
 20
119.7230571255984
 30
0.0
 10
120.2948989892502
 20
119.7230571255984
 30
0.0
 10
120.2382465141426
 20
119.7230571255984
 30
0.0
  0
SPLINE
  5
209
330
1F
100
AcDbEntity
  8
0
  6
Continuous
 62
     7
370
    25
100
AcDbSpline
210
0.0
220
0.0
230
1.0
 70
     8
 71
     3
 72
     8
 73
     4
 74
     0
 42
0.00000001
 43
0.00000001
 40
0.0
 40
0.0
 40
0.0
 40
0.0
 40
1.0
 40
1.0
 40
1.0
 40
1.0
 10
132.9159679194024
 20
118.7230571255984
 30
0.0
 10
133.0862455267461
 20
119.0573105218837
 30
0.0
 10
133.2585172753718
 20
119.3905770114526
 30
0.0
 10
133.4322039963814
 20
119.7230571255981
 30
0.0
  0
SPLINE
  5
20A
330
1F
100
AcDbEntity
  8
0
  6
Continuous
 62
     7
370
    25
100
AcDbSpline
210
0.0
220
0.0
230
1.0
 70
    24
 71
     3
 72
     8
 73
     4
 74
     0
 42
0.00000001
 43
0.00000001
 40
0.0
 40
0.0
 40
0.0
 40
0.0
 40
1.0
 40
1.0
 40
1.0
 40
1.0
 10
133.432203996381
 20
119.7230571255984
 30
0.0
 10
133.4831002296363
 20
119.7230571255984
 30
0.0
 10
133.5370341846001
 20
119.7230571255984
 30
0.0
 10
133.5936893246626
 20
119.7230571255984
 30
0.0
  0
SPLINE
  5
20B
330
1F
100
AcDbEntity
  8
0
  6
Continuous
 62
     7
370
    25
100
AcDbSpline
210
0.0
220
0.0
230
1.0
 70
     8
 71
     3
 72
    10
 73
     6
 74
     0
 42
0.00000001
 43
0.00000001
 40
0.0
 40
0.0
 40
0.0
 40
0.0
 40
0.5
 40
0.5
 40
1.0
 40
1.0
 40
1.0
 40
1.0
 10
133.5936893246626
 20
119.4730571255984
 30
0.0
 10
133.617364719087
 20
119.5474375029757
 30
0.0
 10
133.6304558289716
 20
119.6117381417615
 30
0.0
 10
133.6305421502599
 20
119.6999538265444
 30
0.0
 10
133.617373216316
 20
119.7230571255984
 30
0.0
 10
133.5936893246626
 20
119.7230571255984
 30
0.0
  0
SPLINE
  5
20C
330
1F
100
AcDbEntity
  8
0
  6
Continuous
 62
     7
370
    25
100
AcDbSpline
210
0.0
220
0.0
230
1.0
 70
     8
 71
     3
 72
    10
 73
     6
 74
     0
 42
0.00000001
 43
0.00000001
 40
0.0
 40
0.0
 40
0.0
 40
0.0
 40
0.5
 40
0.5
 40
1.0
 40
1.0
 40
1.0
 40
1.0
 10
116.0936893246626
 20
119.7230571255984
 30
0.0
 10
116.1173632252185
 20
119.7230571255984
 30
0.0
 10
116.1304557823977
 20
119.700266553951
 30
0.0
 10
116.1305421963799
 20
119.6123205566521
 30
0.0
 10
116.1173718047813
 20
119.5474597639193
 30
0.0
 10
116.0936893246626
 20
119.4730571255984
 30
0.0
  0
SPLINE
  5
20D
330
1F
100
AcDbEntity
  8
0
  6
Continuous
 62
     7
370
    25
100
AcDbSpline
210
0.0
220
0.0
230
1.0
 70
    24
 71
     3
 72
    12
 73
     8
 74
     0
 42
0.00000001
 43
0.00000001
 40
0.0
 40
0.0
 40
0.0
 40
0.0
 40
0.2499999999999999
 40
0.2499999999999999
 40
0.4999999999999998
 40
0.4999999999999998
 40
1.0
 40
1.0
 40
1.0
 40
1.0
 10
115.4159679194024
 20
119.7230571255984
 30
0.0
 10
115.4159679194024
 20
119.7230571255984
 30
0.0
 10
115.4319667243835
 20
119.7230571255984
 30
0.0
 10
115.4937368626978
 20
119.7230571255984
 30
0.0
 10
115.5394789869994
 20
119.7230571255984
 30
0.0
 10
115.7161491343463
 20
119.7230571255984
 30
0.0
 10
115.8864041998266
 20
119.7230571255984
 30
0.0
 10
116.0936893246626
 20
119.7230571255984
 30
0.0
  0
LINE
  5
20E
330
1F
100
AcDbEntity
  8
0
  6
Continuous
 62
     7
370
    25
100
AcDbLine
 10
115.4159679194
 20
119.7230571256
 30
0.0
 11
115.4159679194
 21
115.6057034075
 31
0.0
  0
SPLINE
  5
20F
330
1F
100
AcDbEntity
  8
0
  6
Continuous
 62
     7
370
    25
100
AcDbSpline
210
0.0
220
0.0
230
1.0
 70
     8
 71
     3
 72
     8
 73
     4
 74
     0
 42
0.00000001
 43
0.00000001
 40
0.0
 40
0.0
 40
0.0
 40
0.0
 40
1.0
 40
1.0
 40
1.0
 40
1.0
 10
120.9159679194024
 20
103.7230571255984
 30
0.0
 10
120.7456903120586
 20
103.388803729313
 30
0.0
 10
120.5734185634329
 20
103.055537239744
 30
0.0
 10
120.3997318424232
 20
102.7230571255984
 30
0.0
  0
SPLINE
  5
210
330
1F
100
AcDbEntity
  8
0
  6
Continuous
 62
     7
370
    25
100
AcDbSpline
210
0.0
220
0.0
230
1.0
 70
    24
 71
     3
 72
     8
 73
     4
 74
     0
 42
0.00000001
 43
0.00000001
 40
0.0
 40
0.0
 40
0.0
 40
0.0
 40
1.0
 40
1.0
 40
1.0
 40
1.0
 10
120.3997318424232
 20
102.7230571255984
 30
0.0
 10
120.3488331255007
 20
102.7230571255984
 30
0.0
 10
120.2948989892499
 20
102.7230571255984
 30
0.0
 10
120.2382465141422
 20
102.7230571255984
 30
0.0
  0
SPLINE
  5
211
330
1F
100
AcDbEntity
  8
0
  6
Continuous
 62
     7
370
    25
100
AcDbSpline
210
0.0
220
0.0
230
1.0
 70
     8
 71
     3
 72
    10
 73
     6
 74
     0
 42
0.00000001
 43
0.00000001
 40
0.0
 40
0.0
 40
0.0
 40
0.0
 40
0.5
 40
0.5
 40
1.0
 40
1.0
 40
1.0
 40
1.0
 10
120.2382465141422
 20
102.9730571255984
 30
0.0
 10
120.2145711197178
 20
102.898676748221
 30
0.0
 10
120.2014800098332
 20
102.8343761094353
 30
0.0
 10
120.2013936885449
 20
102.7461604246523
 30
0.0
 10
120.2145626224887
 20
102.7230571255984
 30
0.0
 10
120.2382465141422
 20
102.7230571255984
 30
0.0
  0
SPLINE
  5
212
330
1F
100
AcDbEntity
  8
0
  6
Continuous
 62
     7
370
    25
100
AcDbSpline
210
0.0
220
0.0
230
1.0
 70
     8
 71
     3
 72
     8
 73
     4
 74
     0
 42
0.00000001
 43
0.00000001
 40
0.0
 40
0.0
 40
0.0
 40
0.0
 40
1.0
 40
1.0
 40
1.0
 40
1.0
 10
133.4322039963816
 20
102.7230571255984
 30
0.0
 10
133.2585009201618
 20
103.0555685477339
 30
0.0
 10
133.0861987010991
 20
103.3888956476327
 30
0.0
 10
132.9159679194024
 20
103.7230571255984
 30
0.0
  0
SPLINE
  5
213
330
1F
100
AcDbEntity
  8
0
  6
Continuous
 62
     7
370
    25
100
AcDbSpline
210
0.0
220
0.0
230
1.0
 70
     8
 71
     3
 72
    10
 73
     6
 74
     0
 42
0.00000001
 43
0.00000001
 40
0.0
 40
0.0
 40
0.0
 40
0.0
 40
0.5
 40
0.5
 40
1.0
 40
1.0
 40
1.0
 40
1.0
 10
133.5936893246626
 20
102.7230571255984
 30
0.0
 10
133.617364719087
 20
102.7230571255984
 30
0.0
 10
133.6304558289716
 20
102.7458495749282
 30
0.0
 10
133.6305421502599
 20
102.8337922790212
 30
0.0
 10
133.6173732163161
 20
102.8986500526951
 30
0.0
 10
133.5936893246626
 20
102.9730571255983
 30
0.0
  0
SPLINE
  5
214
330
1F
100
AcDbEntity
  8
0
  6
Continuous
 62
     7
370
    25
100
AcDbSpline
210
0.0
220
0.0
230
1.0
 70
    24
 71
     3
 72
     8
 73
     4
 74
     0
 42
0.00000001
 43
0.00000001
 40
0.0
 40
0.0
 40
0.0
 40
0.0
 40
1.0
 40
1.0
 40
1.0
 40
1.0
 10
133.4322039963816
 20
102.7230571255984
 30
0.0
 10
133.4831002296366
 20
102.7230571255984
 30
0.0
 10
133.5370341846003
 20
102.7230571255984
 30
0.0
 10
133.5936893246626
 20
102.7230571255984
 30
0.0
  0
SPLINE
  5
215
330
1F
100
AcDbEntity
  8
0
  6
Continuous
 62
     7
370
    25
100
AcDbSpline
210
0.0
220
0.0
230
1.0
 70
     8
 71
     3
 72
    10
 73
     6
 74
     0
 42
0.00000001
 43
0.00000001
 40
0.0
 40
0.0
 40
0.0
 40
0.0
 40
0.5
 40
0.5
 40
1.0
 40
1.0
 40
1.0
 40
1.0
 10
116.0936893246626
 20
102.9730571255984
 30
0.0
 10
116.1173615645741
 20
102.8986866586728
 30
0.0
 10
116.1304555545094
 20
102.8343810623849
 30
0.0
 10
116.1305424219708
 20
102.7461582745791
 30
0.0
 10
116.1173726322115
 20
102.7230571255984
 30
0.0
 10
116.0936893246626
 20
102.7230571255984
 30
0.0
  0
SPLINE
  5
216
330
1F
100
AcDbEntity
  8
0
  6
Continuous
 62
     7
370
    25
100
AcDbSpline
210
0.0
220
0.0
230
1.0
 70
    24
 71
     3
 72
    12
 73
     8
 74
     0
 42
0.00000001
 43
0.00000001
 40
0.0
 40
0.0
 40
0.0
 40
0.0
 40
0.2500000000000001
 40
0.2500000000000001
 40
0.5000000000000001
 40
0.5000000000000001
 40
1.0
 40
1.0
 40
1.0
 40
1.0
 10
115.4159679194024
 20
102.7230571255984
 30
0.0
 10
115.4159679194024
 20
102.7230571255984
 30
0.0
 10
115.4319667243835
 20
102.7230571255984
 30
0.0
 10
115.4937368626978
 20
102.7230571255984
 30
0.0
 10
115.5394789869994
 20
102.7230571255984
 30
0.0
 10
115.7161491343463
 20
102.7230571255984
 30
0.0
 10
115.8864041998266
 20
102.7230571255984
 30
0.0
 10
116.0936893246626
 20
102.7230571255984
 30
0.0
  0
LINE
  5
217
330
1F
100
AcDbEntity
  8
0
  6
Continuous
 62
     7
370
    25
100
AcDbLine
 10
115.4159679194
 20
102.7230571256
 30
0.0
 11
115.4159679194
 21
106.8404108437
 31
0.0
  0
LINE
  5
218
330
1F
100
AcDbEntity
  8
0
  6
Continuous
 62
     7
370
    25
100
AcDbLine
 10
133.5936893247
 20
119.7230571256
 30
0.0
 11
138.0939089468
 21
119.7230571256
 31
0.0
  0
LINE
  5
219
330
1F
100
AcDbEntity
  8
0
  6
Continuous
 62
     7
370
    25
100
AcDbLine
 10
116.0936893247
 20
119.7230571256
 30
0.0
 11
120.2382465141
 21
119.7230571256
 31
0.0
  0
LINE
  5
21A
330
1F
100
AcDbEntity
  8
0
  6
Continuous
 62
     7
370
    25
100
AcDbLine
 10
138.0939089468
 20
102.7230571256
 30
0.0
 11
133.5936893247
 21
102.7230571256
 31
0.0
  0
LINE
  5
21B
330
1F
100
AcDbEntity
  8
0
  6
Continuous
 62
     7
370
    25
100
AcDbLine
 10
120.2382465141
 20
102.7230571256
 30
0.0
 11
116.0936893247
 21
102.7230571256
 31
0.0
  0
LINE
  5
21C
330
1F
100
AcDbEntity
  8
0
  6
Continuous
 62
     7
370
    25
100
AcDbLine
 10
133.4322039964
 20
119.7230571256
 30
0.0
 11
120.3997318424
 21
119.7230571256
 31
0.0
  0
LINE
  5
21D
330
1F
100
AcDbEntity
  8
0
  6
Continuous
 62
     7
370
    25
100
AcDbLine
 10
133.4322039964
 20
102.7230571256
 30
0.0
 11
120.3997318424
 21
102.7230571256
 31
0.0
  0
SPLINE
  5
21E
330
1F
100
AcDbEntity
  8
0
  6
Continuous
 62
     7
370
    25
100
AcDbSpline
210
0.0
220
0.0
230
1.0
 70
     8
 71
     3
 72
    15
 73
    11
 74
     0
 42
0.00000001
 43
0.00000001
 40
0.0
 40
0.0
 40
0.0
 40
0.0
 40
0.0090459071881971
 40
0.1032433785236817
 40
0.1542564497735191
 40
0.3133169026715104
 40
0.5243720399414403
 40
0.667806000850918
 40
0.9918332554187028
 40
1.0
 40
1.0
 40
1.0
 40
1.0
 10
121.6768825867443
 20
112.8969701690766
 30
0.0
 10
121.6768882787109
 20
112.8969525233522
 30
0.0
 10
121.6769532426617
 20
112.8967511279396
 30
0.0
 10
121.6789489290976
 20
112.8905615072734
 30
0.0
 10
121.6867659253141
 20
112.8663595754293
 30
0.0
 10
121.703935749069
 20
112.8133405834276
 30
0.0
 10
121.7305196456366
 20
112.731969696231
 30
0.0
 10
121.7683489441252
 20
112.6173906242086
 30
0.0
 10
121.7966297241354
 20
112.5329654464894
 30
0.0
 10
121.8164608716667
 20
112.4744945885374
 30
0.0
 10
121.8169484058096
 20
112.4730571255984
 30
0.0
  0
ARC
  5
21F
330
1F
100
AcDbEntity
  8
0
  6
Continuous
 62
     7
370
    25
100
AcDbCircle
 10
126.9159679194
 20
111.2230571256
 30
0.0
 40
5.500000000000011
100
AcDbArc
 50
17.7189318734
 51
162.2810681266
  0
SPLINE
  5
220
330
1F
100
AcDbEntity
  8
0
  6
Continuous
 62
     7
370
    25
100
AcDbSpline
210
0.0
220
0.0
230
1.0
 70
     8
 71
     3
 72
    15
 73
    11
 74
     0
 42
0.00000001
 43
0.00000001
 40
0.0
 40
0.0
 40
0.0
 40
0.0
 40
0.0081667445812973
 40
0.3321939991490804
 40
0.475627960058556
 40
0.6866830973284891
 40
0.8457435502264751
 40
0.8967566214763124
 40
0.9909540928118028
 40
1.0
 40
1.0
 40
1.0
 40
1.0
 10
132.0149874329952
 20
112.4730571255984
 30
0.0
 10
132.015474967138
 20
112.4744945885374
 30
0.0
 10
132.0353061146693
 20
112.5329654464894
 30
0.0
 10
132.0635868946796
 20
112.6173906242086
 30
0.0
 10
132.1014161931682
 20
112.7319696962311
 30
0.0
 10
132.1280000897357
 20
112.8133405834276
 30
0.0
 10
132.1451699134907
 20
112.8663595754293
 30
0.0
 10
132.1529869097072
 20
112.8905615072734
 30
0.0
 10
132.154982596143
 20
112.8967511279396
 30
0.0
 10
132.1550475600938
 20
112.8969525233522
 30
0.0
 10
132.1550532520605
 20
112.8969701690766
 30
0.0
  0
ARC
  5
221
330
1F
100
AcDbEntity
  8
0
  6
Continuous
 62
     7
370
    25
100
AcDbCircle
 10
126.9159679194
 20
111.2230571256
 30
0.0
 40
5.249999999999995
100
AcDbArc
 50
13.774146998
 51
166.225853002
  0
SPLINE
  5
222
330
1F
100
AcDbEntity
  8
0
  6
Continuous
 62
     7
370
    25
100
AcDbSpline
210
0.0
220
0.0
230
1.0
 70
     8
 71
     3
 72
    15
 73
    11
 74
     0
 42
0.00000001
 43
0.00000001
 40
0.0
 40
0.0
 40
0.0
 40
0.0
 40
0.0089557228015919
 40
0.0999003359608209
 40
0.1531632460581751
 40
0.3125636920784904
 40
0.5249666935695061
 40
0.6689893599351777
 40
0.991915253381045
 40
1.0
 40
1.0
 40
1.0
 40
1.0
 10
132.3931934944541
 20
112.7230571255984
 30
0.0
 10
132.3931777388754
 20
112.7230463412352
 30
0.0
 10
132.3930019867189
 20
112.7229260425697
 30
0.0
 10
132.3875729706994
 20
112.7192075916516
 30
0.0
 10
132.366037486992
 20
112.7044965505853
 30
0.0
 10
132.3183320587272
 20
112.6720476891268
 30
0.0
 10
132.2459411137353
 20
112.6234636487833
 30
0.0
 10
132.1440220017176
 20
112.556093176515
 30
0.0
 10
132.0686669102626
 20
112.5072796117811
 30
0.0
 10
132.0162672645393
 20
112.4738730615867
 30
0.0
 10
132.0149874329952
 20
112.4730571255984
 30
0.0
  0
ARC
  5
223
330
1F
100
AcDbEntity
  8
0
  6
Continuous
 62
     7
370
    25
100
AcDbCircle
 10
132.3931934945
 20
112.9730571256
 30
0.0
 40
0.2500000000000213
100
AcDbArc
 50
197.7189318734
 51
270.0
  0
SPLINE
  5
224
330
1F
100
AcDbEntity
  8
0
  6
Continuous
 62
     7
370
    25
100
AcDbSpline
210
0.0
220
0.0
230
1.0
 70
     8
 71
     3
 72
    15
 73
    11
 74
     0
 42
0.00000001
 43
0.00000001
 40
0.0
 40
0.0
 40
0.0
 40
0.0
 40
0.0080847466189582
 40
0.3310106400648243
 40
0.4750333064304948
 40
0.6874363079215142
 40
0.8468367539418303
 40
0.9000996640391847
 40
0.9910442771984082
 40
1.0
 40
1.0
 40
1.0
 40
1.0
 10
121.8169484058096
 20
112.4730571255984
 30
0.0
 10
121.8156685742655
 20
112.4738730615867
 30
0.0
 10
121.7632689285422
 20
112.5072796117812
 30
0.0
 10
121.6879138370871
 20
112.556093176515
 30
0.0
 10
121.5859947250695
 20
112.6234636487834
 30
0.0
 10
121.5136037800776
 20
112.6720476891268
 30
0.0
 10
121.4658983518127
 20
112.7044965505853
 30
0.0
 10
121.4443628681054
 20
112.7192075916516
 30
0.0
 10
121.4389338520859
 20
112.7229260425697
 30
0.0
 10
121.4387580999293
 20
112.7230463412352
 30
0.0
 10
121.4387423443507
 20
112.7230571255984
 30
0.0
  0
ARC
  5
225
330
1F
100
AcDbEntity
  8
0
  6
Continuous
 62
     7
370
    25
100
AcDbCircle
 10
121.4387423444
 20
112.9730571256
 30
0.0
 40
0.2500000000000077
100
AcDbArc
 50
270.0
 51
342.2810681266
  0
ARC
  5
226
330
1F
100
AcDbEntity
  8
0
  6
Continuous
 62
     7
370
    25
100
AcDbCircle
 10
132.3931934945
 20
109.4730571256
 30
0.0
 40
0.2500000000000213
100
AcDbArc
 50
90.0
 51
162.2810681266
  0
SPLINE
  5
227
330
1F
100
AcDbEntity
  8
0
  6
Continuous
 62
     7
370
    25
100
AcDbSpline
210
0.0
220
0.0
230
1.0
 70
     8
 71
     3
 72
    15
 73
    11
 74
     0
 42
0.00000001
 43
0.00000001
 40
0.0
 40
0.0
 40
0.0
 40
0.0
 40
0.0090459071881971
 40
0.1032433785236874
 40
0.1542564497735246
 40
0.313316902671511
 40
0.5243720399414428
 40
0.6678060008509903
 40
0.9918332554187292
 40
1.0
 40
1.0
 40
1.0
 40
1.0
 10
132.1550532520605
 20
109.5491440821201
 30
0.0
 10
132.1550475600938
 20
109.5491617278446
 30
0.0
 10
132.154982596143
 20
109.5493631232571
 30
0.0
 10
132.1529869097072
 20
109.5555527439233
 30
0.0
 10
132.1451699134907
 20
109.5797546757675
 30
0.0
 10
132.1280000897357
 20
109.6327736677691
 30
0.0
 10
132.1014161931682
 20
109.7141445549657
 30
0.0
 10
132.0635868946794
 20
109.8287236269882
 30
0.0
 10
132.0353061146701
 20
109.9131488047076
 30
0.0
 10
132.0154749671381
 20
109.9716196626594
 30
0.0
 10
132.0149874329952
 20
109.9730571255984
 30
0.0
  0
SPLINE
  5
228
330
1F
100
AcDbEntity
  8
0
  6
Continuous
 62
     7
370
    25
100
AcDbSpline
210
0.0
220
0.0
230
1.0
 70
     8
 71
     3
 72
    15
 73
    11
 74
     0
 42
0.00000001
 43
0.00000001
 40
0.0
 40
0.0
 40
0.0
 40
0.0
 40
0.0080847466189818
 40
0.3310106400647567
 40
0.4750333064304972
 40
0.6874363079215137
 40
0.8468367539418253
 40
0.9000996640391794
 40
0.9910442771984082
 40
1.0
 40
1.0
 40
1.0
 40
1.0
 10
132.0149874329952
 20
109.9730571255984
 30
0.0
 10
132.0162672645393
 20
109.9722411896101
 30
0.0
 10
132.0686669102631
 20
109.9388346394165
 30
0.0
 10
132.1440220017175
 20
109.8900210746816
 30
0.0
 10
132.2459411137353
 20
109.8226506024134
 30
0.0
 10
132.3183320587272
 20
109.77406656207
 30
0.0
 10
132.366037486992
 20
109.7416177006114
 30
0.0
 10
132.3875729706994
 20
109.7269066595452
 30
0.0
 10
132.3930019867189
 20
109.723188208627
 30
0.0
 10
132.3931777388754
 20
109.7230679099615
 30
0.0
 10
132.3931934944541
 20
109.7230571255984
 30
0.0
  0
SPLINE
  5
229
330
1F
100
AcDbEntity
  8
0
  6
Continuous
 62
     7
370
    25
100
AcDbSpline
210
0.0
220
0.0
230
1.0
 70
     8
 71
     3
 72
    15
 73
    11
 74
     0
 42
0.00000001
 43
0.00000001
 40
0.0
 40
0.0
 40
0.0
 40
0.0
 40
0.0081667445812695
 40
0.3321939991490083
 40
0.4756279600585602
 40
0.6866830973284899
 40
0.8457435502264811
 40
0.8967566214763185
 40
0.9909540928118029
 40
1.0
 40
1.0
 40
1.0
 40
1.0
 10
121.8169484058096
 20
109.9730571255984
 30
0.0
 10
121.8164608716667
 20
109.9716196626594
 30
0.0
 10
121.7966297241346
 20
109.9131488047076
 30
0.0
 10
121.7683489441254
 20
109.8287236269882
 30
0.0
 10
121.7305196456365
 20
109.7141445549657
 30
0.0
 10
121.7039357490691
 20
109.6327736677691
 30
0.0
 10
121.6867659253141
 20
109.5797546757675
 30
0.0
 10
121.6789489290976
 20
109.5555527439233
 30
0.0
 10
121.6769532426617
 20
109.5493631232571
 30
0.0
 10
121.6768882787109
 20
109.5491617278446
 30
0.0
 10
121.6768825867443
 20
109.5491440821201
 30
0.0
  0
ARC
  5
22A
330
1F
100
AcDbEntity
  8
0
  6
Continuous
 62
     7
370
    25
100
AcDbCircle
 10
126.9159679194
 20
111.2230571256
 30
0.0
 40
5.249999999999995
100
AcDbArc
 50
193.774146998
 51
346.225853002
  0
ARC
  5
22B
330
1F
100
AcDbEntity
  8
0
  6
Continuous
 62
     7
370
    25
100
AcDbCircle
 10
126.9159679194
 20
111.2230571256
 30
0.0
 40
5.500000000000007
100
AcDbArc
 50
197.7189318734
 51
342.2810681266
  0
ARC
  5
22C
330
1F
100
AcDbEntity
  8
0
  6
Continuous
 62
     7
370
    25
100
AcDbCircle
 10
121.4387423444
 20
109.4730571256
 30
0.0
 40
0.2500000000000077
100
AcDbArc
 50
17.7189318734
 51
90.0
  0
SPLINE
  5
22D
330
1F
100
AcDbEntity
  8
0
  6
Continuous
 62
     7
370
    25
100
AcDbSpline
210
0.0
220
0.0
230
1.0
 70
     8
 71
     3
 72
    15
 73
    11
 74
     0
 42
0.00000001
 43
0.00000001
 40
0.0
 40
0.0
 40
0.0
 40
0.0
 40
0.0089557228015919
 40
0.0999003359608148
 40
0.153163246058169
 40
0.3125636920784848
 40
0.5249666935694999
 40
0.6689893599352451
 40
0.9919152533810159
 40
1.0
 40
1.0
 40
1.0
 40
1.0
 10
121.4387423443507
 20
109.7230571255984
 30
0.0
 10
121.4387580999293
 20
109.7230679099615
 30
0.0
 10
121.4389338520859
 20
109.723188208627
 30
0.0
 10
121.4443628681054
 20
109.7269066595452
 30
0.0
 10
121.4658983518127
 20
109.7416177006114
 30
0.0
 10
121.5136037800776
 20
109.77406656207
 30
0.0
 10
121.5859947250695
 20
109.8226506024134
 30
0.0
 10
121.6879138370872
 20
109.8900210746816
 30
0.0
 10
121.7632689285417
 20
109.9388346394164
 30
0.0
 10
121.8156685742655
 20
109.9722411896101
 30
0.0
 10
121.8169484058096
 20
109.9730571255984
 30
0.0
  0
LINE
  5
22E
330
1F
100
AcDbEntity
  8
0
  6
Continuous
 62
     7
370
    25
100
AcDbLine
 10
121.9159679194
 20
110.6230571256
 30
0.0
 11
131.9159679194
 21
110.6230571256
 31
0.0
  0
LINE
  5
22F
330
1F
100
AcDbEntity
  8
0
  6
Continuous
 62
     7
370
    25
100
AcDbLine
 10
131.9159679194
 20
110.6230571256
 30
0.0
 11
131.9159679194
 21
111.8230571256
 31
0.0
  0
LINE
  5
230
330
1F
100
AcDbEntity
  8
0
  6
Continuous
 62
     7
370
    25
100
AcDbLine
 10
131.9159679194
 20
111.8230571256
 30
0.0
 11
121.9159679194
 21
111.8230571256
 31
0.0
  0
LINE
  5
231
330
1F
100
AcDbEntity
  8
0
  6
Continuous
 62
     7
370
    25
100
AcDbLine
 10
121.9159679194
 20
111.8230571256
 30
0.0
 11
121.9159679194
 21
110.6230571256
 31
0.0
  0
LINE
  5
232
330
1F
100
AcDbEntity
  8
0
  6
Continuous
 62
     7
370
    25
100
AcDbLine
 10
121.1659679194
 20
109.9730571256
 30
0.0
 11
121.8169484058
 21
109.9730571256
 31
0.0
  0
LINE
  5
233
330
1F
100
AcDbEntity
  8
0
  6
Continuous
 62
     7
370
    25
100
AcDbLine
 10
121.1659679194
 20
112.4730571256
 30
0.0
 11
121.1659679194
 21
109.9730571256
 31
0.0
  0
LINE
  5
234
330
1F
100
AcDbEntity
  8
0
  6
Continuous
 62
     7
370
    25
100
AcDbLine
 10
121.8169484058
 20
112.4730571256
 30
0.0
 11
121.1659679194
 21
112.4730571256
 31
0.0
  0
LINE
  5
235
330
1F
100
AcDbEntity
  8
0
  6
Continuous
 62
     7
370
    25
100
AcDbLine
 10
132.6659679194
 20
112.4730571256
 30
0.0
 11
132.014987433
 21
112.4730571256
 31
0.0
  0
LINE
  5
236
330
1F
100
AcDbEntity
  8
0
  6
Continuous
 62
     7
370
    25
100
AcDbLine
 10
132.6659679194
 20
109.9730571256
 30
0.0
 11
132.6659679194
 21
112.4730571256
 31
0.0
  0
LINE
  5
237
330
1F
100
AcDbEntity
  8
0
  6
Continuous
 62
     7
370
    25
100
AcDbLine
 10
132.014987433
 20
109.9730571256
 30
0.0
 11
132.6659679194
 21
109.9730571256
 31
0.0
  0
ARC
  5
238
330
1F
100
AcDbEntity
  8
0
  6
Continuous
 62
     7
370
    25
100
AcDbCircle
 10
121.1659679194
 20
112.4730571256
 30
0.0
 40
0.2500000000000142
100
AcDbArc
 50
90.0
 51
180.0
  0
LINE
  5
239
330
1F
100
AcDbEntity
  8
0
  6
Continuous
 62
     7
370
    25
100
AcDbLine
 10
121.1659679194
 20
112.7230571256
 30
0.0
 11
121.1659679194
 21
112.4730571256
 31
0.0
  0
LINE
  5
23A
330
1F
100
AcDbEntity
  8
0
  6
Continuous
 62
     7
370
    25
100
AcDbLine
 10
121.1659679194
 20
112.4730571256
 30
0.0
 11
120.9159679194
 21
112.4730571256
 31
0.0
  0
LINE
  5
23B
330
1F
100
AcDbEntity
  8
0
  6
Continuous
 62
     7
370
    25
100
AcDbLine
 10
132.3931934945
 20
112.7230571256
 30
0.0
 11
132.6659679194
 21
112.7230571256
 31
0.0
  0
LINE
  5
23C
330
1F
100
AcDbEntity
  8
0
  6
Continuous
 62
     7
370
    25
100
AcDbLine
 10
132.6659679194
 20
112.4730571256
 30
0.0
 11
132.6659679194
 21
112.7230571256
 31
0.0
  0
LINE
  5
23D
330
1F
100
AcDbEntity
  8
0
  6
Continuous
 62
     7
370
    25
100
AcDbLine
 10
121.1659679194
 20
112.7230571256
 30
0.0
 11
121.4387423444
 21
112.7230571256
 31
0.0
  0
LINE
  5
23E
330
1F
100
AcDbEntity
  8
0
  6
Continuous
 62
     7
370
    25
100
AcDbLine
 10
132.9159679194
 20
112.4730571256
 30
0.0
 11
132.6659679194
 21
112.4730571256
 31
0.0
  0
ARC
  5
23F
330
1F
100
AcDbEntity
  8
0
  6
Continuous
 62
     7
370
    25
100
AcDbCircle
 10
132.6659679194
 20
112.4730571256
 30
0.0
 40
0.2500000000000142
100
AcDbArc
 50
0.0
 51
90.0
  0
LINE
  5
240
330
1F
100
AcDbEntity
  8
0
  6
Continuous
 62
     7
370
    25
100
AcDbLine
 10
120.9159679194
 20
109.9730571256
 30
0.0
 11
121.1659679194
 21
109.9730571256
 31
0.0
  0
LINE
  5
241
330
1F
100
AcDbEntity
  8
0
  6
Continuous
 62
     7
370
    25
100
AcDbLine
 10
120.9159679194
 20
109.9730571256
 30
0.0
 11
120.9159679194
 21
112.4730571256
 31
0.0
  0
LINE
  5
242
330
1F
100
AcDbEntity
  8
0
  6
Continuous
 62
     7
370
    25
100
AcDbLine
 10
132.9159679194
 20
112.4730571256
 30
0.0
 11
132.9159679194
 21
109.9730571256
 31
0.0
  0
LINE
  5
243
330
1F
100
AcDbEntity
  8
0
  6
Continuous
 62
     7
370
    25
100
AcDbLine
 10
132.6659679194
 20
109.9730571256
 30
0.0
 11
132.9159679194
 21
109.9730571256
 31
0.0
  0
ARC
  5
244
330
1F
100
AcDbEntity
  8
0
  6
Continuous
 62
     7
370
    25
100
AcDbCircle
 10
121.1659679194
 20
109.9730571256
 30
0.0
 40
0.25
100
AcDbArc
 50
180.0
 51
270.0
  0
LINE
  5
245
330
1F
100
AcDbEntity
  8
0
  6
Continuous
 62
     7
370
    25
100
AcDbLine
 10
121.1659679194
 20
109.9730571256
 30
0.0
 11
121.1659679194
 21
109.7230571256
 31
0.0
  0
LINE
  5
246
330
1F
100
AcDbEntity
  8
0
  6
Continuous
 62
     7
370
    25
100
AcDbLine
 10
121.4387423444
 20
109.7230571256
 30
0.0
 11
121.1659679194
 21
109.7230571256
 31
0.0
  0
LINE
  5
247
330
1F
100
AcDbEntity
  8
0
  6
Continuous
 62
     7
370
    25
100
AcDbLine
 10
132.6659679194
 20
109.7230571256
 30
0.0
 11
132.6659679194
 21
109.9730571256
 31
0.0
  0
LINE
  5
248
330
1F
100
AcDbEntity
  8
0
  6
Continuous
 62
     7
370
    25
100
AcDbLine
 10
132.6659679194
 20
109.7230571256
 30
0.0
 11
132.3931934945
 21
109.7230571256
 31
0.0
  0
ARC
  5
249
330
1F
100
AcDbEntity
  8
0
  6
Continuous
 62
     7
370
    25
100
AcDbCircle
 10
132.6659679194
 20
109.9730571256
 30
0.0
 40
0.25
100
AcDbArc
 50
270.0
 51
0.0
  0
LINE
  5
24A
330
1F
100
AcDbEntity
  8
0
  6
Continuous
 62
     7
370
    25
100
AcDbLine
 10
106.9159679194
 20
107.9513578615
 30
0.0
 11
106.9159679194
 21
114.4947563897
 31
0.0
  0
LINE
  5
24B
330
1F
100
AcDbEntity
  8
0
  6
Continuous
 62
     7
370
    25
100
AcDbLine
 10
104.7405310579
 20
107.7230571256
 30
0.0
 11
106.9159679194
 21
107.9513578615
 31
0.0
  0
LINE
  5
24C
330
1F
100
AcDbEntity
  8
0
  6
Continuous
 62
     7
370
    25
100
AcDbLine
 10
86.9159679194
 20
107.7230571256
 30
0.0
 11
104.7405310579
 21
107.7230571256
 31
0.0
  0
LINE
  5
24D
330
1F
100
AcDbEntity
  8
0
  6
Continuous
 62
     7
370
    25
100
AcDbLine
 10
86.9159679194
 20
114.7230571256
 30
0.0
 11
86.9159679194
 21
107.7230571256
 31
0.0
  0
LINE
  5
24E
330
1F
100
AcDbEntity
  8
0
  6
Continuous
 62
     7
370
    25
100
AcDbLine
 10
104.7405310579
 20
114.7230571256
 30
0.0
 11
86.9159679194
 21
114.7230571256
 31
0.0
  0
LINE
  5
24F
330
1F
100
AcDbEntity
  8
0
  6
Continuous
 62
     7
370
    25
100
AcDbLine
 10
106.9159679194
 20
114.4947563897
 30
0.0
 11
104.7405310579
 21
114.7230571256
 31
0.0
  0
LINE
  5
250
330
1F
100
AcDbEntity
  8
0
  6
Continuous
 62
     7
370
    25
100
AcDbLine
 10
121.6921657451
 20
112.9440716064
 30
0.0
 11
121.5637567064
 21
112.759929973
 31
0.0
  0
LINE
  5
251
330
1F
100
AcDbEntity
  8
0
  6
Continuous
 62
     7
370
    25
100
AcDbLine
 10
121.5733240471
 20
109.6778394582
 30
0.0
 11
121.6921657451
 21
109.5020426448
 31
0.0
  0
LINE
  5
252
330
1F
100
AcDbEntity
  8
0
  6
Continuous
 62
     7
370
    25
100
AcDbLine
 10
113.4993982658
 20
113.8038597612
 30
0.0
 11
113.4993982658
 21
108.64225449
 31
0.0
  0
LINE
  5
253
330
1F
100
AcDbEntity
  8
0
  6
Continuous
 62
     7
370
    25
100
AcDbLine
 10
121.692165745
 20
109.5020426448
 30
0.0
 11
113.4993982658
 21
108.64225449
 31
0.0
  0
LINE
  5
254
330
1F
100
AcDbEntity
  8
0
  6
Continuous
 62
     7
370
    25
100
AcDbLine
 10
113.4993982658
 20
113.8038597612
 30
0.0
 11
121.692165745
 21
112.9440716064
 31
0.0
  0
LINE
  5
255
330
1F
100
AcDbEntity
  8
0
  6
Continuous
 62
     7
370
    25
100
AcDbLine
 10
113.4993982658
 20
108.64225449
 30
0.0
 11
106.9159679194
 21
107.9513578615
 31
0.0
  0
LINE
  5
256
330
1F
100
AcDbEntity
  8
0
  6
Continuous
 62
     7
370
    25
100
AcDbLine
 10
106.9159679194
 20
114.4947563897
 30
0.0
 11
113.4993982658
 21
113.8038597612
 31
0.0
  0
ARC
  5
257
330
1F
100
AcDbEntity
  8
0
  6
Continuous
 62
     7
370
    25
100
AcDbCircle
 10
126.9159679194
 20
111.2230571256
 30
0.0
 40
7.450000000000645
100
AcDbArc
 50
233.0863788866
 51
126.9136211134
  0
ARC
  5
258
330
1F
100
AcDbEntity
  8
0
  6
Continuous
 62
     7
370
    25
100
AcDbCircle
 10
126.9159679194
 20
111.2230571256
 30
0.0
 40
7.207531252870791
100
AcDbArc
 50
195.3041237151
 51
238.9797515565
  0
ARC
  5
259
330
1F
100
AcDbEntity
  8
0
  6
Continuous
 62
     7
370
    25
100
AcDbCircle
 10
126.9159679194
 20
111.2230571256
 30
0.0
 40
7.207531252872434
100
AcDbArc
 50
121.0202484435
 51
164.6958762849
  0
ARC
  5
25A
330
1F
100
AcDbEntity
  8
0
  6
Continuous
 62
     7
370
    25
100
AcDbCircle
 10
104.7405310579
 20
179.7230571256
 30
0.0
 40
64.99999999999999
100
AcDbArc
 50
270.0
 51
286.5000949923
  0
ARC
  5
25B
330
1F
100
AcDbEntity
  8
0
  6
Continuous
 62
     7
370
    25
100
AcDbCircle
 10
104.7405310579
 20
42.7230571256
 30
0.0
 40
65.0
100
AcDbArc
 50
73.4999050077
 51
90.0
  0
LINE
  5
25C
330
1F
100
AcDbEntity
  8
0
  6
Continuous
 62
     7
370
    25
100
AcDbLine
 10
112.6159679194
 20
104.9728448357
 30
0.0
 11
112.6159679194
 21
103.2230571256
 31
0.0
  0
LINE
  5
25D
330
1F
100
AcDbEntity
  8
0
  6
Continuous
 62
     7
370
    25
100
AcDbLine
 10
112.6159679194
 20
119.2230571256
 30
0.0
 11
112.6159679194
 21
115.2019172237
 31
0.0
  0
LINE
  5
25E
330
1F
100
AcDbEntity
  8
0
  6
Continuous
 62
     7
370
    25
100
AcDbLine
 10
112.6159679194
 20
107.2441970275
 30
0.0
 11
112.6159679194
 21
104.9728448357
 31
0.0
  0
LINE
  5
25F
330
1F
100
AcDbEntity
  8
0
  6
Continuous
 62
     7
370
    25
100
AcDbLine
 10
112.4159679194
 20
105.129100143
 30
0.0
 11
112.4159679194
 21
107.2682945098
 31
0.0
  0
LINE
  5
260
330
1F
100
AcDbEntity
  8
0
  6
Continuous
 62
     7
370
    25
100
AcDbLine
 10
112.4159679194
 20
115.1778197414
 30
0.0
 11
112.4159679194
 21
119.0230571256
 31
0.0
  0
LINE
  5
261
330
1F
100
AcDbEntity
  8
0
  6
Continuous
 62
     7
370
    25
100
AcDbLine
 10
112.4159679194
 20
103.4230571256
 30
0.0
 11
112.4159679194
 21
105.129100143
 31
0.0
  0
LINE
  5
262
330
1F
100
AcDbEntity
  8
0
  6
Continuous
 62
     7
370
    25
100
AcDbLine
 10
102.9159679194
 20
107.3088616791
 30
0.0
 11
102.9159679194
 21
106.2130571256
 31
0.0
  0
LINE
  5
263
330
1F
100
AcDbEntity
  8
0
  6
Continuous
 62
     7
370
    25
100
AcDbLine
 10
102.9159679194
 20
116.2330571256
 30
0.0
 11
102.9159679194
 21
114.7230571256
 31
0.0
  0
LINE
  5
264
330
1F
100
AcDbEntity
  8
0
  6
Continuous
 62
     7
370
    25
100
AcDbLine
 10
102.9159679194
 20
107.7230571256
 30
0.0
 11
102.9159679194
 21
107.3088616791
 31
0.0
  0
LINE
  5
265
330
1F
100
AcDbEntity
  8
0
  6
Continuous
 62
     7
370
    25
100
AcDbLine
 10
138.0939089468
 20
110.9730571256
 30
0.0
 11
134.361772107
 21
110.9730571256
 31
0.0
  0
LINE
  5
266
330
1F
100
AcDbEntity
  8
0
  6
Continuous
 62
     7
370
    25
100
AcDbLine
 10
134.361772107
 20
111.4730571256
 30
0.0
 11
138.0939089468
 21
111.4730571256
 31
0.0
  0
LINE
  5
267
330
1F
100
AcDbEntity
  8
0
  6
Continuous
 62
     7
370
    25
100
AcDbLine
 10
103.9059679194
 20
106.5353979082
 30
0.0
 11
103.9059679194
 21
105.2230571256
 31
0.0
  0
LINE
  5
268
330
1F
100
AcDbEntity
  8
0
  6
Continuous
 62
     7
370
    25
100
AcDbLine
 10
103.9059679194
 20
117.2230571256
 30
0.0
 11
103.9059679194
 21
114.7230571256
 31
0.0
  0
LINE
  5
269
330
1F
100
AcDbEntity
  8
0
  6
Continuous
 62
     7
370
    25
100
AcDbLine
 10
103.9059679194
 20
107.7230571256
 30
0.0
 11
103.9059679194
 21
106.5353979082
 31
0.0
  0
LINE
  5
26A
330
1F
100
AcDbEntity
  8
0
  6
Continuous
 62
     7
370
    25
100
AcDbLine
 10
103.9259679194
 20
106.5353979082
 30
0.0
 11
103.9259679194
 21
105.2230571256
 31
0.0
  0
LINE
  5
26B
330
1F
100
AcDbEntity
  8
0
  6
Continuous
 62
     7
370
    25
100
AcDbLine
 10
103.9259679194
 20
117.2230571256
 30
0.0
 11
103.9259679194
 21
114.7230571256
 31
0.0
  0
LINE
  5
26C
330
1F
100
AcDbEntity
  8
0
  6
Continuous
 62
     7
370
    25
100
AcDbLine
 10
103.9259679194
 20
107.7230571256
 30
0.0
 11
103.9259679194
 21
106.5353979082
 31
0.0
  0
LINE
  5
26D
330
1F
100
AcDbEntity
  8
0
  6
Continuous
 62
     7
370
    25
100
AcDbLine
 10
104.8609031413
 20
107.0545011101
 30
0.0
 11
104.8609031413
 21
105.8874866558
 31
0.0
  0
LINE
  5
26E
330
1F
100
AcDbEntity
  8
0
  6
Continuous
 62
     7
370
    25
100
AcDbLine
 10
104.8609031413
 20
116.5586275954
 30
0.0
 11
104.8609031413
 21
114.7231685829
 31
0.0
  0
LINE
  5
26F
330
1F
100
AcDbEntity
  8
0
  6
Continuous
 62
     7
370
    25
100
AcDbLine
 10
104.8609031413
 20
107.7229456683
 30
0.0
 11
104.8609031413
 21
107.0545011101
 31
0.0
  0
LINE
  5
270
330
1F
100
AcDbEntity
  8
0
  6
Continuous
 62
     7
370
    25
100
AcDbLine
 10
105.3330926473
 20
107.3166744444
 30
0.0
 11
105.3330926473
 21
106.2230571256
 31
0.0
  0
LINE
  5
271
330
1F
100
AcDbEntity
  8
0
  6
Continuous
 62
     7
370
    25
100
AcDbLine
 10
105.3330926473
 20
116.2230571256
 30
0.0
 11
105.3330926473
 21
114.7257581759
 31
0.0
  0
LINE
  5
272
330
1F
100
AcDbEntity
  8
0
  6
Continuous
 62
     7
370
    25
100
AcDbLine
 10
105.3330926473
 20
107.7203560753
 30
0.0
 11
105.3330926473
 21
107.3166744444
 31
0.0
  0
INSERT
  5
27E
330
1F
100
AcDbEntity
  8
FORMAT
100
AcDbBlockReference
  2
SW_CENTERMARKSYMBOL_1
 10
126.9159679194
 20
111.2230571256
 30
0.0
  0
ENDSEC
  0
SECTION
  2
OBJECTS
  0
DICTIONARY
  5
C
330
0
100
AcDbDictionary
281
     1
  3
ACAD_GROUP
350
D
  3
ACAD_LAYOUT
350
1A
  3
ACAD_MLINESTYLE
350
17
  3
ACAD_PLOTSETTINGS
350
19
  3
ACAD_PLOTSTYLENAME
350
E
  3
ACAD_SCALELIST
350
47
  3
DWGPROPS
350
27F
  0
DICTIONARY
  5
D
102
{ACAD_REACTORS
330
C
102
}
330
C
100
AcDbDictionary
281
     1
  0
DICTIONARY
  5
1A
102
{ACAD_REACTORS
330
C
102
}
330
C
100
AcDbDictionary
281
     1
  3
Layout1
350
1E
  3
Layout2
350
26
  3
Model
350
22
  0
DICTIONARY
  5
17
102
{ACAD_REACTORS
330
C
102
}
330
C
100
AcDbDictionary
281
     1
  3
Standard
350
18
  0
DICTIONARY
  5
19
102
{ACAD_REACTORS
330
C
102
}
330
C
100
AcDbDictionary
281
     1
  0
ACDBDICTIONARYWDFLT
  5
E
102
{ACAD_REACTORS
330
C
102
}
330
C
100
AcDbDictionary
281
     1
  3
Normal
350
F
100
AcDbDictionaryWithDefault
340
F
  0
DICTIONARY
  5
47
102
{ACAD_REACTORS
330
C
102
}
330
C
100
AcDbDictionary
281
     1
  3
A0
350
48
  3
A1
350
49
  3
A2
350
4A
  3
A3
350
4B
  3
A4
350
4C
  3
A5
350
4D
  3
A6
350
4E
  3
A7
350
4F
  3
A8
350
50
  3
A9
350
51
  3
B0
350
52
  3
B1
350
53
  3
B2
350
54
  3
B3
350
55
  3
B4
350
56
  3
B5
350
57
  3
B6
350
58
  0
XRECORD
  5
27F
102
{ACAD_REACTORS
330
C
102
}
330
C
100
AcDbXrecord
280
     1
  1
DWGPROPS COOKIE
  2

  3

  4

  6

  7

  8
user28
  9

300
=
301
=
302
=
303
=
304
=
305
=
306
=
307
=
308
=
309
=
 40
0.0
 41
2460333.010061227
 42
2460333.010061979
  1

 90
        0
  0
LAYOUT
  5
1E
102
{ACAD_REACTORS
330
1A
102
}
330
1A
100
AcDbPlotSettings
  1

  2
none_device
  4

  6

 40
0.0
 41
0.0
 42
0.0
 43
0.0
 44
0.0
 45
0.0
 46
0.0
 47
0.0
 48
0.0
 49
0.0
140
0.0
141
0.0
142
1.0
143
1.0
 70
   688
 72
     1
 73
     0
 74
     5
  7

 75
    16
147
1.0
148
0.0
149
0.0
100
AcDbLayout
  1
Layout1
 70
     1
 71
     1
 10
0.0
 20
0.0
 11
420.0
 21
297.0
 12
0.0
 22
0.0
 32
0.0
 14
1.0000000000E+20
 24
1.0000000000E+20
 34
1.0000000000E+20
 15
-1.0000000000E+20
 25
-1.0000000000E+20
 35
-1.0000000000E+20
146
0.0
 13
0.0
 23
0.0
 33
0.0
 16
1.0
 26
0.0
 36
0.0
 17
0.0
 27
1.0
 37
0.0
 76
     0
330
1B
  0
LAYOUT
  5
26
102
{ACAD_REACTORS
330
1A
102
}
330
1A
100
AcDbPlotSettings
  1

  2
none_device
  4

  6

 40
0.0
 41
0.0
 42
0.0
 43
0.0
 44
0.0
 45
0.0
 46
0.0
 47
0.0
 48
0.0
 49
0.0
140
0.0
141
0.0
142
1.0
143
1.0
 70
   688
 72
     1
 73
     0
 74
     5
  7

 75
    16
147
1.0
148
0.0
149
0.0
100
AcDbLayout
  1
Layout2
 70
     1
 71
     2
 10
0.0
 20
0.0
 11
0.0
 21
0.0
 12
0.0
 22
0.0
 32
0.0
 14
0.0
 24
0.0
 34
0.0
 15
0.0
 25
0.0
 35
0.0
146
0.0
 13
0.0
 23
0.0
 33
0.0
 16
1.0
 26
0.0
 36
0.0
 17
0.0
 27
1.0
 37
0.0
 76
     0
330
23
  0
LAYOUT
  5
22
102
{ACAD_REACTORS
330
1A
102
}
330
1A
100
AcDbPlotSettings
  1

  2
none_device
  4
Letter_(8.50_x_11.00_Inches)
  6

 40
6.35
 41
6.35
 42
6.35000508
 43
6.35000508
 44
215.9
 45
279.4
 46
0.0
 47
0.0
 48
0.0
 49
0.0
140
0.0
141
0.0
142
1.0
143
1.0
 70
  1712
 72
     1
 73
     0
 74
     0
  7

 75
     0
147
1.0
148
0.0
149
0.0
100
AcDbLayout
  1
Model
 70
     1
 71
     0
 10
0.0
 20
0.0
 11
297.0
 21
210.0
 12
0.0
 22
0.0
 32
0.0
 14
0.0
 24
0.0
 34
0.0
 15
297.0
 25
210.0
 35
0.0
146
0.0
 13
0.0
 23
0.0
 33
0.0
 16
1.0
 26
0.0
 36
0.0
 17
0.0
 27
1.0
 37
0.0
 76
     0
330
1F
331
29
  0
MLINESTYLE
  5
18
102
{ACAD_REACTORS
330
17
102
}
330
17
100
AcDbMlineStyle
  2
Standard
 70
     0
  3

 62
   256
 51
90.0
 52
90.0
 71
     2
 49
0.5
 62
   256
  6
BYLAYER
 49
-0.5
 62
   256
  6
BYLAYER
  0
ACDBPLACEHOLDER
  5
F
102
{ACAD_REACTORS
330
E
102
}
330
E
  0
SCALE
  5
48
102
{ACAD_REACTORS
330
47
102
}
330
47
100
AcDbScale
 70
     0
300
1:1
140
1.0
141
1.0
290
     1
  0
SCALE
  5
49
102
{ACAD_REACTORS
330
47
102
}
330
47
100
AcDbScale
 70
     0
300
1:2
140
1.0
141
2.0
290
     0
  0
SCALE
  5
4A
102
{ACAD_REACTORS
330
47
102
}
330
47
100
AcDbScale
 70
     0
300
1:4
140
1.0
141
4.0
290
     0
  0
SCALE
  5
4B
102
{ACAD_REACTORS
330
47
102
}
330
47
100
AcDbScale
 70
     0
300
1:5
140
1.0
141
5.0
290
     0
  0
SCALE
  5
4C
102
{ACAD_REACTORS
330
47
102
}
330
47
100
AcDbScale
 70
     0
300
1:8
140
1.0
141
8.0
290
     0
  0
SCALE
  5
4D
102
{ACAD_REACTORS
330
47
102
}
330
47
100
AcDbScale
 70
     0
300
1:10
140
1.0
141
10.0
290
     0
  0
SCALE
  5
4E
102
{ACAD_REACTORS
330
47
102
}
330
47
100
AcDbScale
 70
     0
300
1:16
140
1.0
141
16.0
290
     0
  0
SCALE
  5
4F
102
{ACAD_REACTORS
330
47
102
}
330
47
100
AcDbScale
 70
     0
300
1:20
140
1.0
141
20.0
290
     0
  0
SCALE
  5
50
102
{ACAD_REACTORS
330
47
102
}
330
47
100
AcDbScale
 70
     0
300
1:30
140
1.0
141
30.0
290
     0
  0
SCALE
  5
51
102
{ACAD_REACTORS
330
47
102
}
330
47
100
AcDbScale
 70
     0
300
1:40
140
1.0
141
40.0
290
     0
  0
SCALE
  5
52
102
{ACAD_REACTORS
330
47
102
}
330
47
100
AcDbScale
 70
     0
300
1:50
140
1.0
141
50.0
290
     0
  0
SCALE
  5
53
102
{ACAD_REACTORS
330
47
102
}
330
47
100
AcDbScale
 70
     0
300
1:100
140
1.0
141
100.0
290
     0
  0
SCALE
  5
54
102
{ACAD_REACTORS
330
47
102
}
330
47
100
AcDbScale
 70
     0
300
2:1
140
2.0
141
1.0
290
     0
  0
SCALE
  5
55
102
{ACAD_REACTORS
330
47
102
}
330
47
100
AcDbScale
 70
     0
300
4:1
140
4.0
141
1.0
290
     0
  0
SCALE
  5
56
102
{ACAD_REACTORS
330
47
102
}
330
47
100
AcDbScale
 70
     0
300
8:1
140
8.0
141
1.0
290
     0
  0
SCALE
  5
57
102
{ACAD_REACTORS
330
47
102
}
330
47
100
AcDbScale
 70
     0
300
10:1
140
10.0
141
1.0
290
     0
  0
SCALE
  5
58
102
{ACAD_REACTORS
330
47
102
}
330
47
100
AcDbScale
 70
     0
300
100:1
140
100.0
141
1.0
290
     0
  0
ENDSEC
  0
EOF
