  0
SECTION
  2
HEADER
  9
$ACADVER
  1
AC1015
  9
$ACADMAINTVER
 70
     6
  9
$DWGCODEPAGE
  3
DOS932
  9
$INSBASE
 10
0.0
 20
0.0
 30
0.0
  9
$EXTMIN
 10
0.0
 20
0.0
 30
0.0
  9
$EXTMAX
 10
297.0
 20
210.0
 30
0.0
  9
$LIMMIN
 10
0.0
 20
0.0
  9
$LIMMAX
 10
297.0
 20
210.0
  9
$ORTHOMODE
 70
     0
  9
$REGENMODE
 70
     1
  9
$FILLMODE
 70
     1
  9
$QTEXTMODE
 70
     0
  9
$MIRRTEXT
 70
     1
  9
$LTSCALE
 40
1.0
  9
$ATTMODE
 70
     1
  9
$TEXTSIZE
 40
3.5277777778
  9
$TRACEWID
 40
1.0
  9
$TEXTSTYLE
  7
Standard
  9
$CLAYER
  8
0
  9
$CELTYPE
  6
ByLayer
  9
$CECOLOR
 62
   256
  9
$CELTSCALE
 40
1.0
  9
$DISPSILH
 70
     0
  9
$DIMSCALE
 40
1.0
  9
$DIMASZ
 40
2.728515625
  9
$DIMEXO
 40
1.0
  9
$DIMDLI
 40
3.75
  9
$DIMRND
 40
0.0
  9
$DIMDLE
 40
0.0
  9
$DIMEXE
 40
1.0
  9
$DIMTP
 40
0.0
  9
$DIMTM
 40
0.0
  9
$DIMTXT
 40
3.5277777778
  9
$DIMCEN
 40
2.5
  9
$DIMTSZ
 40
0.0
  9
$DIMTOL
 70
     0
  9
$DIMLIM
 70
     0
  9
$DIMTIH
 70
     1
  9
$DIMTOH
 70
     1
  9
$DIMSE1
 70
     0
  9
$DIMSE2
 70
     0
  9
$DIMTAD
 70
     1
  9
$DIMZIN
 70
     0
  9
$DIMBLK
  1

  9
$DIMASO
 70
     1
  9
$DIMSHO
 70
     1
  9
$DIMPOST
  1

  9
$DIMAPOST
  1

  9
$DIMALT
 70
     0
  9
$DIMALTD
 70
     3
  9
$DIMALTF
 40
0.0393700787
  9
$DIMLFAC
 40
1.0
  9
$DIMTOFL
 70
     1
  9
$DIMTVP
 40
0.0
  9
$DIMTIX
 70
     0
  9
$DIMSOXD
 70
     0
  9
$DIMSAH
 70
     0
  9
$DIMBLK1
  1

  9
$DIMBLK2
  1

  9
$DIMSTYLE
  2
ISO-25
  9
$DIMCLRD
 70
     0
  9
$DIMCLRE
 70
     0
  9
$DIMCLRT
 70
     0
  9
$DIMTFAC
 40
1.0
  9
$DIMGAP
 40
1.524
  9
$DIMJUST
 70
     0
  9
$DIMSD1
 70
     0
  9
$DIMSD2
 70
     0
  9
$DIMTOLJ
 70
     0
  9
$DIMTZIN
 70
     0
  9
$DIMALTZ
 70
     0
  9
$DIMALTTZ
 70
     0
  9
$DIMUPT
 70
     0
  9
$DIMDEC
 70
     2
  9
$DIMTDEC
 70
     2
  9
$DIMALTU
 70
     2
  9
$DIMALTTD
 70
     3
  9
$DIMTXSTY
  7
Standard
  9
$DIMAUNIT
 70
     0
  9
$DIMADEC
 70
     2
  9
$DIMALTRND
 40
0.0
  9
$DIMAZIN
 70
     0
  9
$DIMDSEP
 70
    44
  9
$DIMATFIT
 70
     3
  9
$DIMFRAC
 70
     0
  9
$DIMLDRBLK
  1

  9
$DIMLUNIT
 70
     2
  9
$DIMLWD
 70
    -2
  9
$DIMLWE
 70
    -2
  9
$DIMTMOVE
 70
     0
  9
$LUNITS
 70
     2
  9
$LUPREC
 70
     2
  9
$SKETCHINC
 40
1.0
  9
$FILLETRAD
 40
0.0
  9
$AUNITS
 70
     0
  9
$AUPREC
 70
     2
  9
$MENU
  1
.
  9
$ELEVATION
 40
0.0
  9
$PELEVATION
 40
0.0
  9
$THICKNESS
 40
0.0
  9
$LIMCHECK
 70
     0
  9
$CHAMFERA
 40
0.0
  9
$CHAMFERB
 40
0.0
  9
$CHAMFERC
 40
0.0
  9
$CHAMFERD
 40
0.0
  9
$SKPOLY
 70
     0
  9
$TDCREATE
 40
2460333.38392029
  9
$TDUCREATE
 40
2460333.00892029
  9
$TDUPDATE
 40
2460333.383920961
  9
$TDUUPDATE
 40
2460333.008920961
  9
$TDINDWG
 40
0.0000000116
  9
$TDUSRTIMER
 40
0.0000000116
  9
$USRTIMER
 70
     1
  9
$ANGBASE
 50
0.0
  9
$ANGDIR
 70
     0
  9
$PDMODE
 70
     0
  9
$PDSIZE
 40
-1.0
  9
$PLINEWID
 40
0.0
  9
$SPLFRAME
 70
     0
  9
$SPLINETYPE
 70
     6
  9
$SPLINESEGS
 70
     8
  9
$HANDSEED
  5
27F
  9
$SURFTAB1
 70
     6
  9
$SURFTAB2
 70
     6
  9
$SURFTYPE
 70
     6
  9
$SURFU
 70
     6
  9
$SURFV
 70
     6
  9
$UCSBASE
  2

  9
$UCSNAME
  2

  9
$UCSORG
 10
0.0
 20
0.0
 30
0.0
  9
$UCSXDIR
 10
1.0
 20
0.0
 30
0.0
  9
$UCSYDIR
 10
0.0
 20
1.0
 30
0.0
  9
$UCSORTHOREF
  2

  9
$UCSORTHOVIEW
 70
     0
  9
$UCSORGTOP
 10
0.0
 20
0.0
 30
0.0
  9
$UCSORGBOTTOM
 10
0.0
 20
0.0
 30
0.0
  9
$UCSORGLEFT
 10
0.0
 20
0.0
 30
0.0
  9
$UCSORGRIGHT
 10
0.0
 20
0.0
 30
0.0
  9
$UCSORGFRONT
 10
0.0
 20
0.0
 30
0.0
  9
$UCSORGBACK
 10
0.0
 20
0.0
 30
0.0
  9
$PUCSBASE
  2

  9
$PUCSNAME
  2

  9
$PUCSORG
 10
0.0
 20
0.0
 30
0.0
  9
$PUCSXDIR
 10
1.0
 20
0.0
 30
0.0
  9
$PUCSYDIR
 10
0.0
 20
1.0
 30
0.0
  9
$PUCSORTHOREF
  2

  9
$PUCSORTHOVIEW
 70
     0
  9
$PUCSORGTOP
 10
0.0
 20
0.0
 30
0.0
  9
$PUCSORGBOTTOM
 10
0.0
 20
0.0
 30
0.0
  9
$PUCSORGLEFT
 10
0.0
 20
0.0
 30
0.0
  9
$PUCSORGRIGHT
 10
0.0
 20
0.0
 30
0.0
  9
$PUCSORGFRONT
 10
0.0
 20
0.0
 30
0.0
  9
$PUCSORGBACK
 10
0.0
 20
0.0
 30
0.0
  9
$USERI1
 70
     0
  9
$USERI2
 70
     0
  9
$USERI3
 70
     0
  9
$USERI4
 70
     0
  9
$USERI5
 70
     0
  9
$USERR1
 40
0.0
  9
$USERR2
 40
0.0
  9
$USERR3
 40
0.0
  9
$USERR4
 40
0.0
  9
$USERR5
 40
0.0
  9
$WORLDVIEW
 70
     1
  9
$SHADEDGE
 70
     3
  9
$SHADEDIF
 70
    70
  9
$TILEMODE
 70
     1
  9
$MAXACTVP
 70
    64
  9
$PINSBASE
 10
0.0
 20
0.0
 30
0.0
  9
$PLIMCHECK
 70
     0
  9
$PEXTMIN
 10
1.0000000000E+20
 20
1.0000000000E+20
 30
1.0000000000E+20
  9
$PEXTMAX
 10
-1.0000000000E+20
 20
-1.0000000000E+20
 30
-1.0000000000E+20
  9
$PLIMMIN
 10
0.0
 20
0.0
  9
$PLIMMAX
 10
420.0
 20
297.0
  9
$UNITMODE
 70
     0
  9
$VISRETAIN
 70
     1
  9
$PLINEGEN
 70
     0
  9
$PSLTSCALE
 70
     1
  9
$TREEDEPTH
 70
  3020
  9
$CMLSTYLE
  2
Standard
  9
$CMLJUST
 70
     0
  9
$CMLSCALE
 40
20.0
  9
$PROXYGRAPHICS
 70
     1
  9
$MEASUREMENT
 70
     1
  9
$CELWEIGHT
370
    -1
  9
$ENDCAPS
280
     0
  9
$JOINSTYLE
280
     0
  9
$LWDISPLAY
290
     1
  9
$INSUNITS
 70
     4
  9
$HYPERLINKBASE
  1

  9
$STYLESHEET
  1

  9
$XEDIT
290
     1
  9
$CEPSNTYPE
380
     0
  9
$PSTYLEMODE
290
     1
  9
$FINGERPRINTGUID
  2
{abda5df9-d58d-4f16-b1b8-62354d9b33ac}
  9
$VERSIONGUID
  2
{FAEB1C32-E019-11D5-929B-00C0DF256EC4}
  9
$EXTNAMES
290
     1
  9
$PSVPSCALE
 40
0.0
  9
$OLESTARTUP
290
     0
  0
ENDSEC
  0
SECTION
  2
CLASSES
  0
CLASS
  1
ACDBDICTIONARYWDFLT
  2
AcDbDictionaryWithDefault
  3
ObjectDBX Classes
 90
        0
280
     0
281
     0
  0
CLASS
  1
VISUALSTYLE
  2
AcDbVisualStyle
  3
ObjectDBX Classes
 90
     4095
280
     0
281
     0
  0
CLASS
  1
MATERIAL
  2
AcDbMaterial
  3
ObjectDBX Classes
 90
     1153
280
     0
281
     0
  0
CLASS
  1
SCALE
  2
AcDbScale
  3
ObjectDBX Classes
 90
     1153
280
     0
281
     0
  0
CLASS
  1
TABLESTYLE
  2
AcDbTableStyle
  3
ObjectDBX Classes
 90
     4095
280
     0
281
     0
  0
CLASS
  1
MLEADERSTYLE
  2
AcDbMLeaderStyle
  3
ACDB_MLEADERSTYLE_CLASS
 90
     4095
280
     0
281
     0
  0
CLASS
  1
SUN
  2
AcDbSun
  3
SCENEOE
 90
     1153
280
     0
281
     0
  0
CLASS
  1
ACDBPLACEHOLDER
  2
AcDbPlaceHolder
  3
ObjectDBX Classes
 90
        0
280
     0
281
     0
  0
CLASS
  1
LAYOUT
  2
AcDbLayout
  3
ObjectDBX Classes
 90
        0
280
     0
281
     0
  0
ENDSEC
  0
SECTION
  2
TABLES
  0
TABLE
  2
VPORT
  5
8
330
0
100
AcDbSymbolTable
 70
     1
  0
VPORT
  5
29
330
8
100
AcDbSymbolTableRecord
100
AcDbViewportTableRecord
  2
*Active
 70
     0
 10
0.0
 20
0.0
 11
1.0
 21
1.0
 12
148.5
 22
105.0
 13
0.0
 23
0.0
 14
10.0
 24
10.0
 15
10.0
 25
10.0
 16
0.0
 26
0.0
 36
1.0
 17
0.0
 27
0.0
 37
0.0
 40
210.0
 41
1.4142857143
 42
50.0
 43
0.0
 44
0.0
 50
0.0
 51
0.0
 71
     0
 72
  2000
 73
     1
 74
     3
 75
     0
 76
     0
 77
     0
 78
     0
281
     0
 65
     1
110
0.0
120
0.0
130
0.0
111
1.0
121
0.0
131
0.0
112
0.0
122
1.0
132
0.0
 79
     0
146
0.0
  0
ENDTAB
  0
TABLE
  2
LTYPE
  5
5
330
0
100
AcDbSymbolTable
 70
     6
  0
LTYPE
  5
14
330
5
100
AcDbSymbolTableRecord
100
AcDbLinetypeTableRecord
  2
ByBlock
 70
     0
  3

 72
    65
 73
     0
 40
0.0
  0
LTYPE
  5
15
330
5
100
AcDbSymbolTableRecord
100
AcDbLinetypeTableRecord
  2
ByLayer
 70
     0
  3

 72
    65
 73
     0
 40
0.0
  0
LTYPE
  5
16
330
5
100
AcDbSymbolTableRecord
100
AcDbLinetypeTableRecord
  2
Continuous
 70
     0
  3
Solid line
 72
    65
 73
     0
 40
0.0
  0
LTYPE
  5
5E
330
5
100
AcDbSymbolTableRecord
100
AcDbLinetypeTableRecord
  2
HIDDEN
 70
     0
  3
Hidden __ __ __ __ __ __ __ __ __ __ __ __ __ __
 72
    65
 73
     2
 40
1.905
 49
1.27
 74
     0
 49
-0.635
 74
     0
  0
LTYPE
  5
5F
330
5
100
AcDbSymbolTableRecord
100
AcDbLinetypeTableRecord
  2
PHANTOM
 70
     0
  3
Phantom ______  __  __  ______  __  __  ______
 72
    65
 73
     6
 40
12.7
 49
6.35
 74
     0
 49
-1.27
 74
     0
 49
1.27
 74
     0
 49
-1.27
 74
     0
 49
1.27
 74
     0
 49
-1.27
 74
     0
  0
LTYPE
  5
60
330
5
100
AcDbSymbolTableRecord
100
AcDbLinetypeTableRecord
  2
CENTER
 70
     0
  3
Center ____ _ ____ _ ____ _ ____ _ ____ _ ____
 72
    65
 73
     4
 40
10.16
 49
6.35
 74
     0
 49
-1.27
 74
     0
 49
1.27
 74
     0
 49
-1.27
 74
     0
  0
LTYPE
  5
61
330
5
100
AcDbSymbolTableRecord
100
AcDbLinetypeTableRecord
  2
CENTERX2
 70
     0
  3
Center (2x) ________  __  ________  __  _____
 72
    65
 73
     4
 40
20.32
 49
12.7
 74
     0
 49
-2.54
 74
     0
 49
2.54
 74
     0
 49
-2.54
 74
     0
  0
LTYPE
  5
62
330
5
100
AcDbSymbolTableRecord
100
AcDbLinetypeTableRecord
  2
DOT2
 70
     0
  3
Dot (.5x) ........................................
 72
    65
 73
     2
 40
0.635
 49
0.0
 74
     0
 49
-0.635
 74
     0
  0
ENDTAB
  0
TABLE
  2
LAYER
  5
2
330
0
100
AcDbSymbolTable
 70
     2
  0
LAYER
  5
10
330
2
100
AcDbSymbolTableRecord
100
AcDbLayerTableRecord
  2
0
 70
     0
 62
     7
  6
Continuous
370
    -3
390
F
  0
LAYER
  5
63
330
2
100
AcDbSymbolTableRecord
100
AcDbLayerTableRecord
  2
FORMAT
 70
     0
 62
     7
  6
Continuous
370
    -3
390
F
  0
ENDTAB
  0
TABLE
  2
STYLE
  5
3
330
0
100
AcDbSymbolTable
 70
     2
  0
STYLE
  5
11
330
3
100
AcDbSymbolTableRecord
100
AcDbTextStyleTableRecord
  2
Standard
 70
     0
 40
0.0
 41
1.0
 50
0.0
 71
     0
 42
3.5277777778
  3
txt
  4
bigfont
  0
STYLE
  5
64
330
3
100
AcDbSymbolTableRecord
100
AcDbTextStyleTableRecord
  2
SLDTEXTSTYLE0
 70
     0
 40
0.0
 41
0.7
 50
0.0
 71
     0
 42
3.5277777778
  3
TXT
  4
bigfont
  0
ENDTAB
  0
TABLE
  2
VIEW
  5
6
330
0
100
AcDbSymbolTable
 70
     0
  0
ENDTAB
  0
TABLE
  2
UCS
  5
7
330
0
100
AcDbSymbolTable
 70
     0
  0
ENDTAB
  0
TABLE
  2
APPID
  5
9
330
0
100
AcDbSymbolTable
 70
     1
  0
APPID
  5
12
330
9
100
AcDbSymbolTableRecord
100
AcDbRegAppTableRecord
  2
ACAD
 70
     0
  0
ENDTAB
  0
TABLE
  2
DIMSTYLE
  5
A
330
0
100
AcDbSymbolTable
 70
     1
100
AcDbDimStyleTable
  0
DIMSTYLE
105
27
330
A
100
AcDbSymbolTableRecord
100
AcDbDimStyleTableRecord
  2
ISO-25
 70
     0
 41
2.5
 42
0.625
 43
3.75
 44
1.25
 73
     0
 74
     0
 77
     1
 78
     8
140
2.5
141
2.5
143
0.0393700787
147
0.625
171
     3
172
     1
178
     0
271
     2
272
     2
274
     3
278
    44
283
     0
284
     8
340
11
  0
ENDTAB
  0
TABLE
  2
BLOCK_RECORD
  5
1
330
0
100
AcDbSymbolTable
 70
     3
  0
BLOCK_RECORD
  5
1F
330
1
100
AcDbSymbolTableRecord
100
AcDbBlockTableRecord
  2
*Model_Space
340
22
  0
BLOCK_RECORD
  5
1B
330
1
100
AcDbSymbolTableRecord
100
AcDbBlockTableRecord
  2
*Paper_Space
340
1E
  0
BLOCK_RECORD
  5
23
330
1
100
AcDbSymbolTableRecord
100
AcDbBlockTableRecord
  2
*Paper_Space0
340
26
  0
BLOCK_RECORD
  5
1CE
330
1
100
AcDbSymbolTableRecord
100
AcDbBlockTableRecord
  2
SW_CENTERMARKSYMBOL_0
340
0
102
{BLKREFS
331
1D9
102
}
  0
BLOCK_RECORD
  5
272
330
1
100
AcDbSymbolTableRecord
100
AcDbBlockTableRecord
  2
SW_CENTERMARKSYMBOL_1
340
0
102
{BLKREFS
331
27D
102
}
  0
ENDTAB
  0
ENDSEC
  0
SECTION
  2
BLOCKS
  0
BLOCK
  5
20
330
1F
100
AcDbEntity
  8
0
100
AcDbBlockBegin
  2
*Model_Space
 70
     0
 10
0.0
 20
0.0
 30
0.0
  3
*Model_Space
  1

  0
ENDBLK
  5
21
330
1F
100
AcDbEntity
  8
0
100
AcDbBlockEnd
  0
BLOCK
  5
1C
330
1B
100
AcDbEntity
 67
     1
  8
0
100
AcDbBlockBegin
  2
*Paper_Space
 70
     0
 10
0.0
 20
0.0
 30
0.0
  3
*Paper_Space
  1

  0
ENDBLK
  5
1D
330
1B
100
AcDbEntity
 67
     1
  8
0
100
AcDbBlockEnd
  0
BLOCK
  5
24
330
23
100
AcDbEntity
  8
0
100
AcDbBlockBegin
  2
*Paper_Space0
 70
     0
 10
0.0
 20
0.0
 30
0.0
  3
*Paper_Space0
  1

  0
ENDBLK
  5
25
330
23
100
AcDbEntity
  8
0
100
AcDbBlockEnd
  0
BLOCK
  5
1CF
330
1CE
100
AcDbEntity
  8
0
100
AcDbBlockBegin
  2
SW_CENTERMARKSYMBOL_0
 70
     0
 10
0.0
 20
0.0
 30
0.0
  3
SW_CENTERMARKSYMBOL_0
  1

  0
LINE
  5
1D1
330
1CE
100
AcDbEntity
  8
FORMAT
 62
     0
100
AcDbLine
 10
0.0
 20
0.0
 30
0.0
 11
0.0
 21
2.5
 31
0.0
  0
LINE
  5
1D2
330
1CE
100
AcDbEntity
  8
FORMAT
 62
     0
100
AcDbLine
 10
0.0
 20
0.0
 30
0.0
 11
-2.5
 21
0.0
 31
0.0
  0
LINE
  5
1D3
330
1CE
100
AcDbEntity
  8
FORMAT
 62
     0
100
AcDbLine
 10
0.0
 20
0.0
 30
0.0
 11
0.0
 21
-2.5
 31
0.0
  0
LINE
  5
1D4
330
1CE
100
AcDbEntity
  8
FORMAT
 62
     0
100
AcDbLine
 10
0.0
 20
0.0
 30
0.0
 11
2.5
 21
0.0
 31
0.0
  0
LINE
  5
1D5
330
1CE
100
AcDbEntity
  8
FORMAT
 62
     0
100
AcDbLine
 10
0.0
 20
5.0
 30
0.0
 11
0.0
 21
30.0706559351
 31
0.0
  0
LINE
  5
1D6
330
1CE
100
AcDbEntity
  8
FORMAT
 62
     0
100
AcDbLine
 10
-5.0
 20
0.0
 30
0.0
 11
-10.75
 21
0.0
 31
0.0
  0
LINE
  5
1D7
330
1CE
100
AcDbEntity
  8
FORMAT
 62
     0
100
AcDbLine
 10
0.0
 20
-5.0
 30
0.0
 11
0.0
 21
-25.2009858097
 31
0.0
  0
LINE
  5
1D8
330
1CE
100
AcDbEntity
  8
FORMAT
 62
     0
100
AcDbLine
 10
5.0
 20
0.0
 30
0.0
 11
10.75
 21
0.0
 31
0.0
  0
ENDBLK
  5
1D0
330
1CE
100
AcDbEntity
  8
0
100
AcDbBlockEnd
  0
BLOCK
  5
273
330
272
100
AcDbEntity
  8
0
100
AcDbBlockBegin
  2
SW_CENTERMARKSYMBOL_1
 70
     0
 10
0.0
 20
0.0
 30
0.0
  3
SW_CENTERMARKSYMBOL_1
  1

  0
LINE
  5
275
330
272
100
AcDbEntity
  8
FORMAT
 62
     0
100
AcDbLine
 10
0.0
 20
0.0
 30
0.0
 11
0.0
 21
2.5
 31
0.0
  0
LINE
  5
276
330
272
100
AcDbEntity
  8
FORMAT
 62
     0
100
AcDbLine
 10
0.0
 20
0.0
 30
0.0
 11
-2.5
 21
0.0
 31
0.0
  0
LINE
  5
277
330
272
100
AcDbEntity
  8
FORMAT
 62
     0
100
AcDbLine
 10
0.0
 20
0.0
 30
0.0
 11
0.0
 21
-2.5
 31
0.0
  0
LINE
  5
278
330
272
100
AcDbEntity
  8
FORMAT
 62
     0
100
AcDbLine
 10
0.0
 20
0.0
 30
0.0
 11
2.5
 21
0.0
 31
0.0
  0
LINE
  5
279
330
272
100
AcDbEntity
  8
FORMAT
 62
     0
100
AcDbLine
 10
0.0
 20
5.0
 30
0.0
 11
0.0
 21
9.95
 31
0.0
  0
LINE
  5
27A
330
272
100
AcDbEntity
  8
FORMAT
 62
     0
100
AcDbLine
 10
-5.0
 20
0.0
 30
0.0
 11
-42.3808120874
 21
0.0
 31
0.0
  0
LINE
  5
27B
330
272
100
AcDbEntity
  8
FORMAT
 62
     0
100
AcDbLine
 10
0.0
 20
-5.0
 30
0.0
 11
0.0
 21
-9.95
 31
0.0
  0
LINE
  5
27C
330
272
100
AcDbEntity
  8
FORMAT
 62
     0
100
AcDbLine
 10
5.0
 20
0.0
 30
0.0
 11
13.2264874008
 21
0.0
 31
0.0
  0
ENDBLK
  5
274
330
272
100
AcDbEntity
  8
0
100
AcDbBlockEnd
  0
ENDSEC
  0
SECTION
  2
ENTITIES
  0
MTEXT
  5
65
330
1F
100
AcDbEntity
  8
FORMAT
100
AcDbMText
 10
124.3090094976
 20
89.4940069969
 30
0.0
 40
3.175
 41
0.0
 71
     1
 72
     1
  1
エースボール　アングル型　BD-3200
  7
SLDTEXTSTYLE0
 73
     1
 44
1.0
  0
LINE
  5
66
330
1F
100
AcDbEntity
  8
0
  6
Continuous
 62
     7
370
    25
100
AcDbLine
 10
132.3063495183
 20
35.621094864
 30
0.0
 11
133.1652182654
 21
37.1086991711
 31
0.0
  0
LINE
  5
67
330
1F
100
AcDbEntity
  8
0
  6
Continuous
 62
     7
370
    25
100
AcDbLine
 10
133.1652182654
 20
53.6086991711
 30
0.0
 11
132.3063495183
 21
55.0963034781
 31
0.0
  0
LINE
  5
68
330
1F
100
AcDbEntity
  8
0
  6
Continuous
 62
     7
370
    25
100
AcDbLine
 10
111.4276139584
 20
34.2175679182
 30
0.0
 11
112.9152182654
 21
33.3586991711
 31
0.0
  0
LINE
  5
69
330
1F
100
AcDbEntity
  8
0
  6
Continuous
 62
     7
370
    25
100
AcDbLine
 10
129.4152182654
 20
33.3586991711
 30
0.0
 11
130.9028225725
 21
34.2175679182
 31
0.0
  0
LINE
  5
6A
330
1F
100
AcDbEntity
  8
0
  6
Continuous
 62
     7
370
    25
100
AcDbLine
 10
114.4151557654
 20
33.3586991711
 30
0.0
 11
114.7092561512
 21
23.9474868248
 31
0.0
  0
LINE
  5
6B
330
1F
100
AcDbEntity
  8
0
  6
Continuous
 62
     7
370
    25
100
AcDbLine
 10
127.6211803796
 20
23.9474868248
 30
0.0
 11
127.9152807654
 21
33.3586991711
 31
0.0
  0
SPLINE
  5
6C
330
1F
100
AcDbEntity
  8
0
  6
Continuous
 62
     7
370
    25
100
AcDbSpline
210
0.0
220
0.0
230
1.0
 70
     8
 71
     3
 72
    12
 73
     8
 74
     0
 42
0.00000001
 43
0.00000001
 40
0.0
 40
0.0
 40
0.0
 40
0.0
 40
0.031050922621484
 40
0.2822810581380782
 40
0.5409991204481097
 40
0.8030759020249705
 40
0.9999999999999999
 40
0.9999999999999999
 40
0.9999999999999999
 40
0.9999999999999999
 10
115.2771063478272
 20
54.8590959722008
 30
0.0
 10
115.2778695602429
 20
54.85099596925291
 30
0.0
 10
115.2848078535401
 20
54.7773595935831
 30
0.0
 10
115.2624551438834
 20
54.63487538511897
 30
0.0
 10
115.2030873840576
 20
54.44175371149441
 30
0.0
 10
115.1127898523926
 20
54.27371313415455
 30
0.0
 10
115.0295877190137
 20
54.18647212423978
 30
0.0
 10
114.993891697949
 20
54.14904331320859
 30
0.0
  0
SPLINE
  5
6D
330
1F
100
AcDbEntity
  8
0
  6
Continuous
 62
     7
370
    25
100
AcDbSpline
210
0.0
220
0.0
230
1.0
 70
     8
 71
     3
 72
    12
 73
     8
 74
     0
 42
0.00000001
 43
0.00000001
 40
0.0
 40
0.0
 40
0.0
 40
0.0
 40
0.1087363380567258
 40
0.3997275174011855
 40
0.6652978496546369
 40
0.9100504354388882
 40
1.0
 40
1.0
 40
1.0
 40
1.0
 10
127.3511153116298
 20
54.16450000745814
 30
0.0
 10
127.3308742908528
 20
54.18354485178069
 30
0.0
 10
127.2564659271961
 20
54.25355593065639
 30
0.0
 10
127.1673702834572
 20
54.40180415504661
 30
0.0
 10
127.0947263490399
 20
54.59283764906606
 30
0.0
 10
127.0644144525496
 20
54.74510882442517
 30
0.0
 10
127.0673613782544
 20
54.8305609225124
 30
0.0
 10
127.0681533501126
 20
54.85352575559114
 30
0.0
  0
LINE
  5
6E
330
1F
100
AcDbEntity
  8
0
  6
Continuous
 62
     7
370
    25
100
AcDbLine
 10
114.7092561512
 20
23.9474868248
 30
0.0
 11
115.9152182654
 21
21.8586991711
 31
0.0
  0
LINE
  5
6F
330
1F
100
AcDbEntity
  8
0
  6
Continuous
 62
     7
370
    25
100
AcDbLine
 10
126.4152182654
 20
21.8586991711
 30
0.0
 11
127.6211803796
 21
23.9474868248
 31
0.0
  0
LINE
  5
70
330
1F
100
AcDbEntity
  8
0
  6
Continuous
 62
     7
370
    25
100
AcDbLine
 10
127.0652182654
 20
54.854168351
 30
0.0
 11
127.0652182654
 21
55.8586991711
 31
0.0
  0
LINE
  5
71
330
1F
100
AcDbEntity
  8
0
  6
Continuous
 62
     7
370
    25
100
AcDbLine
 10
115.2652182654
 20
55.8586991711
 30
0.0
 11
115.2652182654
 21
54.8586991711
 31
0.0
  0
LINE
  5
72
330
1F
100
AcDbEntity
  8
0
  6
Continuous
 62
     7
370
    25
100
AcDbLine
 10
114.9950513581
 20
54.1534369004
 30
0.0
 11
114.4506870856
 21
55.0963034781
 31
0.0
  0
LINE
  5
73
330
1F
100
AcDbEntity
  8
0
  6
Continuous
 62
     7
370
    25
100
AcDbLine
 10
127.8797494452
 20
55.0963034781
 30
0.0
 11
127.3353851728
 21
54.1534369004
 31
0.0
  0
LINE
  5
74
330
1F
100
AcDbEntity
  8
0
  6
Continuous
 62
     7
370
    25
100
AcDbLine
 10
110.3797494452
 20
55.0963034781
 30
0.0
 11
109.6652182654
 21
53.8586991711
 31
0.0
  0
LINE
  5
75
330
1F
100
AcDbEntity
  8
0
  6
Continuous
 62
     7
370
    25
100
AcDbLine
 10
109.6652182654
 20
36.8586991711
 30
0.0
 11
110.3797494452
 21
35.621094864
 31
0.0
  0
LINE
  5
76
330
1F
100
AcDbEntity
  8
0
  6
Continuous
 62
     7
370
    25
100
AcDbLine
 10
130.9028225725
 20
35.621094864
 30
0.0
 11
132.3089175738
 21
35.621094864
 31
0.0
  0
LINE
  5
77
330
1F
100
AcDbEntity
  8
0
  6
Continuous
 62
     7
370
    25
100
AcDbLine
 10
130.9028225725
 20
34.2150075369
 30
0.0
 11
130.9028225725
 21
35.621094864
 31
0.0
  0
LINE
  5
78
330
1F
100
AcDbEntity
  8
0
  6
Continuous
 62
     7
370
    25
100
AcDbLine
 10
114.4532551411
 20
55.0963034781
 30
0.0
 11
110.3771890639
 21
55.0963034781
 31
0.0
  0
LINE
  5
79
330
1F
100
AcDbEntity
  8
0
  6
Continuous
 62
     7
370
    25
100
AcDbLine
 10
132.3089175738
 20
55.0963034781
 30
0.0
 11
127.8771813898
 21
55.0963034781
 31
0.0
  0
LINE
  5
7A
330
1F
100
AcDbEntity
  8
0
  6
Continuous
 62
     7
370
    25
100
AcDbLine
 10
111.4276139584
 20
35.621094864
 30
0.0
 11
111.4276139584
 21
34.2150075369
 31
0.0
  0
LINE
  5
7B
330
1F
100
AcDbEntity
  8
0
  6
Continuous
 62
     7
370
    25
100
AcDbLine
 10
110.3771890639
 20
35.621094864
 30
0.0
 11
111.4276139584
 21
35.621094864
 31
0.0
  0
LINE
  5
7C
330
1F
100
AcDbEntity
  8
0
  6
Continuous
 62
     7
370
    25
100
AcDbLine
 10
128.1652182654
 20
55.8586991711
 30
0.0
 11
128.6152182654
 21
63.8586991711
 31
0.0
  0
LINE
  5
7D
330
1F
100
AcDbEntity
  8
0
  6
Continuous
 62
     7
370
    25
100
AcDbLine
 10
128.6152182654
 20
63.8586991711
 30
0.0
 11
126.6652182654
 21
71.858699171
 31
0.0
  0
LINE
  5
7E
330
1F
100
AcDbEntity
  8
0
  6
Continuous
 62
     7
370
    25
100
AcDbLine
 10
114.0945616397
 20
57.1148169624
 30
0.0
 11
114.1652182654
 21
55.8586991711
 31
0.0
  0
LINE
  5
7F
330
1F
100
AcDbEntity
  8
0
  6
Continuous
 62
     7
370
    25
100
AcDbLine
 10
115.6652182654
 20
71.858699171
 30
0.0
 11
115.4119867309
 21
70.8198005679
 31
0.0
  0
LINE
  5
80
330
1F
100
AcDbEntity
  8
0
  6
Continuous
 62
     7
370
    25
100
AcDbLine
 10
106.8652182654
 20
53.3586991711
 30
0.0
 11
106.6652182654
 21
53.1586991711
 31
0.0
  0
LINE
  5
81
330
1F
100
AcDbEntity
  8
0
  6
Continuous
 62
     7
370
    25
100
AcDbLine
 10
106.6652182654
 20
37.5586991711
 30
0.0
 11
106.8652182654
 21
37.3586991711
 31
0.0
  0
LINE
  5
82
330
1F
100
AcDbEntity
  8
0
  6
Continuous
 62
     7
370
    25
100
AcDbLine
 10
109.6652182654
 20
53.3586991711
 30
0.0
 11
106.8652182654
 21
53.3586991711
 31
0.0
  0
LINE
  5
83
330
1F
100
AcDbEntity
  8
0
  6
Continuous
 62
     7
370
    25
100
AcDbLine
 10
106.8652182654
 20
37.3586991711
 30
0.0
 11
109.6652182654
 21
37.3586991711
 31
0.0
  0
ARC
  5
84
330
1F
100
AcDbEntity
  8
0
  6
Continuous
 62
     7
370
    25
100
AcDbCircle
 10
98.1552182654
 20
50.3686991711
 30
0.0
 40
0.990000000000002
100
AcDbArc
 50
90.0
 51
180.0
  0
ARC
  5
85
330
1F
100
AcDbEntity
  8
0
  6
Continuous
 62
     7
370
    25
100
AcDbCircle
 10
98.1552182654
 20
40.3486991711
 30
0.0
 40
0.9899999999999949
100
AcDbArc
 50
180.0
 51
270.0
  0
LINE
  5
86
330
1F
100
AcDbEntity
  8
0
  6
Continuous
 62
     7
370
    25
100
AcDbLine
 10
98.1752182654
 20
51.3586991711
 30
0.0
 11
98.1552182654
 21
51.3586991711
 31
0.0
  0
LINE
  5
87
330
1F
100
AcDbEntity
  8
0
  6
Continuous
 62
     7
370
    25
100
AcDbLine
 10
98.1552182654
 20
39.3586991711
 30
0.0
 11
98.1752182654
 21
39.3586991711
 31
0.0
  0
ARC
  5
88
330
1F
100
AcDbEntity
  8
0
  6
Continuous
 62
     7
370
    25
100
AcDbCircle
 10
98.1752182654
 20
50.3686991711
 30
0.0
 40
0.990000000000002
100
AcDbArc
 50
19.1995397339
 51
90.0
  0
ARC
  5
89
330
1F
100
AcDbEntity
  8
0
  6
Continuous
 62
     7
370
    25
100
AcDbCircle
 10
98.1752182654
 20
40.3486991711
 30
0.0
 40
0.9899999999999969
100
AcDbArc
 50
270.0
 51
340.8004602661
  0
ARC
  5
8A
330
1F
100
AcDbEntity
  8
0
  6
Continuous
 62
     7
370
    25
100
AcDbCircle
 10
99.5823429934
 20
50.8586991711
 30
0.0
 40
0.5000000000000078
100
AcDbArc
 50
199.1995397339
 51
270.0
  0
ARC
  5
8B
330
1F
100
AcDbEntity
  8
0
  6
Continuous
 62
     7
370
    25
100
AcDbCircle
 10
99.5823429934
 20
39.8586991711
 30
0.0
 40
0.5000000000000078
100
AcDbArc
 50
90.0
 51
160.8004602661
  0
LINE
  5
8C
330
1F
100
AcDbEntity
  8
0
  6
Continuous
 62
     7
370
    25
100
AcDbLine
 10
106.6652182654
 20
50.3586991711
 30
0.0
 11
99.5823429934
 21
50.3586991711
 31
0.0
  0
LINE
  5
8D
330
1F
100
AcDbEntity
  8
0
  6
Continuous
 62
     7
370
    25
100
AcDbLine
 10
99.5823429934
 20
40.3586991711
 30
0.0
 11
106.6652182654
 21
40.3586991711
 31
0.0
  0
LINE
  5
8E
330
1F
100
AcDbEntity
  8
0
  6
Continuous
 62
     7
370
    25
100
AcDbLine
 10
116.5464161119
 20
37.3923026312
 30
0.0
 11
116.5464161119
 21
34.1807581436
 31
0.0
  0
SPLINE
  5
8F
330
1F
100
AcDbEntity
  8
0
  6
Continuous
 62
     7
370
    25
100
AcDbSpline
210
0.0
220
0.0
230
1.0
 70
     8
 71
     3
 72
     8
 73
     4
 74
     0
 42
0.00000001
 43
0.00000001
 40
0.0
 40
0.0
 40
0.0
 40
0.0
 40
1.0
 40
1.0
 40
1.0
 40
1.0
 10
116.5464161119069
 20
37.39230263121064
 30
0.0
 10
116.7516019344502
 20
37.44886359833486
 30
0.0
 10
116.9578251351575
 20
37.50280366974869
 30
0.0
 10
117.1652182654239
 20
37.55378795949166
 30
0.0
  0
LINE
  5
90
330
1F
100
AcDbEntity
  8
0
  6
Continuous
 62
     7
370
    25
100
AcDbLine
 10
117.1652182654
 20
41.3586991711
 30
0.0
 11
114.6489821884
 21
41.3586991711
 31
0.0
  0
SPLINE
  5
91
330
1F
100
AcDbEntity
  8
0
  6
Continuous
 62
     7
370
    25
100
AcDbSpline
210
0.0
220
0.0
230
1.0
 70
     8
 71
     3
 72
     8
 73
     4
 74
     0
 42
0.00000001
 43
0.00000001
 40
0.0
 40
0.0
 40
0.0
 40
0.0
 40
1.0
 40
1.0
 40
1.0
 40
1.0
 10
114.4874968601638
 20
40.7398970175486
 30
0.0
 10
114.544060229632
 20
40.94509155505836
 30
0.0
 10
114.5980001524532
 20
41.15131520857553
 30
0.0
 10
114.6489821884448
 20
41.35869917106563
 30
0.0
  0
LINE
  5
92
330
1F
100
AcDbEntity
  8
0
  6
Continuous
 62
     7
370
    25
100
AcDbLine
 10
110.3429396707
 20
40.7398970175
 30
0.0
 11
114.4874968602
 21
40.7398970175
 31
0.0
  0
SPLINE
  5
93
330
1F
100
AcDbEntity
  8
0
  6
Continuous
 62
     7
370
    25
100
AcDbSpline
210
0.0
220
0.0
230
1.0
 70
     8
 71
     3
 72
    10
 73
     6
 74
     0
 42
0.00000001
 43
0.00000001
 40
0.0
 40
0.0
 40
0.0
 40
0.0
 40
0.5
 40
0.5
 40
1.0
 40
1.0
 40
1.0
 40
1.0
 10
110.3429396706841
 20
40.73989701754862
 30
0.0
 10
110.1348709944529
 20
41.49470629059791
 30
0.0
 10
109.9644719884284
 20
42.25545267782982
 30
0.0
 10
109.7293120087295
 20
43.79359505545307
 30
0.0
 10
109.6652182654239
 20
44.57109620797789
 30
0.0
 10
109.6652182654239
 20
45.35869917106564
 30
0.0
  0
SPLINE
  5
94
330
1F
100
AcDbEntity
  8
0
  6
Continuous
 62
     7
370
    25
100
AcDbSpline
210
0.0
220
0.0
230
1.0
 70
     8
 71
     3
 72
    12
 73
     8
 74
     0
 42
0.00000001
 43
0.00000001
 40
0.0
 40
0.0
 40
0.0
 40
0.0
 40
0.2500000000000001
 40
0.2500000000000001
 40
0.5000000000000001
 40
0.5000000000000001
 40
1.0
 40
1.0
 40
1.0
 40
1.0
 10
109.6652182654239
 20
45.35869917106564
 30
0.0
 10
109.6652182654239
 20
45.75301725173748
 30
0.0
 10
109.681217070405
 20
46.14667629568791
 30
0.0
 10
109.7429872087194
 20
46.92621229523325
 30
0.0
 10
109.788729333021
 20
47.31316548335867
 30
0.0
 10
109.9653994803679
 20
48.46655204621268
 30
0.0
 10
110.1356545458481
 20
49.22553453541771
 30
0.0
 10
110.3429396706841
 20
49.97750132458265
 30
0.0
  0
LINE
  5
95
330
1F
100
AcDbEntity
  8
0
  6
Continuous
 62
     7
370
    25
100
AcDbLine
 10
114.4874968602
 20
49.9775013246
 30
0.0
 11
110.3429396707
 21
49.9775013246
 31
0.0
  0
SPLINE
  5
96
330
1F
100
AcDbEntity
  8
0
  6
Continuous
 62
     7
370
    25
100
AcDbSpline
210
0.0
220
0.0
230
1.0
 70
     8
 71
     3
 72
     8
 73
     4
 74
     0
 42
0.00000001
 43
0.00000001
 40
0.0
 40
0.0
 40
0.0
 40
0.0
 40
1.0
 40
1.0
 40
1.0
 40
1.0
 10
114.6489821884448
 20
49.35869917106564
 30
0.0
 10
114.5980834715223
 20
49.56574420949463
 30
0.0
 10
114.5441493352715
 20
49.77198353917127
 30
0.0
 10
114.4874968601638
 20
49.97750132458265
 30
0.0
  0
LINE
  5
97
330
1F
100
AcDbEntity
  8
0
  6
Continuous
 62
     7
370
    25
100
AcDbLine
 10
127.6814543424
 20
49.3586991711
 30
0.0
 11
114.6489821884
 21
49.3586991711
 31
0.0
  0
SPLINE
  5
98
330
1F
100
AcDbEntity
  8
0
  6
Continuous
 62
     7
370
    25
100
AcDbSpline
210
0.0
220
0.0
230
1.0
 70
     8
 71
     3
 72
     8
 73
     4
 74
     0
 42
0.00000001
 43
0.00000001
 40
0.0
 40
0.0
 40
0.0
 40
0.0
 40
1.0
 40
1.0
 40
1.0
 40
1.0
 10
127.6814543424031
 20
49.3586991710657
 30
0.0
 10
127.7323505756582
 20
49.56573410646946
 30
0.0
 10
127.7862845306219
 20
49.77197387153446
 30
0.0
 10
127.8429396706841
 20
49.97750132458265
 30
0.0
  0
LINE
  5
99
330
1F
100
AcDbEntity
  8
0
  6
Continuous
 62
     7
370
    25
100
AcDbLine
 10
132.3431592929
 20
49.9775013246
 30
0.0
 11
127.8429396707
 21
49.9775013246
 31
0.0
  0
SPLINE
  5
9A
330
1F
100
AcDbEntity
  8
0
  6
Continuous
 62
     7
370
    25
100
AcDbSpline
210
0.0
220
0.0
230
1.0
 70
     8
 71
     3
 72
    14
 73
    10
 74
     0
 42
0.00000001
 43
0.00000001
 40
0.0
 40
0.0
 40
0.0
 40
0.0
 40
0.25
 40
0.25
 40
0.5
 40
0.5
 40
0.75
 40
0.75
 40
1.0
 40
1.0
 40
1.0
 40
1.0
 10
132.3431592928663
 20
40.73989701754859
 30
0.0
 10
132.5511096535722
 20
41.49427707819857
 30
0.0
 10
132.723331462261
 20
42.26371824566407
 30
0.0
 10
132.9579665850119
 20
43.80422960660523
 30
0.0
 10
133.0209106436396
 20
44.57908398661225
 30
0.0
 10
133.0208507309081
 20
46.13944494149781
 30
0.0
 10
132.956236064616
 20
46.92990113428283
 30
0.0
 10
132.7196767252148
 20
48.4721807970913
 30
0.0
 10
132.5493315851353
 20
49.22957155029248
 30
0.0
 10
132.3431592928663
 20
49.97750132458265
 30
0.0
  0
LINE
  5
9B
330
1F
100
AcDbEntity
  8
0
  6
Continuous
 62
     7
370
    25
100
AcDbLine
 10
127.8429396707
 20
40.7398970175
 30
0.0
 11
132.3431592929
 21
40.7398970175
 31
0.0
  0
SPLINE
  5
9C
330
1F
100
AcDbEntity
  8
0
  6
Continuous
 62
     7
370
    25
100
AcDbSpline
210
0.0
220
0.0
230
1.0
 70
     8
 71
     3
 72
     8
 73
     4
 74
     0
 42
0.00000001
 43
0.00000001
 40
0.0
 40
0.0
 40
0.0
 40
0.0
 40
1.0
 40
1.0
 40
1.0
 40
1.0
 10
127.8429396706841
 20
40.73989701754861
 30
0.0
 10
127.7863778272472
 20
40.94508601908542
 30
0.0
 10
127.7324378099908
 20
41.15130938515011
 30
0.0
 10
127.6814543424031
 20
41.35869917106557
 30
0.0
  0
LINE
  5
9D
330
1F
100
AcDbEntity
  8
0
  6
Continuous
 62
     7
370
    25
100
AcDbLine
 10
127.6814543424
 20
41.3586991711
 30
0.0
 11
125.1652182654
 21
41.3586991711
 31
0.0
  0
LINE
  5
9E
330
1F
100
AcDbEntity
  8
0
  6
Continuous
 62
     7
370
    25
100
AcDbLine
 10
125.1652182654
 20
37.5537879595
 30
0.0
 11
125.1652182654
 21
41.3586991711
 31
0.0
  0
SPLINE
  5
9F
330
1F
100
AcDbEntity
  8
0
  6
Continuous
 62
     7
370
    25
100
AcDbSpline
210
0.0
220
0.0
230
1.0
 70
     8
 71
     3
 72
     8
 73
     4
 74
     0
 42
0.00000001
 43
0.00000001
 40
0.0
 40
0.0
 40
0.0
 40
0.0
 40
1.0
 40
1.0
 40
1.0
 40
1.0
 10
125.1652182654239
 20
37.55378795949165
 30
0.0
 10
125.3722473287593
 20
37.50289316979083
 30
0.0
 10
125.5784873460287
 20
37.44895932042939
 30
0.0
 10
125.7840204189409
 20
37.39230263121063
 30
0.0
  0
LINE
  5
A0
330
1F
100
AcDbEntity
  8
0
  6
Continuous
 62
     7
370
    25
100
AcDbLine
 10
125.7840204189
 20
34.1807581436
 30
0.0
 11
125.7840204189
 21
37.3923026312
 31
0.0
  0
SPLINE
  5
A1
330
1F
100
AcDbEntity
  8
0
  6
Continuous
 62
     7
370
    25
100
AcDbSpline
210
0.0
220
0.0
230
1.0
 70
     8
 71
     3
 72
    14
 73
    10
 74
     0
 42
0.00000001
 43
0.00000001
 40
0.0
 40
0.0
 40
0.0
 40
0.0
 40
0.5
 40
0.5
 40
0.625
 40
0.625
 40
0.75
 40
0.75
 40
1.0
 40
1.0
 40
1.0
 40
1.0
 10
116.5464161119069
 20
34.18075814362323
 30
0.0
 10
118.0448606978206
 20
33.76770097470777
 30
0.0
 10
119.5728064804813
 20
33.50442451365666
 30
0.0
 10
121.5472179400928
 20
33.50269683998454
 30
0.0
 10
121.9440766084582
 20
33.51850388300391
 30
0.0
 10
122.7272183499733
 20
33.58018145563037
 30
0.0
 10
123.1155839311902
 20
33.62599081942988
 30
0.0
 10
124.2722177324525
 20
33.80294580322831
 30
0.0
 10
125.0320540917597
 20
33.97347314613642
 30
0.0
 10
125.7840204189409
 20
34.18075814362323
 30
0.0
  0
ARC
  5
A2
330
1F
100
AcDbEntity
  8
0
  6
Continuous
 62
     7
370
    25
100
AcDbCircle
 10
122.7159496211
 20
44.7817801778
 30
0.0
 40
0.889000000000007
100
AcDbArc
 50
45.0
 51
315.0
  0
LINE
  5
A3
330
1F
100
AcDbEntity
  8
0
  6
Continuous
 62
     7
370
    25
100
AcDbLine
 10
123.3445675496
 20
45.4103981062
 30
0.0
 11
123.8111779352
 21
45.8770084919
 31
0.0
  0
ARC
  5
A4
330
1F
100
AcDbEntity
  8
0
  6
Continuous
 62
     7
370
    25
100
AcDbCircle
 10
122.7159496211
 20
44.7817801778
 30
0.0
 40
1.548886735692394
100
AcDbArc
 50
45.0
 51
315.0
  0
LINE
  5
A5
330
1F
100
AcDbEntity
  8
0
  6
Continuous
 62
     7
370
    25
100
AcDbLine
 10
123.8111779352
 20
43.6865518637
 30
0.0
 11
123.3445675496
 21
44.1531622493
 31
0.0
  0
ARC
  5
A6
330
1F
100
AcDbEntity
  8
0
  6
Continuous
 62
     7
370
    25
100
AcDbCircle
 10
126.0580942175
 20
44.7817801778
 30
0.0
 40
0.8889999999999868
100
AcDbArc
 50
45.0
 51
159.0751675724
  0
LINE
  5
A7
330
1F
100
AcDbEntity
  8
0
  6
Continuous
 62
     7
370
    25
100
AcDbLine
 10
126.686712146
 20
45.4103981062
 30
0.0
 11
127.1533225316
 21
45.8770084919
 31
0.0
  0
ARC
  5
A8
330
1F
100
AcDbEntity
  8
0
  6
Continuous
 62
     7
370
    25
100
AcDbCircle
 10
126.0580942175
 20
44.7817801778
 30
0.0
 40
1.548886735692379
100
AcDbArc
 50
45.0
 51
315.0
  0
LINE
  5
A9
330
1F
100
AcDbEntity
  8
0
  6
Continuous
 62
     7
370
    25
100
AcDbLine
 10
127.1533225316
 20
43.6865518637
 30
0.0
 11
126.686712146
 21
44.1531622493
 31
0.0
  0
ARC
  5
AA
330
1F
100
AcDbEntity
  8
0
  6
Continuous
 62
     7
370
    25
100
AcDbCircle
 10
126.0580942175
 20
44.7817801778
 30
0.0
 40
0.889000000000007
100
AcDbArc
 50
200.9248324276
 51
315.0
  0
LINE
  5
AB
330
1F
100
AcDbEntity
  8
0
  6
Continuous
 62
     7
370
    25
100
AcDbLine
 10
125.2277239688
 20
44.4642801778
 30
0.0
 11
127.1533225316
 21
44.4642801778
 31
0.0
  0
LINE
  5
AC
330
1F
100
AcDbEntity
  8
0
  6
Continuous
 62
     7
370
    25
100
AcDbLine
 10
127.1533225316
 20
44.4642801778
 30
0.0
 11
127.1533225316
 21
45.0992801778
 31
0.0
  0
LINE
  5
AD
330
1F
100
AcDbEntity
  8
0
  6
Continuous
 62
     7
370
    25
100
AcDbLine
 10
127.1533225316
 20
45.0992801778
 30
0.0
 11
125.2277239688
 21
45.0992801778
 31
0.0
  0
LINE
  5
AE
330
1F
100
AcDbEntity
  8
0
  6
Continuous
 62
     7
370
    25
100
AcDbLine
 10
120.2634593515
 20
43.9363261535
 30
0.0
 11
120.2218090322
 21
43.9125212236
 31
0.0
  0
ELLIPSE
  5
AF
330
1F
100
AcDbEntity
  8
0
  6
Continuous
 62
     7
370
    25
100
AcDbEllipse
 10
119.8729658526
 20
44.4672036948
 30
0.0
 11
0.678412947925267
 21
6.110667527536863E-13
 31
0.0
210
0.0
220
0.0
230
1.0
 40
0.9533039403
 41
3.470145824140268
 42
5.252469180536304
  0
LINE
  5
B0
330
1F
100
AcDbEntity
  8
0
  6
Continuous
 62
     7
370
    25
100
AcDbLine
 10
119.2308410856
 20
44.2585195799
 30
0.0
 11
117.9711868807
 21
47.7809639765
 31
0.0
  0
ELLIPSE
  5
B1
330
1F
100
AcDbEntity
  8
0
  6
Continuous
 62
     7
370
    25
100
AcDbEllipse
 10
117.3802043228
 20
47.5186247405
 30
0.0
 11
0.6519124952381503
 21
6.110667527536862E-13
 31
0.0
210
0.0
220
0.0
230
1.0
 40
0.9533023292
 41
0.4357905044354913
 42
2.70580011636152
  0
LINE
  5
B2
330
1F
100
AcDbEntity
  8
0
  6
Continuous
 62
     7
370
    25
100
AcDbLine
 10
116.7892223243
 20
47.7809651218
 30
0.0
 11
115.5298575226
 21
44.2593417201
 31
0.0
  0
ELLIPSE
  5
B3
330
1F
100
AcDbEntity
  8
0
  6
Continuous
 62
     7
370
    25
100
AcDbEllipse
 10
114.8877363386
 20
44.4680245537
 30
0.0
 11
-0.6784085062757725
 21
3.268496584496461E-13
 31
0.0
210
0.0
220
0.0
230
1.0
 40
0.9533122623
 41
1.047193771187957
 42
2.813042320199941
  0
LINE
  5
B4
330
1F
100
AcDbEntity
  8
0
  6
Continuous
 62
     7
370
    25
100
AcDbLine
 10
114.5485298646
 20
43.9079367085
 30
0.0
 11
114.4969492941
 21
43.9363261535
 31
0.0
  0
LINE
  5
B5
330
1F
100
AcDbEntity
  8
0
  6
Continuous
 62
     7
370
    25
100
AcDbLine
 10
114.4969492941
 20
43.9363261535
 30
0.0
 11
115.2932179536
 21
42.4181540521
 31
0.0
  0
ELLIPSE
  5
B6
330
1F
100
AcDbEntity
  8
0
  6
Continuous
 62
     7
370
    25
100
AcDbEllipse
 10
115.369066827
 20
42.454307567
 30
0.0
 11
0.08480161849065837
 21
-2.131628207280301E-14
 31
0.0
210
0.0
220
0.0
230
1.0
 40
0.9533039403
 41
3.605240262590939
 42
5.462183310215296
  0
ELLIPSE
  5
B7
330
1F
100
AcDbEntity
  8
0
  6
Continuous
 62
     7
370
    25
100
AcDbEllipse
 10
117.3802043228
 20
40.3954589465
 30
0.0
 11
2.866293551216202
 21
-1.492139745096210E-12
 31
0.0
210
0.0
220
0.0
230
1.0
 40
0.9533046568
 41
0.8210016221243804
 42
2.320591031466445
  0
ELLIPSE
  5
B8
330
1F
100
AcDbEntity
  8
0
  6
Continuous
 62
     7
370
    25
100
AcDbEllipse
 10
119.3913418185
 20
42.454307567
 30
0.0
 11
0.08480161849060153
 21
-7.105427357601002E-15
 31
0.0
210
0.0
220
0.0
230
1.0
 40
0.9533039403
 41
3.962594650556508
 42
5.819537698177366
  0
LINE
  5
B9
330
1F
100
AcDbEntity
  8
0
  6
Continuous
 62
     7
370
    25
100
AcDbLine
 10
119.4671906919
 20
42.4181540521
 30
0.0
 11
120.2634593515
 21
43.9363261535
 31
0.0
  0
LINE
  5
BA
330
1F
100
AcDbEntity
  8
0
  6
Continuous
 62
     7
370
    25
100
AcDbLine
 10
117.1652182654
 20
37.5537879595
 30
0.0
 11
117.1652182654
 21
41.3586991711
 31
0.0
  0
LINE
  5
BB
330
1F
100
AcDbEntity
  8
0
  6
Continuous
 62
     7
370
    25
100
AcDbLine
 10
115.1652182654
 20
52.7199151032
 30
0.0
 11
115.1652182654
 21
49.3586991711
 31
0.0
  0
SPLINE
  5
BC
330
1F
100
AcDbEntity
  8
0
  6
Continuous
 62
     7
370
    25
100
AcDbSpline
210
0.0
220
0.0
230
1.0
 70
     8
 71
     3
 72
    10
 73
     6
 74
     0
 42
0.00000001
 43
0.00000001
 40
0.0
 40
0.0
 40
0.0
 40
0.0
 40
0.5
 40
0.5
 40
1.0
 40
1.0
 40
1.0
 40
1.0
 10
114.4874968601638
 20
50.41051402647486
 30
0.0
 10
114.4638214657394
 20
50.36757049557364
 30
0.0
 10
114.4507303558547
 20
50.30412805094952
 30
0.0
 10
114.4506440345664
 20
50.15164921383055
 30
0.0
 10
114.4638129685103
 20
50.06341921172328
 30
0.0
 10
114.4874968601638
 20
49.97750132458265
 30
0.0
  0
SPLINE
  5
BD
330
1F
100
AcDbEntity
  8
0
  6
Continuous
 62
     7
370
    25
100
AcDbSpline
210
0.0
220
0.0
230
1.0
 70
     8
 71
     3
 72
    12
 73
     8
 74
     0
 42
0.00000001
 43
0.00000001
 40
0.0
 40
0.0
 40
0.0
 40
0.0
 40
0.2500000000000001
 40
0.2500000000000001
 40
0.5000000000000002
 40
0.5000000000000002
 40
1.0
 40
1.0
 40
1.0
 40
1.0
 10
115.1652182654239
 20
52.71991510323337
 30
0.0
 10
115.1652182654239
 20
52.52417284035386
 30
0.0
 10
115.149375329335
 20
52.32750623116329
 30
0.0
 10
115.0878724690973
 20
51.938238003835
 30
0.0
 10
115.0422688280536
 20
51.74483397088209
 30
0.0
 10
114.8658178105644
 20
51.16790491962534
 30
0.0
 10
114.6954204433126
 20
50.78765548642232
 30
0.0
 10
114.4874968601638
 20
50.41051402647486
 30
0.0
  0
LINE
  5
BE
330
1F
100
AcDbEntity
  8
0
  6
Continuous
 62
     7
370
    25
100
AcDbLine
 10
109.6652182654
 20
45.3586991711
 30
0.0
 11
109.6652182654
 21
52.7199151032
 31
0.0
  0
SPLINE
  5
BF
330
1F
100
AcDbEntity
  8
0
  6
Continuous
 62
     7
370
    25
100
AcDbSpline
210
0.0
220
0.0
230
1.0
 70
     8
 71
     3
 72
    10
 73
     6
 74
     0
 42
0.00000001
 43
0.00000001
 40
0.0
 40
0.0
 40
0.0
 40
0.0
 40
0.5
 40
0.5
 40
1.0
 40
1.0
 40
1.0
 40
1.0
 10
110.3429396706837
 20
50.41051402647484
 30
0.0
 10
110.1341297460174
 20
50.78926317386613
 30
0.0
 10
109.9635956062702
 20
51.17046845027743
 30
0.0
 10
109.7288098012512
 20
51.93969907146521
 30
0.0
 10
109.6652182654239
 20
52.32776677626353
 30
0.0
 10
109.6652182654239
 20
52.71991510323337
 30
0.0
  0
SPLINE
  5
C0
330
1F
100
AcDbEntity
  8
0
  6
Continuous
 62
     7
370
    25
100
AcDbSpline
210
0.0
220
0.0
230
1.0
 70
     8
 71
     3
 72
    10
 73
     6
 74
     0
 42
0.00000001
 43
0.00000001
 40
0.0
 40
0.0
 40
0.0
 40
0.0
 40
0.5
 40
0.5
 40
1.0
 40
1.0
 40
1.0
 40
1.0
 10
110.3429396706841
 20
50.41051402647486
 30
0.0
 10
110.3666119105957
 20
50.36757621737563
 30
0.0
 10
110.379705900531
 20
50.30413562748343
 30
0.0
 10
110.3797927679924
 20
50.15164648197459
 30
0.0
 10
110.3666229782331
 20
50.06341709277127
 30
0.0
 10
110.3429396706841
 20
49.97750132458265
 30
0.0
  0
LINE
  5
C1
330
1F
100
AcDbEntity
  8
0
  6
Continuous
 62
     7
370
    25
100
AcDbLine
 10
132.3431592929
 20
40.3068843157
 30
0.0
 11
127.8429396707
 21
40.3068843157
 31
0.0
  0
SPLINE
  5
C2
330
1F
100
AcDbEntity
  8
0
  6
Continuous
 62
     7
370
    25
100
AcDbSpline
210
0.0
220
0.0
230
1.0
 70
     8
 71
     3
 72
    10
 73
     6
 74
     0
 42
0.00000001
 43
0.00000001
 40
0.0
 40
0.0
 40
0.0
 40
0.0
 40
0.5
 40
0.5
 40
1.0
 40
1.0
 40
1.0
 40
1.0
 10
127.8429396706809
 20
40.30688431565641
 30
0.0
 10
127.8666150651052
 20
40.34982784655757
 30
0.0
 10
127.8797061749931
 20
40.41327029118136
 30
0.0
 10
127.8797924962815
 20
40.56574912830045
 30
0.0
 10
127.8666235623376
 20
40.65397913040787
 30
0.0
 10
127.8429396706841
 20
40.73989701754862
 30
0.0
  0
SPLINE
  5
C3
330
1F
100
AcDbEntity
  8
0
  6
Continuous
 62
     7
370
    25
100
AcDbSpline
210
0.0
220
0.0
230
1.0
 70
     8
 71
     3
 72
    10
 73
     6
 74
     0
 42
0.00000001
 43
0.00000001
 40
0.0
 40
0.0
 40
0.0
 40
0.0
 40
0.5
 40
0.5
 40
1.0
 40
1.0
 40
1.0
 40
1.0
 10
132.3431592928662
 20
40.73989701754863
 30
0.0
 10
132.3194838984418
 20
40.65400995574617
 30
0.0
 10
132.3063927885573
 20
40.56660274676603
 30
0.0
 10
132.3063064672691
 20
40.4139663041723
 30
0.0
 10
132.3194754012129
 20
40.34984325922672
 30
0.0
 10
132.3431592928663
 20
40.30688431565641
 30
0.0
  0
LINE
  5
C4
330
1F
100
AcDbEntity
  8
0
  6
Continuous
 62
     7
370
    25
100
AcDbLine
 10
115.1652182654
 20
41.3586991711
 30
0.0
 11
115.1652182654
 21
39.3586991711
 31
0.0
  0
SPLINE
  5
C5
330
1F
100
AcDbEntity
  8
0
  6
Continuous
 62
     7
370
    25
100
AcDbSpline
210
0.0
220
0.0
230
1.0
 70
     8
 71
     3
 72
     8
 73
     4
 74
     0
 42
0.00000001
 43
0.00000001
 40
0.0
 40
0.0
 40
0.0
 40
0.0
 40
1.0
 40
1.0
 40
1.0
 40
1.0
 10
115.1652182654239
 20
39.35869917106563
 30
0.0
 10
115.1254396072338
 20
39.22131408206553
 30
0.0
 10
115.0849506444055
 20
39.08461000025376
 30
0.0
 10
115.0438347739278
 20
38.94857763774039
 30
0.0
  0
SPLINE
  5
C6
330
1F
100
AcDbEntity
  8
0
  6
Continuous
 62
     7
370
    25
100
AcDbSpline
210
0.0
220
0.0
230
1.0
 70
     8
 71
     3
 72
     8
 73
     4
 74
     0
 42
0.00000001
 43
0.00000001
 40
0.0
 40
0.0
 40
0.0
 40
0.0
 40
1.0
 40
1.0
 40
1.0
 40
1.0
 10
114.4874968601638
 20
40.30688431565641
 30
0.0
 10
114.7346706410477
 20
39.85854902260508
 30
0.0
 10
114.9283923093517
 20
39.40637453186149
 30
0.0
 10
115.0438347739278
 20
38.94857763774039
 30
0.0
  0
SPLINE
  5
C7
330
1F
100
AcDbEntity
  8
0
  6
Continuous
 62
     7
370
    25
100
AcDbSpline
210
0.0
220
0.0
230
1.0
 70
     8
 71
     3
 72
    10
 73
     6
 74
     0
 42
0.00000001
 43
0.00000001
 40
0.0
 40
0.0
 40
0.0
 40
0.0
 40
0.5
 40
0.5
 40
1.0
 40
1.0
 40
1.0
 40
1.0
 10
114.4874968601637
 20
40.73989701754863
 30
0.0
 10
114.4638214657393
 20
40.65400995574618
 30
0.0
 10
114.4507303558547
 20
40.56660274676604
 30
0.0
 10
114.4506440345664
 20
40.41396630417231
 30
0.0
 10
114.4638129685103
 20
40.34984325922672
 30
0.0
 10
114.4874968601638
 20
40.30688431565641
 30
0.0
  0
LINE
  5
C8
330
1F
100
AcDbEntity
  8
0
  6
Continuous
 62
     7
370
    25
100
AcDbLine
 10
109.6652182654
 20
45.3586991711
 30
0.0
 11
109.6652182654
 21
37.9974832389
 31
0.0
  0
SPLINE
  5
C9
330
1F
100
AcDbEntity
  8
0
  6
Continuous
 62
     7
370
    25
100
AcDbSpline
210
0.0
220
0.0
230
1.0
 70
     8
 71
     3
 72
    10
 73
     6
 74
     0
 42
0.00000001
 43
0.00000001
 40
0.0
 40
0.0
 40
0.0
 40
0.0
 40
0.5
 40
0.5
 40
1.0
 40
1.0
 40
1.0
 40
1.0
 10
110.3429396706841
 20
40.73989701754862
 30
0.0
 10
110.3666135712401
 20
40.65401537504216
 30
0.0
 10
110.3797061284192
 20
40.56660616907674
 30
0.0
 10
110.3797925424015
 20
40.41396368400181
 30
0.0
 10
110.3666221508029
 20
40.34984069891944
 30
0.0
 10
110.3429396706841
 20
40.30688431565641
 30
0.0
  0
SPLINE
  5
CA
330
1F
100
AcDbEntity
  8
0
  6
Continuous
 62
     7
370
    25
100
AcDbSpline
210
0.0
220
0.0
230
1.0
 70
     8
 71
     3
 72
    12
 73
     8
 74
     0
 42
0.00000001
 43
0.00000001
 40
0.0
 40
0.0
 40
0.0
 40
0.0
 40
0.2499999999999999
 40
0.2499999999999999
 40
0.4999999999999998
 40
0.4999999999999998
 40
1.0
 40
1.0
 40
1.0
 40
1.0
 10
109.6652182654239
 20
37.9974832388979
 30
0.0
 10
109.6652182654239
 20
38.1924867189037
 30
0.0
 10
109.6809645954459
 20
38.38902137792811
 30
0.0
 10
109.7424096200313
 20
38.77844106553366
 30
0.0
 10
109.7879983792851
 20
38.97192575859392
 30
0.0
 10
109.9644493815417
 20
39.54910935734952
 30
0.0
 10
110.1349070835052
 20
39.92954513913248
 30
0.0
 10
110.342939670684
 20
40.30688431565643
 30
0.0
  0
SPLINE
  5
CB
330
1F
100
AcDbEntity
  8
0
  6
Continuous
 62
     7
370
    25
100
AcDbSpline
210
0.0
220
0.0
230
1.0
 70
     8
 71
     3
 72
    10
 73
     6
 74
     0
 42
0.00000001
 43
0.00000001
 40
0.0
 40
0.0
 40
0.0
 40
0.0
 40
0.5
 40
0.5
 40
1.0
 40
1.0
 40
1.0
 40
1.0
 10
125.7840204189409
 20
37.39230263121061
 30
0.0
 10
125.8699074807435
 20
37.3686272367862
 30
0.0
 10
125.9573146897237
 20
37.35553612690158
 30
0.0
 10
126.1099511323176
 20
37.35544980561335
 30
0.0
 10
126.1740741772633
 20
37.3686187395573
 30
0.0
 10
126.2170331208335
 20
37.39230263121085
 30
0.0
  0
LINE
  5
CC
330
1F
100
AcDbEntity
  8
0
  6
Continuous
 62
     7
370
    25
100
AcDbLine
 10
126.2170331208
 20
37.3923026312
 30
0.0
 11
126.2170331208
 21
34.1807581436
 31
0.0
  0
SPLINE
  5
CD
330
1F
100
AcDbEntity
  8
0
  6
Continuous
 62
     7
370
    25
100
AcDbSpline
210
0.0
220
0.0
230
1.0
 70
     8
 71
     3
 72
    10
 73
     6
 74
     0
 42
0.00000001
 43
0.00000001
 40
0.0
 40
0.0
 40
0.0
 40
0.0
 40
0.5
 40
0.5
 40
1.0
 40
1.0
 40
1.0
 40
1.0
 10
125.7840204189409
 20
34.18075814362323
 30
0.0
 10
125.8699020614474
 20
34.20443204417918
 30
0.0
 10
125.9573112674128
 20
34.21752460135832
 30
0.0
 10
126.1099537524878
 20
34.21761101534061
 30
0.0
 10
126.1740767375701
 20
34.20444062374199
 30
0.0
 10
126.2170331208332
 20
34.18075814362323
 30
0.0
  0
SPLINE
  5
CE
330
1F
100
AcDbEntity
  8
0
  6
Continuous
 62
     7
370
    25
100
AcDbSpline
210
0.0
220
0.0
230
1.0
 70
     8
 71
     3
 72
    10
 73
     6
 74
     0
 42
0.00000001
 43
0.00000001
 40
0.0
 40
0.0
 40
0.0
 40
0.0
 40
0.5
 40
0.5
 40
1.0
 40
1.0
 40
1.0
 40
1.0
 10
116.1134034100147
 20
37.39230263121063
 30
0.0
 10
116.156346940916
 20
37.36862723678625
 30
0.0
 10
116.2197893855401
 20
37.35553612690161
 30
0.0
 10
116.372268222659
 20
37.35544980561333
 30
0.0
 10
116.4604982247663
 20
37.36861873955716
 30
0.0
 10
116.5464161119069
 20
37.39230263121063
 30
0.0
  0
SPLINE
  5
CF
330
1F
100
AcDbEntity
  8
0
  6
Continuous
 62
     7
370
    25
100
AcDbSpline
210
0.0
220
0.0
230
1.0
 70
     8
 71
     3
 72
    10
 73
     6
 74
     0
 42
0.00000001
 43
0.00000001
 40
0.0
 40
0.0
 40
0.0
 40
0.0
 40
0.5
 40
0.5
 40
1.0
 40
1.0
 40
1.0
 40
1.0
 10
116.1134034100147
 20
34.18075814362323
 30
0.0
 10
116.1563412191139
 20
34.20443038353479
 30
0.0
 10
116.2197818090062
 20
34.21752437347005
 30
0.0
 10
116.372270954515
 20
34.2176112409315
 30
0.0
 10
116.4605003437183
 20
34.20444145117214
 30
0.0
 10
116.5464161119069
 20
34.18075814362323
 30
0.0
  0
LINE
  5
D0
330
1F
100
AcDbEntity
  8
0
  6
Continuous
 62
     7
370
    25
100
AcDbLine
 10
116.11340341
 20
34.1807581436
 30
0.0
 11
116.11340341
 21
37.3923026312
 31
0.0
  0
SPLINE
  5
D1
330
1F
100
AcDbEntity
  8
0
  6
Continuous
 62
     7
370
    25
100
AcDbSpline
210
0.0
220
0.0
230
1.0
 70
     8
 71
     3
 72
     8
 73
     4
 74
     0
 42
0.00000001
 43
0.00000001
 40
0.0
 40
0.0
 40
0.0
 40
0.0
 40
1.0
 40
1.0
 40
1.0
 40
1.0
 10
127.2866017569201
 20
38.94857763774039
 30
0.0
 10
127.2454864812788
 20
39.08460803222994
 30
0.0
 10
127.204997498411
 20
39.22131209686738
 30
0.0
 10
127.1652182654239
 20
39.35869917106563
 30
0.0
  0
LINE
  5
D2
330
1F
100
AcDbEntity
  8
0
  6
Continuous
 62
     7
370
    25
100
AcDbLine
 10
127.1652182654
 20
41.3586991711
 30
0.0
 11
127.1652182654
 21
39.3586991711
 31
0.0
  0
SPLINE
  5
D3
330
1F
100
AcDbEntity
  8
0
  6
Continuous
 62
     7
370
    25
100
AcDbSpline
210
0.0
220
0.0
230
1.0
 70
     8
 71
     3
 72
     8
 73
     4
 74
     0
 42
0.00000001
 43
0.00000001
 40
0.0
 40
0.0
 40
0.0
 40
0.0
 40
1.0
 40
1.0
 40
1.0
 40
1.0
 10
127.2866017569201
 20
38.94857763774039
 30
0.0
 10
127.4022343669492
 20
39.40712856979815
 30
0.0
 10
127.5961237717696
 20
39.8591981655564
 30
0.0
 10
127.842939670684
 20
40.30688431565616
 30
0.0
  0
LINE
  5
D4
330
1F
100
AcDbEntity
  8
0
  6
Continuous
 62
     7
370
    25
100
AcDbLine
 10
117.1114572589
 20
44.7842673146
 30
0.0
 11
117.7188056177
 21
44.7842673146
 31
0.0
  0
ELLIPSE
  5
D5
330
1F
100
AcDbEntity
  8
0
  6
Continuous
 62
     7
370
    25
100
AcDbEllipse
 10
117.4151314401
 20
45.6756916487
 30
0.0
 11
0.08480161849065837
 21
0.0
 31
0.0
210
0.0
220
0.0
230
1.0
 40
0.9533039403
 41
0.3430239404206104
 42
2.798568713169156
  0
LINE
  5
D6
330
1F
100
AcDbEntity
  8
0
  6
Continuous
 62
     7
370
    25
100
AcDbLine
 10
117.7986668561
 20
44.8922990433
 30
0.0
 11
117.4949926784
 21
45.7028816605
 31
0.0
  0
ELLIPSE
  5
D7
330
1F
100
AcDbEntity
  8
0
  6
Continuous
 62
     7
370
    25
100
AcDbEllipse
 10
117.7188056177
 20
44.8651090316
 30
0.0
 11
-0.08480161849067258
 21
-4.973799150320701E-14
 31
0.0
210
0.0
220
0.0
230
1.0
 40
0.9533039403
 41
1.570796326794337
 42
3.48461659214925
  0
ELLIPSE
  5
D8
330
1F
100
AcDbEntity
  8
0
  6
Continuous
 62
     7
370
    25
100
AcDbEllipse
 10
117.1114572589
 20
44.8651090316
 30
0.0
 11
0.08480161849065837
 21
-7.105427357601002E-15
 31
0.0
210
0.0
220
0.0
230
1.0
 40
0.9533039403
 41
2.798568711308354
 42
4.712388980384782
  0
LINE
  5
D9
330
1F
100
AcDbEntity
  8
0
  6
Continuous
 62
     7
370
    25
100
AcDbLine
 10
117.3352702018
 20
45.7028816605
 30
0.0
 11
117.0315960207
 21
44.8922990436
 31
0.0
  0
LINE
  5
DA
330
1F
100
AcDbEntity
  8
0
  6
Continuous
 62
     7
370
    25
100
AcDbLine
 10
127.1652182654
 20
52.7199151032
 30
0.0
 11
127.1652182654
 21
49.3586991711
 31
0.0
  0
SPLINE
  5
DB
330
1F
100
AcDbEntity
  8
0
  6
Continuous
 62
     7
370
    25
100
AcDbSpline
210
0.0
220
0.0
230
1.0
 70
     8
 71
     3
 72
    10
 73
     6
 74
     0
 42
0.00000001
 43
0.00000001
 40
0.0
 40
0.0
 40
0.0
 40
0.0
 40
0.5
 40
0.5
 40
1.0
 40
1.0
 40
1.0
 40
1.0
 10
127.8429396706841
 20
50.41051402647484
 30
0.0
 10
127.6345189178667
 20
50.788557275877
 30
0.0
 10
127.4640550825893
 20
51.16932678067285
 30
0.0
 10
127.2290726476509
 20
51.93847530623039
 30
0.0
 10
127.1652182654239
 20
52.32690203440564
 30
0.0
 10
127.1652182654239
 20
52.71991510323337
 30
0.0
  0
SPLINE
  5
DC
330
1F
100
AcDbEntity
  8
0
  6
Continuous
 62
     7
370
    25
100
AcDbSpline
210
0.0
220
0.0
230
1.0
 70
     8
 71
     3
 72
    10
 73
     6
 74
     0
 42
0.00000001
 43
0.00000001
 40
0.0
 40
0.0
 40
0.0
 40
0.0
 40
0.5
 40
0.5
 40
1.0
 40
1.0
 40
1.0
 40
1.0
 10
127.8429396706842
 20
49.97750132458265
 30
0.0
 10
127.8666150651085
 20
50.0633883863851
 30
0.0
 10
127.8797061749932
 20
50.15079559536521
 30
0.0
 10
127.8797924962815
 20
50.30343203795893
 30
0.0
 10
127.8666235623376
 20
50.36755508290452
 30
0.0
 10
127.8429396706842
 20
50.41051402647484
 30
0.0
  0
SPLINE
  5
DD
330
1F
100
AcDbEntity
  8
0
  6
Continuous
 62
     7
370
    25
100
AcDbSpline
210
0.0
220
0.0
230
1.0
 70
     8
 71
     3
 72
     8
 73
     4
 74
     0
 42
0.00000001
 43
0.00000001
 40
0.0
 40
0.0
 40
0.0
 40
0.0
 40
1.0
 40
1.0
 40
1.0
 40
1.0
 10
113.8758420808073
 20
38.0693229864369
 30
0.0
 10
114.1848592234491
 20
38.17032809426703
 30
0.0
 10
114.500176979767
 20
38.26698488333296
 30
0.0
 10
114.8226563066101
 20
38.35869917106564
 30
0.0
  0
SPLINE
  5
DE
330
1F
100
AcDbEntity
  8
0
  6
Continuous
 62
     7
370
    25
100
AcDbSpline
210
0.0
220
0.0
230
1.0
 70
     8
 71
     3
 72
    12
 73
     8
 74
     0
 42
0.00000001
 43
0.00000001
 40
0.0
 40
0.0
 40
0.0
 40
0.0
 40
0.2500000000000002
 40
0.2500000000000002
 40
0.5000000000000004
 40
0.5000000000000004
 40
1.0
 40
1.0
 40
1.0
 40
1.0
 10
113.8758420808021
 20
38.06932298643077
 30
0.0
 10
114.0658682561053
 20
38.06561450057434
 30
0.0
 10
114.2560833187911
 20
38.04703199773667
 30
0.0
 10
114.6330200779235
 20
37.98216496077052
 30
0.0
 10
114.820342869183
 20
37.93589940752025
 30
0.0
 10
115.3792528254971
 20
37.76017487721329
 30
0.0
 10
115.7477884836074
 20
37.59387146843654
 30
0.0
 10
116.1134034100147
 20
37.39230263121063
 30
0.0
  0
SPLINE
  5
DF
330
1F
100
AcDbEntity
  8
0
  6
Continuous
 62
     7
370
    25
100
AcDbSpline
210
0.0
220
0.0
230
1.0
 70
     8
 71
     3
 72
     8
 73
     4
 74
     0
 42
0.00000001
 43
0.00000001
 40
0.0
 40
0.0
 40
0.0
 40
0.0
 40
1.0
 40
1.0
 40
1.0
 40
1.0
 10
127.5077802242378
 20
38.35869917106564
 30
0.0
 10
127.8302595510871
 20
38.26698488333118
 30
0.0
 10
128.1455773074111
 20
38.17032809426328
 30
0.0
 10
128.4545944500586
 20
38.06932298643103
 30
0.0
  0
SPLINE
  5
E0
330
1F
100
AcDbEntity
  8
0
  6
Continuous
 62
     7
370
    25
100
AcDbSpline
210
0.0
220
0.0
230
1.0
 70
     8
 71
     3
 72
    10
 73
     6
 74
     0
 42
0.00000001
 43
0.00000001
 40
0.0
 40
0.0
 40
0.0
 40
0.0
 40
0.5
 40
0.5
 40
1.0
 40
1.0
 40
1.0
 40
1.0
 10
126.2170331208334
 20
37.39230263121079
 30
0.0
 10
126.583551067674
 20
37.59436931676171
 30
0.0
 10
126.9526312931398
 20
37.76076208903235
 30
0.0
 10
127.6978836413672
 20
37.99480906290241
 30
0.0
 10
128.074096413315
 20
38.06189731686123
 30
0.0
 10
128.4545944500586
 20
38.06932298643103
 30
0.0
  0
LINE
  5
E1
330
1F
100
AcDbEntity
  8
0
  6
Continuous
 62
     7
370
    25
100
AcDbLine
 10
110.3429396707
 20
50.4105140265
 30
0.0
 11
114.4874968602
 21
50.4105140265
 31
0.0
  0
SPLINE
  5
E2
330
1F
100
AcDbEntity
  8
0
  6
Continuous
 62
     7
370
    25
100
AcDbSpline
210
0.0
220
0.0
230
1.0
 70
     8
 71
     3
 72
    10
 73
     6
 74
     0
 42
0.00000001
 43
0.00000001
 40
0.0
 40
0.0
 40
0.0
 40
0.0
 40
0.5
 40
0.5
 40
1.0
 40
1.0
 40
1.0
 40
1.0
 10
132.3431592928663
 20
50.41051402647486
 30
0.0
 10
132.3194838984419
 20
50.36757049557364
 30
0.0
 10
132.3063927885573
 20
50.30412805094952
 30
0.0
 10
132.3063064672691
 20
50.15164921383055
 30
0.0
 10
132.3194754012129
 20
50.06341921172327
 30
0.0
 10
132.3431592928663
 20
49.97750132458265
 30
0.0
  0
SPLINE
  5
E3
330
1F
100
AcDbEntity
  8
0
  6
Continuous
 62
     7
370
    25
100
AcDbSpline
210
0.0
220
0.0
230
1.0
 70
     8
 71
     3
 72
    16
 73
    12
 74
     0
 42
0.00000001
 43
0.00000001
 40
0.0
 40
0.0
 40
0.0
 40
0.0
 40
0.2500000000000001
 40
0.2500000000000001
 40
0.5000000000000001
 40
0.5000000000000001
 40
0.6250000000000001
 40
0.6250000000000001
 40
0.7500000000000002
 40
0.7500000000000002
 40
1.0
 40
1.0
 40
1.0
 40
1.0
 10
132.3431592928663
 20
55.02931617999187
 30
0.0
 10
132.5511747409721
 20
54.65200809111538
 30
0.0
 10
132.7213810459451
 20
54.27198436074117
 30
0.0
 10
132.9563170775127
 20
53.50436104533048
 30
0.0
 10
133.0203892091763
 20
53.11671422854168
 30
0.0
 10
133.0211221580973
 20
52.52839367665383
 30
0.0
 10
133.0054626780143
 20
52.33132048409819
 30
0.0
 10
132.9441875513774
 20
51.94126350654408
 30
0.0
 10
132.8986312788782
 20
51.74747060595605
 30
0.0
 10
132.722145246122
 20
51.16938962119262
 30
0.0
 10
132.5514887926363
 20
50.7883917568578
 30
0.0
 10
132.3431592928663
 20
50.41051402647486
 30
0.0
  0
SPLINE
  5
E4
330
1F
100
AcDbEntity
  8
0
  6
Continuous
 62
     7
370
    25
100
AcDbSpline
210
0.0
220
0.0
230
1.0
 70
     8
 71
     3
 72
    10
 73
     6
 74
     0
 42
0.00000001
 43
0.00000001
 40
0.0
 40
0.0
 40
0.0
 40
0.0
 40
0.1601790552921226
 40
0.7197651707803578
 40
1.0
 40
1.0
 40
1.0
 40
1.0
 10
132.3089298597494
 20
55.09159445874162
 30
0.0
 10
132.3081670696562
 20
55.09298668676799
 30
0.0
 10
132.3047394695824
 20
55.09924266849631
 30
0.0
 10
132.3192469343807
 20
55.07273540376841
 30
0.0
 10
132.3371764874986
 20
55.04017954862324
 30
0.0
 10
132.3431592928663
 20
55.02931617999187
 30
0.0
  0
SPLINE
  5
E5
330
1F
100
AcDbEntity
  8
0
  6
Continuous
 62
     7
370
    25
100
AcDbSpline
210
0.0
220
0.0
230
1.0
 70
     8
 71
     3
 72
     9
 73
     5
 74
     0
 42
0.00000001
 43
0.00000001
 40
0.0
 40
0.0
 40
0.0
 40
0.0
 40
0.5797912171256352
 40
1.0
 40
1.0
 40
1.0
 40
1.0
 10
132.3431592928663
 20
35.6880821621394
 30
0.0
 10
132.3308006895199
 20
35.66560851389827
 30
0.0
 10
132.3094850797255
 20
35.62684689147745
 30
0.0
 10
132.3090941372227
 20
35.62611248671924
 30
0.0
 10
132.3089298597494
 20
35.62580388338966
 30
0.0
  0
SPLINE
  5
E6
330
1F
100
AcDbEntity
  8
0
  6
Continuous
 62
     7
370
    25
100
AcDbSpline
210
0.0
220
0.0
230
1.0
 70
     8
 71
     3
 72
    16
 73
    12
 74
     0
 42
0.00000001
 43
0.00000001
 40
0.0
 40
0.0
 40
0.0
 40
0.0
 40
0.2500000000000001
 40
0.2500000000000001
 40
0.5000000000000002
 40
0.5000000000000002
 40
0.6250000000000001
 40
0.6250000000000001
 40
0.7500000000000001
 40
0.7500000000000001
 40
1.0
 40
1.0
 40
1.0
 40
1.0
 10
132.3431592928663
 20
40.30688431565641
 30
0.0
 10
132.5511747409721
 20
39.92957622677991
 30
0.0
 10
132.7213810459451
 20
39.54955249640571
 30
0.0
 10
132.9563170775127
 20
38.78192918099501
 30
0.0
 10
133.0203892091763
 20
38.39428236420622
 30
0.0
 10
133.0211221580973
 20
37.80596181231837
 30
0.0
 10
133.0054626780143
 20
37.60888861976272
 30
0.0
 10
132.9441875513774
 20
37.21883164220862
 30
0.0
 10
132.8986312788782
 20
37.02503874162059
 30
0.0
 10
132.722145246122
 20
36.44695775685716
 30
0.0
 10
132.5514887926363
 20
36.06595989252234
 30
0.0
 10
132.3431592928663
 20
35.6880821621394
 30
0.0
  0
LINE
  5
E7
330
1F
100
AcDbEntity
  8
0
  6
Continuous
 62
     7
370
    25
100
AcDbLine
 10
133.1652182654
 20
53.6086991711
 30
0.0
 11
133.1652182654
 21
37.1086991711
 31
0.0
  0
LINE
  5
E8
330
1F
100
AcDbEntity
  8
0
  6
Continuous
 62
     7
370
    25
100
AcDbLine
 10
127.8429396707
 20
50.4105140265
 30
0.0
 11
132.3431592929
 21
50.4105140265
 31
0.0
  0
LINE
  5
E9
330
1F
100
AcDbEntity
  8
0
  6
Continuous
 62
     7
370
    25
100
AcDbLine
 10
114.4874968602
 20
40.3068843157
 30
0.0
 11
110.3429396707
 21
40.3068843157
 31
0.0
  0
LINE
  5
EA
330
1F
100
AcDbEntity
  8
0
  6
Continuous
 62
     7
370
    25
100
AcDbLine
 10
129.4152182654
 20
33.3586991711
 30
0.0
 11
112.9152182654
 21
33.3586991711
 31
0.0
  0
SPLINE
  5
EB
330
1F
100
AcDbEntity
  8
0
  6
Continuous
 62
     7
370
    25
100
AcDbSpline
210
0.0
220
0.0
230
1.0
 70
     8
 71
     3
 72
    16
 73
    12
 74
     0
 42
0.00000001
 43
0.00000001
 40
0.0
 40
0.0
 40
0.0
 40
0.0
 40
0.2500000000000001
 40
0.2500000000000001
 40
0.5000000000000001
 40
0.5000000000000001
 40
0.6250000000000001
 40
0.6250000000000001
 40
0.7500000000000002
 40
0.7500000000000002
 40
1.0
 40
1.0
 40
1.0
 40
1.0
 10
130.8358352743502
 20
34.18075814362277
 30
0.0
 10
130.4581202266272
 20
33.97251833317412
 30
0.0
 10
130.0779624780012
 20
33.80234504676467
 30
0.0
 10
129.3108691461098
 20
33.56762278714882
 30
0.0
 10
128.9238917887722
 20
33.50372481207436
 30
0.0
 10
128.3373410137475
 20
33.50270110998786
 30
0.0
 10
128.1402618538244
 20
33.51818765713256
 30
0.0
 10
127.7497327143162
 20
33.57931137859055
 30
0.0
 10
127.5557010106431
 20
33.62483310588556
 30
0.0
 10
126.9768969382221
 20
33.80133246963074
 30
0.0
 10
126.5954082040556
 20
33.97215444598456
 30
0.0
 10
126.2170331208332
 20
34.18075814362309
 30
0.0
  0
SPLINE
  5
EC
330
1F
100
AcDbEntity
  8
0
  6
Continuous
 62
     7
370
    25
100
AcDbSpline
210
0.0
220
0.0
230
1.0
 70
     8
 71
     3
 72
     9
 73
     5
 74
     0
 42
0.00000001
 43
0.00000001
 40
0.0
 40
0.0
 40
0.0
 40
0.0
 40
0.5789479223911497
 40
1.0
 40
1.0
 40
1.0
 40
1.0
 10
130.8358352743502
 20
34.18075814362323
 30
0.0
 10
130.8582766415428
 20
34.19309903393764
 30
0.0
 10
130.8970389659674
 20
34.21441509681156
 30
0.0
 10
130.8978048688265
 20
34.21482327072594
 30
0.0
 10
130.8981273538165
 20
34.21499513320062
 30
0.0
  0
SPLINE
  5
ED
330
1F
100
AcDbEntity
  8
0
  6
Continuous
 62
     7
370
    25
100
AcDbSpline
210
0.0
220
0.0
230
1.0
 70
     8
 71
     3
 72
    10
 73
     6
 74
     0
 42
0.00000001
 43
0.00000001
 40
0.0
 40
0.0
 40
0.0
 40
0.0
 40
0.1593935213061664
 40
0.7189934545756295
 40
1.0
 40
1.0
 40
1.0
 40
1.0
 10
111.4323091770314
 20
34.21499513320062
 30
0.0
 10
111.4309192582047
 20
34.21575666019807
 30
0.0
 10
111.4246496022579
 20
34.21919176171394
 30
0.0
 10
111.4511335440819
 20
34.20469713924734
 30
0.0
 10
111.4837109481286
 20
34.18675576875473
 30
0.0
 10
111.4946012564977
 20
34.18075814362323
 30
0.0
  0
SPLINE
  5
EE
330
1F
100
AcDbEntity
  8
0
  6
Continuous
 62
     7
370
    25
100
AcDbSpline
210
0.0
220
0.0
230
1.0
 70
     8
 71
     3
 72
    16
 73
    12
 74
     0
 42
0.00000001
 43
0.00000001
 40
0.0
 40
0.0
 40
0.0
 40
0.0
 40
0.2500000000000003
 40
0.2500000000000003
 40
0.5000000000000006
 40
0.5000000000000006
 40
0.6250000000000006
 40
0.6250000000000006
 40
0.7500000000000004
 40
0.7500000000000004
 40
1.0
 40
1.0
 40
1.0
 40
1.0
 10
116.1134034100148
 20
34.18075814362277
 30
0.0
 10
115.7356883622918
 20
33.97251833317412
 30
0.0
 10
115.3555306136658
 20
33.80234504676467
 30
0.0
 10
114.5884372817744
 20
33.56762278714883
 30
0.0
 10
114.2014599244367
 20
33.50372481207436
 30
0.0
 10
113.6149091494121
 20
33.50270110998786
 30
0.0
 10
113.417829989489
 20
33.51818765713256
 30
0.0
 10
113.0273008499807
 20
33.57931137859055
 30
0.0
 10
112.8332691463077
 20
33.62483310588557
 30
0.0
 10
112.2544650738866
 20
33.80133246963074
 30
0.0
 10
111.8729763397201
 20
33.97215444598456
 30
0.0
 10
111.4946012564977
 20
34.18075814362309
 30
0.0
  0
SPLINE
  5
EF
330
1F
100
AcDbEntity
  8
0
  6
Continuous
 62
     7
370
    25
100
AcDbSpline
210
0.0
220
0.0
230
1.0
 70
     8
 71
     3
 72
    12
 73
     8
 74
     0
 42
0.00000001
 43
0.00000001
 40
0.0
 40
0.0
 40
0.0
 40
0.0
 40
0.2499999999999999
 40
0.2499999999999999
 40
0.4999999999999998
 40
0.4999999999999998
 40
1.0
 40
1.0
 40
1.0
 40
1.0
 10
127.1652182654239
 20
52.71991510323337
 30
0.0
 10
127.1652182654239
 20
52.91565736611288
 30
0.0
 10
127.1810612015129
 20
53.11232397530344
 30
0.0
 10
127.2425640617506
 20
53.50159220263173
 30
0.0
 10
127.2881677027942
 20
53.69499623558465
 30
0.0
 10
127.4646187202835
 20
54.2719252868414
 30
0.0
 10
127.6350160875353
 20
54.65217472004441
 30
0.0
 10
127.8429396706841
 20
55.02931617999187
 30
0.0
  0
LINE
  5
F0
330
1F
100
AcDbEntity
  8
0
  6
Continuous
 62
     7
370
    25
100
AcDbLine
 10
132.3431592929
 20
55.02931618
 30
0.0
 11
127.8429396707
 21
55.02931618
 31
0.0
  0
ELLIPSE
  5
F1
330
1F
100
AcDbEntity
  8
0
  6
Continuous
 62
     7
370
    25
100
AcDbEllipse
 10
121.1652182654
 20
35.5437445948
 30
0.0
 11
8.5
 21
0.0
 31
0.0
210
0.0
220
0.0
230
1.0
 40
0.5773502692
 41
2.374833212873084
 42
2.530692279913058
  0
LINE
  5
F2
330
1F
100
AcDbEntity
  8
0
  6
Continuous
 62
     7
370
    25
100
AcDbLine
 10
113.8758420808
 20
38.0693229864
 30
0.0
 11
111.4946012565
 21
35.6880821621
 31
0.0
  0
LINE
  5
F3
330
1F
100
AcDbEntity
  8
0
  6
Continuous
 62
     7
370
    25
100
AcDbLine
 10
110.3429396707
 20
35.6880821621
 30
0.0
 11
111.4946012565
 21
35.6880821621
 31
0.0
  0
SPLINE
  5
F4
330
1F
100
AcDbEntity
  8
0
  6
Continuous
 62
     7
370
    25
100
AcDbSpline
210
0.0
220
0.0
230
1.0
 70
     8
 71
     3
 72
    10
 73
     6
 74
     0
 42
0.00000001
 43
0.00000001
 40
0.0
 40
0.0
 40
0.0
 40
0.0
 40
0.5
 40
0.5
 40
1.0
 40
1.0
 40
1.0
 40
1.0
 10
110.3429396706837
 20
35.68808216213937
 30
0.0
 10
110.1341297460174
 20
36.06683130953066
 30
0.0
 10
109.9635956062702
 20
36.44803658594196
 30
0.0
 10
109.7288098012512
 20
37.21726720712974
 30
0.0
 10
109.6652182654239
 20
37.60533491192807
 30
0.0
 10
109.6652182654239
 20
37.9974832388979
 30
0.0
  0
ELLIPSE
  5
F5
330
1F
100
AcDbEntity
  8
0
  6
Continuous
 62
     7
370
    25
100
AcDbEllipse
 10
121.1652182654
 20
35.5437445948
 30
0.0
 11
8.5
 21
0.0
 31
0.0
210
0.0
220
0.0
230
1.0
 40
0.5773502692
 41
0.6109003736767332
 42
0.7667594407167069
  0
LINE
  5
F6
330
1F
100
AcDbEntity
  8
0
  6
Continuous
 62
     7
370
    25
100
AcDbLine
 10
130.8358352744
 20
35.6880821621
 30
0.0
 11
132.3431592929
 21
35.6880821621
 31
0.0
  0
LINE
  5
F7
330
1F
100
AcDbEntity
  8
0
  6
Continuous
 62
     7
370
    25
100
AcDbLine
 10
130.8358352744
 20
35.6880821621
 30
0.0
 11
128.4545944501
 21
38.0693229864
 31
0.0
  0
SPLINE
  5
F8
330
1F
100
AcDbEntity
  8
0
  6
Continuous
 62
     7
370
    25
100
AcDbSpline
210
0.0
220
0.0
230
1.0
 70
     8
 71
     3
 72
    12
 73
     8
 74
     0
 42
0.00000001
 43
0.00000001
 40
0.0
 40
0.0
 40
0.0
 40
0.0
 40
0.2499999999999999
 40
0.2499999999999999
 40
0.5
 40
0.5
 40
1.0
 40
1.0
 40
1.0
 40
1.0
 10
109.6652182654239
 20
52.71991510323337
 30
0.0
 10
109.6652182654239
 20
52.91491858323916
 30
0.0
 10
109.6809645954459
 20
53.11145324226357
 30
0.0
 10
109.7424096200313
 20
53.50087292986913
 30
0.0
 10
109.7879983792851
 20
53.69435762292938
 30
0.0
 10
109.9644493815417
 20
54.27154122168498
 30
0.0
 10
110.1349070835052
 20
54.65197700346795
 30
0.0
 10
110.342939670684
 20
55.02931617999189
 30
0.0
  0
LINE
  5
F9
330
1F
100
AcDbEntity
  8
0
  6
Continuous
 62
     7
370
    25
100
AcDbLine
 10
114.4874968602
 20
55.02931618
 30
0.0
 11
110.3429396707
 21
55.02931618
 31
0.0
  0
SPLINE
  5
FA
330
1F
100
AcDbEntity
  8
0
  6
Continuous
 62
     7
370
    25
100
AcDbSpline
210
0.0
220
0.0
230
1.0
 70
     8
 71
     3
 72
    10
 73
     6
 74
     0
 42
0.00000001
 43
0.00000001
 40
0.0
 40
0.0
 40
0.0
 40
0.0
 40
0.5
 40
0.5
 40
1.0
 40
1.0
 40
1.0
 40
1.0
 10
114.4874968601637
 20
55.02931617999189
 30
0.0
 10
114.6959176129812
 20
54.65127293058973
 30
0.0
 10
114.8663814482586
 20
54.27050342579388
 30
0.0
 10
115.101363883197
 20
53.50135490023634
 30
0.0
 10
115.1652182654239
 20
53.1129281720611
 30
0.0
 10
115.1652182654239
 20
52.71991510323337
 30
0.0
  0
LINE
  5
FB
330
1F
100
AcDbEntity
  8
0
  6
Continuous
 62
     7
370
    25
100
AcDbLine
 10
111.4946012565
 20
35.6880821621
 30
0.0
 11
111.4946012565
 21
34.1807581436
 31
0.0
  0
LINE
  5
FC
330
1F
100
AcDbEntity
  8
0
  6
Continuous
 62
     7
370
    25
100
AcDbLine
 10
130.8358352744
 20
34.1807581436
 30
0.0
 11
130.8358352744
 21
35.6880821621
 31
0.0
  0
LINE
  5
FD
330
1F
100
AcDbEntity
  8
0
  6
Continuous
 62
     7
370
    25
100
AcDbLine
 10
117.1652182654
 20
41.3586991711
 30
0.0
 11
115.1652182654
 21
39.3586991711
 31
0.0
  0
LINE
  5
FE
330
1F
100
AcDbEntity
  8
0
  6
Continuous
 62
     7
370
    25
100
AcDbLine
 10
114.2025971928
 20
38.3586991711
 30
0.0
 11
117.1652182654
 21
38.3586991711
 31
0.0
  0
LINE
  5
FF
330
1F
100
AcDbEntity
  8
0
  6
Continuous
 62
     7
370
    25
100
AcDbLine
 10
127.1652182654
 20
39.3586991711
 30
0.0
 11
125.1652182654
 21
41.3586991711
 31
0.0
  0
LINE
  5
100
330
1F
100
AcDbEntity
  8
0
  6
Continuous
 62
     7
370
    25
100
AcDbLine
 10
125.1652182654
 20
38.3586991711
 30
0.0
 11
128.1278393381
 21
38.3586991711
 31
0.0
  0
LINE
  5
101
330
1F
100
AcDbEntity
  8
0
  6
Continuous
 62
     7
370
    25
100
AcDbLine
 10
115.1652182654
 20
53.2931536493
 30
0.0
 11
115.1652182654
 21
52.7199151032
 31
0.0
  0
SPLINE
  5
102
330
1F
100
AcDbEntity
  8
0
  6
Continuous
 62
     7
370
    25
100
AcDbSpline
210
0.0
220
0.0
230
1.0
 70
     8
 71
     3
 72
    32
 73
    28
 74
     0
 42
0.00000001
 43
0.00000001
 40
0.0
 40
0.0
 40
0.0
 40
0.0
 40
0.0625000000000001
 40
0.0625000000000001
 40
0.1250000000000001
 40
0.1250000000000001
 40
0.1875000000000002
 40
0.1875000000000002
 40
0.2500000000000003
 40
0.2500000000000003
 40
0.3750000000000003
 40
0.3750000000000003
 40
0.4375000000000003
 40
0.4375000000000003
 40
0.5000000000000002
 40
0.5000000000000002
 40
0.5625000000000002
 40
0.5625000000000002
 40
0.6250000000000001
 40
0.6250000000000001
 40
0.7500000000000001
 40
0.7500000000000001
 40
0.8750000000000002
 40
0.8750000000000002
 40
0.9375000000000001
 40
0.9375000000000001
 40
1.0
 40
1.0
 40
1.0
 40
1.0
 10
127.1652182654155
 20
53.29315364928629
 30
0.0
 10
127.0083619294986
 20
53.19819667139059
 30
0.0
 10
126.8353634953429
 20
53.09544349676541
 30
0.0
 10
126.4586589087171
 20
52.87873229511715
 30
0.0
 10
126.2558061282605
 20
52.76531358462713
 30
0.0
 10
125.8298248654579
 20
52.53722344792896
 30
0.0
 10
125.6056469051698
 20
52.42191656547711
 30
0.0
 10
125.1342958115934
 20
52.19359346310233
 30
0.0
 10
124.8856102962284
 20
52.07994344696858
 30
0.0
 10
124.1150378115367
 20
51.75687941573454
 30
0.0
 10
123.5694004014545
 20
51.56398089157103
 30
0.0
 10
122.6866206529582
 20
51.35238696629733
 30
0.0
 10
122.3879815530854
 20
51.29674458017959
 30
0.0
 10
121.7814799523696
 20
51.22107651081575
 30
0.0
 10
121.4713327137037
 20
51.20110326503944
 30
0.0
 10
120.8512472250199
 20
51.20143703129268
 30
0.0
 10
120.5446761875519
 20
51.22143599661547
 30
0.0
 10
119.9380214402437
 20
51.29747478281194
 30
0.0
 10
119.6356483756184
 20
51.35412788294349
 30
0.0
 10
118.7590120728654
 20
51.56490643298933
 30
0.0
 10
118.2109579408885
 20
51.75845226356109
 30
0.0
 10
117.1804606736452
 20
52.19107155683688
 30
0.0
 10
116.7129006383657
 20
52.4235482015273
 30
0.0
 10
116.0746870347378
 20
52.76528620244635
 30
0.0
 10
115.871477296548
 20
52.87890371787473
 30
0.0
 10
115.4951403701535
 20
53.09540611023098
 30
0.0
 10
115.322161761662
 20
53.19814390667536
 30
0.0
 10
115.1652182654239
 20
53.29315364929144
 30
0.0
  0
LINE
  5
103
330
1F
100
AcDbEntity
  8
0
  6
Continuous
 62
     7
370
    25
100
AcDbLine
 10
127.1652182654
 20
53.2931536493
 30
0.0
 11
127.1652182654
 21
52.7199151032
 31
0.0
  0
LINE
  5
104
330
1F
100
AcDbEntity
  8
0
  6
Continuous
 62
     7
370
    25
100
AcDbLine
 10
127.6211803796
 20
23.9474868248
 30
0.0
 11
114.7092561512
 21
23.9474868248
 31
0.0
  0
SPLINE
  5
105
330
1F
100
AcDbEntity
  8
0
  6
Continuous
 62
     7
370
    25
100
AcDbSpline
210
0.0
220
0.0
230
1.0
 70
     8
 71
     3
 72
    12
 73
     8
 74
     0
 42
0.00000001
 43
0.00000001
 40
0.0
 40
0.0
 40
0.0
 40
0.0
 40
0.0821685349195579
 40
0.3096897199422385
 40
0.5425026699013655
 40
0.7710670754315411
 40
0.9999999999999999
 40
0.9999999999999999
 40
0.9999999999999999
 40
0.9999999999999999
 10
127.3386575027523
 20
54.15190879824967
 30
0.0
 10
127.3397894842087
 20
54.15567844491489
 30
0.0
 10
127.3440558742635
 20
54.1698860831693
 30
0.0
 10
127.3116005609676
 20
54.06252977062252
 30
0.0
 10
127.2556360015165
 20
53.85659165311814
 30
0.0
 10
127.1874265961895
 20
53.57329627099784
 30
0.0
 10
127.1726250166232
 20
53.38658465592934
 30
0.0
 10
127.1652182654239
 20
53.29315364928431
 30
0.0
  0
SPLINE
  5
106
330
1F
100
AcDbEntity
  8
0
  6
Continuous
 62
     7
370
    25
100
AcDbSpline
210
0.0
220
0.0
230
1.0
 70
     8
 71
     3
 72
    11
 73
     7
 74
     0
 42
0.00000001
 43
0.00000001
 40
0.0
 40
0.0
 40
0.0
 40
0.0
 40
0.317636118775717
 40
0.6359593706157765
 40
0.8656887257024594
 40
1.0
 40
1.0
 40
1.0
 40
1.0
 10
115.1652182654239
 20
53.29315364929135
 30
0.0
 10
115.1515795096325
 20
53.42441827629582
 30
0.0
 10
115.1242724937221
 20
53.6872314912905
 30
0.0
 10
115.0362678258849
 20
53.99887606641039
 30
0.0
 10
114.9917074670242
 20
54.15262251125604
 30
0.0
 10
114.9920562064227
 20
54.15110906882735
 30
0.0
 10
114.9921848723716
 20
54.15055069054546
 30
0.0
  0
LINE
  5
107
330
1F
100
AcDbEntity
  8
0
  6
Continuous
 62
     7
370
    25
100
AcDbLine
 10
115.2652182654
 20
54.8586991711
 30
0.0
 11
115.2658701087
 21
54.8581455708
 31
0.0
  0
LINE
  5
108
330
1F
100
AcDbEntity
  8
0
  6
Continuous
 62
     7
370
    25
100
AcDbLine
 10
126.4152182654
 20
21.8586991711
 30
0.0
 11
115.9152182654
 21
21.8586991711
 31
0.0
  0
SPLINE
  5
109
330
1F
100
AcDbEntity
  8
0
  6
Continuous
 62
     7
370
    25
100
AcDbSpline
210
0.0
220
0.0
230
1.0
 70
     8
 71
     3
 72
    10
 73
     6
 74
     0
 42
0.00000001
 43
0.00000001
 40
0.0
 40
0.0
 40
0.0
 40
0.0
 40
0.1601790552921523
 40
0.7197651707804853
 40
1.0
 40
1.0
 40
1.0
 40
1.0
 10
114.4532674270468
 20
55.09159445874162
 30
0.0
 10
114.4525046369536
 20
55.09298668676799
 30
0.0
 10
114.4490770368799
 20
55.09924266849632
 30
0.0
 10
114.4635845016781
 20
55.07273540376841
 30
0.0
 10
114.481514054796
 20
55.04017954862325
 30
0.0
 10
114.4874968601637
 20
55.02931617999189
 30
0.0
  0
SPLINE
  5
10A
330
1F
100
AcDbEntity
  8
0
  6
Continuous
 62
     7
370
    25
100
AcDbSpline
210
0.0
220
0.0
230
1.0
 70
     8
 71
     3
 72
     9
 73
     5
 74
     0
 42
0.00000001
 43
0.00000001
 40
0.0
 40
0.0
 40
0.0
 40
0.0
 40
0.5797912171256431
 40
1.0
 40
1.0
 40
1.0
 40
1.0
 10
127.8429396706841
 20
55.02931617999187
 30
0.0
 10
127.8552982740306
 20
55.05178982823301
 30
0.0
 10
127.876613883825
 20
55.09055145065383
 30
0.0
 10
127.8770048263278
 20
55.09128585541204
 30
0.0
 10
127.877169103801
 20
55.09159445874162
 30
0.0
  0
SPLINE
  5
10B
330
1F
100
AcDbEntity
  8
0
  6
Continuous
 62
     7
370
    25
100
AcDbSpline
210
0.0
220
0.0
230
1.0
 70
     8
 71
     3
 72
    10
 73
     6
 74
     0
 42
0.00000001
 43
0.00000001
 40
0.0
 40
0.0
 40
0.0
 40
0.0
 40
0.1593935212994522
 40
0.7189934545690309
 40
1.0
 40
1.0
 40
1.0
 40
1.0
 10
110.3771766602616
 20
55.09160825945833
 30
0.0
 10
110.377938187259
 20
55.09299817828494
 30
0.0
 10
110.381373288775
 20
55.09926783423189
 30
0.0
 10
110.3668786663085
 20
55.07278389240808
 30
0.0
 10
110.3489372958158
 20
55.04020648836122
 30
0.0
 10
110.3429396706841
 20
55.02931617999187
 30
0.0
  0
LINE
  5
10C
330
1F
100
AcDbEntity
  8
0
  6
Continuous
 62
     7
370
    25
100
AcDbLine
 10
109.6652182654
 20
53.8586991711
 30
0.0
 11
109.6652182654
 21
52.7199151032
 31
0.0
  0
SPLINE
  5
10D
330
1F
100
AcDbEntity
  8
0
  6
Continuous
 62
     7
370
    25
100
AcDbSpline
210
0.0
220
0.0
230
1.0
 70
     8
 71
     3
 72
     9
 73
     5
 74
     0
 42
0.00000001
 43
0.00000001
 40
0.0
 40
0.0
 40
0.0
 40
0.0
 40
0.5789479223839474
 40
0.9999999999999999
 40
0.9999999999999999
 40
0.9999999999999999
 40
0.9999999999999999
 10
110.3429396706841
 20
35.68808216213939
 30
0.0
 10
110.3552805609984
 20
35.66564079494703
 30
0.0
 10
110.3765966238723
 20
35.62687847052248
 30
0.0
 10
110.3770047977868
 20
35.62611256766311
 30
0.0
 10
110.3771766602616
 20
35.62579008267294
 30
0.0
  0
LINE
  5
10E
330
1F
100
AcDbEntity
  8
0
  6
Continuous
 62
     7
370
    25
100
AcDbLine
 10
109.6652182654
 20
37.9974832389
 30
0.0
 11
109.6652182654
 21
36.8586991711
 31
0.0
  0
LINE
  5
10F
330
1F
100
AcDbEntity
  8
0
  6
Continuous
 62
     7
370
    25
100
AcDbLine
 10
130.9028225725
 20
35.621094864
 30
0.0
 11
130.8358352744
 21
35.6880821621
 31
0.0
  0
LINE
  5
110
330
1F
100
AcDbEntity
  8
0
  6
Continuous
 62
     7
370
    25
100
AcDbLine
 10
111.4946012565
 20
35.6880821621
 30
0.0
 11
111.4276139584
 21
35.621094864
 31
0.0
  0
LINE
  5
111
330
1F
100
AcDbEntity
  8
0
  6
Continuous
 62
     7
370
    25
100
AcDbLine
 10
115.9261329328
 20
72.4586991711
 30
0.0
 11
115.9261329328
 21
71.8586991711
 31
0.0
  0
LINE
  5
112
330
1F
100
AcDbEntity
  8
0
  6
Continuous
 62
     7
370
    25
100
AcDbLine
 10
126.4043035981
 20
72.4586991711
 30
0.0
 11
115.9261329328
 21
72.4586991711
 31
0.0
  0
LINE
  5
113
330
1F
100
AcDbEntity
  8
0
  6
Continuous
 62
     7
370
    25
100
AcDbLine
 10
126.4043035981
 20
71.8586991711
 30
0.0
 11
126.4043035981
 21
72.4586991711
 31
0.0
  0
LINE
  5
114
330
1F
100
AcDbEntity
  8
0
  6
Continuous
 62
     7
370
    25
100
AcDbLine
 10
115.9261329328
 20
71.8586991711
 30
0.0
 11
126.4043035981
 21
71.8586991711
 31
0.0
  0
SPLINE
  5
115
330
1F
100
AcDbEntity
  8
0
  6
Continuous
 62
     7
370
    25
100
AcDbSpline
210
0.0
220
0.0
230
1.0
 70
     8
 71
     3
 72
    15
 73
    11
 74
     0
 42
0.00000001
 43
0.00000001
 40
0.0
 40
0.0
 40
0.0
 40
0.0
 40
0.0081667445812695
 40
0.3321939991490083
 40
0.4756279600585602
 40
0.6866830973284899
 40
0.8457435502264811
 40
0.8967566214763185
 40
0.9909540928118029
 40
1.0
 40
1.0
 40
1.0
 40
1.0
 10
116.0661987518312
 20
72.70869917106563
 30
0.0
 10
116.0657112176883
 20
72.70869649471986
 30
0.0
 10
116.0458800701562
 20
72.70858763053296
 30
0.0
 10
116.0175992901469
 20
72.69904161826364
 30
0.0
 10
115.9797699916581
 20
72.66167923500907
 30
0.0
 10
115.9531860950906
 20
72.6168137202744
 30
0.0
 10
115.9360162713356
 20
72.55893742069749
 30
0.0
 10
115.9281992751192
 20
72.50826138072557
 30
0.0
 10
115.9262035886833
 20
72.47956710120556
 30
0.0
 10
115.9261386247325
 20
72.46038026965006
 30
0.0
 10
115.9261329327658
 20
72.45869917106563
 30
0.0
  0
LINE
  5
116
330
1F
100
AcDbEntity
  8
0
  6
Continuous
 62
     7
370
    25
100
AcDbLine
 10
116.0661987518
 20
72.7086991711
 30
0.0
 11
126.264237779
 21
72.7086991711
 31
0.0
  0
SPLINE
  5
117
330
1F
100
AcDbEntity
  8
0
  6
Continuous
 62
     7
370
    25
100
AcDbSpline
210
0.0
220
0.0
230
1.0
 70
     8
 71
     3
 72
    15
 73
    11
 74
     0
 42
0.00000001
 43
0.00000001
 40
0.0
 40
0.0
 40
0.0
 40
0.0
 40
0.0090459071881971
 40
0.1032433785236874
 40
0.1542564497735246
 40
0.313316902671511
 40
0.5243720399414428
 40
0.6678060008509903
 40
0.9918332554187292
 40
1.0
 40
1.0
 40
1.0
 40
1.0
 10
126.4043035980821
 20
72.45869917106563
 30
0.0
 10
126.4042979061154
 20
72.46038026965006
 30
0.0
 10
126.4042329421646
 20
72.47956710120559
 30
0.0
 10
126.4022372557287
 20
72.50826138072556
 30
0.0
 10
126.3944202595123
 20
72.55893742069752
 30
0.0
 10
126.3772504357573
 20
72.61681372027438
 30
0.0
 10
126.3506665391898
 20
72.66167923500907
 30
0.0
 10
126.312837240701
 20
72.69904161826362
 30
0.0
 10
126.2845564606917
 20
72.70858763053307
 30
0.0
 10
126.2647253131596
 20
72.70869649471986
 30
0.0
 10
126.2642377790167
 20
72.70869917106563
 30
0.0
  0
LINE
  5
118
330
1F
100
AcDbEntity
  8
0
  6
Continuous
 62
     7
370
    25
100
AcDbLine
 10
115.6879926904
 20
72.4586991711
 30
0.0
 11
115.9261329328
 21
72.4586991711
 31
0.0
  0
SPLINE
  5
119
330
1F
100
AcDbEntity
  8
0
  6
Continuous
 62
     7
370
    25
100
AcDbSpline
210
0.0
220
0.0
230
1.0
 70
     8
 71
     3
 72
    15
 73
    11
 74
     0
 42
0.00000001
 43
0.00000001
 40
0.0
 40
0.0
 40
0.0
 40
0.0
 40
0.0089557228015919
 40
0.0999003359608148
 40
0.153163246058169
 40
0.3125636920784848
 40
0.5249666935694999
 40
0.6689893599352451
 40
0.9919152533810159
 40
1.0
 40
1.0
 40
1.0
 40
1.0
 10
115.6879926903723
 20
72.45869917106563
 30
0.0
 10
115.6880084459509
 20
72.46038029663855
 30
0.0
 10
115.6881841981075
 20
72.47913311126297
 30
0.0
 10
115.693613214127
 20
72.50789534037047
 30
0.0
 10
115.7151486978343
 20
72.55878241383881
 30
0.0
 10
115.7628541260991
 20
72.61691806397144
 30
0.0
 10
115.835245071091
 20
72.66162593715487
 30
0.0
 10
115.9371641831088
 20
72.69890776061662
 30
0.0
 10
116.0125192745633
 20
72.70858691545418
 30
0.0
 10
116.064918920287
 20
72.70869649465595
 30
0.0
 10
116.0661987518312
 20
72.70869917106563
 30
0.0
  0
LINE
  5
11A
330
1F
100
AcDbEntity
  8
0
  6
Continuous
 62
     7
370
    25
100
AcDbLine
 10
126.4043035981
 20
72.4586991711
 30
0.0
 11
126.6424438405
 21
72.4586991711
 31
0.0
  0
SPLINE
  5
11B
330
1F
100
AcDbEntity
  8
0
  6
Continuous
 62
     7
370
    25
100
AcDbSpline
210
0.0
220
0.0
230
1.0
 70
     8
 71
     3
 72
    15
 73
    11
 74
     0
 42
0.00000001
 43
0.00000001
 40
0.0
 40
0.0
 40
0.0
 40
0.0
 40
0.0080847466189818
 40
0.3310106400647567
 40
0.4750333064304972
 40
0.6874363079215137
 40
0.8468367539418253
 40
0.9000996640391794
 40
0.9910442771984082
 40
1.0
 40
1.0
 40
1.0
 40
1.0
 10
126.2642377790167
 20
72.70869917106563
 30
0.0
 10
126.2655176105609
 20
72.70869649465597
 30
0.0
 10
126.3179172562847
 20
72.7085869154541
 30
0.0
 10
126.3932723477391
 20
72.69890776061662
 30
0.0
 10
126.4951914597569
 20
72.66162593715487
 30
0.0
 10
126.5675824047488
 20
72.61691806397144
 30
0.0
 10
126.6152878330136
 20
72.55878241383878
 30
0.0
 10
126.6368233167209
 20
72.50789534037048
 30
0.0
 10
126.6422523327405
 20
72.479133111263
 30
0.0
 10
126.642428084897
 20
72.46038029663855
 30
0.0
 10
126.6424438404756
 20
72.45869917106563
 30
0.0
  0
LINE
  5
11C
330
1F
100
AcDbEntity
  8
0
  6
Continuous
 62
     7
370
    25
100
AcDbLine
 10
115.6879926904
 20
71.8586991711
 30
0.0
 11
115.6879926904
 21
72.4586991711
 31
0.0
  0
LINE
  5
11D
330
1F
100
AcDbEntity
  8
0
  6
Continuous
 62
     7
370
    25
100
AcDbLine
 10
115.9261329328
 20
71.8586991711
 30
0.0
 11
115.6879926904
 21
71.8586991711
 31
0.0
  0
LINE
  5
11E
330
1F
100
AcDbEntity
  8
0
  6
Continuous
 62
     7
370
    25
100
AcDbLine
 10
126.6424438405
 20
72.4586991711
 30
0.0
 11
126.6424438405
 21
71.8586991711
 31
0.0
  0
LINE
  5
11F
330
1F
100
AcDbEntity
  8
0
  6
Continuous
 62
     7
370
    25
100
AcDbLine
 10
126.6424438405
 20
71.8586991711
 30
0.0
 11
126.4043035981
 21
71.8586991711
 31
0.0
  0
LINE
  5
120
330
1F
100
AcDbEntity
  8
0
  6
Continuous
 62
     7
370
    25
100
AcDbLine
 10
115.4152182654
 20
72.7086991711
 30
0.0
 11
115.4152182654
 21
72.4586991711
 31
0.0
  0
LINE
  5
121
330
1F
100
AcDbEntity
  8
0
  6
Continuous
 62
     7
370
    25
100
AcDbLine
 10
115.6879926904
 20
72.4586991711
 30
0.0
 11
115.4152182654
 21
72.4586991711
 31
0.0
  0
LINE
  5
122
330
1F
100
AcDbEntity
  8
0
  6
Continuous
 62
     7
370
    25
100
AcDbLine
 10
115.4152182654
 20
72.7086991711
 30
0.0
 11
116.0661987518
 21
72.7086991711
 31
0.0
  0
LINE
  5
123
330
1F
100
AcDbEntity
  8
0
  6
Continuous
 62
     7
370
    25
100
AcDbLine
 10
115.4152182654
 20
72.4586991711
 30
0.0
 11
115.4152182654
 21
71.8586991711
 31
0.0
  0
LINE
  5
124
330
1F
100
AcDbEntity
  8
0
  6
Continuous
 62
     7
370
    25
100
AcDbLine
 10
115.6879926904
 20
71.8586991711
 30
0.0
 11
115.4152182654
 21
71.8586991711
 31
0.0
  0
LINE
  5
125
330
1F
100
AcDbEntity
  8
0
  6
Continuous
 62
     7
370
    25
100
AcDbLine
 10
115.1652182654
 20
72.4586991711
 30
0.0
 11
115.4152182654
 21
72.4586991711
 31
0.0
  0
ARC
  5
126
330
1F
100
AcDbEntity
  8
0
  6
Continuous
 62
     7
370
    25
100
AcDbCircle
 10
115.4152182654
 20
72.4586991711
 30
0.0
 40
0.25
100
AcDbArc
 50
90.0
 51
180.0
  0
LINE
  5
127
330
1F
100
AcDbEntity
  8
0
  6
Continuous
 62
     7
370
    25
100
AcDbLine
 10
115.1652182654
 20
71.8586991711
 30
0.0
 11
115.1652182654
 21
72.4586991711
 31
0.0
  0
LINE
  5
128
330
1F
100
AcDbEntity
  8
0
  6
Continuous
 62
     7
370
    25
100
AcDbLine
 10
115.4152182654
 20
71.8586991711
 30
0.0
 11
115.1652182654
 21
71.8586991711
 31
0.0
  0
LINE
  5
129
330
1F
100
AcDbEntity
  8
0
  6
Continuous
 62
     7
370
    25
100
AcDbLine
 10
126.9152182654
 20
72.4586991711
 30
0.0
 11
126.9152182654
 21
72.7086991711
 31
0.0
  0
LINE
  5
12A
330
1F
100
AcDbEntity
  8
0
  6
Continuous
 62
     7
370
    25
100
AcDbLine
 10
126.9152182654
 20
72.4586991711
 30
0.0
 11
126.6424438405
 21
72.4586991711
 31
0.0
  0
LINE
  5
12B
330
1F
100
AcDbEntity
  8
0
  6
Continuous
 62
     7
370
    25
100
AcDbLine
 10
126.264237779
 20
72.7086991711
 30
0.0
 11
126.9152182654
 21
72.7086991711
 31
0.0
  0
LINE
  5
12C
330
1F
100
AcDbEntity
  8
0
  6
Continuous
 62
     7
370
    25
100
AcDbLine
 10
126.9152182654
 20
71.8586991711
 30
0.0
 11
126.9152182654
 21
72.4586991711
 31
0.0
  0
LINE
  5
12D
330
1F
100
AcDbEntity
  8
0
  6
Continuous
 62
     7
370
    25
100
AcDbLine
 10
126.9152182654
 20
72.4586991711
 30
0.0
 11
127.1652182654
 21
72.4586991711
 31
0.0
  0
LINE
  5
12E
330
1F
100
AcDbEntity
  8
0
  6
Continuous
 62
     7
370
    25
100
AcDbLine
 10
127.1652182654
 20
72.4586991711
 30
0.0
 11
127.1652182654
 21
71.8586991711
 31
0.0
  0
LINE
  5
12F
330
1F
100
AcDbEntity
  8
0
  6
Continuous
 62
     7
370
    25
100
AcDbLine
 10
127.1652182654
 20
71.8586991711
 30
0.0
 11
126.9152182654
 21
71.8586991711
 31
0.0
  0
ARC
  5
130
330
1F
100
AcDbEntity
  8
0
  6
Continuous
 62
     7
370
    25
100
AcDbCircle
 10
126.9152182654
 20
72.4586991711
 30
0.0
 40
0.25
100
AcDbArc
 50
0.0
 51
90.0
  0
LINE
  5
131
330
1F
100
AcDbEntity
  8
0
  6
Continuous
 62
     7
370
    25
100
AcDbLine
 10
126.9152182654
 20
71.8586991711
 30
0.0
 11
126.6424438405
 21
71.8586991711
 31
0.0
  0
LINE
  5
132
330
1F
100
AcDbEntity
  8
0
  6
Continuous
 62
     7
370
    25
100
AcDbLine
 10
116.1652182654
 20
72.7186991711
 30
0.0
 11
126.1652182654
 21
72.7186991711
 31
0.0
  0
LINE
  5
133
330
1F
100
AcDbEntity
  8
0
  6
Continuous
 62
     7
370
    25
100
AcDbLine
 10
126.1652182654
 20
72.7086991711
 30
0.0
 11
126.1652182654
 21
72.7186991711
 31
0.0
  0
LINE
  5
134
330
1F
100
AcDbEntity
  8
0
  6
Continuous
 62
     7
370
    25
100
AcDbLine
 10
116.1652182654
 20
72.7086991711
 30
0.0
 11
116.1652182654
 21
72.7186991711
 31
0.0
  0
LINE
  5
135
330
1F
100
AcDbEntity
  8
0
  6
Continuous
 62
     7
370
    25
100
AcDbLine
 10
119.1652182654
 20
55.8586991711
 30
0.0
 11
128.1652182654
 21
55.8586991711
 31
0.0
  0
LINE
  5
136
330
1F
100
AcDbEntity
  8
0
  6
Continuous
 62
     7
370
    25
100
AcDbLine
 10
119.1652182654
 20
55.8965160949
 30
0.0
 11
119.1652182654
 21
55.8586991711
 31
0.0
  0
SPLINE
  5
137
330
1F
100
AcDbEntity
  8
0
  6
Continuous
 62
     7
370
    25
100
AcDbSpline
210
0.0
220
0.0
230
1.0
 70
     8
 71
     3
 72
     9
 73
     5
 74
     0
 42
0.00000001
 43
0.00000001
 40
0.0
 40
0.0
 40
0.0
 40
0.0
 40
0.4875141023677128
 40
0.9999999999999999
 40
0.9999999999999999
 40
0.9999999999999999
 40
0.9999999999999999
 10
119.0092730149967
 20
55.8586991710657
 30
0.0
 10
119.0355795889193
 20
55.8604265170374
 30
0.0
 10
119.0895402308676
 20
55.86396968832888
 30
0.0
 10
119.1395757615623
 20
55.88548817427819
 30
0.0
 10
119.1652182654239
 20
55.89651609486562
 30
0.0
  0
SPLINE
  5
138
330
1F
100
AcDbEntity
  8
0
  6
Continuous
 62
     7
370
    25
100
AcDbSpline
210
0.0
220
0.0
230
1.0
 70
     8
 71
     3
 72
    17
 73
    13
 74
     0
 42
0.00000001
 43
0.00000001
 40
0.0
 40
0.0
 40
0.0
 40
0.0
 40
0.3241697628029873
 40
0.5422758463620719
 40
0.689509052693928
 40
0.7894036290694505
 40
0.8577090008137825
 40
0.9049823971474137
 40
0.9551712229700868
 40
0.9753097783197817
 40
0.9919572060138848
 40
1.0
 40
1.0
 40
1.0
 40
1.0
 10
116.6906713813418
 20
63.85869917106326
 30
0.0
 10
116.833386741359
 20
62.94608566845759
 30
0.0
 10
117.0721230503009
 20
61.41945266219626
 30
0.0
 10
117.4517102447526
 20
59.49267975991528
 30
0.0
 10
117.7608444530997
 20
58.20504428898251
 30
0.0
 10
118.0169579812998
 20
57.34589232226077
 30
0.0
 10
118.2312689841948
 20
56.77242443388337
 30
0.0
 10
118.4345032052227
 20
56.3508922798534
 30
0.0
 10
118.6190484697653
 20
56.07039973705798
 30
0.0
 10
118.8051195561334
 20
55.91485106847731
 30
0.0
 10
118.9203301553893
 20
55.86424046927981
 30
0.0
 10
118.9874189608622
 20
55.86006071747518
 30
0.0
 10
119.0092730149967
 20
55.8586991710657
 30
0.0
  0
LINE
  5
139
330
1F
100
AcDbEntity
  8
0
  6
Continuous
 62
     7
370
    25
100
AcDbLine
 10
116.6906713813
 20
63.8586991711
 30
0.0
 11
128.6152182654
 21
63.858699171
 31
0.0
  0
SPLINE
  5
13A
330
1F
100
AcDbEntity
  8
0
  6
Continuous
 62
     7
370
    25
100
AcDbSpline
210
0.0
220
0.0
230
1.0
 70
     8
 71
     3
 72
     9
 73
     5
 74
     0
 42
0.00000001
 43
0.00000001
 40
0.0
 40
0.0
 40
0.0
 40
0.0
 40
0.4978401817595094
 40
1.0
 40
1.0
 40
1.0
 40
1.0
 10
117.4508821371036
 20
64.85344274903257
 30
0.0
 10
117.3145602287329
 20
64.69693156633996
 30
0.0
 10
117.040733580412
 20
64.38255119202095
 30
0.0
 10
116.8076943293154
 20
64.03381864399468
 30
0.0
 10
116.6906713813418
 20
63.85869917106326
 30
0.0
  0
LINE
  5
13B
330
1F
100
AcDbEntity
  8
0
  6
Continuous
 62
     7
370
    25
100
AcDbLine
 10
115.9414160911
 20
71.858699171
 30
0.0
 11
114.2132774271
 21
64.853442749
 31
0.0
  0
LINE
  5
13C
330
1F
100
AcDbEntity
  8
0
  6
Continuous
 62
     7
370
    25
100
AcDbLine
 10
126.4043035981
 20
71.858699171
 30
0.0
 11
115.9414160911
 21
71.858699171
 31
0.0
  0
SPLINE
  5
13D
330
1F
100
AcDbEntity
  8
0
  6
Continuous
 62
     7
370
    25
100
AcDbSpline
210
0.0
220
0.0
230
1.0
 70
     8
 71
     3
 72
    14
 73
    10
 74
     0
 42
0.00000001
 43
0.00000001
 40
0.0
 40
0.0
 40
0.0
 40
0.0
 40
0.1576095309202822
 40
0.3152382602707094
 40
0.4726926441579498
 40
0.6301650083177254
 40
0.7907313191165901
 40
0.9513050385928076
 40
1.0
 40
1.0
 40
1.0
 40
1.0
 10
114.6652182654239
 20
55.85869917106564
 30
0.0
 10
114.5986472506419
 20
56.07220095954304
 30
0.0
 10
114.465497112057
 20
56.49923054316855
 30
0.0
 10
114.1369301503063
 20
57.08447762202487
 30
0.0
 10
113.7235405095743
 20
57.60663216284728
 30
0.0
 10
113.2278655906296
 20
58.05561029026715
 30
0.0
 10
112.6615758853451
 20
58.41489202207353
 30
0.0
 10
112.1853252289521
 20
58.61945820117472
 30
0.0
 10
111.9051306607593
 20
58.70025274952602
 30
0.0
 10
111.8399318759863
 20
58.7190529225728
 30
0.0
  0
LINE
  5
13E
330
1F
100
AcDbEntity
  8
0
  6
Continuous
 62
     7
370
    25
100
AcDbLine
 10
111.839931876
 20
58.7190529226
 30
0.0
 11
106.0601750261
 21
60.2876743631
 31
0.0
  0
SPLINE
  5
13F
330
1F
100
AcDbEntity
  8
0
  6
Continuous
 62
     7
370
    25
100
AcDbSpline
210
0.0
220
0.0
230
1.0
 70
     8
 71
     3
 72
    11
 73
     7
 74
     0
 42
0.00000001
 43
0.00000001
 40
0.0
 40
0.0
 40
0.0
 40
0.0
 40
0.2488466353289361
 40
0.4976946020535204
 40
0.7488461225871278
 40
1.0
 40
1.0
 40
1.0
 40
1.0
 10
98.98978140388728
 20
61.61087486404118
 30
0.0
 10
99.58421745302356
 20
61.54135048754755
 30
0.0
 10
100.7730927316869
 20
61.40230136258639
 30
0.0
 10
102.547817402396
 20
61.1019726244611
 30
0.0
 10
104.3143980441384
 20
60.74006300620595
 30
0.0
 10
105.478247545158
 20
60.43847104914139
 30
0.0
 10
106.060175026131
 20
60.28767436305567
 30
0.0
  0
LINE
  5
140
330
1F
100
AcDbEntity
  8
0
  6
Continuous
 62
     7
370
    25
100
AcDbLine
 10
98.9897814039
 20
61.610874864
 30
0.0
 11
98.9897814039
 21
64.8534427491
 31
0.0
  0
LINE
  5
141
330
1F
100
AcDbEntity
  8
0
  6
Continuous
 62
     7
370
    25
100
AcDbLine
 10
98.9897814039
 20
64.8534427491
 30
0.0
 11
117.4508821371
 21
64.853442749
 31
0.0
  0
LINE
  5
142
330
1F
100
AcDbEntity
  8
0
  6
Continuous
 62
     7
370
    25
100
AcDbLine
 10
119.009273015
 20
55.8586991711
 30
0.0
 11
114.6652182654
 21
55.8586991711
 31
0.0
  0
LINE
  5
143
330
1F
100
AcDbEntity
  8
0
  6
Continuous
 62
     7
370
    25
100
AcDbLine
 10
119.1652182654
 20
55.8965160949
 30
0.0
 11
119.1584189075
 21
55.8586991711
 31
0.0
  0
LINE
  5
144
330
1F
100
AcDbEntity
  8
0
  6
Continuous
 62
     7
370
    25
100
AcDbLine
 10
119.1652182654
 20
55.8586991711
 30
0.0
 11
119.1584189075
 21
55.8586991711
 31
0.0
  0
LINE
  5
145
330
1F
100
AcDbEntity
  8
0
  6
Continuous
 62
     7
370
    25
100
AcDbLine
 10
119.1584189075
 20
55.8586991711
 30
0.0
 11
119.009273015
 21
55.8586991711
 31
0.0
  0
LINE
  5
146
330
1F
100
AcDbEntity
  8
0
  6
Continuous
 62
     7
370
    25
100
AcDbLine
 10
81.1652182654
 20
73.8586991711
 30
0.0
 11
98.9897814039
 21
73.8586991711
 31
0.0
  0
LINE
  5
147
330
1F
100
AcDbEntity
  8
0
  6
Continuous
 62
     7
370
    25
100
AcDbLine
 10
98.9897814039
 20
73.8586991711
 30
0.0
 11
98.9897814039
 21
64.8534427491
 31
0.0
  0
LINE
  5
148
330
1F
100
AcDbEntity
  8
0
  6
Continuous
 62
     7
370
    25
100
AcDbLine
 10
94.2735504077
 20
61.8586991711
 30
0.0
 11
86.1652182654
 21
61.8586991711
 31
0.0
  0
ARC
  5
149
330
1F
100
AcDbEntity
  8
0
  6
Continuous
 62
     7
370
    25
100
AcDbCircle
 10
86.1652182654
 20
66.8586991711
 30
0.0
 40
5.0
100
AcDbArc
 50
180.0
 51
270.0
  0
LINE
  5
14A
330
1F
100
AcDbEntity
  8
0
  6
Continuous
 62
     7
370
    25
100
AcDbLine
 10
81.1652182654
 20
66.8586991711
 30
0.0
 11
81.1652182654
 21
73.8586991711
 31
0.0
  0
ARC
  5
14B
330
1F
100
AcDbEntity
  8
0
  6
Continuous
 62
     7
370
    25
100
AcDbCircle
 10
94.2735504077
 20
16.8585699169
 30
0.0
 40
45.00012925418373
100
AcDbArc
 50
83.9840777705
 51
90.0
  0
LINE
  5
14C
330
1F
100
AcDbEntity
  8
0
  6
Continuous
 62
     7
370
    25
100
AcDbLine
 10
98.9897814039
 20
73.8586991711
 30
0.0
 11
101.1652182654
 21
73.8586991711
 31
0.0
  0
LINE
  5
14D
330
1F
100
AcDbEntity
  8
0
  6
Continuous
 62
     7
370
    25
100
AcDbLine
 10
101.1652182654
 20
73.8586991711
 30
0.0
 11
101.1652182654
 21
71.8776546944
 31
0.0
  0
ARC
  5
14E
330
1F
100
AcDbEntity
  8
0
  6
Continuous
 62
     7
370
    25
100
AcDbCircle
 10
107.1652182654
 20
71.8776546944
 30
0.0
 40
6.000000000000003
100
AcDbArc
 50
180.0
 51
275.5801667845
  0
ARC
  5
14F
330
1F
100
AcDbEntity
  8
0
  6
Continuous
 62
     7
370
    25
100
AcDbCircle
 10
106.7762647012
 20
75.8586991711
 30
0.0
 40
10.00000000000848
100
AcDbArc
 50
275.5801667845
 51
336.4218215217
  0
LINE
  5
150
330
1F
100
AcDbEntity
  8
0
  6
Continuous
 62
     7
370
    25
100
AcDbLine
 10
114.6652182654
 20
55.8586991711
 30
0.0
 11
114.1652182654
 21
55.8586991711
 31
0.0
  0
LINE
  5
151
330
1F
100
AcDbEntity
  8
0
  6
Continuous
 62
     7
370
    25
100
AcDbLine
 10
115.9261329328
 20
71.858699171
 30
0.0
 11
115.9414160911
 21
71.858699171
 31
0.0
  0
LINE
  5
152
330
1F
100
AcDbEntity
  8
0
  6
Continuous
 62
     7
370
    25
100
AcDbLine
 10
106.8652182654
 20
50.3521795536
 30
0.0
 11
106.8652182654
 21
37.3586991711
 31
0.0
  0
LINE
  5
153
330
1F
100
AcDbEntity
  8
0
  6
Continuous
 62
     7
370
    25
100
AcDbLine
 10
106.8652182654
 20
53.3586991711
 30
0.0
 11
106.8652182654
 21
50.3521795536
 31
0.0
  0
LINE
  5
154
330
1F
100
AcDbEntity
  8
0
  6
Continuous
 62
     7
370
    25
100
AcDbLine
 10
106.6652182654
 20
50.2273425441
 30
0.0
 11
106.6652182654
 21
53.1586991711
 31
0.0
  0
LINE
  5
155
330
1F
100
AcDbEntity
  8
0
  6
Continuous
 62
     7
370
    25
100
AcDbLine
 10
106.6652182654
 20
37.5586991711
 30
0.0
 11
106.6652182654
 21
50.2273425441
 31
0.0
  0
LINE
  5
156
330
1F
100
AcDbEntity
  8
0
  6
Continuous
 62
     7
370
    25
100
AcDbLine
 10
97.1652182654
 20
48.4858662607
 30
0.0
 11
97.1652182654
 21
40.3486991711
 31
0.0
  0
LINE
  5
157
330
1F
100
AcDbEntity
  8
0
  6
Continuous
 62
     7
370
    25
100
AcDbLine
 10
97.1652182654
 20
50.3686991711
 30
0.0
 11
97.1652182654
 21
48.4858662607
 31
0.0
  0
SPLINE
  5
158
330
1F
100
AcDbEntity
  8
0
  6
Continuous
 62
     7
370
    25
100
AcDbSpline
210
0.0
220
0.0
230
1.0
 70
     8
 71
     3
 72
    31
 73
    27
 74
     0
 42
0.00000001
 43
0.00000001
 40
0.0
 40
0.0
 40
0.0
 40
0.0
 40
0.0092731504923722
 40
0.0517139038437374
 40
0.0941819206898663
 40
0.1321039048356142
 40
0.1702160386303449
 40
0.2082072846436258
 40
0.2154700520826125
 40
0.2764855853830948
 40
0.3375003413648172
 40
0.3848205600539809
 40
0.4320455865711699
 40
0.4692145831710536
 40
0.5063446618800989
 40
0.5434324684081595
 40
0.5805695780597973
 40
0.6303325910266752
 40
0.6801877778409465
 40
0.7334674231046984
 40
0.7867383450145999
 40
0.8315826494611388
 40
0.8763919936833474
 40
0.9190678024465395
 40
0.9617084416625188
 40
0.9999999999999999
 40
0.9999999999999999
 40
0.9999999999999999
 40
0.9999999999999999
 10
115.265870108744
 20
54.85814557077284
 30
0.0
 10
115.2666148898926
 20
54.85751452123743
 30
0.0
 10
115.270768337066
 20
54.85399532514312
 30
0.0
 10
115.3410496785964
 20
54.79406981443839
 30
0.0
 10
115.5323688937924
 20
54.63367962334398
 30
0.0
 10
115.8072903322048
 20
54.40738486069089
 30
0.0
 10
116.1397074257307
 20
54.14201510520488
 30
0.0
 10
116.4267705799971
 20
53.92193632675873
 30
0.0
 10
116.8227179863381
 20
53.62813735711452
 30
0.0
 10
117.3583372336987
 20
53.24771497810921
 30
0.0
 10
118.1740907203511
 20
52.74969049817577
 30
0.0
 10
119.0156498780645
 20
52.33757281884976
 30
0.0
 10
119.799056948038
 20
52.06057365757655
 30
0.0
 10
120.572041792705
 20
51.90915651420447
 30
0.0
 10
121.3026321066913
 20
51.8710070429186
 30
0.0
 10
122.0273545600296
 20
51.9503389340367
 30
0.0
 10
122.8007241795834
 20
52.14284214185044
 30
0.0
 10
123.5911190018153
 20
52.46000161104976
 30
0.0
 10
124.3879235484887
 20
52.88528014877372
 30
0.0
 10
125.1152906556988
 20
53.34774085964008
 30
0.0
 10
125.7294964886298
 20
53.78815423249131
 30
0.0
 10
126.2229547279493
 20
54.16661342473267
 30
0.0
 10
126.5980229934179
 20
54.46838428562692
 30
0.0
 10
126.8682121492292
 20
54.69197399719074
 30
0.0
 10
127.0366716556246
 20
54.83446551346744
 30
0.0
 10
127.0520860305651
 20
54.84748431960953
 30
0.0
 10
127.059379054295
 20
54.85364392468568
 30
0.0
  0
LINE
  5
159
330
1F
100
AcDbEntity
  8
0
  6
Continuous
 62
     7
370
    25
100
AcDbLine
 10
98.1552182654
 20
49.103809458
 30
0.0
 11
98.1552182654
 21
39.3586991711
 31
0.0
  0
LINE
  5
15A
330
1F
100
AcDbEntity
  8
0
  6
Continuous
 62
     7
370
    25
100
AcDbLine
 10
98.1552182654
 20
51.3586991711
 30
0.0
 11
98.1552182654
 21
49.103809458
 31
0.0
  0
LINE
  5
15B
330
1F
100
AcDbEntity
  8
0
  6
Continuous
 62
     7
370
    25
100
AcDbLine
 10
98.1752182654
 20
49.103809458
 30
0.0
 11
98.1752182654
 21
39.3586991711
 31
0.0
  0
LINE
  5
15C
330
1F
100
AcDbEntity
  8
0
  6
Continuous
 62
     7
370
    25
100
AcDbLine
 10
98.1752182654
 20
51.3586991711
 30
0.0
 11
98.1752182654
 21
49.103809458
 31
0.0
  0
LINE
  5
15D
330
1F
100
AcDbEntity
  8
0
  6
Continuous
 62
     7
370
    25
100
AcDbLine
 10
99.1101534873
 20
48.6890824799
 30
0.0
 11
99.1101534873
 21
40.0231287013
 31
0.0
  0
LINE
  5
15E
330
1F
100
AcDbEntity
  8
0
  6
Continuous
 62
     7
370
    25
100
AcDbLine
 10
99.1101534873
 20
50.6942696409
 30
0.0
 11
99.1101534873
 21
48.6890824799
 31
0.0
  0
LINE
  5
15F
330
1F
100
AcDbEntity
  8
0
  6
Continuous
 62
     7
370
    25
100
AcDbLine
 10
99.5823429934
 20
48.4796244102
 30
0.0
 11
99.5823429934
 21
40.3586991711
 31
0.0
  0
LINE
  5
160
330
1F
100
AcDbEntity
  8
0
  6
Continuous
 62
     7
370
    25
100
AcDbLine
 10
99.5823429934
 20
50.3586991711
 30
0.0
 11
99.5823429934
 21
48.4796244102
 31
0.0
  0
LINE
  5
161
330
1F
100
AcDbEntity
  8
FORMAT
100
AcDbLine
 10
115.3774436512
 20
23.9474868248
 30
0.0
 11
115.0833432654
 21
33.3586991711
 31
0.0
  0
LINE
  5
162
330
1F
100
AcDbEntity
  8
FORMAT
100
AcDbLine
 10
126.9529928796
 20
23.9474868248
 30
0.0
 11
127.2470932654
 21
33.3586991711
 31
0.0
  0
LINE
  5
163
330
1F
100
AcDbEntity
  8
FORMAT
  6
CENTERX2
370
    18
100
AcDbLine
 10
121.1652182654
 20
74.7580396194
 30
0.0
 11
121.1652182654
 21
19.822055618
 31
0.0
  0
LINE
  5
164
330
1F
100
AcDbEntity
  8
FORMAT
  6
CENTERX2
370
    18
100
AcDbLine
 10
135.063021153
 20
45.3586991711
 30
0.0
 11
95.1652182654
 21
45.3586991711
 31
0.0
  0
LINE
  5
165
330
1F
100
AcDbEntity
  8
0
  6
Continuous
 62
     7
370
    25
100
AcDbLine
 10
169.6504541612
 20
33.5030367384
 30
0.0
 11
169.9004541612
 21
33.3586991711
 31
0.0
  0
LINE
  5
166
330
1F
100
AcDbEntity
  8
0
  6
Continuous
 62
     7
370
    25
100
AcDbLine
 10
186.4004541612
 20
33.3586991711
 30
0.0
 11
186.6504541612
 21
33.5030367384
 31
0.0
  0
LINE
  5
167
330
1F
100
AcDbEntity
  8
0
  6
Continuous
 62
     7
370
    25
100
AcDbLine
 10
171.4003916612
 20
33.3586991711
 30
0.0
 11
171.694492047
 21
23.9474868248
 31
0.0
  0
LINE
  5
168
330
1F
100
AcDbEntity
  8
0
  6
Continuous
 62
     7
370
    25
100
AcDbLine
 10
184.6064162753
 20
23.9474868248
 30
0.0
 11
184.9005166612
 21
33.3586991711
 31
0.0
  0
LINE
  5
169
330
1F
100
AcDbEntity
  8
0
  6
Continuous
 62
     7
370
    25
100
AcDbLine
 10
171.694492047
 20
23.9474868248
 30
0.0
 11
172.9004541612
 21
21.8586991711
 31
0.0
  0
LINE
  5
16A
330
1F
100
AcDbEntity
  8
0
  6
Continuous
 62
     7
370
    25
100
AcDbLine
 10
183.4004541612
 20
21.8586991711
 30
0.0
 11
184.6064162753
 21
23.9474868248
 31
0.0
  0
LINE
  5
16B
330
1F
100
AcDbEntity
  8
0
  6
Continuous
 62
     7
370
    25
100
AcDbLine
 10
184.0630266806
 20
51.7600284116
 30
0.0
 11
184.0499982732
 21
51.8914191573
 31
0.0
  0
SPLINE
  5
16C
330
1F
100
AcDbEntity
  8
0
  6
Continuous
 62
     7
370
    25
100
AcDbSpline
210
0.0
220
0.0
230
1.0
 70
     8
 71
     3
 72
     9
 73
     5
 74
     0
 42
0.00000001
 43
0.00000001
 40
0.0
 40
0.0
 40
0.0
 40
0.0
 40
0.5948782015631182
 40
1.0
 40
1.0
 40
1.0
 40
1.0
 10
172.2483419567507
 20
51.8980316647049
 30
0.0
 10
172.2497569731991
 20
51.87076189965708
 30
0.0
 10
172.2521356390248
 20
51.82492097797571
 30
0.0
 10
172.2439222752071
 20
51.77985293638418
 30
0.0
 10
172.2405948624861
 20
51.76159489032258
 30
0.0
  0
LINE
  5
16D
330
1F
100
AcDbEntity
  8
0
  6
Continuous
 62
     7
370
    25
100
AcDbLine
 10
184.0504541612
 20
51.8919254243
 30
0.0
 11
184.0504541612
 21
55.8586991711
 31
0.0
  0
LINE
  5
16E
330
1F
100
AcDbEntity
  8
0
  6
Continuous
 62
     7
370
    25
100
AcDbLine
 10
172.2504541612
 20
55.8586991711
 30
0.0
 11
172.2504541612
 21
51.897227835
 31
0.0
  0
ARC
  5
16F
330
1F
100
AcDbEntity
  8
0
  6
Continuous
 62
     7
370
    25
100
AcDbCircle
 10
183.4004541612
 20
72.4586991711
 30
0.0
 40
0.25
100
AcDbArc
 50
0.0
 51
90.0
  0
ARC
  5
170
330
1F
100
AcDbEntity
  8
0
  6
Continuous
 62
     7
370
    25
100
AcDbCircle
 10
172.9004541612
 20
72.4586991711
 30
0.0
 40
0.25
100
AcDbArc
 50
90.0
 51
180.0
  0
LINE
  5
171
330
1F
100
AcDbEntity
  8
0
  6
Continuous
 62
     7
370
    25
100
AcDbLine
 10
183.6504541612
 20
71.8586991711
 30
0.0
 11
183.6504541612
 21
72.4586991711
 31
0.0
  0
LINE
  5
172
330
1F
100
AcDbEntity
  8
0
  6
Continuous
 62
     7
370
    25
100
AcDbLine
 10
172.6504541612
 20
72.4586991711
 30
0.0
 11
172.6504541612
 21
71.8586991711
 31
0.0
  0
LINE
  5
173
330
1F
100
AcDbEntity
  8
0
  6
Continuous
 62
     7
370
    25
100
AcDbLine
 10
170.7004541612
 20
63.8586991711
 30
0.0
 11
171.1504541612
 21
55.8586991711
 31
0.0
  0
LINE
  5
174
330
1F
100
AcDbEntity
  8
0
  6
Continuous
 62
     7
370
    25
100
AcDbLine
 10
185.1504541612
 20
55.8586991711
 30
0.0
 11
185.6004541612
 21
63.8586991711
 31
0.0
  0
LINE
  5
175
330
1F
100
AcDbEntity
  8
0
  6
Continuous
 62
     7
370
    25
100
AcDbLine
 10
185.6004541612
 20
63.8586991711
 30
0.0
 11
183.6504541612
 21
71.858699171
 31
0.0
  0
LINE
  5
176
330
1F
100
AcDbEntity
  8
0
  6
Continuous
 62
     7
370
    25
100
AcDbLine
 10
172.6504541612
 20
71.858699171
 30
0.0
 11
170.7004541612
 21
63.8586991711
 31
0.0
  0
CIRCLE
  5
177
330
1F
100
AcDbEntity
  8
0
  6
Continuous
 62
     7
370
    25
100
AcDbCircle
 10
178.1504541612
 20
45.3586991711
 30
0.0
 40
8.250000000000028
  0
SPLINE
  5
178
330
1F
100
AcDbEntity
  8
0
  6
Continuous
 62
     7
370
    25
100
AcDbSpline
210
0.0
220
0.0
230
1.0
 70
     8
 71
     3
 72
    10
 73
     6
 74
     0
 42
0.00000001
 43
0.00000001
 40
0.0
 40
0.0
 40
0.0
 40
0.0
 40
0.5
 40
0.5
 40
1.0
 40
1.0
 40
1.0
 40
1.0
 10
169.6504541611679
 20
40.73989701754863
 30
0.0
 10
169.6504541611679
 20
40.65400995574617
 30
0.0
 10
169.6732466104977
 20
40.56660274676603
 30
0.0
 10
169.7611893145908
 20
40.4139663041723
 30
0.0
 10
169.8260470882646
 20
40.34984325922672
 30
0.0
 10
169.9004541611679
 20
40.30688431565641
 30
0.0
  0
SPLINE
  5
179
330
1F
100
AcDbEntity
  8
0
  6
Continuous
 62
     7
370
    25
100
AcDbSpline
210
0.0
220
0.0
230
1.0
 70
    24
 71
     3
 72
    14
 73
    10
 74
     0
 42
0.00000001
 43
0.00000001
 40
0.0
 40
0.0
 40
0.0
 40
0.0
 40
0.25
 40
0.25
 40
0.5
 40
0.5
 40
0.75
 40
0.75
 40
1.0
 40
1.0
 40
1.0
 40
1.0
 10
169.6504541611679
 20
40.73989701754859
 30
0.0
 10
169.6504541611679
 20
41.49427707819857
 30
0.0
 10
169.6504541611679
 20
42.26371824566407
 30
0.0
 10
169.6504541611679
 20
43.80422960660523
 30
0.0
 10
169.6504541611679
 20
44.57908398661225
 30
0.0
 10
169.6504541611679
 20
46.13944494149781
 30
0.0
 10
169.6504541611679
 20
46.92990113428283
 30
0.0
 10
169.6504541611679
 20
48.4721807970913
 30
0.0
 10
169.6504541611679
 20
49.22957155029248
 30
0.0
 10
169.6504541611679
 20
49.97750132458265
 30
0.0
  0
SPLINE
  5
17A
330
1F
100
AcDbEntity
  8
0
  6
Continuous
 62
     7
370
    25
100
AcDbSpline
210
0.0
220
0.0
230
1.0
 70
     8
 71
     3
 72
    10
 73
     6
 74
     0
 42
0.00000001
 43
0.00000001
 40
0.0
 40
0.0
 40
0.0
 40
0.0
 40
0.5
 40
0.5
 40
1.0
 40
1.0
 40
1.0
 40
1.0
 10
169.9004541611679
 20
50.41051402647486
 30
0.0
 10
169.8260737837905
 20
50.36757049557364
 30
0.0
 10
169.7617731450048
 20
50.30412805094952
 30
0.0
 10
169.6735574602218
 20
50.15164921383055
 30
0.0
 10
169.6504541611679
 20
50.06341921172327
 30
0.0
 10
169.6504541611679
 20
49.97750132458265
 30
0.0
  0
SPLINE
  5
17B
330
1F
100
AcDbEntity
  8
0
  6
Continuous
 62
     7
370
    25
100
AcDbSpline
210
0.0
220
0.0
230
1.0
 70
    24
 71
     3
 72
    16
 73
    12
 74
     0
 42
0.00000001
 43
0.00000001
 40
0.0
 40
0.0
 40
0.0
 40
0.0
 40
0.2500000000000001
 40
0.2500000000000001
 40
0.5000000000000001
 40
0.5000000000000001
 40
0.6250000000000001
 40
0.6250000000000001
 40
0.7500000000000002
 40
0.7500000000000002
 40
1.0
 40
1.0
 40
1.0
 40
1.0
 10
177.9004541611679
 20
55.02931617999187
 30
0.0
 10
177.2469373811271
 20
54.65200809111538
 30
0.0
 10
176.5887169720371
 20
54.27198436074117
 30
0.0
 10
175.2591543886713
 20
53.50436104533048
 30
0.0
 10
174.5877304066007
 20
53.11671422854168
 30
0.0
 10
173.568729319594
 20
52.52839367665383
 30
0.0
 10
173.2273885372778
 20
52.33132048409819
 30
0.0
 10
172.5517900343074
 20
51.94126350654408
 30
0.0
 10
172.2161308843428
 20
51.74747060595605
 30
0.0
 10
171.2148652478431
 20
51.16938962119262
 30
0.0
 10
170.5549575892399
 20
50.7883917568578
 30
0.0
 10
169.9004541611679
 20
50.41051402647486
 30
0.0
  0
SPLINE
  5
17C
330
1F
100
AcDbEntity
  8
0
  6
Continuous
 62
     7
370
    25
100
AcDbSpline
210
0.0
220
0.0
230
1.0
 70
     8
 71
     3
 72
    10
 73
     6
 74
     0
 42
0.00000001
 43
0.00000001
 40
0.0
 40
0.0
 40
0.0
 40
0.0
 40
0.5
 40
0.5
 40
1.0
 40
1.0
 40
1.0
 40
1.0
 10
178.4004541611679
 20
55.02931617999187
 30
0.0
 10
178.3260737837905
 20
55.0722597108931
 30
0.0
 10
178.238980695675
 20
55.09622447524908
 30
0.0
 10
178.0628223067989
 20
55.09638208072386
 30
0.0
 10
177.9748612340711
 20
55.07227512356219
 30
0.0
 10
177.9004541611679
 20
55.02931617999188
 30
0.0
  0
SPLINE
  5
17D
330
1F
100
AcDbEntity
  8
0
  6
Continuous
 62
     7
370
    25
100
AcDbSpline
210
0.0
220
0.0
230
1.0
 70
    24
 71
     3
 72
    16
 73
    12
 74
     0
 42
0.00000001
 43
0.00000001
 40
0.0
 40
0.0
 40
0.0
 40
0.0
 40
0.2499999999999997
 40
0.2499999999999997
 40
0.4999999999999993
 40
0.4999999999999993
 40
0.6249999999999993
 40
0.6249999999999993
 40
0.7499999999999996
 40
0.7499999999999996
 40
1.0
 40
1.0
 40
1.0
 40
1.0
 10
186.4004541611679
 20
50.41051402647486
 30
0.0
 10
185.7469373811271
 20
50.78782211535136
 30
0.0
 10
185.0887169720371
 20
51.16784584572557
 30
0.0
 10
183.7591543886713
 20
51.93546916113625
 30
0.0
 10
183.0877304066008
 20
52.32311597792506
 30
0.0
 10
182.068729319594
 20
52.91143652981291
 30
0.0
 10
181.7273885372778
 20
53.10850972236855
 30
0.0
 10
181.0517900343074
 20
53.49856669992266
 30
0.0
 10
180.7161308843428
 20
53.69235960051069
 30
0.0
 10
179.7148652478431
 20
54.27044058527412
 30
0.0
 10
179.0549575892399
 20
54.65143844960895
 30
0.0
 10
178.4004541611679
 20
55.02931617999187
 30
0.0
  0
SPLINE
  5
17E
330
1F
100
AcDbEntity
  8
0
  6
Continuous
 62
     7
370
    25
100
AcDbSpline
210
0.0
220
0.0
230
1.0
 70
     8
 71
     3
 72
    10
 73
     6
 74
     0
 42
0.00000001
 43
0.00000001
 40
0.0
 40
0.0
 40
0.0
 40
0.0
 40
0.5
 40
0.5
 40
1.0
 40
1.0
 40
1.0
 40
1.0
 10
186.6504541611679
 20
49.97750132458265
 30
0.0
 10
186.6504541611679
 20
50.06338838638511
 30
0.0
 10
186.6276617118381
 20
50.15079559536521
 30
0.0
 10
186.539719007745
 20
50.30343203795896
 30
0.0
 10
186.4748612340711
 20
50.36755508290455
 30
0.0
 10
186.4004541611679
 20
50.41051402647486
 30
0.0
  0
SPLINE
  5
17F
330
1F
100
AcDbEntity
  8
0
  6
Continuous
 62
     7
370
    25
100
AcDbSpline
210
0.0
220
0.0
230
1.0
 70
    24
 71
     3
 72
    14
 73
    10
 74
     0
 42
0.00000001
 43
0.00000001
 40
0.0
 40
0.0
 40
0.0
 40
0.0
 40
0.25
 40
0.25
 40
0.5
 40
0.5
 40
0.75
 40
0.75
 40
1.0
 40
1.0
 40
1.0
 40
1.0
 10
186.6504541611679
 20
40.73989701754858
 30
0.0
 10
186.6504541611679
 20
41.49427707819856
 30
0.0
 10
186.6504541611679
 20
42.26371824566406
 30
0.0
 10
186.6504541611679
 20
43.80422960660522
 30
0.0
 10
186.6504541611679
 20
44.57908398661224
 30
0.0
 10
186.6504541611679
 20
46.1394449414978
 30
0.0
 10
186.6504541611679
 20
46.92990113428283
 30
0.0
 10
186.6504541611679
 20
48.4721807970913
 30
0.0
 10
186.6504541611679
 20
49.22957155029248
 30
0.0
 10
186.6504541611679
 20
49.97750132458265
 30
0.0
  0
SPLINE
  5
180
330
1F
100
AcDbEntity
  8
0
  6
Continuous
 62
     7
370
    25
100
AcDbSpline
210
0.0
220
0.0
230
1.0
 70
     8
 71
     3
 72
    10
 73
     6
 74
     0
 42
0.00000001
 43
0.00000001
 40
0.0
 40
0.0
 40
0.0
 40
0.0
 40
0.5
 40
0.5
 40
1.0
 40
1.0
 40
1.0
 40
1.0
 10
186.4004541611679
 20
40.30688431565641
 30
0.0
 10
186.474834538545
 20
40.34982784655754
 30
0.0
 10
186.5391351773306
 20
40.41327029118121
 30
0.0
 10
186.6273508621138
 20
40.56574912830033
 30
0.0
 10
186.6504541611679
 20
40.65397913040782
 30
0.0
 10
186.6504541611679
 20
40.73989701754861
 30
0.0
  0
SPLINE
  5
181
330
1F
100
AcDbEntity
  8
0
  6
Continuous
 62
     7
370
    25
100
AcDbSpline
210
0.0
220
0.0
230
1.0
 70
    24
 71
     3
 72
    16
 73
    12
 74
     0
 42
0.00000001
 43
0.00000001
 40
0.0
 40
0.0
 40
0.0
 40
0.0
 40
0.2500000000000002
 40
0.2500000000000002
 40
0.5000000000000004
 40
0.5000000000000004
 40
0.6250000000000003
 40
0.6250000000000003
 40
0.7500000000000002
 40
0.7500000000000002
 40
1.0
 40
1.0
 40
1.0
 40
1.0
 10
178.4004541611679
 20
35.6880821621394
 30
0.0
 10
179.0539709412086
 20
36.06539025101587
 30
0.0
 10
179.7121913502985
 20
36.44541398139005
 30
0.0
 10
181.0417539336642
 20
37.21303729680069
 30
0.0
 10
181.7131779157347
 20
37.60068411358945
 30
0.0
 10
182.7321790027414
 20
38.18900466547724
 30
0.0
 10
183.0735197850575
 20
38.38607785803288
 30
0.0
 10
183.7491182880279
 20
38.77613483558695
 30
0.0
 10
184.0847774379925
 20
38.96992773617497
 30
0.0
 10
185.0860430744922
 20
39.54800872093836
 30
0.0
 10
185.7459507330953
 20
39.92900658527315
 30
0.0
 10
186.4004541611673
 20
40.30688431565606
 30
0.0
  0
SPLINE
  5
182
330
1F
100
AcDbEntity
  8
0
  6
Continuous
 62
     7
370
    25
100
AcDbSpline
210
0.0
220
0.0
230
1.0
 70
     8
 71
     3
 72
    10
 73
     6
 74
     0
 42
0.00000001
 43
0.00000001
 40
0.0
 40
0.0
 40
0.0
 40
0.0
 40
0.5
 40
0.5
 40
1.0
 40
1.0
 40
1.0
 40
1.0
 10
177.9004541611679
 20
35.6880821621394
 30
0.0
 10
177.9748345385452
 20
35.64513863123818
 30
0.0
 10
178.0619276266607
 20
35.62117386688219
 30
0.0
 10
178.2380860155368
 20
35.62101626140741
 30
0.0
 10
178.3260470882646
 20
35.6451232185691
 30
0.0
 10
178.4004541611679
 20
35.6880821621394
 30
0.0
  0
SPLINE
  5
183
330
1F
100
AcDbEntity
  8
0
  6
Continuous
 62
     7
370
    25
100
AcDbSpline
210
0.0
220
0.0
230
1.0
 70
    24
 71
     3
 72
    16
 73
    12
 74
     0
 42
0.00000001
 43
0.00000001
 40
0.0
 40
0.0
 40
0.0
 40
0.0
 40
0.2500000000000001
 40
0.2500000000000001
 40
0.5000000000000002
 40
0.5000000000000002
 40
0.6250000000000001
 40
0.6250000000000001
 40
0.7500000000000001
 40
0.7500000000000001
 40
1.0
 40
1.0
 40
1.0
 40
1.0
 10
169.9004541611679
 20
40.30688431565641
 30
0.0
 10
170.5539709412087
 20
39.92957622677991
 30
0.0
 10
171.2121913502986
 20
39.54955249640571
 30
0.0
 10
172.5417539336644
 20
38.78192918099501
 30
0.0
 10
173.213177915735
 20
38.39428236420622
 30
0.0
 10
174.2321790027417
 20
37.80596181231837
 30
0.0
 10
174.5735197850579
 20
37.60888861976272
 30
0.0
 10
175.2491182880283
 20
37.21883164220862
 30
0.0
 10
175.584777437993
 20
37.02503874162059
 30
0.0
 10
176.5860430744927
 20
36.44695775685716
 30
0.0
 10
177.2459507330958
 20
36.06595989252234
 30
0.0
 10
177.9004541611679
 20
35.6880821621394
 30
0.0
  0
LINE
  5
184
330
1F
100
AcDbEntity
  8
0
  6
Continuous
 62
     7
370
    25
100
AcDbLine
 10
186.4004541612
 20
33.3586991711
 30
0.0
 11
169.9004541612
 21
33.3586991711
 31
0.0
  0
SPLINE
  5
185
330
1F
100
AcDbEntity
  8
0
  6
Continuous
 62
     7
370
    25
100
AcDbSpline
210
0.0
220
0.0
230
1.0
 70
     8
 71
     3
 72
    10
 73
     6
 74
     0
 42
0.00000001
 43
0.00000001
 40
0.0
 40
0.0
 40
0.0
 40
0.0
 40
0.5
 40
0.5
 40
1.0
 40
1.0
 40
1.0
 40
1.0
 10
169.6504541611679
 20
34.18075814362323
 30
0.0
 10
169.6504541611679
 20
34.20443204417918
 30
0.0
 10
169.6732447328153
 20
34.21752460135832
 30
0.0
 10
169.7611907301141
 20
34.21761101534061
 30
0.0
 10
169.8260515228469
 20
34.20444062374199
 30
0.0
 10
169.9004541611679
 20
34.18075814362323
 30
0.0
  0
SPLINE
  5
186
330
1F
100
AcDbEntity
  8
0
  6
Continuous
 62
     7
370
    25
100
AcDbSpline
210
0.0
220
0.0
230
1.0
 70
     8
 71
     3
 72
    16
 73
    12
 74
     0
 42
0.00000001
 43
0.00000001
 40
0.0
 40
0.0
 40
0.0
 40
0.0
 40
0.2500000000000001
 40
0.2500000000000001
 40
0.5000000000000001
 40
0.5000000000000001
 40
0.6250000000000001
 40
0.6250000000000001
 40
0.7500000000000002
 40
0.7500000000000002
 40
1.0
 40
1.0
 40
1.0
 40
1.0
 10
177.9004541611679
 20
34.18075814362277
 30
0.0
 10
177.2462325077284
 20
33.97251833317412
 30
0.0
 10
176.5877799722172
 20
33.80234504676467
 30
0.0
 10
175.259135347234
 20
33.56762278714882
 30
0.0
 10
174.5888709029465
 20
33.50372481207436
 30
0.0
 10
173.5729351593848
 20
33.50270110998786
 30
0.0
 10
173.2315840412851
 20
33.51818765713256
 30
0.0
 10
172.5551677298206
 20
33.57931137859055
 30
0.0
 10
172.2190949607798
 20
33.62483310588556
 30
0.0
 10
171.2165768997187
 20
33.80133246963074
 30
0.0
 10
170.5558190296272
 20
33.97215444598456
 30
0.0
 10
169.9004541611678
 20
34.18075814362309
 30
0.0
  0
SPLINE
  5
187
330
1F
100
AcDbEntity
  8
0
  6
Continuous
 62
     7
370
    25
100
AcDbSpline
210
0.0
220
0.0
230
1.0
 70
     8
 71
     3
 72
    10
 73
     6
 74
     0
 42
0.00000001
 43
0.00000001
 40
0.0
 40
0.0
 40
0.0
 40
0.0
 40
0.5
 40
0.5
 40
1.0
 40
1.0
 40
1.0
 40
1.0
 10
177.9004541611679
 20
34.18075814362323
 30
0.0
 10
177.9748289151579
 20
34.20443174811435
 30
0.0
 10
178.0619226467238
 20
34.21752452390758
 30
0.0
 10
178.2380884752683
 20
34.21761109200853
 30
0.0
 10
178.3260494991586
 20
34.20444126788524
 30
0.0
 10
178.4004541611679
 20
34.18075814362323
 30
0.0
  0
SPLINE
  5
188
330
1F
100
AcDbEntity
  8
0
  6
Continuous
 62
     7
370
    25
100
AcDbSpline
210
0.0
220
0.0
230
1.0
 70
     8
 71
     3
 72
    16
 73
    12
 74
     0
 42
0.00000001
 43
0.00000001
 40
0.0
 40
0.0
 40
0.0
 40
0.0
 40
0.2500000000000001
 40
0.2500000000000001
 40
0.5000000000000002
 40
0.5000000000000002
 40
0.6250000000000001
 40
0.6250000000000001
 40
0.75
 40
0.75
 40
1.0
 40
1.0
 40
1.0
 40
1.0
 10
186.4004541611679
 20
34.18075814362277
 30
0.0
 10
185.7462325077284
 20
33.97251833317412
 30
0.0
 10
185.0877799722172
 20
33.80234504676468
 30
0.0
 10
183.759135347234
 20
33.56762278714883
 30
0.0
 10
183.0888709029465
 20
33.50372481207436
 30
0.0
 10
182.0729351593848
 20
33.50270110998786
 30
0.0
 10
181.7315840412851
 20
33.51818765713256
 30
0.0
 10
181.0551677298206
 20
33.57931137859055
 30
0.0
 10
180.7190949607798
 20
33.62483310588557
 30
0.0
 10
179.7165768997187
 20
33.80133246963074
 30
0.0
 10
179.0558190296272
 20
33.97215444598456
 30
0.0
 10
178.4004541611678
 20
34.18075814362309
 30
0.0
  0
SPLINE
  5
189
330
1F
100
AcDbEntity
  8
0
  6
Continuous
 62
     7
370
    25
100
AcDbSpline
210
0.0
220
0.0
230
1.0
 70
     8
 71
     3
 72
    10
 73
     6
 74
     0
 42
0.00000001
 43
0.00000001
 40
0.0
 40
0.0
 40
0.0
 40
0.0
 40
0.5
 40
0.5
 40
1.0
 40
1.0
 40
1.0
 40
1.0
 10
186.4004541611679
 20
34.18075814362323
 30
0.0
 10
186.4748246280934
 20
34.20443038353479
 30
0.0
 10
186.5391302243813
 20
34.21752437347006
 30
0.0
 10
186.6273530121871
 20
34.2176112409315
 30
0.0
 10
186.6504541611679
 20
34.20444145117214
 30
0.0
 10
186.6504541611679
 20
34.18075814362323
 30
0.0
  0
SPLINE
  5
18A
330
1F
100
AcDbEntity
  8
0
  6
Continuous
 62
     7
370
    25
100
AcDbSpline
210
0.0
220
0.0
230
1.0
 70
    24
 71
     3
 72
    12
 73
     8
 74
     0
 42
0.00000001
 43
0.00000001
 40
0.0
 40
0.0
 40
0.0
 40
0.0
 40
0.2327579625505698
 40
0.4654780883560543
 40
0.7016677579640516
 40
0.9378259597212679
 40
1.0
 40
1.0
 40
1.0
 40
1.0
 10
169.6504541611679
 20
34.18075814362323
 30
0.0
 10
169.6504541611679
 20
34.08888341595105
 30
0.0
 10
169.6504541611679
 20
33.90514889560873
 30
0.0
 10
169.6504541611679
 20
33.6964921846233
 30
0.0
 10
169.6504541611679
 20
33.56044548445837
 30
0.0
 10
169.6504541611679
 20
33.4957053851078
 30
0.0
 10
169.6504541611679
 20
33.50949924446653
 30
0.0
 10
169.6504541611679
 20
33.51237395878341
 30
0.0
  0
SPLINE
  5
18B
330
1F
100
AcDbEntity
  8
0
  6
Continuous
 62
     7
370
    25
100
AcDbSpline
210
0.0
220
0.0
230
1.0
 70
    24
 71
     3
 72
    12
 73
     8
 74
     0
 42
0.00000001
 43
0.00000001
 40
0.0
 40
0.0
 40
0.0
 40
0.0
 40
0.0621715493461531
 40
0.2946426170269179
 40
0.5271430029577943
 40
0.7635513158523072
 40
1.0
 40
1.0
 40
1.0
 40
1.0
 10
186.6504541611679
 20
33.51263771206563
 30
0.0
 10
186.6504541611679
 20
33.50966012458706
 30
0.0
 10
186.6504541611679
 20
33.49554877982668
 30
0.0
 10
186.6504541611679
 20
33.55924071627778
 30
0.0
 10
186.6504541611679
 20
33.69271740569462
 30
0.0
 10
186.6504541611679
 20
33.9010099325369
 30
0.0
 10
186.6504541611679
 20
34.08750343249069
 30
0.0
 10
186.6504541611679
 20
34.18075814362323
 30
0.0
  0
LINE
  5
18C
330
1F
100
AcDbEntity
  8
0
  6
Continuous
 62
     7
370
    25
100
AcDbLine
 10
178.4004541612
 20
35.6880821621
 30
0.0
 11
178.4004541612
 21
34.1807581436
 31
0.0
  0
LINE
  5
18D
330
1F
100
AcDbEntity
  8
0
  6
Continuous
 62
     7
370
    25
100
AcDbLine
 10
177.9004541612
 20
34.1807581436
 30
0.0
 11
177.9004541612
 21
35.6880821621
 31
0.0
  0
LINE
  5
18E
330
1F
100
AcDbEntity
  8
0
  6
Continuous
 62
     7
370
    25
100
AcDbLine
 10
169.9004541612
 20
37.3923026312
 30
0.0
 11
169.9004541612
 21
34.1807581436
 31
0.0
  0
SPLINE
  5
18F
330
1F
100
AcDbEntity
  8
0
  6
Continuous
 62
     7
370
    25
100
AcDbSpline
210
0.0
220
0.0
230
1.0
 70
     8
 71
     3
 72
    10
 73
     6
 74
     0
 42
0.00000001
 43
0.00000001
 40
0.0
 40
0.0
 40
0.0
 40
0.0
 40
0.5
 40
0.5
 40
1.0
 40
1.0
 40
1.0
 40
1.0
 10
169.9004541611683
 20
37.39230263121079
 30
0.0
 10
170.535281866982
 20
37.59436931676171
 30
0.0
 10
171.1745475695578
 20
37.76076208903235
 30
0.0
 10
172.4653625011477
 20
37.99480906290241
 30
0.0
 10
173.1169821366175
 20
38.06189731686123
 30
0.0
 10
173.7760240684376
 20
38.06932298643103
 30
0.0
  0
SPLINE
  5
190
330
1F
100
AcDbEntity
  8
0
  6
Continuous
 62
     7
370
    25
100
AcDbSpline
210
0.0
220
0.0
230
1.0
 70
     8
 71
     3
 72
    12
 73
     8
 74
     0
 42
0.00000001
 43
0.00000001
 40
0.0
 40
0.0
 40
0.0
 40
0.0
 40
0.2499999999999999
 40
0.2499999999999999
 40
0.4999999999999998
 40
0.4999999999999998
 40
1.0
 40
1.0
 40
1.0
 40
1.0
 10
182.5248842539202
 20
38.06932298643077
 30
0.0
 10
182.8540192443134
 20
38.06561450057434
 30
0.0
 10
183.1834813972501
 20
38.04703199773667
 30
0.0
 10
183.8363550153078
 20
37.98216496077052
 30
0.0
 10
184.1608076071849
 20
37.93589940752025
 30
0.0
 10
185.128868048377
 20
37.76017487721329
 30
0.0
 10
185.7671905326249
 20
37.59387146843653
 30
0.0
 10
186.4004541611679
 20
37.39230263121063
 30
0.0
  0
LINE
  5
191
330
1F
100
AcDbEntity
  8
0
  6
Continuous
 62
     7
370
    25
100
AcDbLine
 10
186.4004541612
 20
34.1807581436
 30
0.0
 11
186.4004541612
 21
37.3923026312
 31
0.0
  0
SPLINE
  5
192
330
1F
100
AcDbEntity
  8
0
  6
Continuous
 62
     7
370
    25
100
AcDbSpline
210
0.0
220
0.0
230
1.0
 70
     8
 71
     3
 72
     8
 73
     4
 74
     0
 42
0.00000001
 43
0.00000001
 40
0.0
 40
0.0
 40
0.0
 40
0.0
 40
1.0
 40
1.0
 40
1.0
 40
1.0
 10
169.6504541611679
 20
37.55378795949165
 30
0.0
 10
170.1722603124697
 20
37.826378095161
 30
0.0
 10
170.6959137813259
 20
38.0955305962824
 30
0.0
 10
171.2222509308924
 20
38.35869917106564
 30
0.0
  0
SPLINE
  5
193
330
1F
100
AcDbEntity
  8
0
  6
Continuous
 62
     7
370
    25
100
AcDbSpline
210
0.0
220
0.0
230
1.0
 70
     8
 71
     3
 72
    10
 73
     6
 74
     0
 42
0.00000001
 43
0.00000001
 40
0.0
 40
0.0
 40
0.0
 40
0.0
 40
0.5
 40
0.5
 40
1.0
 40
1.0
 40
1.0
 40
1.0
 10
169.6504541611679
 20
37.39230263121061
 30
0.0
 10
169.6504541611679
 20
37.3686272367862
 30
0.0
 10
169.6732466104977
 20
37.35553612690158
 30
0.0
 10
169.761189314591
 20
37.35544980561335
 30
0.0
 10
169.8260470882651
 20
37.3686187395573
 30
0.0
 10
169.9004541611685
 20
37.39230263121085
 30
0.0
  0
SPLINE
  5
194
330
1F
100
AcDbEntity
  8
0
  6
Continuous
 62
     7
370
    25
100
AcDbSpline
210
0.0
220
0.0
230
1.0
 70
    24
 71
     3
 72
     8
 73
     4
 74
     0
 42
0.00000001
 43
0.00000001
 40
0.0
 40
0.0
 40
0.0
 40
0.0
 40
1.0
 40
1.0
 40
1.0
 40
1.0
 10
169.6504541611679
 20
37.55378795949165
 30
0.0
 10
169.6504541611679
 20
37.50289316979083
 30
0.0
 10
169.6504541611679
 20
37.44895932042939
 30
0.0
 10
169.6504541611679
 20
37.39230263121063
 30
0.0
  0
SPLINE
  5
195
330
1F
100
AcDbEntity
  8
0
  6
Continuous
 62
     7
370
    25
100
AcDbSpline
210
0.0
220
0.0
230
1.0
 70
     8
 71
     3
 72
     8
 73
     4
 74
     0
 42
0.00000001
 43
0.00000001
 40
0.0
 40
0.0
 40
0.0
 40
0.0
 40
1.0
 40
1.0
 40
1.0
 40
1.0
 10
185.0786573914434
 20
38.35869917106563
 30
0.0
 10
185.6050782526526
 20
38.09548874046103
 30
0.0
 10
186.1286227093663
 20
37.82639131207433
 30
0.0
 10
186.6504541611679
 20
37.55378795949167
 30
0.0
  0
SPLINE
  5
196
330
1F
100
AcDbEntity
  8
0
  6
Continuous
 62
     7
370
    25
100
AcDbSpline
210
0.0
220
0.0
230
1.0
 70
     8
 71
     3
 72
    10
 73
     6
 74
     0
 42
0.00000001
 43
0.00000001
 40
0.0
 40
0.0
 40
0.0
 40
0.0
 40
0.5
 40
0.5
 40
1.0
 40
1.0
 40
1.0
 40
1.0
 10
186.4004541611679
 20
37.39230263121063
 30
0.0
 10
186.4748345385452
 20
37.36862723678625
 30
0.0
 10
186.539135177331
 20
37.35553612690161
 30
0.0
 10
186.6273508621139
 20
37.35544980561333
 30
0.0
 10
186.6504541611679
 20
37.36861873955716
 30
0.0
 10
186.6504541611679
 20
37.39230263121063
 30
0.0
  0
SPLINE
  5
197
330
1F
100
AcDbEntity
  8
0
  6
Continuous
 62
     7
370
    25
100
AcDbSpline
210
0.0
220
0.0
230
1.0
 70
    24
 71
     3
 72
     8
 73
     4
 74
     0
 42
0.00000001
 43
0.00000001
 40
0.0
 40
0.0
 40
0.0
 40
0.0
 40
1.0
 40
1.0
 40
1.0
 40
1.0
 10
186.6504541611679
 20
37.55378795949165
 30
0.0
 10
186.6504541611679
 20
37.50289316979083
 30
0.0
 10
186.6504541611679
 20
37.44895932042939
 30
0.0
 10
186.6504541611679
 20
37.39230263121063
 30
0.0
  0
LINE
  5
198
330
1F
100
AcDbEntity
  8
0
  6
Continuous
 62
     7
370
    25
100
AcDbLine
 10
170.6504541612
 20
38.3586991711
 30
0.0
 11
173.2748098141
 21
38.3586991711
 31
0.0
  0
LINE
  5
199
330
1F
100
AcDbEntity
  8
0
  6
Continuous
 62
     7
370
    25
100
AcDbLine
 10
170.6504541612
 20
38.3586991711
 30
0.0
 11
170.6504541612
 21
39.8738716138
 31
0.0
  0
LINE
  5
19A
330
1F
100
AcDbEntity
  8
0
  6
Continuous
 62
     7
370
    25
100
AcDbLine
 10
183.0260985082
 20
38.3586991711
 30
0.0
 11
185.6504541612
 21
38.3586991711
 31
0.0
  0
LINE
  5
19B
330
1F
100
AcDbEntity
  8
0
  6
Continuous
 62
     7
370
    25
100
AcDbLine
 10
185.6504541612
 20
39.8738716138
 30
0.0
 11
185.6504541612
 21
38.3586991711
 31
0.0
  0
LINE
  5
19C
330
1F
100
AcDbEntity
  8
0
  6
Continuous
 62
     7
370
    25
100
AcDbLine
 10
178.1504541612
 20
23.9474868248
 30
0.0
 11
171.694492047
 21
23.9474868248
 31
0.0
  0
LINE
  5
19D
330
1F
100
AcDbEntity
  8
0
  6
Continuous
 62
     7
370
    25
100
AcDbLine
 10
184.6064162753
 20
23.9474868248
 30
0.0
 11
178.1504541612
 21
23.9474868248
 31
0.0
  0
LINE
  5
19E
330
1F
100
AcDbEntity
  8
0
  6
Continuous
 62
     7
370
    25
100
AcDbLine
 10
183.4004541612
 20
21.8586991711
 30
0.0
 11
172.9004541612
 21
21.8586991711
 31
0.0
  0
LINE
  5
19F
330
1F
100
AcDbEntity
  8
0
  6
Continuous
 62
     7
370
    25
100
AcDbLine
 10
169.6504541612
 20
34.1807581436
 30
0.0
 11
169.6504541612
 21
37.3923026312
 31
0.0
  0
LINE
  5
1A0
330
1F
100
AcDbEntity
  8
0
  6
Continuous
 62
     7
370
    25
100
AcDbLine
 10
186.6504541612
 20
37.3923026312
 30
0.0
 11
186.6504541612
 21
34.1807581436
 31
0.0
  0
LINE
  5
1A1
330
1F
100
AcDbEntity
  8
0
  6
Continuous
 62
     7
370
    25
100
AcDbLine
 10
169.6504541612
 20
37.5537879595
 30
0.0
 11
169.6504541612
 21
40.7136447317
 31
0.0
  0
LINE
  5
1A2
330
1F
100
AcDbEntity
  8
0
  6
Continuous
 62
     7
370
    25
100
AcDbLine
 10
186.6504541612
 20
37.5537879595
 30
0.0
 11
186.6504541612
 21
40.7136447317
 31
0.0
  0
LINE
  5
1A3
330
1F
100
AcDbEntity
  8
0
  6
Continuous
 62
     7
370
    25
100
AcDbLine
 10
176.6504541612
 20
71.8586991711
 30
0.0
 11
176.6504541612
 21
72.4586991711
 31
0.0
  0
LINE
  5
1A4
330
1F
100
AcDbEntity
  8
0
  6
Continuous
 62
     7
370
    25
100
AcDbLine
 10
176.6504541612
 20
72.4586991711
 30
0.0
 11
176.9004541612
 21
72.4586991711
 31
0.0
  0
LINE
  5
1A5
330
1F
100
AcDbEntity
  8
0
  6
Continuous
 62
     7
370
    25
100
AcDbLine
 10
176.9004541612
 20
72.4586991711
 30
0.0
 11
176.9004541612
 21
71.8586991711
 31
0.0
  0
LINE
  5
1A6
330
1F
100
AcDbEntity
  8
0
  6
Continuous
 62
     7
370
    25
100
AcDbLine
 10
176.9004541612
 20
71.8586991711
 30
0.0
 11
176.6504541612
 21
71.8586991711
 31
0.0
  0
LINE
  5
1A7
330
1F
100
AcDbEntity
  8
0
  6
Continuous
 62
     7
370
    25
100
AcDbLine
 10
179.4004541612
 20
71.8586991711
 30
0.0
 11
179.4004541612
 21
72.4586991711
 31
0.0
  0
LINE
  5
1A8
330
1F
100
AcDbEntity
  8
0
  6
Continuous
 62
     7
370
    25
100
AcDbLine
 10
179.4004541612
 20
72.4586991711
 30
0.0
 11
179.6504541612
 21
72.4586991711
 31
0.0
  0
LINE
  5
1A9
330
1F
100
AcDbEntity
  8
0
  6
Continuous
 62
     7
370
    25
100
AcDbLine
 10
179.6504541612
 20
72.4586991711
 30
0.0
 11
179.6504541612
 21
71.8586991711
 31
0.0
  0
LINE
  5
1AA
330
1F
100
AcDbEntity
  8
0
  6
Continuous
 62
     7
370
    25
100
AcDbLine
 10
179.6504541612
 20
71.8586991711
 30
0.0
 11
179.4004541612
 21
71.8586991711
 31
0.0
  0
LINE
  5
1AB
330
1F
100
AcDbEntity
  8
0
  6
Continuous
 62
     7
370
    25
100
AcDbLine
 10
179.4004541612
 20
72.4586991711
 30
0.0
 11
179.4004541612
 21
72.7086991711
 31
0.0
  0
ARC
  5
1AC
330
1F
100
AcDbEntity
  8
0
  6
Continuous
 62
     7
370
    25
100
AcDbCircle
 10
179.4004541612
 20
72.4586991711
 30
0.0
 40
0.2500000000000284
100
AcDbArc
 50
0.0
 51
90.0
  0
ARC
  5
1AD
330
1F
100
AcDbEntity
  8
0
  6
Continuous
 62
     7
370
    25
100
AcDbCircle
 10
176.9004541612
 20
72.4586991711
 30
0.0
 40
0.25
100
AcDbArc
 50
90.0
 51
180.0
  0
LINE
  5
1AE
330
1F
100
AcDbEntity
  8
0
  6
Continuous
 62
     7
370
    25
100
AcDbLine
 10
176.9004541612
 20
72.7086991711
 30
0.0
 11
176.9004541612
 21
72.4586991711
 31
0.0
  0
LINE
  5
1AF
330
1F
100
AcDbEntity
  8
0
  6
Continuous
 62
     7
370
    25
100
AcDbLine
 10
179.4004541612
 20
72.4586991711
 30
0.0
 11
176.9004541612
 21
72.4586991711
 31
0.0
  0
LINE
  5
1B0
330
1F
100
AcDbEntity
  8
0
  6
Continuous
 62
     7
370
    25
100
AcDbLine
 10
179.4004541612
 20
71.8586991711
 30
0.0
 11
176.9004541612
 21
71.8586991711
 31
0.0
  0
LINE
  5
1B1
330
1F
100
AcDbEntity
  8
0
  6
Continuous
 62
     7
370
    25
100
AcDbLine
 10
176.9004541612
 20
72.7086991711
 30
0.0
 11
179.4004541612
 21
72.7086991711
 31
0.0
  0
SPLINE
  5
1B2
330
1F
100
AcDbEntity
  8
0
  6
Continuous
 62
     7
370
    25
100
AcDbSpline
210
0.0
220
0.0
230
1.0
 70
     8
 71
     3
 72
    15
 73
    11
 74
     0
 42
0.00000001
 43
0.00000001
 40
0.0
 40
0.0
 40
0.0
 40
0.0
 40
0.0081667445812973
 40
0.3321939991490804
 40
0.475627960058556
 40
0.6866830973284891
 40
0.8457435502264751
 40
0.8967566214763124
 40
0.9909540928118028
 40
1.0
 40
1.0
 40
1.0
 40
1.0
 10
179.4004541611679
 20
72.70869917106563
 30
0.0
 10
179.4018916241069
 20
72.70869649471985
 30
0.0
 10
179.4603624820589
 20
72.70858763053307
 30
0.0
 10
179.5447876597781
 20
72.69904161826362
 30
0.0
 10
179.6593667318006
 20
72.66167923500907
 30
0.0
 10
179.7407376189971
 20
72.6168137202744
 30
0.0
 10
179.7937566109988
 20
72.55893742069749
 30
0.0
 10
179.8179585428429
 20
72.50826138072557
 30
0.0
 10
179.8241481635091
 20
72.47956710120556
 30
0.0
 10
179.8243495589217
 20
72.46038026965006
 30
0.0
 10
179.8243672046461
 20
72.45869917106565
 30
0.0
  0
LINE
  5
1B3
330
1F
100
AcDbEntity
  8
0
  6
Continuous
 62
     7
370
    25
100
AcDbLine
 10
179.6504541612
 20
72.4586991711
 30
0.0
 11
179.8243672046
 21
72.4586991711
 31
0.0
  0
LINE
  5
1B4
330
1F
100
AcDbEntity
  8
0
  6
Continuous
 62
     7
370
    25
100
AcDbLine
 10
176.4765411177
 20
72.4586991711
 30
0.0
 11
176.6504541612
 21
72.4586991711
 31
0.0
  0
SPLINE
  5
1B5
330
1F
100
AcDbEntity
  8
0
  6
Continuous
 62
     7
370
    25
100
AcDbSpline
210
0.0
220
0.0
230
1.0
 70
     8
 71
     3
 72
    15
 73
    11
 74
     0
 42
0.00000001
 43
0.00000001
 40
0.0
 40
0.0
 40
0.0
 40
0.0
 40
0.0090459071881971
 40
0.1032433785236874
 40
0.1542564497735246
 40
0.313316902671511
 40
0.5243720399414428
 40
0.6678060008509903
 40
0.9918332554187292
 40
1.0
 40
1.0
 40
1.0
 40
1.0
 10
176.4765411176896
 20
72.45869917106563
 30
0.0
 10
176.4765587634141
 20
72.46038026965006
 30
0.0
 10
176.4767601588266
 20
72.47956710120559
 30
0.0
 10
176.4829497794928
 20
72.50826138072556
 30
0.0
 10
176.507151711337
 20
72.55893742069752
 30
0.0
 10
176.5601707033386
 20
72.61681372027438
 30
0.0
 10
176.6415415905352
 20
72.66167923500907
 30
0.0
 10
176.7561206625577
 20
72.69904161826362
 30
0.0
 10
176.8405458402771
 20
72.70858763053307
 30
0.0
 10
176.8990166982288
 20
72.70869649471986
 30
0.0
 10
176.9004541611679
 20
72.70869917106563
 30
0.0
  0
LINE
  5
1B6
330
1F
100
AcDbEntity
  8
0
  6
Continuous
 62
     7
370
    25
100
AcDbLine
 10
179.8243672046
 20
72.4586991711
 30
0.0
 11
179.8243672046
 21
71.8586991711
 31
0.0
  0
LINE
  5
1B7
330
1F
100
AcDbEntity
  8
0
  6
Continuous
 62
     7
370
    25
100
AcDbLine
 10
179.8243672046
 20
71.8586991711
 30
0.0
 11
179.6504541612
 21
71.8586991711
 31
0.0
  0
LINE
  5
1B8
330
1F
100
AcDbEntity
  8
0
  6
Continuous
 62
     7
370
    25
100
AcDbLine
 10
176.4765411177
 20
71.8586991711
 30
0.0
 11
176.4765411177
 21
72.4586991711
 31
0.0
  0
LINE
  5
1B9
330
1F
100
AcDbEntity
  8
0
  6
Continuous
 62
     7
370
    25
100
AcDbLine
 10
176.6504541612
 20
71.8586991711
 30
0.0
 11
176.4765411177
 21
71.8586991711
 31
0.0
  0
LINE
  5
1BA
330
1F
100
AcDbEntity
  8
0
  6
Continuous
 62
     7
370
    25
100
AcDbLine
 10
179.4004541612
 20
72.7086991711
 30
0.0
 11
183.4004541612
 21
72.7086991711
 31
0.0
  0
LINE
  5
1BB
330
1F
100
AcDbEntity
  8
0
  6
Continuous
 62
     7
370
    25
100
AcDbLine
 10
172.9004541612
 20
72.7086991711
 30
0.0
 11
176.9004541612
 21
72.7086991711
 31
0.0
  0
LINE
  5
1BC
330
1F
100
AcDbEntity
  8
0
  6
Continuous
 62
     7
370
    25
100
AcDbLine
 10
179.8243672046
 20
71.8586991711
 30
0.0
 11
183.6504541612
 21
71.8586991711
 31
0.0
  0
LINE
  5
1BD
330
1F
100
AcDbEntity
  8
0
  6
Continuous
 62
     7
370
    25
100
AcDbLine
 10
172.6504541612
 20
71.8586991711
 30
0.0
 11
176.4765411177
 21
71.8586991711
 31
0.0
  0
LINE
  5
1BE
330
1F
100
AcDbEntity
  8
0
  6
Continuous
 62
     7
370
    25
100
AcDbLine
 10
177.5504541612
 20
72.7086991711
 30
0.0
 11
177.5504541612
 21
72.7186991711
 31
0.0
  0
LINE
  5
1BF
330
1F
100
AcDbEntity
  8
0
  6
Continuous
 62
     7
370
    25
100
AcDbLine
 10
178.7504541612
 20
72.7086991711
 30
0.0
 11
178.7504541612
 21
72.7186991711
 31
0.0
  0
LINE
  5
1C0
330
1F
100
AcDbEntity
  8
0
  6
Continuous
 62
     7
370
    25
100
AcDbLine
 10
177.5504541612
 20
72.7186991711
 30
0.0
 11
178.7504541612
 21
72.7186991711
 31
0.0
  0
LINE
  5
1C1
330
1F
100
AcDbEntity
  8
0
  6
Continuous
 62
     7
370
    25
100
AcDbLine
 10
171.1504541612
 20
55.8586991711
 30
0.0
 11
185.1504541612
 21
55.8586991711
 31
0.0
  0
LINE
  5
1C2
330
1F
100
AcDbEntity
  8
0
  6
Continuous
 62
     7
370
    25
100
AcDbLine
 10
170.7004541612
 20
63.858699171
 30
0.0
 11
185.6004541612
 21
63.858699171
 31
0.0
  0
LINE
  5
1C3
330
1F
100
AcDbEntity
  8
0
  6
Continuous
 62
     7
370
    25
100
AcDbLine
 10
174.6504541612
 20
73.8586991711
 30
0.0
 11
174.6504541612
 21
72.7086991711
 31
0.0
  0
LINE
  5
1C4
330
1F
100
AcDbEntity
  8
0
  6
Continuous
 62
     7
370
    25
100
AcDbLine
 10
174.6504541612
 20
73.8586991711
 30
0.0
 11
174.8787548971
 21
73.8586991711
 31
0.0
  0
LINE
  5
1C5
330
1F
100
AcDbEntity
  8
0
  6
Continuous
 62
     7
370
    25
100
AcDbLine
 10
174.8787548971
 20
73.8586991711
 30
0.0
 11
174.8787548971
 21
72.7086991711
 31
0.0
  0
LINE
  5
1C6
330
1F
100
AcDbEntity
  8
0
  6
Continuous
 62
     7
370
    25
100
AcDbLine
 10
181.4221534252
 20
73.8586991711
 30
0.0
 11
181.4221534252
 21
72.7086991711
 31
0.0
  0
LINE
  5
1C7
330
1F
100
AcDbEntity
  8
0
  6
Continuous
 62
     7
370
    25
100
AcDbLine
 10
181.4221534252
 20
73.8586991711
 30
0.0
 11
181.6504541612
 21
73.8586991711
 31
0.0
  0
LINE
  5
1C8
330
1F
100
AcDbEntity
  8
0
  6
Continuous
 62
     7
370
    25
100
AcDbLine
 10
181.6504541612
 20
72.7086991711
 30
0.0
 11
181.6504541612
 21
73.8586991711
 31
0.0
  0
LINE
  5
1C9
330
1F
100
AcDbEntity
  8
0
  6
Continuous
 62
     7
370
    25
100
AcDbLine
 10
174.8787548971
 20
73.8586991711
 30
0.0
 11
181.4221534252
 21
73.8586991711
 31
0.0
  0
SPLINE
  5
1CA
330
1F
100
AcDbEntity
  8
0
  6
Continuous
 62
     7
370
    25
100
AcDbSpline
210
0.0
220
0.0
230
1.0
 70
     8
 71
     3
 72
    19
 73
    15
 74
     0
 42
0.00000001
 43
0.00000001
 40
0.0
 40
0.0
 40
0.0
 40
0.0
 40
0.0167573826826199
 40
0.0954755060510619
 40
0.1742982743076089
 40
0.2799192683922355
 40
0.3857358996139619
 40
0.4988208750148554
 40
0.611887335272664
 40
0.7070684694582021
 40
0.8021754012707921
 40
0.8927539469857374
 40
0.983257846044127
 40
1.0
 40
1.0
 40
1.0
 40
1.0
 10
172.2580941730986
 20
51.89809849554754
 30
0.0
 10
172.2555713514481
 20
51.89496719507362
 30
0.0
 10
172.2411975271863
 20
51.87712655116118
 30
0.0
 10
172.3046429121837
 20
51.9561895989133
 30
0.0
 10
172.4597461518825
 20
52.14067115527329
 30
0.0
 10
172.7480446312712
 20
52.46065127580387
 30
0.0
 10
173.1804782692553
 20
52.88509919364405
 30
0.0
 10
173.7349111049288
 20
53.34776387272181
 30
0.0
 10
174.3778066381482
 20
53.78824384117124
 30
0.0
 10
175.0772435679925
 20
54.16630478080214
 30
0.0
 10
175.7992438868167
 20
54.46952830925642
 30
0.0
 10
176.5769632763872
 20
54.68792742780673
 30
0.0
 10
177.1650117490802
 20
54.80932718750378
 30
0.0
 10
177.4946019275961
 20
54.82262701485502
 30
0.0
 10
177.546054166219
 20
54.82470324750734
 30
0.0
  0
SPLINE
  5
1CB
330
1F
100
AcDbEntity
  8
0
  6
Continuous
 62
     7
370
    25
100
AcDbSpline
210
0.0
220
0.0
230
1.0
 70
     8
 71
     3
 72
    20
 73
    16
 74
     0
 42
0.00000001
 43
0.00000001
 40
0.0
 40
0.0
 40
0.0
 40
0.0
 40
0.0313496571532458
 40
0.0973827920587141
 40
0.1973819577193629
 40
0.2974933726048338
 40
0.4180636397194381
 40
0.5387303357032748
 40
0.617110765194535
 40
0.6956726178065835
 40
0.773937980113098
 40
0.8504615539000244
 40
0.926884432676215
 40
0.9967412916389343
 40
1.0
 40
1.0
 40
1.0
 40
1.0
 10
178.7626513711089
 20
54.82020152333267
 30
0.0
 10
178.8585232823407
 20
54.81498149149955
 30
0.0
 10
179.1563343349499
 20
54.79876628148755
 30
0.0
 10
179.7392202811524
 20
54.68439341334012
 30
0.0
 10
180.4884612195361
 20
54.47512342717203
 30
0.0
 10
181.3089404396584
 20
54.13079079493475
 30
0.0
 10
182.0760223479214
 20
53.69523975166663
 30
0.0
 10
182.6830477540889
 20
53.25383956148583
 30
0.0
 10
183.1282795468631
 20
52.87146051868024
 30
0.0
 10
183.4500709977483
 20
52.56272462380713
 30
0.0
 10
183.7097690890849
 20
52.28873286529068
 30
0.0
 10
183.9048625388155
 20
52.06567907625679
 30
0.0
 10
184.0159387518469
 20
51.93124568355409
 30
0.0
 10
184.0599212363273
 20
51.87734281451025
 30
0.0
 10
184.0489965730628
 20
51.89067582002117
 30
0.0
 10
184.0485096686616
 20
51.89127006250779
 30
0.0
  0
LINE
  5
1CC
330
1F
100
AcDbEntity
  8
0
  6
Continuous
 62
     7
370
    25
100
AcDbLine
 10
183.6504541612
 20
72.4586991711
 30
0.0
 11
179.8243672046
 21
72.4586991711
 31
0.0
  0
LINE
  5
1CD
330
1F
100
AcDbEntity
  8
0
  6
Continuous
 62
     7
370
    25
100
AcDbLine
 10
176.4765411177
 20
72.4586991711
 30
0.0
 11
172.6504541612
 21
72.4586991711
 31
0.0
  0
INSERT
  5
1D9
330
1F
100
AcDbEntity
  8
FORMAT
100
AcDbBlockReference
  2
SW_CENTERMARKSYMBOL_0
 10
178.1504541612
 20
45.3586991711
 30
0.0
  0
ARC
  5
1DA
330
1F
100
AcDbEntity
  8
FORMAT
100
AcDbCircle
 10
178.1504541612
 20
45.3586991711
 30
0.0
 40
7.000000000000014
100
AcDbArc
 50
75.0
 51
345.0
  0
LINE
  5
1DB
330
1F
100
AcDbEntity
  8
FORMAT
100
AcDbLine
 10
172.362679547
 20
23.9474868248
 30
0.0
 11
172.0685791612
 21
33.3586991711
 31
0.0
  0
LINE
  5
1DC
330
1F
100
AcDbEntity
  8
FORMAT
100
AcDbLine
 10
183.9382287753
 20
23.9474868248
 30
0.0
 11
184.2323291612
 21
33.3586991711
 31
0.0
  0
LINE
  5
1DD
330
1F
100
AcDbEntity
  8
0
  6
Continuous
 62
     7
370
    25
100
AcDbLine
 10
133.0208806981
 20
101.0764181582
 30
0.0
 11
133.1652182654
 21
101.3264181582
 31
0.0
  0
LINE
  5
1DE
330
1F
100
AcDbEntity
  8
0
  6
Continuous
 62
     7
370
    25
100
AcDbLine
 10
133.1652182654
 20
117.8264181582
 30
0.0
 11
133.0208806981
 21
118.0764181582
 31
0.0
  0
LINE
  5
1DF
330
1F
100
AcDbEntity
  8
0
  6
Continuous
 62
     7
370
    25
100
AcDbLine
 10
106.8652182654
 20
117.5764181582
 30
0.0
 11
106.6652182654
 21
117.3764181582
 31
0.0
  0
LINE
  5
1E0
330
1F
100
AcDbEntity
  8
0
  6
Continuous
 62
     7
370
    25
100
AcDbLine
 10
106.6652182654
 20
101.7764181582
 30
0.0
 11
106.8652182654
 21
101.5764181582
 31
0.0
  0
LINE
  5
1E1
330
1F
100
AcDbEntity
  8
0
  6
Continuous
 62
     7
370
    25
100
AcDbLine
 10
109.6652182654
 20
117.5764181582
 30
0.0
 11
106.8652182654
 21
117.5764181582
 31
0.0
  0
LINE
  5
1E2
330
1F
100
AcDbEntity
  8
0
  6
Continuous
 62
     7
370
    25
100
AcDbLine
 10
106.8652182654
 20
101.5764181582
 30
0.0
 11
109.6652182654
 21
101.5764181582
 31
0.0
  0
LINE
  5
1E3
330
1F
100
AcDbEntity
  8
0
  6
Continuous
 62
     7
370
    25
100
AcDbLine
 10
98.1752182654
 20
115.5764181582
 30
0.0
 11
98.1552182654
 21
115.5764181582
 31
0.0
  0
LINE
  5
1E4
330
1F
100
AcDbEntity
  8
0
  6
Continuous
 62
     7
370
    25
100
AcDbLine
 10
98.1552182654
 20
103.5764181582
 30
0.0
 11
98.1752182654
 21
103.5764181582
 31
0.0
  0
ARC
  5
1E5
330
1F
100
AcDbEntity
  8
0
  6
Continuous
 62
     7
370
    25
100
AcDbCircle
 10
98.1752182654
 20
114.5864181582
 30
0.0
 40
0.9899999999999992
100
AcDbArc
 50
19.1995397339
 51
90.0
  0
ARC
  5
1E6
330
1F
100
AcDbEntity
  8
0
  6
Continuous
 62
     7
370
    25
100
AcDbCircle
 10
98.1752182654
 20
104.5664181582
 30
0.0
 40
0.9900000000000091
100
AcDbArc
 50
270.0
 51
340.8004602661
  0
ARC
  5
1E7
330
1F
100
AcDbEntity
  8
0
  6
Continuous
 62
     7
370
    25
100
AcDbCircle
 10
98.1552182654
 20
114.5864181582
 30
0.0
 40
0.9899999999999949
100
AcDbArc
 50
90.0
 51
180.0
  0
ARC
  5
1E8
330
1F
100
AcDbEntity
  8
0
  6
Continuous
 62
     7
370
    25
100
AcDbCircle
 10
98.1552182654
 20
104.5664181582
 30
0.0
 40
0.9900000000000091
100
AcDbArc
 50
180.0
 51
270.0
  0
ARC
  5
1E9
330
1F
100
AcDbEntity
  8
0
  6
Continuous
 62
     7
370
    25
100
AcDbCircle
 10
99.5823429934
 20
115.0764181582
 30
0.0
 40
0.5000000000000054
100
AcDbArc
 50
199.1995397339
 51
270.0
  0
ARC
  5
1EA
330
1F
100
AcDbEntity
  8
0
  6
Continuous
 62
     7
370
    25
100
AcDbCircle
 10
99.5823429934
 20
104.0764181582
 30
0.0
 40
0.5000000000000101
100
AcDbArc
 50
90.0
 51
160.8004602661
  0
LINE
  5
1EB
330
1F
100
AcDbEntity
  8
0
  6
Continuous
 62
     7
370
    25
100
AcDbLine
 10
106.6652182654
 20
114.5764181582
 30
0.0
 11
99.5823429934
 21
114.5764181582
 31
0.0
  0
LINE
  5
1EC
330
1F
100
AcDbEntity
  8
0
  6
Continuous
 62
     7
370
    25
100
AcDbLine
 10
99.5823429934
 20
104.5764181582
 30
0.0
 11
106.6652182654
 21
104.5764181582
 31
0.0
  0
SPLINE
  5
1ED
330
1F
100
AcDbEntity
  8
0
  6
Continuous
 62
     7
370
    25
100
AcDbSpline
210
0.0
220
0.0
230
1.0
 70
    24
 71
     3
 72
    10
 73
     6
 74
     0
 42
0.00000001
 43
0.00000001
 40
0.0
 40
0.0
 40
0.0
 40
0.0
 40
0.3696337614891489
 40
0.7423132045605928
 40
1.0
 40
1.0
 40
1.0
 40
1.0
 10
132.3431592928663
 20
101.0764181581986
 30
0.0
 10
132.4843618483521
 20
101.0764181581986
 30
0.0
 10
132.7679304299461
 20
101.0764181581986
 30
0.0
 10
132.9870638953452
 20
101.0764181581986
 30
0.0
 10
133.009454815238
 20
101.0764181581986
 30
0.0
 10
133.0186079773866
 20
101.0764181581986
 30
0.0
  0
SPLINE
  5
1EE
330
1F
100
AcDbEntity
  8
0
  6
Continuous
 62
     7
370
    25
100
AcDbSpline
210
0.0
220
0.0
230
1.0
 70
     8
 71
     3
 72
    10
 73
     6
 74
     0
 42
0.00000001
 43
0.00000001
 40
0.0
 40
0.0
 40
0.0
 40
0.0
 40
0.5
 40
0.5
 40
1.0
 40
1.0
 40
1.0
 40
1.0
 10
132.3431592928663
 20
101.3264181581986
 30
0.0
 10
132.3194838984419
 20
101.2520377808212
 30
0.0
 10
132.3063927885573
 20
101.1877371420355
 30
0.0
 10
132.3063064672691
 20
101.0995214572525
 30
0.0
 10
132.3194754012129
 20
101.0764181581986
 30
0.0
 10
132.3431592928663
 20
101.0764181581986
 30
0.0
  0
SPLINE
  5
1EF
330
1F
100
AcDbEntity
  8
0
  6
Continuous
 62
     7
370
    25
100
AcDbSpline
210
0.0
220
0.0
230
1.0
 70
     8
 71
     3
 72
    16
 73
    12
 74
     0
 42
0.00000001
 43
0.00000001
 40
0.0
 40
0.0
 40
0.0
 40
0.0
 40
0.2500000000000001
 40
0.2500000000000001
 40
0.5000000000000001
 40
0.5000000000000001
 40
0.6250000000000001
 40
0.6250000000000001
 40
0.7500000000000002
 40
0.7500000000000002
 40
1.0
 40
1.0
 40
1.0
 40
1.0
 10
132.3431592928663
 20
109.3264181581986
 30
0.0
 10
132.5511747409721
 20
108.6729013781578
 30
0.0
 10
132.7213810459451
 20
108.0146809690678
 30
0.0
 10
132.9563170775127
 20
106.685118385702
 30
0.0
 10
133.0203892091763
 20
106.0136944036315
 30
0.0
 10
133.0211221580973
 20
104.9946933166247
 30
0.0
 10
133.0054626780143
 20
104.6533525343086
 30
0.0
 10
132.9441875513774
 20
103.9777540313381
 30
0.0
 10
132.8986312788782
 20
103.6420948813735
 30
0.0
 10
132.722145246122
 20
102.6408292448738
 30
0.0
 10
132.5514887926363
 20
101.9809215862706
 30
0.0
 10
132.3431592928663
 20
101.3264181581986
 30
0.0
  0
SPLINE
  5
1F0
330
1F
100
AcDbEntity
  8
0
  6
Continuous
 62
     7
370
    25
100
AcDbSpline
210
0.0
220
0.0
230
1.0
 70
     8
 71
     3
 72
    10
 73
     6
 74
     0
 42
0.00000001
 43
0.00000001
 40
0.0
 40
0.0
 40
0.0
 40
0.0
 40
0.5
 40
0.5
 40
1.0
 40
1.0
 40
1.0
 40
1.0
 10
132.3431592928663
 20
109.8264181581986
 30
0.0
 10
132.3194838984419
 20
109.7520377808213
 30
0.0
 10
132.3063927885573
 20
109.6649446927057
 30
0.0
 10
132.3063064672691
 20
109.4887863038297
 30
0.0
 10
132.3194754012129
 20
109.4008252311018
 30
0.0
 10
132.3431592928663
 20
109.3264181581986
 30
0.0
  0
SPLINE
  5
1F1
330
1F
100
AcDbEntity
  8
0
  6
Continuous
 62
     7
370
    25
100
AcDbSpline
210
0.0
220
0.0
230
1.0
 70
     8
 71
     3
 72
    16
 73
    12
 74
     0
 42
0.00000001
 43
0.00000001
 40
0.0
 40
0.0
 40
0.0
 40
0.0
 40
0.2499999999999997
 40
0.2499999999999997
 40
0.4999999999999993
 40
0.4999999999999993
 40
0.6249999999999993
 40
0.6249999999999993
 40
0.7499999999999996
 40
0.7499999999999996
 40
1.0
 40
1.0
 40
1.0
 40
1.0
 10
132.3431592928663
 20
117.8264181581986
 30
0.0
 10
132.5511747409721
 20
117.1729013781578
 30
0.0
 10
132.7213810459451
 20
116.5146809690678
 30
0.0
 10
132.9563170775127
 20
115.185118385702
 30
0.0
 10
133.0203892091763
 20
114.5136944036315
 30
0.0
 10
133.0211221580973
 20
113.4946933166247
 30
0.0
 10
133.0054626780143
 20
113.1533525343086
 30
0.0
 10
132.9441875513774
 20
112.4777540313381
 30
0.0
 10
132.8986312788782
 20
112.1420948813735
 30
0.0
 10
132.722145246122
 20
111.1408292448738
 30
0.0
 10
132.5514887926363
 20
110.4809215862706
 30
0.0
 10
132.3431592928663
 20
109.8264181581986
 30
0.0
  0
SPLINE
  5
1F2
330
1F
100
AcDbEntity
  8
0
  6
Continuous
 62
     7
370
    25
100
AcDbSpline
210
0.0
220
0.0
230
1.0
 70
     8
 71
     3
 72
    10
 73
     6
 74
     0
 42
0.00000001
 43
0.00000001
 40
0.0
 40
0.0
 40
0.0
 40
0.0
 40
0.5
 40
0.5
 40
1.0
 40
1.0
 40
1.0
 40
1.0
 10
132.3431592928663
 20
118.0764181581986
 30
0.0
 10
132.3194838984419
 20
118.0764181581986
 30
0.0
 10
132.3063927885573
 20
118.0536257088688
 30
0.0
 10
132.3063064672691
 20
117.9656830047757
 30
0.0
 10
132.3194754012129
 20
117.9008252311018
 30
0.0
 10
132.3431592928663
 20
117.8264181581986
 30
0.0
  0
SPLINE
  5
1F3
330
1F
100
AcDbEntity
  8
0
  6
Continuous
 62
     7
370
    25
100
AcDbSpline
210
0.0
220
0.0
230
1.0
 70
    24
 71
     3
 72
    10
 73
     6
 74
     0
 42
0.00000001
 43
0.00000001
 40
0.0
 40
0.0
 40
0.0
 40
0.0
 40
0.2576837039100913
 40
0.6270640449786942
 40
1.0
 40
1.0
 40
1.0
 40
1.0
 10
133.0172665812087
 20
118.0764181581986
 30
0.0
 10
133.0086637443657
 20
118.0764181581986
 30
0.0
 10
132.9877290496715
 20
118.0764181581986
 30
0.0
 10
132.7687647498769
 20
118.0764181581986
 30
0.0
 10
132.4854800794098
 20
118.0764181581986
 30
0.0
 10
132.3431592928663
 20
118.0764181581986
 30
0.0
  0
LINE
  5
1F4
330
1F
100
AcDbEntity
  8
0
  6
Continuous
 62
     7
370
    25
100
AcDbLine
 10
133.1652182654
 20
117.8264181582
 30
0.0
 11
133.1652182654
 21
101.3264181582
 31
0.0
  0
SPLINE
  5
1F5
330
1F
100
AcDbEntity
  8
0
  6
Continuous
 62
     7
370
    25
100
AcDbSpline
210
0.0
220
0.0
230
1.0
 70
     8
 71
     3
 72
    12
 73
     8
 74
     0
 42
0.00000001
 43
0.00000001
 40
0.0
 40
0.0
 40
0.0
 40
0.0
 40
0.0372792167147373
 40
0.2759853223174244
 40
0.5147210750773147
 40
0.757340675295321
 40
1.0
 40
1.0
 40
1.0
 40
1.0
 10
127.1673648501299
 20
113.983339455557
 30
0.0
 10
127.1678858887545
 20
114.0317734075541
 30
0.0
 10
127.1717432394563
 20
114.3903394137898
 30
0.0
 10
127.2223231480256
 20
115.0585147966368
 30
0.0
 10
127.3608821397853
 20
115.9867499779187
 30
0.0
 10
127.5665106805375
 20
116.9112518089563
 30
0.0
 10
127.7507916456118
 20
117.5213460611996
 30
0.0
 10
127.8429396706841
 20
117.8264181581986
 30
0.0
  0
LINE
  5
1F6
330
1F
100
AcDbEntity
  8
0
  6
Continuous
 62
     7
370
    25
100
AcDbLine
 10
132.3431592929
 20
117.8264181582
 30
0.0
 11
127.8429396707
 21
117.8264181582
 31
0.0
  0
SPLINE
  5
1F7
330
1F
100
AcDbEntity
  8
0
  6
Continuous
 62
     7
370
    25
100
AcDbSpline
210
0.0
220
0.0
230
1.0
 70
     8
 71
     3
 72
    12
 73
     8
 74
     0
 42
0.00000001
 43
0.00000001
 40
0.0
 40
0.0
 40
0.0
 40
0.0
 40
0.0896343442505597
 40
0.3155884109119514
 40
0.5415684684891218
 40
0.7707684121709246
 40
0.9999999999999999
 40
0.9999999999999999
 40
0.9999999999999999
 40
0.9999999999999999
 10
109.6685438877407
 20
113.9741095843373
 30
0.0
 10
109.6703368396395
 20
114.0908447996669
 30
0.0
 10
109.6766495409296
 20
114.5018511099309
 30
0.0
 10
109.7407800098276
 20
115.2058117517987
 30
0.0
 10
109.8809658592664
 20
116.0848667612274
 30
0.0
 10
110.0804873737219
 20
116.9600031283514
 30
0.0
 10
110.2554515459468
 20
117.5375998583289
 30
0.0
 10
110.3429396706841
 20
117.8264181581986
 30
0.0
  0
LINE
  5
1F8
330
1F
100
AcDbEntity
  8
0
  6
Continuous
 62
     7
370
    25
100
AcDbLine
 10
114.4874968602
 20
117.8264181582
 30
0.0
 11
110.3429396707
 21
117.8264181582
 31
0.0
  0
SPLINE
  5
1F9
330
1F
100
AcDbEntity
  8
0
  6
Continuous
 62
     7
370
    25
100
AcDbSpline
210
0.0
220
0.0
230
1.0
 70
     8
 71
     3
 72
    10
 73
     6
 74
     0
 42
0.00000001
 43
0.00000001
 40
0.0
 40
0.0
 40
0.0
 40
0.0
 40
0.364878018469117
 40
0.7296838523336513
 40
1.0
 40
1.0
 40
1.0
 40
1.0
 10
114.4874968601637
 20
117.8264181581986
 30
0.0
 10
114.5845669504984
 20
117.5021110427779
 30
0.0
 10
114.7786879275826
 20
116.8535609703119
 30
0.0
 10
114.9810436515312
 20
115.950845435431
 30
0.0
 10
115.0509105281946
 20
115.3706687686559
 30
0.0
 10
115.0806467765034
 20
115.1237380591401
 30
0.0
  0
SPLINE
  5
1FA
330
1F
100
AcDbEntity
  8
0
  6
Continuous
 62
     7
370
    25
100
AcDbSpline
210
0.0
220
0.0
230
1.0
 70
     8
 71
     3
 72
    10
 73
     6
 74
     0
 42
0.00000001
 43
0.00000001
 40
0.0
 40
0.0
 40
0.0
 40
0.0
 40
0.3126046489374005
 40
0.6562741896929457
 40
1.0
 40
1.0
 40
1.0
 40
1.0
 10
115.086490520835
 20
104.0256715504189
 30
0.0
 10
115.0482465084759
 20
103.7407803118935
 30
0.0
 10
114.9679580089065
 20
103.1426869458818
 30
0.0
 10
114.7630088542844
 20
102.2416767584571
 30
0.0
 10
114.5793392032136
 20
101.6315210072144
 30
0.0
 10
114.4874968601638
 20
101.3264181581986
 30
0.0
  0
LINE
  5
1FB
330
1F
100
AcDbEntity
  8
0
  6
Continuous
 62
     7
370
    25
100
AcDbLine
 10
110.3429396707
 20
101.3264181582
 30
0.0
 11
114.4874968602
 21
101.3264181582
 31
0.0
  0
SPLINE
  5
1FC
330
1F
100
AcDbEntity
  8
0
  6
Continuous
 62
     7
370
    25
100
AcDbSpline
210
0.0
220
0.0
230
1.0
 70
     8
 71
     3
 72
    11
 73
     7
 74
     0
 42
0.00000001
 43
0.00000001
 40
0.0
 40
0.0
 40
0.0
 40
0.0
 40
0.2569480758776447
 40
0.5138453191638019
 40
0.775220387037738
 40
1.0
 40
1.0
 40
1.0
 40
1.0
 10
110.3429396706841
 20
101.3264181581986
 30
0.0
 10
110.2451783223858
 20
101.6506720811944
 30
0.0
 10
110.0496749661273
 20
102.2991157793337
 30
0.0
 10
109.8373384875989
 20
103.2936710540781
 30
0.0
 10
109.6983415664581
 20
104.2564051182652
 30
0.0
 10
109.6802182204415
 20
104.8903988140664
 30
0.0
 10
109.6718386678757
 20
105.183533619058
 30
0.0
  0
LINE
  5
1FD
330
1F
100
AcDbEntity
  8
0
  6
Continuous
 62
     7
370
    25
100
AcDbLine
 10
127.8429396707
 20
101.3264181582
 30
0.0
 11
132.3431592929
 21
101.3264181582
 31
0.0
  0
SPLINE
  5
1FE
330
1F
100
AcDbEntity
  8
0
  6
Continuous
 62
     7
370
    25
100
AcDbSpline
210
0.0
220
0.0
230
1.0
 70
     8
 71
     3
 72
    11
 73
     7
 74
     0
 42
0.00000001
 43
0.00000001
 40
0.0
 40
0.0
 40
0.0
 40
0.0
 40
0.2551217387389628
 40
0.5101930061946495
 40
0.7697102707285406
 40
1.0
 40
1.0
 40
1.0
 40
1.0
 10
127.8429396706841
 20
101.3264181581985
 30
0.0
 10
127.7451854411066
 20
101.6506724828093
 30
0.0
 10
127.5496963208813
 20
102.2991169840992
 30
0.0
 10
127.3372524680828
 20
103.2936662011378
 30
0.0
 10
127.1973156425708
 20
104.2656979317491
 30
0.0
 10
127.1791045145589
 20
104.9090373679377
 30
0.0
 10
127.1705422935359
 20
105.2115125601322
 30
0.0
  0
LINE
  5
1FF
330
1F
100
AcDbEntity
  8
0
  6
Continuous
 62
     7
370
    25
100
AcDbLine
 10
127.1652182654
 20
105.1602546648
 30
0.0
 11
127.1652182654
 21
102.0764181582
 31
0.0
  0
LINE
  5
200
330
1F
100
AcDbEntity
  8
0
  6
Continuous
 62
     7
370
    25
100
AcDbLine
 10
127.1652182654
 20
102.0764181582
 30
0.0
 11
115.1652182654
 21
102.0764181582
 31
0.0
  0
LINE
  5
201
330
1F
100
AcDbEntity
  8
0
  6
Continuous
 62
     7
370
    25
100
AcDbLine
 10
115.1652182654
 20
104.0316025542
 30
0.0
 11
115.1652182654
 21
102.0764181582
 31
0.0
  0
LINE
  5
202
330
1F
100
AcDbEntity
  8
0
  6
Continuous
 62
     7
370
    25
100
AcDbLine
 10
115.1652182654
 20
117.0764181582
 30
0.0
 11
115.1652182654
 21
115.1212337622
 31
0.0
  0
LINE
  5
203
330
1F
100
AcDbEntity
  8
0
  6
Continuous
 62
     7
370
    25
100
AcDbLine
 10
115.1652182654
 20
117.0764181582
 30
0.0
 11
127.1652182654
 21
117.0764181582
 31
0.0
  0
LINE
  5
204
330
1F
100
AcDbEntity
  8
0
  6
Continuous
 62
     7
370
    25
100
AcDbLine
 10
127.1652182654
 20
117.0764181582
 30
0.0
 11
127.1652182654
 21
113.9925816516
 31
0.0
  0
SPLINE
  5
205
330
1F
100
AcDbEntity
  8
0
  6
Continuous
 62
     7
370
    25
100
AcDbSpline
210
0.0
220
0.0
230
1.0
 70
     8
 71
     3
 72
     8
 73
     4
 74
     0
 42
0.00000001
 43
0.00000001
 40
0.0
 40
0.0
 40
0.0
 40
0.0
 40
1.0
 40
1.0
 40
1.0
 40
1.0
 10
114.6489821884448
 20
118.0764181581986
 30
0.0
 10
114.8226852646645
 20
117.7439067360631
 30
0.0
 10
114.9949874837272
 20
117.4105796361642
 30
0.0
 10
115.1652182654239
 20
117.0764181581986
 30
0.0
  0
SPLINE
  5
206
330
1F
100
AcDbEntity
  8
0
  6
Continuous
 62
     7
370
    25
100
AcDbSpline
210
0.0
220
0.0
230
1.0
 70
     8
 71
     3
 72
    10
 73
     6
 74
     0
 42
0.00000001
 43
0.00000001
 40
0.0
 40
0.0
 40
0.0
 40
0.0
 40
0.5
 40
0.5
 40
1.0
 40
1.0
 40
1.0
 40
1.0
 10
114.4874968601694
 20
118.0764181581986
 30
0.0
 10
114.4638214657451
 20
118.0764181581986
 30
0.0
 10
114.4507303558548
 20
118.0536257088691
 30
0.0
 10
114.4506440345664
 20
117.9656830047761
 30
0.0
 10
114.4638129685102
 20
117.9008252311021
 30
0.0
 10
114.4874968601637
 20
117.8264181581986
 30
0.0
  0
SPLINE
  5
207
330
1F
100
AcDbEntity
  8
0
  6
Continuous
 62
     7
370
    25
100
AcDbSpline
210
0.0
220
0.0
230
1.0
 70
    24
 71
     3
 72
     8
 73
     4
 74
     0
 42
0.00000001
 43
0.00000001
 40
0.0
 40
0.0
 40
0.0
 40
0.0
 40
1.0
 40
1.0
 40
1.0
 40
1.0
 10
114.6489821884448
 20
118.0764181581986
 30
0.0
 10
114.5980834715224
 20
118.0764181581986
 30
0.0
 10
114.5441493352717
 20
118.0764181581986
 30
0.0
 10
114.4874968601641
 20
118.0764181581986
 30
0.0
  0
SPLINE
  5
208
330
1F
100
AcDbEntity
  8
0
  6
Continuous
 62
     7
370
    25
100
AcDbSpline
210
0.0
220
0.0
230
1.0
 70
     8
 71
     3
 72
     8
 73
     4
 74
     0
 42
0.00000001
 43
0.00000001
 40
0.0
 40
0.0
 40
0.0
 40
0.0
 40
1.0
 40
1.0
 40
1.0
 40
1.0
 10
127.1652182654239
 20
117.0764181581986
 30
0.0
 10
127.3354958727677
 20
117.4106715544839
 30
0.0
 10
127.5077676213933
 20
117.7439380440529
 30
0.0
 10
127.681454342403
 20
118.0764181581984
 30
0.0
  0
SPLINE
  5
209
330
1F
100
AcDbEntity
  8
0
  6
Continuous
 62
     7
370
    25
100
AcDbSpline
210
0.0
220
0.0
230
1.0
 70
    24
 71
     3
 72
     8
 73
     4
 74
     0
 42
0.00000001
 43
0.00000001
 40
0.0
 40
0.0
 40
0.0
 40
0.0
 40
1.0
 40
1.0
 40
1.0
 40
1.0
 10
127.6814543424026
 20
118.0764181581986
 30
0.0
 10
127.7323505756578
 20
118.0764181581986
 30
0.0
 10
127.7862845306217
 20
118.0764181581986
 30
0.0
 10
127.8429396706841
 20
118.0764181581986
 30
0.0
  0
SPLINE
  5
20A
330
1F
100
AcDbEntity
  8
0
  6
Continuous
 62
     7
370
    25
100
AcDbSpline
210
0.0
220
0.0
230
1.0
 70
     8
 71
     3
 72
    10
 73
     6
 74
     0
 42
0.00000001
 43
0.00000001
 40
0.0
 40
0.0
 40
0.0
 40
0.0
 40
0.5
 40
0.5
 40
1.0
 40
1.0
 40
1.0
 40
1.0
 10
127.8429396706841
 20
117.8264181581986
 30
0.0
 10
127.8666150651085
 20
117.9007985355759
 30
0.0
 10
127.8797061749932
 20
117.9650991743617
 30
0.0
 10
127.8797924962815
 20
118.0533148591446
 30
0.0
 10
127.8666235623376
 20
118.0764181581986
 30
0.0
 10
127.8429396706841
 20
118.0764181581986
 30
0.0
  0
SPLINE
  5
20B
330
1F
100
AcDbEntity
  8
0
  6
Continuous
 62
     7
370
    25
100
AcDbSpline
210
0.0
220
0.0
230
1.0
 70
     8
 71
     3
 72
    10
 73
     6
 74
     0
 42
0.00000001
 43
0.00000001
 40
0.0
 40
0.0
 40
0.0
 40
0.0
 40
0.5
 40
0.5
 40
1.0
 40
1.0
 40
1.0
 40
1.0
 10
110.3429396706841
 20
118.0764181581986
 30
0.0
 10
110.3666135712401
 20
118.0764181581986
 30
0.0
 10
110.3797061284192
 20
118.0536275865512
 30
0.0
 10
110.3797925424015
 20
117.9656815892523
 30
0.0
 10
110.3666221508029
 20
117.9008207965196
 30
0.0
 10
110.3429396706841
 20
117.8264181581986
 30
0.0
  0
SPLINE
  5
20C
330
1F
100
AcDbEntity
  8
0
  6
Continuous
 62
     7
370
    25
100
AcDbSpline
210
0.0
220
0.0
230
1.0
 70
    24
 71
     3
 72
    12
 73
     8
 74
     0
 42
0.00000001
 43
0.00000001
 40
0.0
 40
0.0
 40
0.0
 40
0.0
 40
0.2499999999999999
 40
0.2499999999999999
 40
0.4999999999999998
 40
0.4999999999999998
 40
1.0
 40
1.0
 40
1.0
 40
1.0
 10
109.6652182654239
 20
118.0764181581986
 30
0.0
 10
109.6652182654239
 20
118.0764181581986
 30
0.0
 10
109.681217070405
 20
118.0764181581986
 30
0.0
 10
109.7429872087194
 20
118.0764181581986
 30
0.0
 10
109.788729333021
 20
118.0764181581986
 30
0.0
 10
109.9653994803679
 20
118.0764181581986
 30
0.0
 10
110.1356545458481
 20
118.0764181581986
 30
0.0
 10
110.3429396706841
 20
118.0764181581986
 30
0.0
  0
LINE
  5
20D
330
1F
100
AcDbEntity
  8
0
  6
Continuous
 62
     7
370
    25
100
AcDbLine
 10
109.6652182654
 20
118.0764181582
 30
0.0
 11
109.6652182654
 21
113.9590644401
 31
0.0
  0
SPLINE
  5
20E
330
1F
100
AcDbEntity
  8
0
  6
Continuous
 62
     7
370
    25
100
AcDbSpline
210
0.0
220
0.0
230
1.0
 70
     8
 71
     3
 72
     8
 73
     4
 74
     0
 42
0.00000001
 43
0.00000001
 40
0.0
 40
0.0
 40
0.0
 40
0.0
 40
1.0
 40
1.0
 40
1.0
 40
1.0
 10
127.6814543424031
 20
101.0764181581986
 30
0.0
 10
127.5077512661834
 20
101.4089295803341
 30
0.0
 10
127.3354490471206
 20
101.742256680233
 30
0.0
 10
127.1652182654239
 20
102.0764181581986
 30
0.0
  0
SPLINE
  5
20F
330
1F
100
AcDbEntity
  8
0
  6
Continuous
 62
     7
370
    25
100
AcDbSpline
210
0.0
220
0.0
230
1.0
 70
     8
 71
     3
 72
    10
 73
     6
 74
     0
 42
0.00000001
 43
0.00000001
 40
0.0
 40
0.0
 40
0.0
 40
0.0
 40
0.5
 40
0.5
 40
1.0
 40
1.0
 40
1.0
 40
1.0
 10
127.8429396706842
 20
101.0764181581986
 30
0.0
 10
127.8666150651085
 20
101.0764181581986
 30
0.0
 10
127.8797061749932
 20
101.0992106075284
 30
0.0
 10
127.8797924962815
 20
101.1871533116214
 30
0.0
 10
127.8666235623376
 20
101.2520110852953
 30
0.0
 10
127.8429396706842
 20
101.3264181581985
 30
0.0
  0
SPLINE
  5
210
330
1F
100
AcDbEntity
  8
0
  6
Continuous
 62
     7
370
    25
100
AcDbSpline
210
0.0
220
0.0
230
1.0
 70
    24
 71
     3
 72
     8
 73
     4
 74
     0
 42
0.00000001
 43
0.00000001
 40
0.0
 40
0.0
 40
0.0
 40
0.0
 40
1.0
 40
1.0
 40
1.0
 40
1.0
 10
127.6814543424031
 20
101.0764181581986
 30
0.0
 10
127.7323505756582
 20
101.0764181581986
 30
0.0
 10
127.7862845306219
 20
101.0764181581986
 30
0.0
 10
127.8429396706841
 20
101.0764181581986
 30
0.0
  0
SPLINE
  5
211
330
1F
100
AcDbEntity
  8
0
  6
Continuous
 62
     7
370
    25
100
AcDbSpline
210
0.0
220
0.0
230
1.0
 70
     8
 71
     3
 72
     8
 73
     4
 74
     0
 42
0.00000001
 43
0.00000001
 40
0.0
 40
0.0
 40
0.0
 40
0.0
 40
1.0
 40
1.0
 40
1.0
 40
1.0
 10
115.1652182654239
 20
102.0764181581986
 30
0.0
 10
114.9949406580802
 20
101.7421647619132
 30
0.0
 10
114.8226689094545
 20
101.4088982723442
 30
0.0
 10
114.6489821884448
 20
101.0764181581986
 30
0.0
  0
SPLINE
  5
212
330
1F
100
AcDbEntity
  8
0
  6
Continuous
 62
     7
370
    25
100
AcDbSpline
210
0.0
220
0.0
230
1.0
 70
    24
 71
     3
 72
     8
 73
     4
 74
     0
 42
0.00000001
 43
0.00000001
 40
0.0
 40
0.0
 40
0.0
 40
0.0
 40
1.0
 40
1.0
 40
1.0
 40
1.0
 10
114.6489821884448
 20
101.0764181581986
 30
0.0
 10
114.5980834715223
 20
101.0764181581986
 30
0.0
 10
114.5441493352715
 20
101.0764181581986
 30
0.0
 10
114.4874968601638
 20
101.0764181581986
 30
0.0
  0
SPLINE
  5
213
330
1F
100
AcDbEntity
  8
0
  6
Continuous
 62
     7
370
    25
100
AcDbSpline
210
0.0
220
0.0
230
1.0
 70
     8
 71
     3
 72
    10
 73
     6
 74
     0
 42
0.00000001
 43
0.00000001
 40
0.0
 40
0.0
 40
0.0
 40
0.0
 40
0.5
 40
0.5
 40
1.0
 40
1.0
 40
1.0
 40
1.0
 10
114.4874968601638
 20
101.3264181581986
 30
0.0
 10
114.4638214657394
 20
101.2520377808212
 30
0.0
 10
114.4507303558547
 20
101.1877371420355
 30
0.0
 10
114.4506440345664
 20
101.0995214572525
 30
0.0
 10
114.4638129685103
 20
101.0764181581986
 30
0.0
 10
114.4874968601638
 20
101.0764181581986
 30
0.0
  0
SPLINE
  5
214
330
1F
100
AcDbEntity
  8
0
  6
Continuous
 62
     7
370
    25
100
AcDbSpline
210
0.0
220
0.0
230
1.0
 70
     8
 71
     3
 72
    10
 73
     6
 74
     0
 42
0.00000001
 43
0.00000001
 40
0.0
 40
0.0
 40
0.0
 40
0.0
 40
0.5
 40
0.5
 40
1.0
 40
1.0
 40
1.0
 40
1.0
 10
110.3429396706841
 20
101.3264181581986
 30
0.0
 10
110.3666119105957
 20
101.252047691273
 30
0.0
 10
110.379705900531
 20
101.1877420949852
 30
0.0
 10
110.3797927679924
 20
101.0995193071793
 30
0.0
 10
110.3666229782331
 20
101.0764181581986
 30
0.0
 10
110.3429396706841
 20
101.0764181581986
 30
0.0
  0
SPLINE
  5
215
330
1F
100
AcDbEntity
  8
0
  6
Continuous
 62
     7
370
    25
100
AcDbSpline
210
0.0
220
0.0
230
1.0
 70
    24
 71
     3
 72
    12
 73
     8
 74
     0
 42
0.00000001
 43
0.00000001
 40
0.0
 40
0.0
 40
0.0
 40
0.0
 40
0.2500000000000001
 40
0.2500000000000001
 40
0.5000000000000001
 40
0.5000000000000001
 40
1.0
 40
1.0
 40
1.0
 40
1.0
 10
109.6652182654239
 20
101.0764181581986
 30
0.0
 10
109.6652182654239
 20
101.0764181581986
 30
0.0
 10
109.681217070405
 20
101.0764181581986
 30
0.0
 10
109.7429872087194
 20
101.0764181581986
 30
0.0
 10
109.788729333021
 20
101.0764181581986
 30
0.0
 10
109.9653994803679
 20
101.0764181581986
 30
0.0
 10
110.1356545458481
 20
101.0764181581986
 30
0.0
 10
110.3429396706841
 20
101.0764181581986
 30
0.0
  0
LINE
  5
216
330
1F
100
AcDbEntity
  8
0
  6
Continuous
 62
     7
370
    25
100
AcDbLine
 10
109.6652182654
 20
101.0764181582
 30
0.0
 11
109.6652182654
 21
105.1937718763
 31
0.0
  0
LINE
  5
217
330
1F
100
AcDbEntity
  8
0
  6
Continuous
 62
     7
370
    25
100
AcDbLine
 10
127.8429396707
 20
118.0764181582
 30
0.0
 11
132.3431592929
 21
118.0764181582
 31
0.0
  0
LINE
  5
218
330
1F
100
AcDbEntity
  8
0
  6
Continuous
 62
     7
370
    25
100
AcDbLine
 10
110.3429396707
 20
118.0764181582
 30
0.0
 11
114.4874968602
 21
118.0764181582
 31
0.0
  0
LINE
  5
219
330
1F
100
AcDbEntity
  8
0
  6
Continuous
 62
     7
370
    25
100
AcDbLine
 10
132.3431592929
 20
101.0764181582
 30
0.0
 11
127.8429396707
 21
101.0764181582
 31
0.0
  0
LINE
  5
21A
330
1F
100
AcDbEntity
  8
0
  6
Continuous
 62
     7
370
    25
100
AcDbLine
 10
114.4874968602
 20
101.0764181582
 30
0.0
 11
110.3429396707
 21
101.0764181582
 31
0.0
  0
LINE
  5
21B
330
1F
100
AcDbEntity
  8
0
  6
Continuous
 62
     7
370
    25
100
AcDbLine
 10
127.6814543424
 20
118.0764181582
 30
0.0
 11
114.6489821884
 21
118.0764181582
 31
0.0
  0
LINE
  5
21C
330
1F
100
AcDbEntity
  8
0
  6
Continuous
 62
     7
370
    25
100
AcDbLine
 10
127.6814543424
 20
101.0764181582
 30
0.0
 11
114.6489821884
 21
101.0764181582
 31
0.0
  0
SPLINE
  5
21D
330
1F
100
AcDbEntity
  8
0
  6
Continuous
 62
     7
370
    25
100
AcDbSpline
210
0.0
220
0.0
230
1.0
 70
     8
 71
     3
 72
    15
 73
    11
 74
     0
 42
0.00000001
 43
0.00000001
 40
0.0
 40
0.0
 40
0.0
 40
0.0
 40
0.0090459071881971
 40
0.1032433785236817
 40
0.1542564497735191
 40
0.3133169026715104
 40
0.5243720399414403
 40
0.667806000850918
 40
0.9918332554187028
 40
1.0
 40
1.0
 40
1.0
 40
1.0
 10
115.9261329327658
 20
111.2503312016768
 30
0.0
 10
115.9261386247325
 20
111.2503135559524
 30
0.0
 10
115.9262035886833
 20
111.2501121605398
 30
0.0
 10
115.9281992751192
 20
111.2439225398736
 30
0.0
 10
115.9360162713356
 20
111.2197206080295
 30
0.0
 10
115.9531860950906
 20
111.1667016160278
 30
0.0
 10
115.9797699916581
 20
111.0853307288313
 30
0.0
 10
116.0175992901468
 20
110.9707516568088
 30
0.0
 10
116.045880070157
 20
110.8863264790896
 30
0.0
 10
116.0657112176883
 20
110.8278556211376
 30
0.0
 10
116.0661987518312
 20
110.8264181581986
 30
0.0
  0
ARC
  5
21E
330
1F
100
AcDbEntity
  8
0
  6
Continuous
 62
     7
370
    25
100
AcDbCircle
 10
121.1652182654
 20
109.5764181582
 30
0.0
 40
5.500000000000007
100
AcDbArc
 50
17.7189318734
 51
162.2810681266
  0
SPLINE
  5
21F
330
1F
100
AcDbEntity
  8
0
  6
Continuous
 62
     7
370
    25
100
AcDbSpline
210
0.0
220
0.0
230
1.0
 70
     8
 71
     3
 72
    15
 73
    11
 74
     0
 42
0.00000001
 43
0.00000001
 40
0.0
 40
0.0
 40
0.0
 40
0.0
 40
0.0081667445812973
 40
0.3321939991490804
 40
0.475627960058556
 40
0.6866830973284891
 40
0.8457435502264751
 40
0.8967566214763124
 40
0.9909540928118028
 40
1.0
 40
1.0
 40
1.0
 40
1.0
 10
126.2642377790167
 20
110.8264181581986
 30
0.0
 10
126.2647253131596
 20
110.8278556211376
 30
0.0
 10
126.2845564606909
 20
110.8863264790896
 30
0.0
 10
126.3128372407011
 20
110.9707516568088
 30
0.0
 10
126.3506665391897
 20
111.0853307288313
 30
0.0
 10
126.3772504357573
 20
111.1667016160278
 30
0.0
 10
126.3944202595123
 20
111.2197206080295
 30
0.0
 10
126.4022372557287
 20
111.2439225398736
 30
0.0
 10
126.4042329421646
 20
111.2501121605398
 30
0.0
 10
126.4042979061154
 20
111.2503135559524
 30
0.0
 10
126.4043035980821
 20
111.2503312016768
 30
0.0
  0
ARC
  5
220
330
1F
100
AcDbEntity
  8
0
  6
Continuous
 62
     7
370
    25
100
AcDbCircle
 10
121.1652182654
 20
109.5764181582
 30
0.0
 40
5.250000000000022
100
AcDbArc
 50
13.774146998
 51
166.225853002
  0
SPLINE
  5
221
330
1F
100
AcDbEntity
  8
0
  6
Continuous
 62
     7
370
    25
100
AcDbSpline
210
0.0
220
0.0
230
1.0
 70
     8
 71
     3
 72
    15
 73
    11
 74
     0
 42
0.00000001
 43
0.00000001
 40
0.0
 40
0.0
 40
0.0
 40
0.0
 40
0.0089557228015919
 40
0.0999003359608209
 40
0.1531632460581751
 40
0.3125636920784904
 40
0.5249666935695061
 40
0.6689893599351777
 40
0.991915253381045
 40
1.0
 40
1.0
 40
1.0
 40
1.0
 10
126.6424438404756
 20
111.0764181581986
 30
0.0
 10
126.642428084897
 20
111.0764073738354
 30
0.0
 10
126.6422523327404
 20
111.0762870751699
 30
0.0
 10
126.6368233167209
 20
111.0725686242518
 30
0.0
 10
126.6152878330136
 20
111.0578575831855
 30
0.0
 10
126.5675824047488
 20
111.025408721727
 30
0.0
 10
126.4951914597569
 20
110.9768246813835
 30
0.0
 10
126.3932723477392
 20
110.9094542091152
 30
0.0
 10
126.3179172562842
 20
110.8606406443813
 30
0.0
 10
126.2655176105608
 20
110.8272340941869
 30
0.0
 10
126.2642377790167
 20
110.8264181581986
 30
0.0
  0
ARC
  5
222
330
1F
100
AcDbEntity
  8
0
  6
Continuous
 62
     7
370
    25
100
AcDbCircle
 10
126.6424438405
 20
111.3264181582
 30
0.0
 40
0.25
100
AcDbArc
 50
197.7189318734
 51
270.0
  0
SPLINE
  5
223
330
1F
100
AcDbEntity
  8
0
  6
Continuous
 62
     7
370
    25
100
AcDbSpline
210
0.0
220
0.0
230
1.0
 70
     8
 71
     3
 72
    15
 73
    11
 74
     0
 42
0.00000001
 43
0.00000001
 40
0.0
 40
0.0
 40
0.0
 40
0.0
 40
0.0080847466189582
 40
0.3310106400648243
 40
0.4750333064304948
 40
0.6874363079215142
 40
0.8468367539418303
 40
0.9000996640391847
 40
0.9910442771984082
 40
1.0
 40
1.0
 40
1.0
 40
1.0
 10
116.0661987518312
 20
110.8264181581986
 30
0.0
 10
116.064918920287
 20
110.8272340941869
 30
0.0
 10
116.0125192745638
 20
110.8606406443814
 30
0.0
 10
115.9371641831087
 20
110.9094542091152
 30
0.0
 10
115.835245071091
 20
110.9768246813836
 30
0.0
 10
115.7628541260991
 20
111.025408721727
 30
0.0
 10
115.7151486978343
 20
111.0578575831855
 30
0.0
 10
115.693613214127
 20
111.0725686242518
 30
0.0
 10
115.6881841981075
 20
111.0762870751699
 30
0.0
 10
115.6880084459509
 20
111.0764073738354
 30
0.0
 10
115.6879926903723
 20
111.0764181581986
 30
0.0
  0
ARC
  5
224
330
1F
100
AcDbEntity
  8
0
  6
Continuous
 62
     7
370
    25
100
AcDbCircle
 10
115.6879926904
 20
111.3264181582
 30
0.0
 40
0.2500000000000077
100
AcDbArc
 50
270.0
 51
342.2810681266
  0
ARC
  5
225
330
1F
100
AcDbEntity
  8
0
  6
Continuous
 62
     7
370
    25
100
AcDbCircle
 10
126.6424438405
 20
107.8264181582
 30
0.0
 40
0.25
100
AcDbArc
 50
90.0
 51
162.2810681266
  0
SPLINE
  5
226
330
1F
100
AcDbEntity
  8
0
  6
Continuous
 62
     7
370
    25
100
AcDbSpline
210
0.0
220
0.0
230
1.0
 70
     8
 71
     3
 72
    15
 73
    11
 74
     0
 42
0.00000001
 43
0.00000001
 40
0.0
 40
0.0
 40
0.0
 40
0.0
 40
0.0090459071881971
 40
0.1032433785236874
 40
0.1542564497735246
 40
0.313316902671511
 40
0.5243720399414428
 40
0.6678060008509903
 40
0.9918332554187292
 40
1.0
 40
1.0
 40
1.0
 40
1.0
 10
126.4043035980821
 20
107.9025051147203
 30
0.0
 10
126.4042979061154
 20
107.9025227604448
 30
0.0
 10
126.4042329421646
 20
107.9027241558573
 30
0.0
 10
126.4022372557287
 20
107.9089137765235
 30
0.0
 10
126.3944202595123
 20
107.9331157083677
 30
0.0
 10
126.3772504357573
 20
107.9861347003693
 30
0.0
 10
126.3506665391898
 20
108.0675055875659
 30
0.0
 10
126.312837240701
 20
108.1820846595884
 30
0.0
 10
126.2845564606917
 20
108.2665098373079
 30
0.0
 10
126.2647253131596
 20
108.3249806952596
 30
0.0
 10
126.2642377790167
 20
108.3264181581986
 30
0.0
  0
SPLINE
  5
227
330
1F
100
AcDbEntity
  8
0
  6
Continuous
 62
     7
370
    25
100
AcDbSpline
210
0.0
220
0.0
230
1.0
 70
     8
 71
     3
 72
    15
 73
    11
 74
     0
 42
0.00000001
 43
0.00000001
 40
0.0
 40
0.0
 40
0.0
 40
0.0
 40
0.0080847466189818
 40
0.3310106400647567
 40
0.4750333064304972
 40
0.6874363079215137
 40
0.8468367539418253
 40
0.9000996640391794
 40
0.9910442771984082
 40
1.0
 40
1.0
 40
1.0
 40
1.0
 10
126.2642377790167
 20
108.3264181581986
 30
0.0
 10
126.2655176105609
 20
108.3256022222103
 30
0.0
 10
126.3179172562847
 20
108.2921956720167
 30
0.0
 10
126.3932723477391
 20
108.2433821072818
 30
0.0
 10
126.4951914597569
 20
108.1760116350137
 30
0.0
 10
126.5675824047488
 20
108.1274275946702
 30
0.0
 10
126.6152878330136
 20
108.0949787332116
 30
0.0
 10
126.6368233167209
 20
108.0802676921454
 30
0.0
 10
126.6422523327405
 20
108.0765492412272
 30
0.0
 10
126.642428084897
 20
108.0764289425617
 30
0.0
 10
126.6424438404756
 20
108.0764181581986
 30
0.0
  0
SPLINE
  5
228
330
1F
100
AcDbEntity
  8
0
  6
Continuous
 62
     7
370
    25
100
AcDbSpline
210
0.0
220
0.0
230
1.0
 70
     8
 71
     3
 72
    15
 73
    11
 74
     0
 42
0.00000001
 43
0.00000001
 40
0.0
 40
0.0
 40
0.0
 40
0.0
 40
0.0081667445812695
 40
0.3321939991490083
 40
0.4756279600585602
 40
0.6866830973284899
 40
0.8457435502264811
 40
0.8967566214763185
 40
0.9909540928118029
 40
1.0
 40
1.0
 40
1.0
 40
1.0
 10
116.0661987518312
 20
108.3264181581986
 30
0.0
 10
116.0657112176883
 20
108.3249806952596
 30
0.0
 10
116.0458800701562
 20
108.2665098373079
 30
0.0
 10
116.0175992901469
 20
108.1820846595884
 30
0.0
 10
115.9797699916581
 20
108.0675055875659
 30
0.0
 10
115.9531860950906
 20
107.9861347003693
 30
0.0
 10
115.9360162713356
 20
107.9331157083677
 30
0.0
 10
115.9281992751192
 20
107.9089137765235
 30
0.0
 10
115.9262035886833
 20
107.9027241558573
 30
0.0
 10
115.9261386247325
 20
107.9025227604448
 30
0.0
 10
115.9261329327658
 20
107.9025051147203
 30
0.0
  0
ARC
  5
229
330
1F
100
AcDbEntity
  8
0
  6
Continuous
 62
     7
370
    25
100
AcDbCircle
 10
121.1652182654
 20
109.5764181582
 30
0.0
 40
5.250000000000022
100
AcDbArc
 50
193.774146998
 51
346.225853002
  0
ARC
  5
22A
330
1F
100
AcDbEntity
  8
0
  6
Continuous
 62
     7
370
    25
100
AcDbCircle
 10
121.1652182654
 20
109.5764181582
 30
0.0
 40
5.500000000000011
100
AcDbArc
 50
197.7189318734
 51
342.2810681266
  0
ARC
  5
22B
330
1F
100
AcDbEntity
  8
0
  6
Continuous
 62
     7
370
    25
100
AcDbCircle
 10
115.6879926904
 20
107.8264181582
 30
0.0
 40
0.2500000000000034
100
AcDbArc
 50
17.7189318734
 51
90.0
  0
SPLINE
  5
22C
330
1F
100
AcDbEntity
  8
0
  6
Continuous
 62
     7
370
    25
100
AcDbSpline
210
0.0
220
0.0
230
1.0
 70
     8
 71
     3
 72
    15
 73
    11
 74
     0
 42
0.00000001
 43
0.00000001
 40
0.0
 40
0.0
 40
0.0
 40
0.0
 40
0.0089557228015919
 40
0.0999003359608148
 40
0.153163246058169
 40
0.3125636920784848
 40
0.5249666935694999
 40
0.6689893599352451
 40
0.9919152533810159
 40
1.0
 40
1.0
 40
1.0
 40
1.0
 10
115.6879926903723
 20
108.0764181581986
 30
0.0
 10
115.6880084459509
 20
108.0764289425617
 30
0.0
 10
115.6881841981075
 20
108.0765492412272
 30
0.0
 10
115.693613214127
 20
108.0802676921454
 30
0.0
 10
115.7151486978343
 20
108.0949787332116
 30
0.0
 10
115.7628541260991
 20
108.1274275946702
 30
0.0
 10
115.835245071091
 20
108.1760116350137
 30
0.0
 10
115.9371641831088
 20
108.2433821072818
 30
0.0
 10
116.0125192745633
 20
108.2921956720166
 30
0.0
 10
116.064918920287
 20
108.3256022222103
 30
0.0
 10
116.0661987518312
 20
108.3264181581986
 30
0.0
  0
LINE
  5
22D
330
1F
100
AcDbEntity
  8
0
  6
Continuous
 62
     7
370
    25
100
AcDbLine
 10
116.1652182654
 20
108.9764181582
 30
0.0
 11
126.1652182654
 21
108.9764181582
 31
0.0
  0
LINE
  5
22E
330
1F
100
AcDbEntity
  8
0
  6
Continuous
 62
     7
370
    25
100
AcDbLine
 10
126.1652182654
 20
108.9764181582
 30
0.0
 11
126.1652182654
 21
110.1764181582
 31
0.0
  0
LINE
  5
22F
330
1F
100
AcDbEntity
  8
0
  6
Continuous
 62
     7
370
    25
100
AcDbLine
 10
126.1652182654
 20
110.1764181582
 30
0.0
 11
116.1652182654
 21
110.1764181582
 31
0.0
  0
LINE
  5
230
330
1F
100
AcDbEntity
  8
0
  6
Continuous
 62
     7
370
    25
100
AcDbLine
 10
116.1652182654
 20
110.1764181582
 30
0.0
 11
116.1652182654
 21
108.9764181582
 31
0.0
  0
LINE
  5
231
330
1F
100
AcDbEntity
  8
0
  6
Continuous
 62
     7
370
    25
100
AcDbLine
 10
115.4152182654
 20
108.3264181582
 30
0.0
 11
116.0661987518
 21
108.3264181582
 31
0.0
  0
LINE
  5
232
330
1F
100
AcDbEntity
  8
0
  6
Continuous
 62
     7
370
    25
100
AcDbLine
 10
115.4152182654
 20
110.8264181582
 30
0.0
 11
115.4152182654
 21
108.3264181582
 31
0.0
  0
LINE
  5
233
330
1F
100
AcDbEntity
  8
0
  6
Continuous
 62
     7
370
    25
100
AcDbLine
 10
116.0661987518
 20
110.8264181582
 30
0.0
 11
115.4152182654
 21
110.8264181582
 31
0.0
  0
LINE
  5
234
330
1F
100
AcDbEntity
  8
0
  6
Continuous
 62
     7
370
    25
100
AcDbLine
 10
126.9152182654
 20
110.8264181582
 30
0.0
 11
126.264237779
 21
110.8264181582
 31
0.0
  0
LINE
  5
235
330
1F
100
AcDbEntity
  8
0
  6
Continuous
 62
     7
370
    25
100
AcDbLine
 10
126.9152182654
 20
108.3264181582
 30
0.0
 11
126.9152182654
 21
110.8264181582
 31
0.0
  0
LINE
  5
236
330
1F
100
AcDbEntity
  8
0
  6
Continuous
 62
     7
370
    25
100
AcDbLine
 10
126.264237779
 20
108.3264181582
 30
0.0
 11
126.9152182654
 21
108.3264181582
 31
0.0
  0
ARC
  5
237
330
1F
100
AcDbEntity
  8
0
  6
Continuous
 62
     7
370
    25
100
AcDbCircle
 10
115.4152182654
 20
110.8264181582
 30
0.0
 40
0.25
100
AcDbArc
 50
90.0
 51
180.0
  0
LINE
  5
238
330
1F
100
AcDbEntity
  8
0
  6
Continuous
 62
     7
370
    25
100
AcDbLine
 10
115.4152182654
 20
111.0764181582
 30
0.0
 11
115.4152182654
 21
110.8264181582
 31
0.0
  0
LINE
  5
239
330
1F
100
AcDbEntity
  8
0
  6
Continuous
 62
     7
370
    25
100
AcDbLine
 10
115.4152182654
 20
110.8264181582
 30
0.0
 11
115.1652182654
 21
110.8264181582
 31
0.0
  0
LINE
  5
23A
330
1F
100
AcDbEntity
  8
0
  6
Continuous
 62
     7
370
    25
100
AcDbLine
 10
126.6424438405
 20
111.0764181582
 30
0.0
 11
126.9152182654
 21
111.0764181582
 31
0.0
  0
LINE
  5
23B
330
1F
100
AcDbEntity
  8
0
  6
Continuous
 62
     7
370
    25
100
AcDbLine
 10
126.9152182654
 20
110.8264181582
 30
0.0
 11
126.9152182654
 21
111.0764181582
 31
0.0
  0
LINE
  5
23C
330
1F
100
AcDbEntity
  8
0
  6
Continuous
 62
     7
370
    25
100
AcDbLine
 10
115.4152182654
 20
111.0764181582
 30
0.0
 11
115.6879926904
 21
111.0764181582
 31
0.0
  0
LINE
  5
23D
330
1F
100
AcDbEntity
  8
0
  6
Continuous
 62
     7
370
    25
100
AcDbLine
 10
127.1652182654
 20
110.8264181582
 30
0.0
 11
126.9152182654
 21
110.8264181582
 31
0.0
  0
ARC
  5
23E
330
1F
100
AcDbEntity
  8
0
  6
Continuous
 62
     7
370
    25
100
AcDbCircle
 10
126.9152182654
 20
110.8264181582
 30
0.0
 40
0.25
100
AcDbArc
 50
0.0
 51
90.0
  0
LINE
  5
23F
330
1F
100
AcDbEntity
  8
0
  6
Continuous
 62
     7
370
    25
100
AcDbLine
 10
115.1652182654
 20
108.3264181582
 30
0.0
 11
115.4152182654
 21
108.3264181582
 31
0.0
  0
LINE
  5
240
330
1F
100
AcDbEntity
  8
0
  6
Continuous
 62
     7
370
    25
100
AcDbLine
 10
115.1652182654
 20
108.3264181582
 30
0.0
 11
115.1652182654
 21
110.8264181582
 31
0.0
  0
LINE
  5
241
330
1F
100
AcDbEntity
  8
0
  6
Continuous
 62
     7
370
    25
100
AcDbLine
 10
127.1652182654
 20
110.8264181582
 30
0.0
 11
127.1652182654
 21
108.3264181582
 31
0.0
  0
LINE
  5
242
330
1F
100
AcDbEntity
  8
0
  6
Continuous
 62
     7
370
    25
100
AcDbLine
 10
126.9152182654
 20
108.3264181582
 30
0.0
 11
127.1652182654
 21
108.3264181582
 31
0.0
  0
ARC
  5
243
330
1F
100
AcDbEntity
  8
0
  6
Continuous
 62
     7
370
    25
100
AcDbCircle
 10
115.4152182654
 20
108.3264181582
 30
0.0
 40
0.25
100
AcDbArc
 50
180.0
 51
270.0
  0
LINE
  5
244
330
1F
100
AcDbEntity
  8
0
  6
Continuous
 62
     7
370
    25
100
AcDbLine
 10
115.4152182654
 20
108.3264181582
 30
0.0
 11
115.4152182654
 21
108.0764181582
 31
0.0
  0
LINE
  5
245
330
1F
100
AcDbEntity
  8
0
  6
Continuous
 62
     7
370
    25
100
AcDbLine
 10
115.6879926904
 20
108.0764181582
 30
0.0
 11
115.4152182654
 21
108.0764181582
 31
0.0
  0
LINE
  5
246
330
1F
100
AcDbEntity
  8
0
  6
Continuous
 62
     7
370
    25
100
AcDbLine
 10
126.9152182654
 20
108.0764181582
 30
0.0
 11
126.9152182654
 21
108.3264181582
 31
0.0
  0
LINE
  5
247
330
1F
100
AcDbEntity
  8
0
  6
Continuous
 62
     7
370
    25
100
AcDbLine
 10
126.9152182654
 20
108.0764181582
 30
0.0
 11
126.6424438405
 21
108.0764181582
 31
0.0
  0
ARC
  5
248
330
1F
100
AcDbEntity
  8
0
  6
Continuous
 62
     7
370
    25
100
AcDbCircle
 10
126.9152182654
 20
108.3264181582
 30
0.0
 40
0.25
100
AcDbArc
 50
270.0
 51
0.0
  0
LINE
  5
249
330
1F
100
AcDbEntity
  8
0
  6
Continuous
 62
     7
370
    25
100
AcDbLine
 10
101.1652182654
 20
106.3047188941
 30
0.0
 11
101.1652182654
 21
112.8481174223
 31
0.0
  0
LINE
  5
24A
330
1F
100
AcDbEntity
  8
0
  6
Continuous
 62
     7
370
    25
100
AcDbLine
 10
98.9897814039
 20
106.0764181582
 30
0.0
 11
101.1652182654
 21
106.3047188941
 31
0.0
  0
LINE
  5
24B
330
1F
100
AcDbEntity
  8
0
  6
Continuous
 62
     7
370
    25
100
AcDbLine
 10
81.1652182654
 20
106.0764181582
 30
0.0
 11
98.9897814039
 21
106.0764181582
 31
0.0
  0
LINE
  5
24C
330
1F
100
AcDbEntity
  8
0
  6
Continuous
 62
     7
370
    25
100
AcDbLine
 10
81.1652182654
 20
113.0764181582
 30
0.0
 11
81.1652182654
 21
106.0764181582
 31
0.0
  0
LINE
  5
24D
330
1F
100
AcDbEntity
  8
0
  6
Continuous
 62
     7
370
    25
100
AcDbLine
 10
98.9897814039
 20
113.0764181582
 30
0.0
 11
81.1652182654
 21
113.0764181582
 31
0.0
  0
LINE
  5
24E
330
1F
100
AcDbEntity
  8
0
  6
Continuous
 62
     7
370
    25
100
AcDbLine
 10
101.1652182654
 20
112.8481174223
 30
0.0
 11
98.9897814039
 21
113.0764181582
 31
0.0
  0
LINE
  5
24F
330
1F
100
AcDbEntity
  8
0
  6
Continuous
 62
     7
370
    25
100
AcDbLine
 10
115.9414160911
 20
111.297432639
 30
0.0
 11
115.8130070524
 21
111.1132910056
 31
0.0
  0
LINE
  5
250
330
1F
100
AcDbEntity
  8
0
  6
Continuous
 62
     7
370
    25
100
AcDbLine
 10
115.8225743931
 20
108.0312004908
 30
0.0
 11
115.9414160911
 21
107.8554036774
 31
0.0
  0
LINE
  5
251
330
1F
100
AcDbEntity
  8
0
  6
Continuous
 62
     7
370
    25
100
AcDbLine
 10
107.7486486118
 20
112.1572207938
 30
0.0
 11
107.7486486118
 21
106.9956155226
 31
0.0
  0
LINE
  5
252
330
1F
100
AcDbEntity
  8
0
  6
Continuous
 62
     7
370
    25
100
AcDbLine
 10
115.9414160911
 20
107.8554036774
 30
0.0
 11
107.7486486118
 21
106.9956155226
 31
0.0
  0
LINE
  5
253
330
1F
100
AcDbEntity
  8
0
  6
Continuous
 62
     7
370
    25
100
AcDbLine
 10
107.7486486118
 20
112.1572207938
 30
0.0
 11
115.9414160911
 21
111.297432639
 31
0.0
  0
LINE
  5
254
330
1F
100
AcDbEntity
  8
0
  6
Continuous
 62
     7
370
    25
100
AcDbLine
 10
107.7486486118
 20
106.9956155226
 30
0.0
 11
101.1652182654
 21
106.3047188941
 31
0.0
  0
LINE
  5
255
330
1F
100
AcDbEntity
  8
0
  6
Continuous
 62
     7
370
    25
100
AcDbLine
 10
101.1652182654
 20
112.8481174223
 30
0.0
 11
107.7486486118
 21
112.1572207938
 31
0.0
  0
ARC
  5
256
330
1F
100
AcDbEntity
  8
0
  6
Continuous
 62
     7
370
    25
100
AcDbCircle
 10
121.1652182654
 20
109.5764181582
 30
0.0
 40
7.450000000000639
100
AcDbArc
 50
233.0863788866
 51
126.9136211134
  0
ARC
  5
257
330
1F
100
AcDbEntity
  8
0
  6
Continuous
 62
     7
370
    25
100
AcDbCircle
 10
121.1652182654
 20
109.5764181582
 30
0.0
 40
7.207531252870796
100
AcDbArc
 50
195.3041237151
 51
238.9797515565
  0
ARC
  5
258
330
1F
100
AcDbEntity
  8
0
  6
Continuous
 62
     7
370
    25
100
AcDbCircle
 10
121.1652182654
 20
109.5764181582
 30
0.0
 40
7.207531252872412
100
AcDbArc
 50
121.0202484435
 51
164.6958762849
  0
ARC
  5
259
330
1F
100
AcDbEntity
  8
0
  6
Continuous
 62
     7
370
    25
100
AcDbCircle
 10
98.9897814039
 20
178.0764181582
 30
0.0
 40
65.0
100
AcDbArc
 50
270.0
 51
286.5000949923
  0
ARC
  5
25A
330
1F
100
AcDbEntity
  8
0
  6
Continuous
 62
     7
370
    25
100
AcDbCircle
 10
98.9897814039
 20
41.0764181582
 30
0.0
 40
65.0
100
AcDbArc
 50
73.4999050077
 51
90.0
  0
LINE
  5
25B
330
1F
100
AcDbEntity
  8
0
  6
Continuous
 62
     7
370
    25
100
AcDbLine
 10
106.8652182654
 20
103.3262058683
 30
0.0
 11
106.8652182654
 21
101.5764181582
 31
0.0
  0
LINE
  5
25C
330
1F
100
AcDbEntity
  8
0
  6
Continuous
 62
     7
370
    25
100
AcDbLine
 10
106.8652182654
 20
117.5764181582
 30
0.0
 11
106.8652182654
 21
113.5552782563
 31
0.0
  0
LINE
  5
25D
330
1F
100
AcDbEntity
  8
0
  6
Continuous
 62
     7
370
    25
100
AcDbLine
 10
106.8652182654
 20
105.5975580601
 30
0.0
 11
106.8652182654
 21
103.3262058683
 31
0.0
  0
LINE
  5
25E
330
1F
100
AcDbEntity
  8
0
  6
Continuous
 62
     7
370
    25
100
AcDbLine
 10
106.6652182654
 20
103.4824611756
 30
0.0
 11
106.6652182654
 21
105.6216555424
 31
0.0
  0
LINE
  5
25F
330
1F
100
AcDbEntity
  8
0
  6
Continuous
 62
     7
370
    25
100
AcDbLine
 10
106.6652182654
 20
113.531180774
 30
0.0
 11
106.6652182654
 21
117.3764181582
 31
0.0
  0
LINE
  5
260
330
1F
100
AcDbEntity
  8
0
  6
Continuous
 62
     7
370
    25
100
AcDbLine
 10
106.6652182654
 20
101.7764181582
 30
0.0
 11
106.6652182654
 21
103.4824611756
 31
0.0
  0
LINE
  5
261
330
1F
100
AcDbEntity
  8
0
  6
Continuous
 62
     7
370
    25
100
AcDbLine
 10
97.1652182654
 20
105.6622227117
 30
0.0
 11
97.1652182654
 21
104.5664181582
 31
0.0
  0
LINE
  5
262
330
1F
100
AcDbEntity
  8
0
  6
Continuous
 62
     7
370
    25
100
AcDbLine
 10
97.1652182654
 20
114.5864181582
 30
0.0
 11
97.1652182654
 21
113.0764181582
 31
0.0
  0
LINE
  5
263
330
1F
100
AcDbEntity
  8
0
  6
Continuous
 62
     7
370
    25
100
AcDbLine
 10
97.1652182654
 20
106.0764181582
 30
0.0
 11
97.1652182654
 21
105.6622227117
 31
0.0
  0
LINE
  5
264
330
1F
100
AcDbEntity
  8
0
  6
Continuous
 62
     7
370
    25
100
AcDbLine
 10
132.3431592929
 20
109.3264181582
 30
0.0
 11
128.611022453
 21
109.3264181582
 31
0.0
  0
LINE
  5
265
330
1F
100
AcDbEntity
  8
0
  6
Continuous
 62
     7
370
    25
100
AcDbLine
 10
128.611022453
 20
109.8264181582
 30
0.0
 11
132.3431592929
 21
109.8264181582
 31
0.0
  0
LINE
  5
266
330
1F
100
AcDbEntity
  8
0
  6
Continuous
 62
     7
370
    25
100
AcDbLine
 10
98.1552182654
 20
104.8887589408
 30
0.0
 11
98.1552182654
 21
103.5764181582
 31
0.0
  0
LINE
  5
267
330
1F
100
AcDbEntity
  8
0
  6
Continuous
 62
     7
370
    25
100
AcDbLine
 10
98.1552182654
 20
115.5764181582
 30
0.0
 11
98.1552182654
 21
113.0764181582
 31
0.0
  0
LINE
  5
268
330
1F
100
AcDbEntity
  8
0
  6
Continuous
 62
     7
370
    25
100
AcDbLine
 10
98.1552182654
 20
106.0764181582
 30
0.0
 11
98.1552182654
 21
104.8887589408
 31
0.0
  0
LINE
  5
269
330
1F
100
AcDbEntity
  8
0
  6
Continuous
 62
     7
370
    25
100
AcDbLine
 10
98.1752182654
 20
104.8887589408
 30
0.0
 11
98.1752182654
 21
103.5764181582
 31
0.0
  0
LINE
  5
26A
330
1F
100
AcDbEntity
  8
0
  6
Continuous
 62
     7
370
    25
100
AcDbLine
 10
98.1752182654
 20
115.5764181582
 30
0.0
 11
98.1752182654
 21
113.0764181582
 31
0.0
  0
LINE
  5
26B
330
1F
100
AcDbEntity
  8
0
  6
Continuous
 62
     7
370
    25
100
AcDbLine
 10
98.1752182654
 20
106.0764181582
 30
0.0
 11
98.1752182654
 21
104.8887589408
 31
0.0
  0
LINE
  5
26C
330
1F
100
AcDbEntity
  8
0
  6
Continuous
 62
     7
370
    25
100
AcDbLine
 10
99.1101534873
 20
105.4078621427
 30
0.0
 11
99.1101534873
 21
104.2408476884
 31
0.0
  0
LINE
  5
26D
330
1F
100
AcDbEntity
  8
0
  6
Continuous
 62
     7
370
    25
100
AcDbLine
 10
99.1101534873
 20
114.911988628
 30
0.0
 11
99.1101534873
 21
113.0765296155
 31
0.0
  0
LINE
  5
26E
330
1F
100
AcDbEntity
  8
0
  6
Continuous
 62
     7
370
    25
100
AcDbLine
 10
99.1101534873
 20
106.0763067009
 30
0.0
 11
99.1101534873
 21
105.4078621427
 31
0.0
  0
LINE
  5
26F
330
1F
100
AcDbEntity
  8
0
  6
Continuous
 62
     7
370
    25
100
AcDbLine
 10
99.5823429934
 20
105.670035477
 30
0.0
 11
99.5823429934
 21
104.5764181582
 31
0.0
  0
LINE
  5
270
330
1F
100
AcDbEntity
  8
0
  6
Continuous
 62
     7
370
    25
100
AcDbLine
 10
99.5823429934
 20
114.5764181582
 30
0.0
 11
99.5823429934
 21
113.0791192085
 31
0.0
  0
LINE
  5
271
330
1F
100
AcDbEntity
  8
0
  6
Continuous
 62
     7
370
    25
100
AcDbLine
 10
99.5823429934
 20
106.0737171079
 30
0.0
 11
99.5823429934
 21
105.670035477
 31
0.0
  0
INSERT
  5
27D
330
1F
100
AcDbEntity
  8
FORMAT
100
AcDbBlockReference
  2
SW_CENTERMARKSYMBOL_1
 10
121.1652182654
 20
109.5764181582
 30
0.0
  0
ENDSEC
  0
SECTION
  2
OBJECTS
  0
DICTIONARY
  5
C
330
0
100
AcDbDictionary
281
     1
  3
ACAD_GROUP
350
D
  3
ACAD_LAYOUT
350
1A
  3
ACAD_MLINESTYLE
350
17
  3
ACAD_PLOTSETTINGS
350
19
  3
ACAD_PLOTSTYLENAME
350
E
  3
ACAD_SCALELIST
350
47
  3
DWGPROPS
350
27E
  0
DICTIONARY
  5
D
102
{ACAD_REACTORS
330
C
102
}
330
C
100
AcDbDictionary
281
     1
  0
DICTIONARY
  5
1A
102
{ACAD_REACTORS
330
C
102
}
330
C
100
AcDbDictionary
281
     1
  3
Layout1
350
1E
  3
Layout2
350
26
  3
Model
350
22
  0
DICTIONARY
  5
17
102
{ACAD_REACTORS
330
C
102
}
330
C
100
AcDbDictionary
281
     1
  3
Standard
350
18
  0
DICTIONARY
  5
19
102
{ACAD_REACTORS
330
C
102
}
330
C
100
AcDbDictionary
281
     1
  0
ACDBDICTIONARYWDFLT
  5
E
102
{ACAD_REACTORS
330
C
102
}
330
C
100
AcDbDictionary
281
     1
  3
Normal
350
F
100
AcDbDictionaryWithDefault
340
F
  0
DICTIONARY
  5
47
102
{ACAD_REACTORS
330
C
102
}
330
C
100
AcDbDictionary
281
     1
  3
A0
350
48
  3
A1
350
49
  3
A2
350
4A
  3
A3
350
4B
  3
A4
350
4C
  3
A5
350
4D
  3
A6
350
4E
  3
A7
350
4F
  3
A8
350
50
  3
A9
350
51
  3
B0
350
52
  3
B1
350
53
  3
B2
350
54
  3
B3
350
55
  3
B4
350
56
  3
B5
350
57
  3
B6
350
58
  0
XRECORD
  5
27E
102
{ACAD_REACTORS
330
C
102
}
330
C
100
AcDbXrecord
280
     1
  1
DWGPROPS COOKIE
  2

  3

  4

  6

  7

  8
user28
  9

300
=
301
=
302
=
303
=
304
=
305
=
306
=
307
=
308
=
309
=
 40
0.0
 41
2460333.00892029
 42
2460333.008920961
  1

 90
        0
  0
LAYOUT
  5
1E
102
{ACAD_REACTORS
330
1A
102
}
330
1A
100
AcDbPlotSettings
  1

  2
none_device
  4

  6

 40
0.0
 41
0.0
 42
0.0
 43
0.0
 44
0.0
 45
0.0
 46
0.0
 47
0.0
 48
0.0
 49
0.0
140
0.0
141
0.0
142
1.0
143
1.0
 70
   688
 72
     1
 73
     0
 74
     5
  7

 75
    16
147
1.0
148
0.0
149
0.0
100
AcDbLayout
  1
Layout1
 70
     1
 71
     1
 10
0.0
 20
0.0
 11
420.0
 21
297.0
 12
0.0
 22
0.0
 32
0.0
 14
1.0000000000E+20
 24
1.0000000000E+20
 34
1.0000000000E+20
 15
-1.0000000000E+20
 25
-1.0000000000E+20
 35
-1.0000000000E+20
146
0.0
 13
0.0
 23
0.0
 33
0.0
 16
1.0
 26
0.0
 36
0.0
 17
0.0
 27
1.0
 37
0.0
 76
     0
330
1B
  0
LAYOUT
  5
26
102
{ACAD_REACTORS
330
1A
102
}
330
1A
100
AcDbPlotSettings
  1

  2
none_device
  4

  6

 40
0.0
 41
0.0
 42
0.0
 43
0.0
 44
0.0
 45
0.0
 46
0.0
 47
0.0
 48
0.0
 49
0.0
140
0.0
141
0.0
142
1.0
143
1.0
 70
   688
 72
     1
 73
     0
 74
     5
  7

 75
    16
147
1.0
148
0.0
149
0.0
100
AcDbLayout
  1
Layout2
 70
     1
 71
     2
 10
0.0
 20
0.0
 11
0.0
 21
0.0
 12
0.0
 22
0.0
 32
0.0
 14
0.0
 24
0.0
 34
0.0
 15
0.0
 25
0.0
 35
0.0
146
0.0
 13
0.0
 23
0.0
 33
0.0
 16
1.0
 26
0.0
 36
0.0
 17
0.0
 27
1.0
 37
0.0
 76
     0
330
23
  0
LAYOUT
  5
22
102
{ACAD_REACTORS
330
1A
102
}
330
1A
100
AcDbPlotSettings
  1

  2
none_device
  4
Letter_(8.50_x_11.00_Inches)
  6

 40
6.35
 41
6.35
 42
6.35000508
 43
6.35000508
 44
215.9
 45
279.4
 46
0.0
 47
0.0
 48
0.0
 49
0.0
140
0.0
141
0.0
142
1.0
143
1.0
 70
  1712
 72
     1
 73
     0
 74
     0
  7

 75
     0
147
1.0
148
0.0
149
0.0
100
AcDbLayout
  1
Model
 70
     1
 71
     0
 10
0.0
 20
0.0
 11
297.0
 21
210.0
 12
0.0
 22
0.0
 32
0.0
 14
0.0
 24
0.0
 34
0.0
 15
297.0
 25
210.0
 35
0.0
146
0.0
 13
0.0
 23
0.0
 33
0.0
 16
1.0
 26
0.0
 36
0.0
 17
0.0
 27
1.0
 37
0.0
 76
     0
330
1F
331
29
  0
MLINESTYLE
  5
18
102
{ACAD_REACTORS
330
17
102
}
330
17
100
AcDbMlineStyle
  2
Standard
 70
     0
  3

 62
   256
 51
90.0
 52
90.0
 71
     2
 49
0.5
 62
   256
  6
BYLAYER
 49
-0.5
 62
   256
  6
BYLAYER
  0
ACDBPLACEHOLDER
  5
F
102
{ACAD_REACTORS
330
E
102
}
330
E
  0
SCALE
  5
48
102
{ACAD_REACTORS
330
47
102
}
330
47
100
AcDbScale
 70
     0
300
1:1
140
1.0
141
1.0
290
     1
  0
SCALE
  5
49
102
{ACAD_REACTORS
330
47
102
}
330
47
100
AcDbScale
 70
     0
300
1:2
140
1.0
141
2.0
290
     0
  0
SCALE
  5
4A
102
{ACAD_REACTORS
330
47
102
}
330
47
100
AcDbScale
 70
     0
300
1:4
140
1.0
141
4.0
290
     0
  0
SCALE
  5
4B
102
{ACAD_REACTORS
330
47
102
}
330
47
100
AcDbScale
 70
     0
300
1:5
140
1.0
141
5.0
290
     0
  0
SCALE
  5
4C
102
{ACAD_REACTORS
330
47
102
}
330
47
100
AcDbScale
 70
     0
300
1:8
140
1.0
141
8.0
290
     0
  0
SCALE
  5
4D
102
{ACAD_REACTORS
330
47
102
}
330
47
100
AcDbScale
 70
     0
300
1:10
140
1.0
141
10.0
290
     0
  0
SCALE
  5
4E
102
{ACAD_REACTORS
330
47
102
}
330
47
100
AcDbScale
 70
     0
300
1:16
140
1.0
141
16.0
290
     0
  0
SCALE
  5
4F
102
{ACAD_REACTORS
330
47
102
}
330
47
100
AcDbScale
 70
     0
300
1:20
140
1.0
141
20.0
290
     0
  0
SCALE
  5
50
102
{ACAD_REACTORS
330
47
102
}
330
47
100
AcDbScale
 70
     0
300
1:30
140
1.0
141
30.0
290
     0
  0
SCALE
  5
51
102
{ACAD_REACTORS
330
47
102
}
330
47
100
AcDbScale
 70
     0
300
1:40
140
1.0
141
40.0
290
     0
  0
SCALE
  5
52
102
{ACAD_REACTORS
330
47
102
}
330
47
100
AcDbScale
 70
     0
300
1:50
140
1.0
141
50.0
290
     0
  0
SCALE
  5
53
102
{ACAD_REACTORS
330
47
102
}
330
47
100
AcDbScale
 70
     0
300
1:100
140
1.0
141
100.0
290
     0
  0
SCALE
  5
54
102
{ACAD_REACTORS
330
47
102
}
330
47
100
AcDbScale
 70
     0
300
2:1
140
2.0
141
1.0
290
     0
  0
SCALE
  5
55
102
{ACAD_REACTORS
330
47
102
}
330
47
100
AcDbScale
 70
     0
300
4:1
140
4.0
141
1.0
290
     0
  0
SCALE
  5
56
102
{ACAD_REACTORS
330
47
102
}
330
47
100
AcDbScale
 70
     0
300
8:1
140
8.0
141
1.0
290
     0
  0
SCALE
  5
57
102
{ACAD_REACTORS
330
47
102
}
330
47
100
AcDbScale
 70
     0
300
10:1
140
10.0
141
1.0
290
     0
  0
SCALE
  5
58
102
{ACAD_REACTORS
330
47
102
}
330
47
100
AcDbScale
 70
     0
300
100:1
140
100.0
141
1.0
290
     0
  0
ENDSEC
  0
EOF
