  0
SECTION
  2
HEADER
  9
$ACADVER
  1
AC1015
  9
$ACADMAINTVER
 70
     6
  9
$DWGCODEPAGE
  3
DOS932
  9
$INSBASE
 10
0.0
 20
0.0
 30
0.0
  9
$EXTMIN
 10
0.0
 20
0.0
 30
0.0
  9
$EXTMAX
 10
297.0
 20
210.0
 30
0.0
  9
$LIMMIN
 10
0.0
 20
0.0
  9
$LIMMAX
 10
297.0
 20
210.0
  9
$ORTHOMODE
 70
     0
  9
$REGENMODE
 70
     1
  9
$FILLMODE
 70
     1
  9
$QTEXTMODE
 70
     0
  9
$MIRRTEXT
 70
     1
  9
$LTSCALE
 40
1.0
  9
$ATTMODE
 70
     1
  9
$TEXTSIZE
 40
3.5277777778
  9
$TRACEWID
 40
1.0
  9
$TEXTSTYLE
  7
Standard
  9
$CLAYER
  8
0
  9
$CELTYPE
  6
ByLayer
  9
$CECOLOR
 62
   256
  9
$CELTSCALE
 40
1.0
  9
$DISPSILH
 70
     0
  9
$DIMSCALE
 40
1.0
  9
$DIMASZ
 40
2.728515625
  9
$DIMEXO
 40
1.0
  9
$DIMDLI
 40
3.75
  9
$DIMRND
 40
0.0
  9
$DIMDLE
 40
0.0
  9
$DIMEXE
 40
1.0
  9
$DIMTP
 40
0.0
  9
$DIMTM
 40
0.0
  9
$DIMTXT
 40
3.5277777778
  9
$DIMCEN
 40
2.5
  9
$DIMTSZ
 40
0.0
  9
$DIMTOL
 70
     0
  9
$DIMLIM
 70
     0
  9
$DIMTIH
 70
     1
  9
$DIMTOH
 70
     1
  9
$DIMSE1
 70
     0
  9
$DIMSE2
 70
     0
  9
$DIMTAD
 70
     1
  9
$DIMZIN
 70
     0
  9
$DIMBLK
  1

  9
$DIMASO
 70
     1
  9
$DIMSHO
 70
     1
  9
$DIMPOST
  1

  9
$DIMAPOST
  1

  9
$DIMALT
 70
     0
  9
$DIMALTD
 70
     3
  9
$DIMALTF
 40
0.0393700787
  9
$DIMLFAC
 40
1.0
  9
$DIMTOFL
 70
     1
  9
$DIMTVP
 40
0.0
  9
$DIMTIX
 70
     0
  9
$DIMSOXD
 70
     0
  9
$DIMSAH
 70
     0
  9
$DIMBLK1
  1

  9
$DIMBLK2
  1

  9
$DIMSTYLE
  2
ISO-25
  9
$DIMCLRD
 70
     0
  9
$DIMCLRE
 70
     0
  9
$DIMCLRT
 70
     0
  9
$DIMTFAC
 40
1.0
  9
$DIMGAP
 40
1.524
  9
$DIMJUST
 70
     0
  9
$DIMSD1
 70
     0
  9
$DIMSD2
 70
     0
  9
$DIMTOLJ
 70
     0
  9
$DIMTZIN
 70
     0
  9
$DIMALTZ
 70
     0
  9
$DIMALTTZ
 70
     0
  9
$DIMUPT
 70
     0
  9
$DIMDEC
 70
     2
  9
$DIMTDEC
 70
     2
  9
$DIMALTU
 70
     2
  9
$DIMALTTD
 70
     3
  9
$DIMTXSTY
  7
Standard
  9
$DIMAUNIT
 70
     0
  9
$DIMADEC
 70
     2
  9
$DIMALTRND
 40
0.0
  9
$DIMAZIN
 70
     0
  9
$DIMDSEP
 70
    44
  9
$DIMATFIT
 70
     3
  9
$DIMFRAC
 70
     0
  9
$DIMLDRBLK
  1

  9
$DIMLUNIT
 70
     2
  9
$DIMLWD
 70
    -2
  9
$DIMLWE
 70
    -2
  9
$DIMTMOVE
 70
     0
  9
$LUNITS
 70
     2
  9
$LUPREC
 70
     2
  9
$SKETCHINC
 40
1.0
  9
$FILLETRAD
 40
0.0
  9
$AUNITS
 70
     0
  9
$AUPREC
 70
     2
  9
$MENU
  1
.
  9
$ELEVATION
 40
0.0
  9
$PELEVATION
 40
0.0
  9
$THICKNESS
 40
0.0
  9
$LIMCHECK
 70
     0
  9
$CHAMFERA
 40
0.0
  9
$CHAMFERB
 40
0.0
  9
$CHAMFERC
 40
0.0
  9
$CHAMFERD
 40
0.0
  9
$SKPOLY
 70
     0
  9
$TDCREATE
 40
2460333.382684271
  9
$TDUCREATE
 40
2460333.007684271
  9
$TDUPDATE
 40
2460333.382685475
  9
$TDUUPDATE
 40
2460333.007685475
  9
$TDINDWG
 40
0.0000000116
  9
$TDUSRTIMER
 40
0.0000000116
  9
$USRTIMER
 70
     1
  9
$ANGBASE
 50
0.0
  9
$ANGDIR
 70
     0
  9
$PDMODE
 70
     0
  9
$PDSIZE
 40
-1.0
  9
$PLINEWID
 40
0.0
  9
$SPLFRAME
 70
     0
  9
$SPLINETYPE
 70
     6
  9
$SPLINESEGS
 70
     8
  9
$HANDSEED
  5
281
  9
$SURFTAB1
 70
     6
  9
$SURFTAB2
 70
     6
  9
$SURFTYPE
 70
     6
  9
$SURFU
 70
     6
  9
$SURFV
 70
     6
  9
$UCSBASE
  2

  9
$UCSNAME
  2

  9
$UCSORG
 10
0.0
 20
0.0
 30
0.0
  9
$UCSXDIR
 10
1.0
 20
0.0
 30
0.0
  9
$UCSYDIR
 10
0.0
 20
1.0
 30
0.0
  9
$UCSORTHOREF
  2

  9
$UCSORTHOVIEW
 70
     0
  9
$UCSORGTOP
 10
0.0
 20
0.0
 30
0.0
  9
$UCSORGBOTTOM
 10
0.0
 20
0.0
 30
0.0
  9
$UCSORGLEFT
 10
0.0
 20
0.0
 30
0.0
  9
$UCSORGRIGHT
 10
0.0
 20
0.0
 30
0.0
  9
$UCSORGFRONT
 10
0.0
 20
0.0
 30
0.0
  9
$UCSORGBACK
 10
0.0
 20
0.0
 30
0.0
  9
$PUCSBASE
  2

  9
$PUCSNAME
  2

  9
$PUCSORG
 10
0.0
 20
0.0
 30
0.0
  9
$PUCSXDIR
 10
1.0
 20
0.0
 30
0.0
  9
$PUCSYDIR
 10
0.0
 20
1.0
 30
0.0
  9
$PUCSORTHOREF
  2

  9
$PUCSORTHOVIEW
 70
     0
  9
$PUCSORGTOP
 10
0.0
 20
0.0
 30
0.0
  9
$PUCSORGBOTTOM
 10
0.0
 20
0.0
 30
0.0
  9
$PUCSORGLEFT
 10
0.0
 20
0.0
 30
0.0
  9
$PUCSORGRIGHT
 10
0.0
 20
0.0
 30
0.0
  9
$PUCSORGFRONT
 10
0.0
 20
0.0
 30
0.0
  9
$PUCSORGBACK
 10
0.0
 20
0.0
 30
0.0
  9
$USERI1
 70
     0
  9
$USERI2
 70
     0
  9
$USERI3
 70
     0
  9
$USERI4
 70
     0
  9
$USERI5
 70
     0
  9
$USERR1
 40
0.0
  9
$USERR2
 40
0.0
  9
$USERR3
 40
0.0
  9
$USERR4
 40
0.0
  9
$USERR5
 40
0.0
  9
$WORLDVIEW
 70
     1
  9
$SHADEDGE
 70
     3
  9
$SHADEDIF
 70
    70
  9
$TILEMODE
 70
     1
  9
$MAXACTVP
 70
    64
  9
$PINSBASE
 10
0.0
 20
0.0
 30
0.0
  9
$PLIMCHECK
 70
     0
  9
$PEXTMIN
 10
1.0000000000E+20
 20
1.0000000000E+20
 30
1.0000000000E+20
  9
$PEXTMAX
 10
-1.0000000000E+20
 20
-1.0000000000E+20
 30
-1.0000000000E+20
  9
$PLIMMIN
 10
0.0
 20
0.0
  9
$PLIMMAX
 10
420.0
 20
297.0
  9
$UNITMODE
 70
     0
  9
$VISRETAIN
 70
     1
  9
$PLINEGEN
 70
     0
  9
$PSLTSCALE
 70
     1
  9
$TREEDEPTH
 70
  3020
  9
$CMLSTYLE
  2
Standard
  9
$CMLJUST
 70
     0
  9
$CMLSCALE
 40
20.0
  9
$PROXYGRAPHICS
 70
     1
  9
$MEASUREMENT
 70
     1
  9
$CELWEIGHT
370
    -1
  9
$ENDCAPS
280
     0
  9
$JOINSTYLE
280
     0
  9
$LWDISPLAY
290
     1
  9
$INSUNITS
 70
     4
  9
$HYPERLINKBASE
  1

  9
$STYLESHEET
  1

  9
$XEDIT
290
     1
  9
$CEPSNTYPE
380
     0
  9
$PSTYLEMODE
290
     1
  9
$FINGERPRINTGUID
  2
{5bdbf4be-d3a9-416e-b637-fc1c68ff6039}
  9
$VERSIONGUID
  2
{FAEB1C32-E019-11D5-929B-00C0DF256EC4}
  9
$EXTNAMES
290
     1
  9
$PSVPSCALE
 40
0.0
  9
$OLESTARTUP
290
     0
  0
ENDSEC
  0
SECTION
  2
CLASSES
  0
CLASS
  1
ACDBDICTIONARYWDFLT
  2
AcDbDictionaryWithDefault
  3
ObjectDBX Classes
 90
        0
280
     0
281
     0
  0
CLASS
  1
VISUALSTYLE
  2
AcDbVisualStyle
  3
ObjectDBX Classes
 90
     4095
280
     0
281
     0
  0
CLASS
  1
MATERIAL
  2
AcDbMaterial
  3
ObjectDBX Classes
 90
     1153
280
     0
281
     0
  0
CLASS
  1
SCALE
  2
AcDbScale
  3
ObjectDBX Classes
 90
     1153
280
     0
281
     0
  0
CLASS
  1
TABLESTYLE
  2
AcDbTableStyle
  3
ObjectDBX Classes
 90
     4095
280
     0
281
     0
  0
CLASS
  1
MLEADERSTYLE
  2
AcDbMLeaderStyle
  3
ACDB_MLEADERSTYLE_CLASS
 90
     4095
280
     0
281
     0
  0
CLASS
  1
SUN
  2
AcDbSun
  3
SCENEOE
 90
     1153
280
     0
281
     0
  0
CLASS
  1
ACDBPLACEHOLDER
  2
AcDbPlaceHolder
  3
ObjectDBX Classes
 90
        0
280
     0
281
     0
  0
CLASS
  1
LAYOUT
  2
AcDbLayout
  3
ObjectDBX Classes
 90
        0
280
     0
281
     0
  0
ENDSEC
  0
SECTION
  2
TABLES
  0
TABLE
  2
VPORT
  5
8
330
0
100
AcDbSymbolTable
 70
     1
  0
VPORT
  5
29
330
8
100
AcDbSymbolTableRecord
100
AcDbViewportTableRecord
  2
*Active
 70
     0
 10
0.0
 20
0.0
 11
1.0
 21
1.0
 12
148.5
 22
105.0
 13
0.0
 23
0.0
 14
10.0
 24
10.0
 15
10.0
 25
10.0
 16
0.0
 26
0.0
 36
1.0
 17
0.0
 27
0.0
 37
0.0
 40
210.0
 41
1.4142857143
 42
50.0
 43
0.0
 44
0.0
 50
0.0
 51
0.0
 71
     0
 72
  2000
 73
     1
 74
     3
 75
     0
 76
     0
 77
     0
 78
     0
281
     0
 65
     1
110
0.0
120
0.0
130
0.0
111
1.0
121
0.0
131
0.0
112
0.0
122
1.0
132
0.0
 79
     0
146
0.0
  0
ENDTAB
  0
TABLE
  2
LTYPE
  5
5
330
0
100
AcDbSymbolTable
 70
     6
  0
LTYPE
  5
14
330
5
100
AcDbSymbolTableRecord
100
AcDbLinetypeTableRecord
  2
ByBlock
 70
     0
  3

 72
    65
 73
     0
 40
0.0
  0
LTYPE
  5
15
330
5
100
AcDbSymbolTableRecord
100
AcDbLinetypeTableRecord
  2
ByLayer
 70
     0
  3

 72
    65
 73
     0
 40
0.0
  0
LTYPE
  5
16
330
5
100
AcDbSymbolTableRecord
100
AcDbLinetypeTableRecord
  2
Continuous
 70
     0
  3
Solid line
 72
    65
 73
     0
 40
0.0
  0
LTYPE
  5
5E
330
5
100
AcDbSymbolTableRecord
100
AcDbLinetypeTableRecord
  2
HIDDEN
 70
     0
  3
Hidden __ __ __ __ __ __ __ __ __ __ __ __ __ __
 72
    65
 73
     2
 40
1.905
 49
1.27
 74
     0
 49
-0.635
 74
     0
  0
LTYPE
  5
5F
330
5
100
AcDbSymbolTableRecord
100
AcDbLinetypeTableRecord
  2
PHANTOM
 70
     0
  3
Phantom ______  __  __  ______  __  __  ______
 72
    65
 73
     6
 40
12.7
 49
6.35
 74
     0
 49
-1.27
 74
     0
 49
1.27
 74
     0
 49
-1.27
 74
     0
 49
1.27
 74
     0
 49
-1.27
 74
     0
  0
LTYPE
  5
60
330
5
100
AcDbSymbolTableRecord
100
AcDbLinetypeTableRecord
  2
CENTER
 70
     0
  3
Center ____ _ ____ _ ____ _ ____ _ ____ _ ____
 72
    65
 73
     4
 40
10.16
 49
6.35
 74
     0
 49
-1.27
 74
     0
 49
1.27
 74
     0
 49
-1.27
 74
     0
  0
LTYPE
  5
61
330
5
100
AcDbSymbolTableRecord
100
AcDbLinetypeTableRecord
  2
CENTERX2
 70
     0
  3
Center (2x) ________  __  ________  __  _____
 72
    65
 73
     4
 40
20.32
 49
12.7
 74
     0
 49
-2.54
 74
     0
 49
2.54
 74
     0
 49
-2.54
 74
     0
  0
LTYPE
  5
62
330
5
100
AcDbSymbolTableRecord
100
AcDbLinetypeTableRecord
  2
DOT2
 70
     0
  3
Dot (.5x) ........................................
 72
    65
 73
     2
 40
0.635
 49
0.0
 74
     0
 49
-0.635
 74
     0
  0
ENDTAB
  0
TABLE
  2
LAYER
  5
2
330
0
100
AcDbSymbolTable
 70
     2
  0
LAYER
  5
10
330
2
100
AcDbSymbolTableRecord
100
AcDbLayerTableRecord
  2
0
 70
     0
 62
     7
  6
Continuous
370
    -3
390
F
  0
LAYER
  5
63
330
2
100
AcDbSymbolTableRecord
100
AcDbLayerTableRecord
  2
FORMAT
 70
     0
 62
     7
  6
Continuous
370
    -3
390
F
  0
ENDTAB
  0
TABLE
  2
STYLE
  5
3
330
0
100
AcDbSymbolTable
 70
     2
  0
STYLE
  5
11
330
3
100
AcDbSymbolTableRecord
100
AcDbTextStyleTableRecord
  2
Standard
 70
     0
 40
0.0
 41
1.0
 50
0.0
 71
     0
 42
3.5277777778
  3
txt
  4
bigfont
  0
STYLE
  5
64
330
3
100
AcDbSymbolTableRecord
100
AcDbTextStyleTableRecord
  2
SLDTEXTSTYLE0
 70
     0
 40
0.0
 41
0.7
 50
0.0
 71
     0
 42
3.5277777778
  3
TXT
  4
bigfont
  0
ENDTAB
  0
TABLE
  2
VIEW
  5
6
330
0
100
AcDbSymbolTable
 70
     0
  0
ENDTAB
  0
TABLE
  2
UCS
  5
7
330
0
100
AcDbSymbolTable
 70
     0
  0
ENDTAB
  0
TABLE
  2
APPID
  5
9
330
0
100
AcDbSymbolTable
 70
     1
  0
APPID
  5
12
330
9
100
AcDbSymbolTableRecord
100
AcDbRegAppTableRecord
  2
ACAD
 70
     0
  0
ENDTAB
  0
TABLE
  2
DIMSTYLE
  5
A
330
0
100
AcDbSymbolTable
 70
     1
100
AcDbDimStyleTable
  0
DIMSTYLE
105
27
330
A
100
AcDbSymbolTableRecord
100
AcDbDimStyleTableRecord
  2
ISO-25
 70
     0
 41
2.5
 42
0.625
 43
3.75
 44
1.25
 73
     0
 74
     0
 77
     1
 78
     8
140
2.5
141
2.5
143
0.0393700787
147
0.625
171
     3
172
     1
178
     0
271
     2
272
     2
274
     3
278
    44
283
     0
284
     8
340
11
  0
ENDTAB
  0
TABLE
  2
BLOCK_RECORD
  5
1
330
0
100
AcDbSymbolTable
 70
     3
  0
BLOCK_RECORD
  5
1F
330
1
100
AcDbSymbolTableRecord
100
AcDbBlockTableRecord
  2
*Model_Space
340
22
  0
BLOCK_RECORD
  5
1B
330
1
100
AcDbSymbolTableRecord
100
AcDbBlockTableRecord
  2
*Paper_Space
340
1E
  0
BLOCK_RECORD
  5
23
330
1
100
AcDbSymbolTableRecord
100
AcDbBlockTableRecord
  2
*Paper_Space0
340
26
  0
BLOCK_RECORD
  5
1FB
330
1
100
AcDbSymbolTableRecord
100
AcDbBlockTableRecord
  2
SW_CENTERMARKSYMBOL_0
340
0
102
{BLKREFS
331
206
102
}
  0
BLOCK_RECORD
  5
270
330
1
100
AcDbSymbolTableRecord
100
AcDbBlockTableRecord
  2
SW_CENTERMARKSYMBOL_1
340
0
102
{BLKREFS
331
27B
102
}
  0
ENDTAB
  0
ENDSEC
  0
SECTION
  2
BLOCKS
  0
BLOCK
  5
20
330
1F
100
AcDbEntity
  8
0
100
AcDbBlockBegin
  2
*Model_Space
 70
     0
 10
0.0
 20
0.0
 30
0.0
  3
*Model_Space
  1

  0
ENDBLK
  5
21
330
1F
100
AcDbEntity
  8
0
100
AcDbBlockEnd
  0
BLOCK
  5
1C
330
1B
100
AcDbEntity
 67
     1
  8
0
100
AcDbBlockBegin
  2
*Paper_Space
 70
     0
 10
0.0
 20
0.0
 30
0.0
  3
*Paper_Space
  1

  0
ENDBLK
  5
1D
330
1B
100
AcDbEntity
 67
     1
  8
0
100
AcDbBlockEnd
  0
BLOCK
  5
24
330
23
100
AcDbEntity
  8
0
100
AcDbBlockBegin
  2
*Paper_Space0
 70
     0
 10
0.0
 20
0.0
 30
0.0
  3
*Paper_Space0
  1

  0
ENDBLK
  5
25
330
23
100
AcDbEntity
  8
0
100
AcDbBlockEnd
  0
BLOCK
  5
1FC
330
1FB
100
AcDbEntity
  8
0
100
AcDbBlockBegin
  2
SW_CENTERMARKSYMBOL_0
 70
     0
 10
0.0
 20
0.0
 30
0.0
  3
SW_CENTERMARKSYMBOL_0
  1

  0
LINE
  5
1FE
330
1FB
100
AcDbEntity
  8
FORMAT
 62
     0
100
AcDbLine
 10
0.0
 20
0.0
 30
0.0
 11
0.0
 21
2.5
 31
0.0
  0
LINE
  5
1FF
330
1FB
100
AcDbEntity
  8
FORMAT
 62
     0
100
AcDbLine
 10
0.0
 20
0.0
 30
0.0
 11
-2.5
 21
0.0
 31
0.0
  0
LINE
  5
200
330
1FB
100
AcDbEntity
  8
FORMAT
 62
     0
100
AcDbLine
 10
0.0
 20
0.0
 30
0.0
 11
0.0
 21
-2.5
 31
0.0
  0
LINE
  5
201
330
1FB
100
AcDbEntity
  8
FORMAT
 62
     0
100
AcDbLine
 10
0.0
 20
0.0
 30
0.0
 11
2.5
 21
0.0
 31
0.0
  0
LINE
  5
202
330
1FB
100
AcDbEntity
  8
FORMAT
 62
     0
100
AcDbLine
 10
0.0
 20
5.0
 30
0.0
 11
0.0
 21
9.95
 31
0.0
  0
LINE
  5
203
330
1FB
100
AcDbEntity
  8
FORMAT
 62
     0
100
AcDbLine
 10
-5.0
 20
0.0
 30
0.0
 11
-41.6965488183
 21
0.0
 31
0.0
  0
LINE
  5
204
330
1FB
100
AcDbEntity
  8
FORMAT
 62
     0
100
AcDbLine
 10
0.0
 20
-5.0
 30
0.0
 11
0.0
 21
-9.95
 31
0.0
  0
LINE
  5
205
330
1FB
100
AcDbEntity
  8
FORMAT
 62
     0
100
AcDbLine
 10
5.0
 20
0.0
 30
0.0
 11
13.4472233101
 21
0.0
 31
0.0
  0
ENDBLK
  5
1FD
330
1FB
100
AcDbEntity
  8
0
100
AcDbBlockEnd
  0
BLOCK
  5
271
330
270
100
AcDbEntity
  8
0
100
AcDbBlockBegin
  2
SW_CENTERMARKSYMBOL_1
 70
     0
 10
0.0
 20
0.0
 30
0.0
  3
SW_CENTERMARKSYMBOL_1
  1

  0
LINE
  5
273
330
270
100
AcDbEntity
  8
FORMAT
 62
     0
100
AcDbLine
 10
0.0
 20
0.0
 30
0.0
 11
0.0
 21
2.5
 31
0.0
  0
LINE
  5
274
330
270
100
AcDbEntity
  8
FORMAT
 62
     0
100
AcDbLine
 10
0.0
 20
0.0
 30
0.0
 11
-2.5
 21
0.0
 31
0.0
  0
LINE
  5
275
330
270
100
AcDbEntity
  8
FORMAT
 62
     0
100
AcDbLine
 10
0.0
 20
0.0
 30
0.0
 11
0.0
 21
-2.5
 31
0.0
  0
LINE
  5
276
330
270
100
AcDbEntity
  8
FORMAT
 62
     0
100
AcDbLine
 10
0.0
 20
0.0
 30
0.0
 11
2.5
 21
0.0
 31
0.0
  0
LINE
  5
277
330
270
100
AcDbEntity
  8
FORMAT
 62
     0
100
AcDbLine
 10
0.0
 20
5.0
 30
0.0
 11
0.0
 21
29.7898058571
 31
0.0
  0
LINE
  5
278
330
270
100
AcDbEntity
  8
FORMAT
 62
     0
100
AcDbLine
 10
-5.0
 20
0.0
 30
0.0
 11
-10.75
 21
0.0
 31
0.0
  0
LINE
  5
279
330
270
100
AcDbEntity
  8
FORMAT
 62
     0
100
AcDbLine
 10
0.0
 20
-5.0
 30
0.0
 11
0.0
 21
-25.5937218022
 31
0.0
  0
LINE
  5
27A
330
270
100
AcDbEntity
  8
FORMAT
 62
     0
100
AcDbLine
 10
5.0
 20
0.0
 30
0.0
 11
10.75
 21
0.0
 31
0.0
  0
ENDBLK
  5
272
330
270
100
AcDbEntity
  8
0
100
AcDbBlockEnd
  0
ENDSEC
  0
SECTION
  2
ENTITIES
  0
MTEXT
  5
65
330
1F
100
AcDbEntity
  8
FORMAT
100
AcDbMText
 10
124.3090094976
 20
89.4940069969
 30
0.0
 40
3.175
 41
0.0
 71
     1
 72
     1
  1
エースボール　アングル型　BD-3100
  7
SLDTEXTSTYLE0
 73
     1
 44
1.0
  0
LINE
  5
66
330
1F
100
AcDbEntity
  8
0
  6
Continuous
 62
     7
370
    25
100
AcDbLine
 10
126.5977373387
 20
65.7623741981
 30
0.0
 11
124.6477373386
 21
73.7623741981
 31
0.0
  0
LINE
  5
67
330
1F
100
AcDbEntity
  8
0
  6
Continuous
 62
     7
370
    25
100
AcDbLine
 10
126.1477373387
 20
57.7623741981
 30
0.0
 11
126.5977373387
 21
65.7623741981
 31
0.0
  0
LINE
  5
68
330
1F
100
AcDbEntity
  8
0
  6
Continuous
 62
     7
370
    25
100
AcDbLine
 10
112.0770807129
 20
59.0184919894
 30
0.0
 11
112.1477373387
 21
57.7623741981
 31
0.0
  0
LINE
  5
69
330
1F
100
AcDbEntity
  8
0
  6
Continuous
 62
     7
370
    25
100
AcDbLine
 10
113.6477373387
 20
73.7623741981
 30
0.0
 11
113.3945058041
 21
72.7234755949
 31
0.0
  0
LINE
  5
6A
330
1F
100
AcDbEntity
  8
0
  6
Continuous
 62
     7
370
    25
100
AcDbLine
 10
104.8477373387
 20
55.2623741981
 30
0.0
 11
104.6477373387
 21
55.0623741981
 31
0.0
  0
LINE
  5
6B
330
1F
100
AcDbEntity
  8
0
  6
Continuous
 62
     7
370
    25
100
AcDbLine
 10
104.6477373387
 20
39.4623741981
 30
0.0
 11
104.8477373387
 21
39.2623741981
 31
0.0
  0
LINE
  5
6C
330
1F
100
AcDbEntity
  8
0
  6
Continuous
 62
     7
370
    25
100
AcDbLine
 10
107.6477373387
 20
55.2623741981
 30
0.0
 11
104.8477373387
 21
55.2623741981
 31
0.0
  0
LINE
  5
6D
330
1F
100
AcDbEntity
  8
0
  6
Continuous
 62
     7
370
    25
100
AcDbLine
 10
104.8477373387
 20
39.2623741981
 30
0.0
 11
107.6477373387
 21
39.2623741981
 31
0.0
  0
ARC
  5
6E
330
1F
100
AcDbEntity
  8
0
  6
Continuous
 62
     7
370
    25
100
AcDbCircle
 10
96.1377373387
 20
52.2723741981
 30
0.0
 40
0.9899999999999949
100
AcDbArc
 50
90.0
 51
180.0
  0
ARC
  5
6F
330
1F
100
AcDbEntity
  8
0
  6
Continuous
 62
     7
370
    25
100
AcDbCircle
 10
96.1377373387
 20
42.2523741981
 30
0.0
 40
0.990000000000002
100
AcDbArc
 50
180.0
 51
270.0
  0
LINE
  5
70
330
1F
100
AcDbEntity
  8
0
  6
Continuous
 62
     7
370
    25
100
AcDbLine
 10
96.1577373387
 20
53.2623741981
 30
0.0
 11
96.1377373387
 21
53.2623741981
 31
0.0
  0
LINE
  5
71
330
1F
100
AcDbEntity
  8
0
  6
Continuous
 62
     7
370
    25
100
AcDbLine
 10
96.1377373387
 20
41.2623741981
 30
0.0
 11
96.1577373387
 21
41.2623741981
 31
0.0
  0
ARC
  5
72
330
1F
100
AcDbEntity
  8
0
  6
Continuous
 62
     7
370
    25
100
AcDbCircle
 10
96.1577373387
 20
52.2723741981
 30
0.0
 40
0.9899999999999992
100
AcDbArc
 50
19.1995397339
 51
90.0
  0
ARC
  5
73
330
1F
100
AcDbEntity
  8
0
  6
Continuous
 62
     7
370
    25
100
AcDbCircle
 10
96.1577373387
 20
42.2523741981
 30
0.0
 40
0.990000000000002
100
AcDbArc
 50
270.0
 51
340.8004602661
  0
ARC
  5
74
330
1F
100
AcDbEntity
  8
0
  6
Continuous
 62
     7
370
    25
100
AcDbCircle
 10
97.5648620666
 20
52.7623741981
 30
0.0
 40
0.5000000000000078
100
AcDbArc
 50
199.1995397339
 51
270.0
  0
ARC
  5
75
330
1F
100
AcDbEntity
  8
0
  6
Continuous
 62
     7
370
    25
100
AcDbCircle
 10
97.5648620666
 20
41.7623741981
 30
0.0
 40
0.5000000000000078
100
AcDbArc
 50
90.0
 51
160.8004602661
  0
LINE
  5
76
330
1F
100
AcDbEntity
  8
0
  6
Continuous
 62
     7
370
    25
100
AcDbLine
 10
104.6477373387
 20
52.2623741981
 30
0.0
 11
97.5648620666
 21
52.2623741981
 31
0.0
  0
LINE
  5
77
330
1F
100
AcDbEntity
  8
0
  6
Continuous
 62
     7
370
    25
100
AcDbLine
 10
97.5648620666
 20
42.2623741981
 30
0.0
 11
104.6477373387
 21
42.2623741981
 31
0.0
  0
LINE
  5
78
330
1F
100
AcDbEntity
  8
0
  6
Continuous
 62
     7
370
    25
100
AcDbLine
 10
130.2888685915
 20
37.524769891
 30
0.0
 11
131.1477373387
 21
39.0123741981
 31
0.0
  0
LINE
  5
79
330
1F
100
AcDbEntity
  8
0
  6
Continuous
 62
     7
370
    25
100
AcDbLine
 10
131.1477373387
 20
55.5123741981
 30
0.0
 11
130.2888685915
 21
56.9999785051
 31
0.0
  0
LINE
  5
7A
330
1F
100
AcDbEntity
  8
0
  6
Continuous
 62
     7
370
    25
100
AcDbLine
 10
109.4101330316
 20
36.1212429452
 30
0.0
 11
110.8977373387
 21
35.2623741981
 31
0.0
  0
LINE
  5
7B
330
1F
100
AcDbEntity
  8
0
  6
Continuous
 62
     7
370
    25
100
AcDbLine
 10
127.3977373387
 20
35.2623741981
 30
0.0
 11
128.8853416457
 21
36.1212429452
 31
0.0
  0
SPLINE
  5
7C
330
1F
100
AcDbEntity
  8
0
  6
Continuous
 62
     7
370
    25
100
AcDbSpline
210
0.0
220
0.0
230
1.0
 70
     8
 71
     3
 72
    12
 73
     8
 74
     0
 42
0.00000001
 43
0.00000001
 40
0.0
 40
0.0
 40
0.0
 40
0.0
 40
0.0310509226032735
 40
0.2822810581185659
 40
0.5409991204285768
 40
0.8030759020055599
 40
1.0
 40
1.0
 40
1.0
 40
1.0
 10
113.2596254210581
 20
56.76277099920684
 30
0.0
 10
113.2603886334735
 20
56.75467099626373
 30
0.0
 10
113.2673269267708
 20
56.68103462059906
 30
0.0
 10
113.2449742171162
 20
56.53855041213973
 30
0.0
 10
113.1856064572939
 20
56.34542873851445
 30
0.0
 10
113.0953089256286
 20
56.17738816116894
 30
0.0
 10
113.0121067922473
 20
56.09014715124933
 30
0.0
 10
112.9764107711795
 20
56.05271834021397
 30
0.0
  0
SPLINE
  5
7D
330
1F
100
AcDbEntity
  8
0
  6
Continuous
 62
     7
370
    25
100
AcDbSpline
210
0.0
220
0.0
230
1.0
 70
     8
 71
     3
 72
    12
 73
     8
 74
     0
 42
0.00000001
 43
0.00000001
 40
0.0
 40
0.0
 40
0.0
 40
0.0
 40
0.1087363380453217
 40
0.3997275173950278
 40
0.665297849644116
 40
0.9100504354243718
 40
0.9999999999999999
 40
0.9999999999999999
 40
0.9999999999999999
 40
0.9999999999999999
 10
125.3336343848591
 20
56.06817503446435
 30
0.0
 10
125.3133933640843
 20
56.08721987878472
 30
0.0
 10
125.2389850004284
 20
56.15723095765868
 30
0.0
 10
125.1498893566905
 20
56.30547918204608
 30
0.0
 10
125.0772454222721
 20
56.49651267606373
 30
0.0
 10
125.0469335257806
 20
56.64878385142374
 30
0.0
 10
125.0498804514847
 20
56.73423594951349
 30
0.0
 10
125.0506724233428
 20
56.7572007825959
 30
0.0
  0
LINE
  5
7E
330
1F
100
AcDbEntity
  8
0
  6
Continuous
 62
     7
370
    25
100
AcDbLine
 10
125.0477373387
 20
56.757843378
 30
0.0
 11
125.0477373387
 21
57.7623741981
 31
0.0
  0
LINE
  5
7F
330
1F
100
AcDbEntity
  8
0
  6
Continuous
 62
     7
370
    25
100
AcDbLine
 10
113.2477373387
 20
57.7623741981
 30
0.0
 11
113.2477373387
 21
56.7623741981
 31
0.0
  0
LINE
  5
80
330
1F
100
AcDbEntity
  8
0
  6
Continuous
 62
     7
370
    25
100
AcDbLine
 10
114.0484248387
 20
35.2623741981
 30
0.0
 11
114.3654577118
 21
25.1173222575
 31
0.0
  0
LINE
  5
81
330
1F
100
AcDbEntity
  8
0
  6
Continuous
 62
     7
370
    25
100
AcDbLine
 10
123.9300169655
 20
25.1173222575
 30
0.0
 11
124.2470498387
 21
35.2623741981
 31
0.0
  0
LINE
  5
82
330
1F
100
AcDbEntity
  8
0
  6
Continuous
 62
     7
370
    25
100
AcDbLine
 10
114.3654577118
 20
25.1173222575
 30
0.0
 11
115.1477373387
 21
23.7623741981
 31
0.0
  0
LINE
  5
83
330
1F
100
AcDbEntity
  8
0
  6
Continuous
 62
     7
370
    25
100
AcDbLine
 10
123.1477373387
 20
23.7623741981
 30
0.0
 11
123.9300169655
 21
25.1173222575
 31
0.0
  0
LINE
  5
84
330
1F
100
AcDbEntity
  8
0
  6
Continuous
 62
     7
370
    25
100
AcDbLine
 10
112.9775704313
 20
56.0571119274
 30
0.0
 11
112.4332061588
 21
56.9999785051
 31
0.0
  0
LINE
  5
85
330
1F
100
AcDbEntity
  8
0
  6
Continuous
 62
     7
370
    25
100
AcDbLine
 10
108.3622685185
 20
56.9999785051
 30
0.0
 11
107.6477373387
 21
55.7623741981
 31
0.0
  0
LINE
  5
86
330
1F
100
AcDbEntity
  8
0
  6
Continuous
 62
     7
370
    25
100
AcDbLine
 10
125.8622685185
 20
56.9999785051
 30
0.0
 11
125.317904246
 21
56.0571119274
 31
0.0
  0
LINE
  5
87
330
1F
100
AcDbEntity
  8
0
  6
Continuous
 62
     7
370
    25
100
AcDbLine
 10
107.6477373387
 20
38.7623741981
 30
0.0
 11
108.3622685185
 21
37.524769891
 31
0.0
  0
LINE
  5
88
330
1F
100
AcDbEntity
  8
0
  6
Continuous
 62
     7
370
    25
100
AcDbLine
 10
128.8853416457
 20
36.1186825639
 30
0.0
 11
128.8853416457
 21
37.524769891
 31
0.0
  0
LINE
  5
89
330
1F
100
AcDbEntity
  8
0
  6
Continuous
 62
     7
370
    25
100
AcDbLine
 10
128.8853416457
 20
37.524769891
 30
0.0
 11
130.291436647
 21
37.524769891
 31
0.0
  0
LINE
  5
8A
330
1F
100
AcDbEntity
  8
0
  6
Continuous
 62
     7
370
    25
100
AcDbLine
 10
112.4357742143
 20
56.9999785051
 30
0.0
 11
108.3597081372
 21
56.9999785051
 31
0.0
  0
LINE
  5
8B
330
1F
100
AcDbEntity
  8
0
  6
Continuous
 62
     7
370
    25
100
AcDbLine
 10
130.291436647
 20
56.9999785051
 30
0.0
 11
125.859700463
 21
56.9999785051
 31
0.0
  0
LINE
  5
8C
330
1F
100
AcDbEntity
  8
0
  6
Continuous
 62
     7
370
    25
100
AcDbLine
 10
109.4101330316
 20
37.524769891
 30
0.0
 11
109.4101330316
 21
36.1186825639
 31
0.0
  0
LINE
  5
8D
330
1F
100
AcDbEntity
  8
0
  6
Continuous
 62
     7
370
    25
100
AcDbLine
 10
108.3597081372
 20
37.524769891
 30
0.0
 11
109.4101330316
 21
37.524769891
 31
0.0
  0
SPLINE
  5
8E
330
1F
100
AcDbEntity
  8
0
  6
Continuous
 62
     7
370
    25
100
AcDbSpline
210
0.0
220
0.0
230
1.0
 70
     8
 71
     3
 72
    15
 73
    11
 74
     0
 42
0.00000001
 43
0.00000001
 40
0.0
 40
0.0
 40
0.0
 40
0.0
 40
0.0081667445812695
 40
0.3321939991490083
 40
0.4756279600585602
 40
0.6866830973284899
 40
0.8457435502264811
 40
0.8967566214763185
 40
0.9909540928118029
 40
1.0
 40
1.0
 40
1.0
 40
1.0
 10
114.0487178250611
 20
74.61237419807146
 30
0.0
 10
114.0482302909182
 20
74.61237152172568
 30
0.0
 10
114.0283991433862
 20
74.61226265753882
 30
0.0
 10
114.0001183633769
 20
74.60271664526944
 30
0.0
 10
113.9622890648881
 20
74.56535426201488
 30
0.0
 10
113.9357051683206
 20
74.52048874728021
 30
0.0
 10
113.9185353445656
 20
74.46261244770331
 30
0.0
 10
113.9107183483491
 20
74.41193640773139
 30
0.0
 10
113.9087226619132
 20
74.38324212821135
 30
0.0
 10
113.9086576979625
 20
74.36405529665588
 30
0.0
 10
113.9086520059958
 20
74.36237419807145
 30
0.0
  0
LINE
  5
8F
330
1F
100
AcDbEntity
  8
0
  6
Continuous
 62
     7
370
    25
100
AcDbLine
 10
114.0487178251
 20
74.6123741981
 30
0.0
 11
124.2467568522
 21
74.6123741981
 31
0.0
  0
SPLINE
  5
90
330
1F
100
AcDbEntity
  8
0
  6
Continuous
 62
     7
370
    25
100
AcDbSpline
210
0.0
220
0.0
230
1.0
 70
     8
 71
     3
 72
    15
 73
    11
 74
     0
 42
0.00000001
 43
0.00000001
 40
0.0
 40
0.0
 40
0.0
 40
0.0
 40
0.0090459071881971
 40
0.1032433785236874
 40
0.1542564497735246
 40
0.313316902671511
 40
0.5243720399414428
 40
0.6678060008509903
 40
0.9918332554187292
 40
1.0
 40
1.0
 40
1.0
 40
1.0
 10
124.386822671312
 20
74.36237419807145
 30
0.0
 10
124.3868169793453
 20
74.36405529665586
 30
0.0
 10
124.3867520153945
 20
74.3832421282114
 30
0.0
 10
124.3847563289586
 20
74.41193640773136
 30
0.0
 10
124.3769393327422
 20
74.46261244770334
 30
0.0
 10
124.3597695089872
 20
74.52048874728021
 30
0.0
 10
124.3331856124197
 20
74.56535426201488
 30
0.0
 10
124.2953563139309
 20
74.60271664526944
 30
0.0
 10
124.2670755339216
 20
74.61226265753889
 30
0.0
 10
124.2472443863896
 20
74.61237152172568
 30
0.0
 10
124.2467568522467
 20
74.61237419807146
 30
0.0
  0
LINE
  5
91
330
1F
100
AcDbEntity
  8
0
  6
Continuous
 62
     7
370
    25
100
AcDbLine
 10
124.3868226713
 20
74.3623741981
 30
0.0
 11
113.908652006
 21
74.3623741981
 31
0.0
  0
LINE
  5
92
330
1F
100
AcDbEntity
  8
0
  6
Continuous
 62
     7
370
    25
100
AcDbLine
 10
113.908652006
 20
74.3623741981
 30
0.0
 11
113.908652006
 21
73.7623741981
 31
0.0
  0
LINE
  5
93
330
1F
100
AcDbEntity
  8
0
  6
Continuous
 62
     7
370
    25
100
AcDbLine
 10
124.3868226713
 20
73.7623741981
 30
0.0
 11
124.3868226713
 21
74.3623741981
 31
0.0
  0
LINE
  5
94
330
1F
100
AcDbEntity
  8
0
  6
Continuous
 62
     7
370
    25
100
AcDbLine
 10
113.908652006
 20
73.7623741981
 30
0.0
 11
124.3868226713
 21
73.7623741981
 31
0.0
  0
LINE
  5
95
330
1F
100
AcDbEntity
  8
0
  6
Continuous
 62
     7
370
    25
100
AcDbLine
 10
113.6705117636
 20
74.3623741981
 30
0.0
 11
113.908652006
 21
74.3623741981
 31
0.0
  0
SPLINE
  5
96
330
1F
100
AcDbEntity
  8
0
  6
Continuous
 62
     7
370
    25
100
AcDbSpline
210
0.0
220
0.0
230
1.0
 70
     8
 71
     3
 72
    15
 73
    11
 74
     0
 42
0.00000001
 43
0.00000001
 40
0.0
 40
0.0
 40
0.0
 40
0.0
 40
0.0089557228015919
 40
0.0999003359608148
 40
0.153163246058169
 40
0.3125636920784848
 40
0.5249666935694999
 40
0.6689893599352451
 40
0.9919152533810159
 40
1.0
 40
1.0
 40
1.0
 40
1.0
 10
113.6705117636022
 20
74.36237419807145
 30
0.0
 10
113.6705275191808
 20
74.36405532364437
 30
0.0
 10
113.6707032713374
 20
74.3828081382688
 30
0.0
 10
113.6761322873569
 20
74.41157036737629
 30
0.0
 10
113.6976677710642
 20
74.46245744084462
 30
0.0
 10
113.7453731993291
 20
74.52059309097726
 30
0.0
 10
113.817764144321
 20
74.56530096416067
 30
0.0
 10
113.9196832563387
 20
74.60258278762242
 30
0.0
 10
113.9950383477932
 20
74.61226194246
 30
0.0
 10
114.047437993517
 20
74.61237152166177
 30
0.0
 10
114.0487178250611
 20
74.61237419807146
 30
0.0
  0
LINE
  5
97
330
1F
100
AcDbEntity
  8
0
  6
Continuous
 62
     7
370
    25
100
AcDbLine
 10
124.3868226713
 20
74.3623741981
 30
0.0
 11
124.6249629137
 21
74.3623741981
 31
0.0
  0
SPLINE
  5
98
330
1F
100
AcDbEntity
  8
0
  6
Continuous
 62
     7
370
    25
100
AcDbSpline
210
0.0
220
0.0
230
1.0
 70
     8
 71
     3
 72
    15
 73
    11
 74
     0
 42
0.00000001
 43
0.00000001
 40
0.0
 40
0.0
 40
0.0
 40
0.0
 40
0.0080847466189818
 40
0.3310106400647567
 40
0.4750333064304972
 40
0.6874363079215137
 40
0.8468367539418253
 40
0.9000996640391794
 40
0.9910442771984082
 40
1.0
 40
1.0
 40
1.0
 40
1.0
 10
124.2467568522467
 20
74.61237419807146
 30
0.0
 10
124.2480366837908
 20
74.61237152166179
 30
0.0
 10
124.3004363295146
 20
74.61226194245998
 30
0.0
 10
124.375791420969
 20
74.60258278762241
 30
0.0
 10
124.4777105329868
 20
74.56530096416068
 30
0.0
 10
124.5501014779787
 20
74.52059309097724
 30
0.0
 10
124.5978069062435
 20
74.46245744084459
 30
0.0
 10
124.6193423899509
 20
74.4115703673763
 30
0.0
 10
124.6247714059704
 20
74.38280813826881
 30
0.0
 10
124.6249471581269
 20
74.36405532364437
 30
0.0
 10
124.6249629137056
 20
74.36237419807145
 30
0.0
  0
LINE
  5
99
330
1F
100
AcDbEntity
  8
0
  6
Continuous
 62
     7
370
    25
100
AcDbLine
 10
113.6705117636
 20
73.7623741981
 30
0.0
 11
113.6705117636
 21
74.3623741981
 31
0.0
  0
LINE
  5
9A
330
1F
100
AcDbEntity
  8
0
  6
Continuous
 62
     7
370
    25
100
AcDbLine
 10
113.908652006
 20
73.7623741981
 30
0.0
 11
113.6705117636
 21
73.7623741981
 31
0.0
  0
LINE
  5
9B
330
1F
100
AcDbEntity
  8
0
  6
Continuous
 62
     7
370
    25
100
AcDbLine
 10
124.6249629137
 20
74.3623741981
 30
0.0
 11
124.6249629137
 21
73.7623741981
 31
0.0
  0
LINE
  5
9C
330
1F
100
AcDbEntity
  8
0
  6
Continuous
 62
     7
370
    25
100
AcDbLine
 10
124.6249629137
 20
73.7623741981
 30
0.0
 11
124.3868226713
 21
73.7623741981
 31
0.0
  0
LINE
  5
9D
330
1F
100
AcDbEntity
  8
0
  6
Continuous
 62
     7
370
    25
100
AcDbLine
 10
113.1477373387
 20
73.7623741981
 30
0.0
 11
113.1477373387
 21
74.3623741981
 31
0.0
  0
LINE
  5
9E
330
1F
100
AcDbEntity
  8
0
  6
Continuous
 62
     7
370
    25
100
AcDbLine
 10
113.1477373387
 20
74.3623741981
 30
0.0
 11
113.3977373387
 21
74.3623741981
 31
0.0
  0
LINE
  5
9F
330
1F
100
AcDbEntity
  8
0
  6
Continuous
 62
     7
370
    25
100
AcDbLine
 10
113.3977373387
 20
74.3623741981
 30
0.0
 11
113.3977373387
 21
73.7623741981
 31
0.0
  0
LINE
  5
A0
330
1F
100
AcDbEntity
  8
0
  6
Continuous
 62
     7
370
    25
100
AcDbLine
 10
113.3977373387
 20
73.7623741981
 30
0.0
 11
113.1477373387
 21
73.7623741981
 31
0.0
  0
ARC
  5
A1
330
1F
100
AcDbEntity
  8
0
  6
Continuous
 62
     7
370
    25
100
AcDbCircle
 10
113.3977373387
 20
74.3623741981
 30
0.0
 40
0.2500000000000142
100
AcDbArc
 50
90.0
 51
180.0
  0
LINE
  5
A2
330
1F
100
AcDbEntity
  8
0
  6
Continuous
 62
     7
370
    25
100
AcDbLine
 10
113.3977373387
 20
74.6123741981
 30
0.0
 11
113.3977373387
 21
74.3623741981
 31
0.0
  0
LINE
  5
A3
330
1F
100
AcDbEntity
  8
0
  6
Continuous
 62
     7
370
    25
100
AcDbLine
 10
113.6705117636
 20
74.3623741981
 30
0.0
 11
113.3977373387
 21
74.3623741981
 31
0.0
  0
LINE
  5
A4
330
1F
100
AcDbEntity
  8
0
  6
Continuous
 62
     7
370
    25
100
AcDbLine
 10
113.3977373387
 20
74.6123741981
 30
0.0
 11
114.0487178251
 21
74.6123741981
 31
0.0
  0
LINE
  5
A5
330
1F
100
AcDbEntity
  8
0
  6
Continuous
 62
     7
370
    25
100
AcDbLine
 10
113.6705117636
 20
73.7623741981
 30
0.0
 11
113.3977373387
 21
73.7623741981
 31
0.0
  0
LINE
  5
A6
330
1F
100
AcDbEntity
  8
0
  6
Continuous
 62
     7
370
    25
100
AcDbLine
 10
124.8977373387
 20
74.3623741981
 30
0.0
 11
124.8977373387
 21
74.6123741981
 31
0.0
  0
LINE
  5
A7
330
1F
100
AcDbEntity
  8
0
  6
Continuous
 62
     7
370
    25
100
AcDbLine
 10
124.8977373387
 20
74.3623741981
 30
0.0
 11
124.6249629137
 21
74.3623741981
 31
0.0
  0
LINE
  5
A8
330
1F
100
AcDbEntity
  8
0
  6
Continuous
 62
     7
370
    25
100
AcDbLine
 10
124.2467568522
 20
74.6123741981
 30
0.0
 11
124.8977373387
 21
74.6123741981
 31
0.0
  0
LINE
  5
A9
330
1F
100
AcDbEntity
  8
0
  6
Continuous
 62
     7
370
    25
100
AcDbLine
 10
124.8977373387
 20
73.7623741981
 30
0.0
 11
124.8977373387
 21
74.3623741981
 31
0.0
  0
LINE
  5
AA
330
1F
100
AcDbEntity
  8
0
  6
Continuous
 62
     7
370
    25
100
AcDbLine
 10
124.8977373387
 20
74.3623741981
 30
0.0
 11
125.1477373387
 21
74.3623741981
 31
0.0
  0
LINE
  5
AB
330
1F
100
AcDbEntity
  8
0
  6
Continuous
 62
     7
370
    25
100
AcDbLine
 10
125.1477373387
 20
74.3623741981
 30
0.0
 11
125.1477373387
 21
73.7623741981
 31
0.0
  0
LINE
  5
AC
330
1F
100
AcDbEntity
  8
0
  6
Continuous
 62
     7
370
    25
100
AcDbLine
 10
125.1477373387
 20
73.7623741981
 30
0.0
 11
124.8977373387
 21
73.7623741981
 31
0.0
  0
LINE
  5
AD
330
1F
100
AcDbEntity
  8
0
  6
Continuous
 62
     7
370
    25
100
AcDbLine
 10
124.8977373387
 20
73.7623741981
 30
0.0
 11
124.6249629137
 21
73.7623741981
 31
0.0
  0
ARC
  5
AE
330
1F
100
AcDbEntity
  8
0
  6
Continuous
 62
     7
370
    25
100
AcDbCircle
 10
124.8977373387
 20
74.3623741981
 30
0.0
 40
0.2500000000000142
100
AcDbArc
 50
0.0
 51
90.0
  0
LINE
  5
AF
330
1F
100
AcDbEntity
  8
0
  6
Continuous
 62
     7
370
    25
100
AcDbLine
 10
114.1477373387
 20
74.6223741981
 30
0.0
 11
124.1477373387
 21
74.6223741981
 31
0.0
  0
LINE
  5
B0
330
1F
100
AcDbEntity
  8
0
  6
Continuous
 62
     7
370
    25
100
AcDbLine
 10
124.1477373387
 20
74.6123741981
 30
0.0
 11
124.1477373387
 21
74.6223741981
 31
0.0
  0
LINE
  5
B1
330
1F
100
AcDbEntity
  8
0
  6
Continuous
 62
     7
370
    25
100
AcDbLine
 10
114.1477373387
 20
74.6123741981
 30
0.0
 11
114.1477373387
 21
74.6223741981
 31
0.0
  0
LINE
  5
B2
330
1F
100
AcDbEntity
  8
0
  6
Continuous
 62
     7
370
    25
100
AcDbLine
 10
114.6731904546
 20
65.7623741981
 30
0.0
 11
126.5977373387
 21
65.762374198
 31
0.0
  0
SPLINE
  5
B3
330
1F
100
AcDbEntity
  8
0
  6
Continuous
 62
     7
370
    25
100
AcDbSpline
210
0.0
220
0.0
230
1.0
 70
     8
 71
     3
 72
     9
 73
     5
 74
     0
 42
0.00000001
 43
0.00000001
 40
0.0
 40
0.0
 40
0.0
 40
0.0
 40
0.4978401817595094
 40
1.0
 40
1.0
 40
1.0
 40
1.0
 10
115.4334012103335
 20
66.75711777603837
 30
0.0
 10
115.2970793019628
 20
66.60060659334579
 30
0.0
 10
115.0232526536419
 20
66.28622621902677
 30
0.0
 10
114.7902134025453
 20
65.9374936710005
 30
0.0
 10
114.6731904545717
 20
65.76237419806908
 30
0.0
  0
LINE
  5
B4
330
1F
100
AcDbEntity
  8
0
  6
Continuous
 62
     7
370
    25
100
AcDbLine
 10
113.9239351643
 20
73.7623741981
 30
0.0
 11
112.1957965003
 21
66.757117776
 31
0.0
  0
LINE
  5
B5
330
1F
100
AcDbEntity
  8
0
  6
Continuous
 62
     7
370
    25
100
AcDbLine
 10
124.3868226713
 20
73.762374198
 30
0.0
 11
113.9239351643
 21
73.7623741981
 31
0.0
  0
LINE
  5
B6
330
1F
100
AcDbEntity
  8
0
  6
Continuous
 62
     7
370
    25
100
AcDbLine
 10
117.1477373387
 20
57.7623741981
 30
0.0
 11
126.1477373387
 21
57.7623741981
 31
0.0
  0
LINE
  5
B7
330
1F
100
AcDbEntity
  8
0
  6
Continuous
 62
     7
370
    25
100
AcDbLine
 10
117.1477373387
 20
57.8001911219
 30
0.0
 11
117.1477373387
 21
57.7623741981
 31
0.0
  0
SPLINE
  5
B8
330
1F
100
AcDbEntity
  8
0
  6
Continuous
 62
     7
370
    25
100
AcDbSpline
210
0.0
220
0.0
230
1.0
 70
     8
 71
     3
 72
     9
 73
     5
 74
     0
 42
0.00000001
 43
0.00000001
 40
0.0
 40
0.0
 40
0.0
 40
0.0
 40
0.4875141023677128
 40
0.9999999999999999
 40
0.9999999999999999
 40
0.9999999999999999
 40
0.9999999999999999
 10
116.9917920882267
 20
57.76237419807151
 30
0.0
 10
117.0180986621493
 20
57.76410154404321
 30
0.0
 10
117.0720593040975
 20
57.76764471533469
 30
0.0
 10
117.1220948347923
 20
57.789163201284
 30
0.0
 10
117.1477373386539
 20
57.80019112187143
 30
0.0
  0
SPLINE
  5
B9
330
1F
100
AcDbEntity
  8
0
  6
Continuous
 62
     7
370
    25
100
AcDbSpline
210
0.0
220
0.0
230
1.0
 70
     8
 71
     3
 72
    17
 73
    13
 74
     0
 42
0.00000001
 43
0.00000001
 40
0.0
 40
0.0
 40
0.0
 40
0.0
 40
0.3241697628029873
 40
0.5422758463620719
 40
0.689509052693928
 40
0.7894036290694505
 40
0.8577090008137825
 40
0.9049823971474137
 40
0.9551712229700868
 40
0.9753097783197817
 40
0.9919572060138848
 40
1.0
 40
1.0
 40
1.0
 40
1.0
 10
114.6731904545717
 20
65.76237419806908
 30
0.0
 10
114.8159058145889
 20
64.8497606954634
 30
0.0
 10
115.0546421235309
 20
63.32312768920206
 30
0.0
 10
115.4342293179825
 20
61.3963547869211
 30
0.0
 10
115.7433635263296
 20
60.10871931598832
 30
0.0
 10
115.9994770545297
 20
59.24956734926658
 30
0.0
 10
116.2137880574247
 20
58.67609946088918
 30
0.0
 10
116.4170222784526
 20
58.25456730685922
 30
0.0
 10
116.6015675429952
 20
57.97407476406379
 30
0.0
 10
116.7876386293634
 20
57.81852609548312
 30
0.0
 10
116.9028492286193
 20
57.76791549628562
 30
0.0
 10
116.9699380340922
 20
57.76373574448099
 30
0.0
 10
116.9917920882267
 20
57.76237419807151
 30
0.0
  0
SPLINE
  5
BA
330
1F
100
AcDbEntity
  8
0
  6
Continuous
 62
     7
370
    25
100
AcDbSpline
210
0.0
220
0.0
230
1.0
 70
     8
 71
     3
 72
    14
 73
    10
 74
     0
 42
0.00000001
 43
0.00000001
 40
0.0
 40
0.0
 40
0.0
 40
0.0
 40
0.1576095309202822
 40
0.3152382602707094
 40
0.4726926441579498
 40
0.6301650083177254
 40
0.7907313191165901
 40
0.9513050385928076
 40
1.0
 40
1.0
 40
1.0
 40
1.0
 10
112.6477373386539
 20
57.76237419807146
 30
0.0
 10
112.5811663238719
 20
57.97587598654885
 30
0.0
 10
112.4480161852869
 20
58.40290557017435
 30
0.0
 10
112.1194492235362
 20
58.98815264903068
 30
0.0
 10
111.7060595828042
 20
59.51030718985309
 30
0.0
 10
111.2103846638596
 20
59.95928531727296
 30
0.0
 10
110.6440949585751
 20
60.31856704907935
 30
0.0
 10
110.167844302182
 20
60.52313322818053
 30
0.0
 10
109.8876497339893
 20
60.60392777653183
 30
0.0
 10
109.8224509492162
 20
60.6227279495786
 30
0.0
  0
LINE
  5
BB
330
1F
100
AcDbEntity
  8
0
  6
Continuous
 62
     7
370
    25
100
AcDbLine
 10
109.8224509492
 20
60.6227279496
 30
0.0
 11
104.0426940994
 21
62.1913493901
 31
0.0
  0
SPLINE
  5
BC
330
1F
100
AcDbEntity
  8
0
  6
Continuous
 62
     7
370
    25
100
AcDbSpline
210
0.0
220
0.0
230
1.0
 70
     8
 71
     3
 72
    11
 73
     7
 74
     0
 42
0.00000001
 43
0.00000001
 40
0.0
 40
0.0
 40
0.0
 40
0.0
 40
0.2488466353289361
 40
0.4976946020535204
 40
0.7488461225871278
 40
1.0
 40
1.0
 40
1.0
 40
1.0
 10
96.97230047711723
 20
63.51454989104699
 30
0.0
 10
97.56673652625351
 20
63.44502551455336
 30
0.0
 10
98.7556118049169
 20
63.30597638959219
 30
0.0
 10
100.5303364756259
 20
63.00564765146691
 30
0.0
 10
102.2969171173683
 20
62.64373803321175
 30
0.0
 10
103.460766618388
 20
62.3421460761472
 30
0.0
 10
104.042694099361
 20
62.19134939006148
 30
0.0
  0
LINE
  5
BD
330
1F
100
AcDbEntity
  8
0
  6
Continuous
 62
     7
370
    25
100
AcDbLine
 10
96.9723004771
 20
63.514549891
 30
0.0
 11
96.9723004771
 21
66.7571177761
 31
0.0
  0
LINE
  5
BE
330
1F
100
AcDbEntity
  8
0
  6
Continuous
 62
     7
370
    25
100
AcDbLine
 10
96.9723004771
 20
66.7571177761
 30
0.0
 11
115.4334012103
 21
66.757117776
 31
0.0
  0
LINE
  5
BF
330
1F
100
AcDbEntity
  8
0
  6
Continuous
 62
     7
370
    25
100
AcDbLine
 10
116.9917920882
 20
57.7623741981
 30
0.0
 11
112.6477373387
 21
57.7623741981
 31
0.0
  0
LINE
  5
C0
330
1F
100
AcDbEntity
  8
0
  6
Continuous
 62
     7
370
    25
100
AcDbLine
 10
117.1477373387
 20
57.8001911219
 30
0.0
 11
117.1409379807
 21
57.7623741981
 31
0.0
  0
LINE
  5
C1
330
1F
100
AcDbEntity
  8
0
  6
Continuous
 62
     7
370
    25
100
AcDbLine
 10
117.1477373387
 20
57.7623741981
 30
0.0
 11
117.1409379807
 21
57.7623741981
 31
0.0
  0
LINE
  5
C2
330
1F
100
AcDbEntity
  8
0
  6
Continuous
 62
     7
370
    25
100
AcDbLine
 10
117.1409379807
 20
57.7623741981
 30
0.0
 11
116.9917920882
 21
57.7623741981
 31
0.0
  0
LINE
  5
C3
330
1F
100
AcDbEntity
  8
0
  6
Continuous
 62
     7
370
    25
100
AcDbLine
 10
79.1477373387
 20
75.7623741981
 30
0.0
 11
96.9723004771
 21
75.7623741981
 31
0.0
  0
LINE
  5
C4
330
1F
100
AcDbEntity
  8
0
  6
Continuous
 62
     7
370
    25
100
AcDbLine
 10
96.9723004771
 20
75.7623741981
 30
0.0
 11
96.9723004771
 21
66.7571177761
 31
0.0
  0
LINE
  5
C5
330
1F
100
AcDbEntity
  8
0
  6
Continuous
 62
     7
370
    25
100
AcDbLine
 10
92.2560694809
 20
63.7623741981
 30
0.0
 11
84.1477373387
 21
63.7623741981
 31
0.0
  0
ARC
  5
C6
330
1F
100
AcDbEntity
  8
0
  6
Continuous
 62
     7
370
    25
100
AcDbCircle
 10
84.1477373387
 20
68.7623741981
 30
0.0
 40
5.0
100
AcDbArc
 50
180.0
 51
270.0
  0
LINE
  5
C7
330
1F
100
AcDbEntity
  8
0
  6
Continuous
 62
     7
370
    25
100
AcDbLine
 10
79.1477373387
 20
68.7623741981
 30
0.0
 11
79.1477373387
 21
75.7623741981
 31
0.0
  0
ARC
  5
C8
330
1F
100
AcDbEntity
  8
0
  6
Continuous
 62
     7
370
    25
100
AcDbCircle
 10
92.2560694809
 20
18.7622449439
 30
0.0
 40
45.00012925418375
100
AcDbArc
 50
83.9840777705
 51
90.0
  0
LINE
  5
C9
330
1F
100
AcDbEntity
  8
0
  6
Continuous
 62
     7
370
    25
100
AcDbLine
 10
96.9723004771
 20
75.7623741981
 30
0.0
 11
99.1477373387
 21
75.7623741981
 31
0.0
  0
LINE
  5
CA
330
1F
100
AcDbEntity
  8
0
  6
Continuous
 62
     7
370
    25
100
AcDbLine
 10
99.1477373387
 20
75.7623741981
 30
0.0
 11
99.1477373387
 21
73.7813297214
 31
0.0
  0
ARC
  5
CB
330
1F
100
AcDbEntity
  8
0
  6
Continuous
 62
     7
370
    25
100
AcDbCircle
 10
105.1477373387
 20
73.7813297214
 30
0.0
 40
6.000000000000004
100
AcDbArc
 50
180.0
 51
275.5801667845
  0
ARC
  5
CC
330
1F
100
AcDbEntity
  8
0
  6
Continuous
 62
     7
370
    25
100
AcDbCircle
 10
104.7587837744
 20
77.7623741981
 30
0.0
 40
10.00000000000846
100
AcDbArc
 50
275.5801667845
 51
336.4218215217
  0
LINE
  5
CD
330
1F
100
AcDbEntity
  8
0
  6
Continuous
 62
     7
370
    25
100
AcDbLine
 10
112.6477373387
 20
57.7623741981
 30
0.0
 11
112.1477373387
 21
57.7623741981
 31
0.0
  0
LINE
  5
CE
330
1F
100
AcDbEntity
  8
0
  6
Continuous
 62
     7
370
    25
100
AcDbLine
 10
113.908652006
 20
73.762374198
 30
0.0
 11
113.9239351643
 21
73.7623741981
 31
0.0
  0
LINE
  5
CF
330
1F
100
AcDbEntity
  8
0
  6
Continuous
 62
     7
370
    25
100
AcDbLine
 10
104.8477373387
 20
52.2558545807
 30
0.0
 11
104.8477373387
 21
39.2623741981
 31
0.0
  0
LINE
  5
D0
330
1F
100
AcDbEntity
  8
0
  6
Continuous
 62
     7
370
    25
100
AcDbLine
 10
104.8477373387
 20
55.2623741981
 30
0.0
 11
104.8477373387
 21
52.2558545807
 31
0.0
  0
LINE
  5
D1
330
1F
100
AcDbEntity
  8
0
  6
Continuous
 62
     7
370
    25
100
AcDbLine
 10
104.6477373387
 20
52.1310175711
 30
0.0
 11
104.6477373387
 21
55.0623741981
 31
0.0
  0
LINE
  5
D2
330
1F
100
AcDbEntity
  8
0
  6
Continuous
 62
     7
370
    25
100
AcDbLine
 10
104.6477373387
 20
39.4623741981
 30
0.0
 11
104.6477373387
 21
52.1310175711
 31
0.0
  0
LINE
  5
D3
330
1F
100
AcDbEntity
  8
0
  6
Continuous
 62
     7
370
    25
100
AcDbLine
 10
95.1477373387
 20
50.3895412877
 30
0.0
 11
95.1477373387
 21
42.2523741981
 31
0.0
  0
LINE
  5
D4
330
1F
100
AcDbEntity
  8
0
  6
Continuous
 62
     7
370
    25
100
AcDbLine
 10
95.1477373387
 20
52.2723741981
 30
0.0
 11
95.1477373387
 21
50.3895412877
 31
0.0
  0
LINE
  5
D5
330
1F
100
AcDbEntity
  8
0
  6
Continuous
 62
     7
370
    25
100
AcDbLine
 10
114.5289351851
 20
39.2959776582
 30
0.0
 11
114.5289351851
 21
36.0844331706
 31
0.0
  0
SPLINE
  5
D6
330
1F
100
AcDbEntity
  8
0
  6
Continuous
 62
     7
370
    25
100
AcDbSpline
210
0.0
220
0.0
230
1.0
 70
     8
 71
     3
 72
     8
 73
     4
 74
     0
 42
0.00000001
 43
0.00000001
 40
0.0
 40
0.0
 40
0.0
 40
0.0
 40
1.0
 40
1.0
 40
1.0
 40
1.0
 10
114.5289351851369
 20
39.29597765821646
 30
0.0
 10
114.7341210076802
 20
39.35253862534068
 30
0.0
 10
114.9403442083875
 20
39.40647869675451
 30
0.0
 10
115.1477373386539
 20
39.45746298649748
 30
0.0
  0
LINE
  5
D7
330
1F
100
AcDbEntity
  8
0
  6
Continuous
 62
     7
370
    25
100
AcDbLine
 10
115.1477373387
 20
43.2623741981
 30
0.0
 11
112.6315012617
 21
43.2623741981
 31
0.0
  0
SPLINE
  5
D8
330
1F
100
AcDbEntity
  8
0
  6
Continuous
 62
     7
370
    25
100
AcDbSpline
210
0.0
220
0.0
230
1.0
 70
     8
 71
     3
 72
     8
 73
     4
 74
     0
 42
0.00000001
 43
0.00000001
 40
0.0
 40
0.0
 40
0.0
 40
0.0
 40
1.0
 40
1.0
 40
1.0
 40
1.0
 10
112.4700159333937
 20
42.64357204455441
 30
0.0
 10
112.5265793028619
 20
42.84876658206418
 30
0.0
 10
112.5805192256832
 20
43.05499023558134
 30
0.0
 10
112.6315012616747
 20
43.26237419807145
 30
0.0
  0
LINE
  5
D9
330
1F
100
AcDbEntity
  8
0
  6
Continuous
 62
     7
370
    25
100
AcDbLine
 10
108.3254587439
 20
42.6435720446
 30
0.0
 11
112.4700159334
 21
42.6435720446
 31
0.0
  0
SPLINE
  5
DA
330
1F
100
AcDbEntity
  8
0
  6
Continuous
 62
     7
370
    25
100
AcDbSpline
210
0.0
220
0.0
230
1.0
 70
     8
 71
     3
 72
    10
 73
     6
 74
     0
 42
0.00000001
 43
0.00000001
 40
0.0
 40
0.0
 40
0.0
 40
0.0
 40
0.5
 40
0.5
 40
1.0
 40
1.0
 40
1.0
 40
1.0
 10
108.3254587439141
 20
42.64357204455444
 30
0.0
 10
108.1173900676829
 20
43.39838131760374
 30
0.0
 10
107.9469910616583
 20
44.15912770483563
 30
0.0
 10
107.7118310819595
 20
45.69727008245889
 30
0.0
 10
107.6477373386539
 20
46.47477123498371
 30
0.0
 10
107.6477373386539
 20
47.26237419807145
 30
0.0
  0
SPLINE
  5
DB
330
1F
100
AcDbEntity
  8
0
  6
Continuous
 62
     7
370
    25
100
AcDbSpline
210
0.0
220
0.0
230
1.0
 70
     8
 71
     3
 72
    12
 73
     8
 74
     0
 42
0.00000001
 43
0.00000001
 40
0.0
 40
0.0
 40
0.0
 40
0.0
 40
0.2500000000000001
 40
0.2500000000000001
 40
0.5000000000000001
 40
0.5000000000000001
 40
1.0
 40
1.0
 40
1.0
 40
1.0
 10
107.6477373386539
 20
47.26237419807145
 30
0.0
 10
107.6477373386539
 20
47.65669227874329
 30
0.0
 10
107.663736143635
 20
48.05035132269373
 30
0.0
 10
107.7255062819494
 20
48.82988732223907
 30
0.0
 10
107.7712484062509
 20
49.2168405103645
 30
0.0
 10
107.9479185535978
 20
50.37022707321849
 30
0.0
 10
108.1181736190781
 20
51.12920956242353
 30
0.0
 10
108.3254587439141
 20
51.88117635158846
 30
0.0
  0
LINE
  5
DC
330
1F
100
AcDbEntity
  8
0
  6
Continuous
 62
     7
370
    25
100
AcDbLine
 10
112.4700159334
 20
51.8811763516
 30
0.0
 11
108.3254587439
 21
51.8811763516
 31
0.0
  0
SPLINE
  5
DD
330
1F
100
AcDbEntity
  8
0
  6
Continuous
 62
     7
370
    25
100
AcDbSpline
210
0.0
220
0.0
230
1.0
 70
     8
 71
     3
 72
     8
 73
     4
 74
     0
 42
0.00000001
 43
0.00000001
 40
0.0
 40
0.0
 40
0.0
 40
0.0
 40
1.0
 40
1.0
 40
1.0
 40
1.0
 10
112.6315012616747
 20
51.26237419807146
 30
0.0
 10
112.5806025447522
 20
51.46941923650045
 30
0.0
 10
112.5266684085014
 20
51.67565856617708
 30
0.0
 10
112.4700159333937
 20
51.88117635158846
 30
0.0
  0
LINE
  5
DE
330
1F
100
AcDbEntity
  8
0
  6
Continuous
 62
     7
370
    25
100
AcDbLine
 10
125.6639734156
 20
51.2623741981
 30
0.0
 11
112.6315012617
 21
51.2623741981
 31
0.0
  0
SPLINE
  5
DF
330
1F
100
AcDbEntity
  8
0
  6
Continuous
 62
     7
370
    25
100
AcDbSpline
210
0.0
220
0.0
230
1.0
 70
     8
 71
     3
 72
     8
 73
     4
 74
     0
 42
0.00000001
 43
0.00000001
 40
0.0
 40
0.0
 40
0.0
 40
0.0
 40
1.0
 40
1.0
 40
1.0
 40
1.0
 10
125.6639734156331
 20
51.26237419807153
 30
0.0
 10
125.7148696488881
 20
51.46940913347528
 30
0.0
 10
125.7688036038518
 20
51.67564889854027
 30
0.0
 10
125.8254587439141
 20
51.88117635158846
 30
0.0
  0
LINE
  5
E0
330
1F
100
AcDbEntity
  8
0
  6
Continuous
 62
     7
370
    25
100
AcDbLine
 10
130.3256783661
 20
51.8811763516
 30
0.0
 11
125.8254587439
 21
51.8811763516
 31
0.0
  0
SPLINE
  5
E1
330
1F
100
AcDbEntity
  8
0
  6
Continuous
 62
     7
370
    25
100
AcDbSpline
210
0.0
220
0.0
230
1.0
 70
     8
 71
     3
 72
    14
 73
    10
 74
     0
 42
0.00000001
 43
0.00000001
 40
0.0
 40
0.0
 40
0.0
 40
0.0
 40
0.25
 40
0.25
 40
0.5
 40
0.5
 40
0.75
 40
0.75
 40
1.0
 40
1.0
 40
1.0
 40
1.0
 10
130.3256783660963
 20
42.6435720445544
 30
0.0
 10
130.5336287268021
 20
43.39795210520438
 30
0.0
 10
130.705850535491
 20
44.16739327266988
 30
0.0
 10
130.9404856582418
 20
45.70790463361104
 30
0.0
 10
131.0034297168695
 20
46.48275901361806
 30
0.0
 10
131.0033698041381
 20
48.04311996850362
 30
0.0
 10
130.938755137846
 20
48.83357616128865
 30
0.0
 10
130.7021957984447
 20
50.37585582409712
 30
0.0
 10
130.5318506583653
 20
51.13324657729831
 30
0.0
 10
130.3256783660963
 20
51.88117635158846
 30
0.0
  0
LINE
  5
E2
330
1F
100
AcDbEntity
  8
0
  6
Continuous
 62
     7
370
    25
100
AcDbLine
 10
125.8254587439
 20
42.6435720446
 30
0.0
 11
130.3256783661
 21
42.6435720446
 31
0.0
  0
SPLINE
  5
E3
330
1F
100
AcDbEntity
  8
0
  6
Continuous
 62
     7
370
    25
100
AcDbSpline
210
0.0
220
0.0
230
1.0
 70
     8
 71
     3
 72
     8
 73
     4
 74
     0
 42
0.00000001
 43
0.00000001
 40
0.0
 40
0.0
 40
0.0
 40
0.0
 40
1.0
 40
1.0
 40
1.0
 40
1.0
 10
125.8254587439141
 20
42.64357204455442
 30
0.0
 10
125.7688969004771
 20
42.84876104609123
 30
0.0
 10
125.7149568832208
 20
43.05498441215594
 30
0.0
 10
125.6639734156331
 20
43.26237419807139
 30
0.0
  0
LINE
  5
E4
330
1F
100
AcDbEntity
  8
0
  6
Continuous
 62
     7
370
    25
100
AcDbLine
 10
125.6639734156
 20
43.2623741981
 30
0.0
 11
123.1477373387
 21
43.2623741981
 31
0.0
  0
LINE
  5
E5
330
1F
100
AcDbEntity
  8
0
  6
Continuous
 62
     7
370
    25
100
AcDbLine
 10
123.1477373387
 20
39.4574629865
 30
0.0
 11
123.1477373387
 21
43.2623741981
 31
0.0
  0
SPLINE
  5
E6
330
1F
100
AcDbEntity
  8
0
  6
Continuous
 62
     7
370
    25
100
AcDbSpline
210
0.0
220
0.0
230
1.0
 70
     8
 71
     3
 72
     8
 73
     4
 74
     0
 42
0.00000001
 43
0.00000001
 40
0.0
 40
0.0
 40
0.0
 40
0.0
 40
1.0
 40
1.0
 40
1.0
 40
1.0
 10
123.1477373386539
 20
39.45746298649748
 30
0.0
 10
123.3547664019893
 20
39.40656819679665
 30
0.0
 10
123.5610064192586
 20
39.35263434743521
 30
0.0
 10
123.7665394921709
 20
39.29597765821645
 30
0.0
  0
LINE
  5
E7
330
1F
100
AcDbEntity
  8
0
  6
Continuous
 62
     7
370
    25
100
AcDbLine
 10
123.7665394922
 20
36.0844331706
 30
0.0
 11
123.7665394922
 21
39.2959776582
 31
0.0
  0
SPLINE
  5
E8
330
1F
100
AcDbEntity
  8
0
  6
Continuous
 62
     7
370
    25
100
AcDbSpline
210
0.0
220
0.0
230
1.0
 70
     8
 71
     3
 72
    14
 73
    10
 74
     0
 42
0.00000001
 43
0.00000001
 40
0.0
 40
0.0
 40
0.0
 40
0.0
 40
0.5
 40
0.5
 40
0.625
 40
0.625
 40
0.75
 40
0.75
 40
1.0
 40
1.0
 40
1.0
 40
1.0
 10
114.5289351851369
 20
36.08443317062905
 30
0.0
 10
116.0273797710505
 20
35.67137600171358
 30
0.0
 10
117.5553255537112
 20
35.40809954066247
 30
0.0
 10
119.5297370133227
 20
35.40637186699036
 30
0.0
 10
119.9265956816881
 20
35.42217891000973
 30
0.0
 10
120.7097374232033
 20
35.48385648263619
 30
0.0
 10
121.0981030044201
 20
35.5296658464357
 30
0.0
 10
122.2547368056825
 20
35.70662083023413
 30
0.0
 10
123.0145731649897
 20
35.87714817314223
 30
0.0
 10
123.7665394921709
 20
36.08443317062905
 30
0.0
  0
ARC
  5
E9
330
1F
100
AcDbEntity
  8
0
  6
Continuous
 62
     7
370
    25
100
AcDbCircle
 10
120.6984686944
 20
46.6854552048
 30
0.0
 40
0.8889999999999868
100
AcDbArc
 50
45.0
 51
315.0
  0
LINE
  5
EA
330
1F
100
AcDbEntity
  8
0
  6
Continuous
 62
     7
370
    25
100
AcDbLine
 10
121.3270866228
 20
47.3140731332
 30
0.0
 11
121.7936970085
 21
47.7806835189
 31
0.0
  0
ARC
  5
EB
330
1F
100
AcDbEntity
  8
0
  6
Continuous
 62
     7
370
    25
100
AcDbCircle
 10
120.6984686944
 20
46.6854552048
 30
0.0
 40
1.548886735692389
100
AcDbArc
 50
45.0
 51
315.0
  0
LINE
  5
EC
330
1F
100
AcDbEntity
  8
0
  6
Continuous
 62
     7
370
    25
100
AcDbLine
 10
121.7936970085
 20
45.5902268907
 30
0.0
 11
121.3270866228
 21
46.0568372763
 31
0.0
  0
ARC
  5
ED
330
1F
100
AcDbEntity
  8
0
  6
Continuous
 62
     7
370
    25
100
AcDbCircle
 10
124.0406132907
 20
46.6854552048
 30
0.0
 40
0.8889999999999718
100
AcDbArc
 50
45.0
 51
159.0751675724
  0
LINE
  5
EE
330
1F
100
AcDbEntity
  8
0
  6
Continuous
 62
     7
370
    25
100
AcDbLine
 10
124.6692312192
 20
47.3140731332
 30
0.0
 11
125.1358416048
 21
47.7806835189
 31
0.0
  0
ARC
  5
EF
330
1F
100
AcDbEntity
  8
0
  6
Continuous
 62
     7
370
    25
100
AcDbCircle
 10
124.0406132907
 20
46.6854552048
 30
0.0
 40
1.548886735692384
100
AcDbArc
 50
45.0
 51
315.0
  0
LINE
  5
F0
330
1F
100
AcDbEntity
  8
0
  6
Continuous
 62
     7
370
    25
100
AcDbLine
 10
125.1358416048
 20
45.5902268907
 30
0.0
 11
124.6692312192
 21
46.0568372763
 31
0.0
  0
ARC
  5
F1
330
1F
100
AcDbEntity
  8
0
  6
Continuous
 62
     7
370
    25
100
AcDbCircle
 10
124.0406132907
 20
46.6854552048
 30
0.0
 40
0.8890000000000166
100
AcDbArc
 50
200.9248324276
 51
315.0
  0
LINE
  5
F2
330
1F
100
AcDbEntity
  8
0
  6
Continuous
 62
     7
370
    25
100
AcDbLine
 10
123.210243042
 20
46.3679552048
 30
0.0
 11
125.1358416048
 21
46.3679552048
 31
0.0
  0
LINE
  5
F3
330
1F
100
AcDbEntity
  8
0
  6
Continuous
 62
     7
370
    25
100
AcDbLine
 10
125.1358416048
 20
46.3679552048
 30
0.0
 11
125.1358416048
 21
47.0029552048
 31
0.0
  0
LINE
  5
F4
330
1F
100
AcDbEntity
  8
0
  6
Continuous
 62
     7
370
    25
100
AcDbLine
 10
125.1358416048
 20
47.0029552048
 30
0.0
 11
123.210243042
 21
47.0029552048
 31
0.0
  0
LINE
  5
F5
330
1F
100
AcDbEntity
  8
0
  6
Continuous
 62
     7
370
    25
100
AcDbLine
 10
118.2459784247
 20
45.8400011805
 30
0.0
 11
118.2043281054
 21
45.8161962506
 31
0.0
  0
ELLIPSE
  5
F6
330
1F
100
AcDbEntity
  8
0
  6
Continuous
 62
     7
370
    25
100
AcDbEllipse
 10
117.8554849259
 20
46.3708787218
 30
0.0
 11
0.6784129479252528
 21
6.110667527536863E-13
 31
0.0
210
0.0
220
0.0
230
1.0
 40
0.9533039403
 41
3.470145824140269
 42
5.252469180536295
  0
LINE
  5
F7
330
1F
100
AcDbEntity
  8
0
  6
Continuous
 62
     7
370
    25
100
AcDbLine
 10
117.2133601589
 20
46.1621946069
 30
0.0
 11
115.9537059539
 21
49.6846390035
 31
0.0
  0
ELLIPSE
  5
F8
330
1F
100
AcDbEntity
  8
0
  6
Continuous
 62
     7
370
    25
100
AcDbEllipse
 10
115.362723396
 20
49.4222997675
 30
0.0
 11
0.6519124952381361
 21
6.039613253960852E-13
 31
0.0
210
0.0
220
0.0
230
1.0
 40
0.9533023292
 41
0.4357905044354985
 42
2.705800116361543
  0
LINE
  5
F9
330
1F
100
AcDbEntity
  8
0
  6
Continuous
 62
     7
370
    25
100
AcDbLine
 10
114.7717413975
 20
49.6846401488
 30
0.0
 11
113.5123765958
 21
46.1630167471
 31
0.0
  0
ELLIPSE
  5
FA
330
1F
100
AcDbEntity
  8
0
  6
Continuous
 62
     7
370
    25
100
AcDbEllipse
 10
112.8702554118
 20
46.3716995807
 30
0.0
 11
-0.6784085062757725
 21
3.268496584496461E-13
 31
0.0
210
0.0
220
0.0
230
1.0
 40
0.9533122623
 41
1.047193771187949
 42
2.813042320199933
  0
LINE
  5
FB
330
1F
100
AcDbEntity
  8
0
  6
Continuous
 62
     7
370
    25
100
AcDbLine
 10
112.5310489379
 20
45.8116117355
 30
0.0
 11
112.4794683673
 21
45.8400011805
 31
0.0
  0
LINE
  5
FC
330
1F
100
AcDbEntity
  8
0
  6
Continuous
 62
     7
370
    25
100
AcDbLine
 10
112.4794683673
 20
45.8400011805
 30
0.0
 11
113.2757370269
 21
44.3218290791
 31
0.0
  0
ELLIPSE
  5
FD
330
1F
100
AcDbEntity
  8
0
  6
Continuous
 62
     7
370
    25
100
AcDbEllipse
 10
113.3515859003
 20
44.357982594
 30
0.0
 11
0.08480161849065837
 21
-2.131628207280301E-14
 31
0.0
210
0.0
220
0.0
230
1.0
 40
0.9533039403
 41
3.605240262590903
 42
5.462183310215374
  0
ELLIPSE
  5
FE
330
1F
100
AcDbEntity
  8
0
  6
Continuous
 62
     7
370
    25
100
AcDbEllipse
 10
115.362723396
 20
42.2991339735
 30
0.0
 11
2.866293551216202
 21
-1.492139745096210E-12
 31
0.0
210
0.0
220
0.0
230
1.0
 40
0.9533046568
 41
0.8210016221243834
 42
2.320591031466437
  0
ELLIPSE
  5
FF
330
1F
100
AcDbEntity
  8
0
  6
Continuous
 62
     7
370
    25
100
AcDbEllipse
 10
117.3738608917
 20
44.357982594
 30
0.0
 11
0.08480161849061574
 21
0.0
 31
0.0
210
0.0
220
0.0
230
1.0
 40
0.9533039403
 41
3.962594650556551
 42
5.819537698177256
  0
LINE
  5
100
330
1F
100
AcDbEntity
  8
0
  6
Continuous
 62
     7
370
    25
100
AcDbLine
 10
117.4497097651
 20
44.3218290791
 30
0.0
 11
118.2459784247
 21
45.8400011805
 31
0.0
  0
LINE
  5
101
330
1F
100
AcDbEntity
  8
0
  6
Continuous
 62
     7
370
    25
100
AcDbLine
 10
115.1477373387
 20
39.4574629865
 30
0.0
 11
115.1477373387
 21
43.2623741981
 31
0.0
  0
LINE
  5
102
330
1F
100
AcDbEntity
  8
0
  6
Continuous
 62
     7
370
    25
100
AcDbLine
 10
113.1477373387
 20
54.6235901302
 30
0.0
 11
113.1477373387
 21
51.2623741981
 31
0.0
  0
SPLINE
  5
103
330
1F
100
AcDbEntity
  8
0
  6
Continuous
 62
     7
370
    25
100
AcDbSpline
210
0.0
220
0.0
230
1.0
 70
     8
 71
     3
 72
    10
 73
     6
 74
     0
 42
0.00000001
 43
0.00000001
 40
0.0
 40
0.0
 40
0.0
 40
0.0
 40
0.5
 40
0.5
 40
1.0
 40
1.0
 40
1.0
 40
1.0
 10
112.4700159333937
 20
52.31418905348068
 30
0.0
 10
112.4463405389693
 20
52.27124552257946
 30
0.0
 10
112.4332494290847
 20
52.20780307795533
 30
0.0
 10
112.4331631077964
 20
52.05532424083636
 30
0.0
 10
112.4463320417402
 20
51.96709423872909
 30
0.0
 10
112.4700159333937
 20
51.88117635158846
 30
0.0
  0
SPLINE
  5
104
330
1F
100
AcDbEntity
  8
0
  6
Continuous
 62
     7
370
    25
100
AcDbSpline
210
0.0
220
0.0
230
1.0
 70
     8
 71
     3
 72
    12
 73
     8
 74
     0
 42
0.00000001
 43
0.00000001
 40
0.0
 40
0.0
 40
0.0
 40
0.0
 40
0.2500000000000001
 40
0.2500000000000001
 40
0.5000000000000002
 40
0.5000000000000002
 40
1.0
 40
1.0
 40
1.0
 40
1.0
 10
113.1477373386539
 20
54.62359013023919
 30
0.0
 10
113.1477373386539
 20
54.42784786735967
 30
0.0
 10
113.1318944025649
 20
54.23118125816911
 30
0.0
 10
113.0703915423273
 20
53.84191303084083
 30
0.0
 10
113.0247879012836
 20
53.64850899788791
 30
0.0
 10
112.8483368837944
 20
53.07157994663115
 30
0.0
 10
112.6779395165425
 20
52.69133051342814
 30
0.0
 10
112.4700159333937
 20
52.31418905348068
 30
0.0
  0
LINE
  5
105
330
1F
100
AcDbEntity
  8
0
  6
Continuous
 62
     7
370
    25
100
AcDbLine
 10
107.6477373387
 20
47.2623741981
 30
0.0
 11
107.6477373387
 21
54.6235901302
 31
0.0
  0
SPLINE
  5
106
330
1F
100
AcDbEntity
  8
0
  6
Continuous
 62
     7
370
    25
100
AcDbSpline
210
0.0
220
0.0
230
1.0
 70
     8
 71
     3
 72
    10
 73
     6
 74
     0
 42
0.00000001
 43
0.00000001
 40
0.0
 40
0.0
 40
0.0
 40
0.0
 40
0.5
 40
0.5
 40
1.0
 40
1.0
 40
1.0
 40
1.0
 10
108.3254587439136
 20
52.31418905348065
 30
0.0
 10
108.1166488192474
 20
52.69293820087194
 30
0.0
 10
107.9461146795001
 20
53.07414347728324
 30
0.0
 10
107.7113288744812
 20
53.84337409847102
 30
0.0
 10
107.6477373386539
 20
54.23144180326935
 30
0.0
 10
107.6477373386539
 20
54.62359013023919
 30
0.0
  0
SPLINE
  5
107
330
1F
100
AcDbEntity
  8
0
  6
Continuous
 62
     7
370
    25
100
AcDbSpline
210
0.0
220
0.0
230
1.0
 70
     8
 71
     3
 72
    10
 73
     6
 74
     0
 42
0.00000001
 43
0.00000001
 40
0.0
 40
0.0
 40
0.0
 40
0.0
 40
0.5
 40
0.5
 40
1.0
 40
1.0
 40
1.0
 40
1.0
 10
108.3254587439141
 20
52.31418905348068
 30
0.0
 10
108.3491309838256
 20
52.27125124438145
 30
0.0
 10
108.3622249737609
 20
52.20781065448925
 30
0.0
 10
108.3623118412224
 20
52.05532150898041
 30
0.0
 10
108.349142051463
 20
51.96709211977709
 30
0.0
 10
108.3254587439141
 20
51.88117635158846
 30
0.0
  0
LINE
  5
108
330
1F
100
AcDbEntity
  8
0
  6
Continuous
 62
     7
370
    25
100
AcDbLine
 10
130.3256783661
 20
42.2105593427
 30
0.0
 11
125.8254587439
 21
42.2105593427
 31
0.0
  0
SPLINE
  5
109
330
1F
100
AcDbEntity
  8
0
  6
Continuous
 62
     7
370
    25
100
AcDbSpline
210
0.0
220
0.0
230
1.0
 70
     8
 71
     3
 72
    10
 73
     6
 74
     0
 42
0.00000001
 43
0.00000001
 40
0.0
 40
0.0
 40
0.0
 40
0.0
 40
0.5
 40
0.5
 40
1.0
 40
1.0
 40
1.0
 40
1.0
 10
125.8254587439108
 20
42.21055934266223
 30
0.0
 10
125.8491341383351
 20
42.25350287356338
 30
0.0
 10
125.8622252482231
 20
42.31694531818718
 30
0.0
 10
125.8623115695114
 20
42.46942415530626
 30
0.0
 10
125.8491426355676
 20
42.55765415741369
 30
0.0
 10
125.8254587439141
 20
42.64357204455443
 30
0.0
  0
SPLINE
  5
10A
330
1F
100
AcDbEntity
  8
0
  6
Continuous
 62
     7
370
    25
100
AcDbSpline
210
0.0
220
0.0
230
1.0
 70
     8
 71
     3
 72
    10
 73
     6
 74
     0
 42
0.00000001
 43
0.00000001
 40
0.0
 40
0.0
 40
0.0
 40
0.0
 40
0.5
 40
0.5
 40
1.0
 40
1.0
 40
1.0
 40
1.0
 10
130.3256783660962
 20
42.64357204455445
 30
0.0
 10
130.3020029716718
 20
42.55768498275199
 30
0.0
 10
130.2889118617873
 20
42.47027777377185
 30
0.0
 10
130.288825540499
 20
42.31764133117812
 30
0.0
 10
130.3019944744428
 20
42.25351828623253
 30
0.0
 10
130.3256783660963
 20
42.21055934266223
 30
0.0
  0
LINE
  5
10B
330
1F
100
AcDbEntity
  8
0
  6
Continuous
 62
     7
370
    25
100
AcDbLine
 10
113.1477373387
 20
43.2623741981
 30
0.0
 11
113.1477373387
 21
41.2623741981
 31
0.0
  0
SPLINE
  5
10C
330
1F
100
AcDbEntity
  8
0
  6
Continuous
 62
     7
370
    25
100
AcDbSpline
210
0.0
220
0.0
230
1.0
 70
     8
 71
     3
 72
     8
 73
     4
 74
     0
 42
0.00000001
 43
0.00000001
 40
0.0
 40
0.0
 40
0.0
 40
0.0
 40
1.0
 40
1.0
 40
1.0
 40
1.0
 10
113.1477373386539
 20
41.26237419807146
 30
0.0
 10
113.1079586804637
 20
41.12498910907135
 30
0.0
 10
113.0674697176355
 20
40.98828502725959
 30
0.0
 10
113.0263538471577
 20
40.85225266474621
 30
0.0
  0
SPLINE
  5
10D
330
1F
100
AcDbEntity
  8
0
  6
Continuous
 62
     7
370
    25
100
AcDbSpline
210
0.0
220
0.0
230
1.0
 70
     8
 71
     3
 72
     8
 73
     4
 74
     0
 42
0.00000001
 43
0.00000001
 40
0.0
 40
0.0
 40
0.0
 40
0.0
 40
1.0
 40
1.0
 40
1.0
 40
1.0
 10
112.4700159333937
 20
42.21055934266223
 30
0.0
 10
112.7171897142776
 20
41.7622240496109
 30
0.0
 10
112.9109113825816
 20
41.31004955886731
 30
0.0
 10
113.0263538471577
 20
40.85225266474621
 30
0.0
  0
SPLINE
  5
10E
330
1F
100
AcDbEntity
  8
0
  6
Continuous
 62
     7
370
    25
100
AcDbSpline
210
0.0
220
0.0
230
1.0
 70
     8
 71
     3
 72
    10
 73
     6
 74
     0
 42
0.00000001
 43
0.00000001
 40
0.0
 40
0.0
 40
0.0
 40
0.0
 40
0.5
 40
0.5
 40
1.0
 40
1.0
 40
1.0
 40
1.0
 10
112.4700159333936
 20
42.64357204455445
 30
0.0
 10
112.4463405389693
 20
42.55768498275199
 30
0.0
 10
112.4332494290847
 20
42.47027777377186
 30
0.0
 10
112.4331631077964
 20
42.31764133117813
 30
0.0
 10
112.4463320417402
 20
42.25351828623254
 30
0.0
 10
112.4700159333937
 20
42.21055934266223
 30
0.0
  0
LINE
  5
10F
330
1F
100
AcDbEntity
  8
0
  6
Continuous
 62
     7
370
    25
100
AcDbLine
 10
107.6477373387
 20
47.2623741981
 30
0.0
 11
107.6477373387
 21
39.9011582659
 31
0.0
  0
SPLINE
  5
110
330
1F
100
AcDbEntity
  8
0
  6
Continuous
 62
     7
370
    25
100
AcDbSpline
210
0.0
220
0.0
230
1.0
 70
     8
 71
     3
 72
    10
 73
     6
 74
     0
 42
0.00000001
 43
0.00000001
 40
0.0
 40
0.0
 40
0.0
 40
0.0
 40
0.5
 40
0.5
 40
1.0
 40
1.0
 40
1.0
 40
1.0
 10
108.3254587439141
 20
42.64357204455444
 30
0.0
 10
108.34913264447
 20
42.55769040204799
 30
0.0
 10
108.3622252016492
 20
42.47028119608255
 30
0.0
 10
108.3623116156315
 20
42.31763871100762
 30
0.0
 10
108.3491412240328
 20
42.25351572592525
 30
0.0
 10
108.3254587439141
 20
42.21055934266223
 30
0.0
  0
SPLINE
  5
111
330
1F
100
AcDbEntity
  8
0
  6
Continuous
 62
     7
370
    25
100
AcDbSpline
210
0.0
220
0.0
230
1.0
 70
     8
 71
     3
 72
    12
 73
     8
 74
     0
 42
0.00000001
 43
0.00000001
 40
0.0
 40
0.0
 40
0.0
 40
0.0
 40
0.2499999999999999
 40
0.2499999999999999
 40
0.4999999999999998
 40
0.4999999999999998
 40
1.0
 40
1.0
 40
1.0
 40
1.0
 10
107.6477373386539
 20
39.90115826590372
 30
0.0
 10
107.6477373386539
 20
40.09616174590952
 30
0.0
 10
107.6634836686759
 20
40.29269640493393
 30
0.0
 10
107.7249286932613
 20
40.68211609253948
 30
0.0
 10
107.770517452515
 20
40.87560078559974
 30
0.0
 10
107.9469684547716
 20
41.45278438435534
 30
0.0
 10
108.1174261567351
 20
41.8332201661383
 30
0.0
 10
108.3254587439139
 20
42.21055934266224
 30
0.0
  0
SPLINE
  5
112
330
1F
100
AcDbEntity
  8
0
  6
Continuous
 62
     7
370
    25
100
AcDbSpline
210
0.0
220
0.0
230
1.0
 70
     8
 71
     3
 72
    10
 73
     6
 74
     0
 42
0.00000001
 43
0.00000001
 40
0.0
 40
0.0
 40
0.0
 40
0.0
 40
0.5
 40
0.5
 40
1.0
 40
1.0
 40
1.0
 40
1.0
 10
123.7665394921709
 20
39.29597765821644
 30
0.0
 10
123.8524265539734
 20
39.27230226379203
 30
0.0
 10
123.9398337629536
 20
39.25921115390739
 30
0.0
 10
124.0924702055475
 20
39.25912483261917
 30
0.0
 10
124.1565932504933
 20
39.27229376656312
 30
0.0
 10
124.1995521940635
 20
39.29597765821666
 30
0.0
  0
LINE
  5
113
330
1F
100
AcDbEntity
  8
0
  6
Continuous
 62
     7
370
    25
100
AcDbLine
 10
124.1995521941
 20
39.2959776582
 30
0.0
 11
124.1995521941
 21
36.0844331706
 31
0.0
  0
SPLINE
  5
114
330
1F
100
AcDbEntity
  8
0
  6
Continuous
 62
     7
370
    25
100
AcDbSpline
210
0.0
220
0.0
230
1.0
 70
     8
 71
     3
 72
    10
 73
     6
 74
     0
 42
0.00000001
 43
0.00000001
 40
0.0
 40
0.0
 40
0.0
 40
0.0
 40
0.5
 40
0.5
 40
1.0
 40
1.0
 40
1.0
 40
1.0
 10
123.7665394921709
 20
36.08443317062905
 30
0.0
 10
123.8524211346774
 20
36.108107071185
 30
0.0
 10
123.9398303406428
 20
36.12119962836415
 30
0.0
 10
124.0924728257177
 20
36.12128604234642
 30
0.0
 10
124.1565958108001
 20
36.1081156507478
 30
0.0
 10
124.1995521940631
 20
36.08443317062905
 30
0.0
  0
SPLINE
  5
115
330
1F
100
AcDbEntity
  8
0
  6
Continuous
 62
     7
370
    25
100
AcDbSpline
210
0.0
220
0.0
230
1.0
 70
     8
 71
     3
 72
    10
 73
     6
 74
     0
 42
0.00000001
 43
0.00000001
 40
0.0
 40
0.0
 40
0.0
 40
0.0
 40
0.5
 40
0.5
 40
1.0
 40
1.0
 40
1.0
 40
1.0
 10
114.0959224832447
 20
39.29597765821645
 30
0.0
 10
114.1388660141459
 20
39.27230226379206
 30
0.0
 10
114.20230845877
 20
39.25921115390742
 30
0.0
 10
114.354787295889
 20
39.25912483261914
 30
0.0
 10
114.4430172979962
 20
39.27229376656298
 30
0.0
 10
114.5289351851369
 20
39.29597765821645
 30
0.0
  0
SPLINE
  5
116
330
1F
100
AcDbEntity
  8
0
  6
Continuous
 62
     7
370
    25
100
AcDbSpline
210
0.0
220
0.0
230
1.0
 70
     8
 71
     3
 72
    10
 73
     6
 74
     0
 42
0.00000001
 43
0.00000001
 40
0.0
 40
0.0
 40
0.0
 40
0.0
 40
0.5
 40
0.5
 40
1.0
 40
1.0
 40
1.0
 40
1.0
 10
114.0959224832447
 20
36.08443317062905
 30
0.0
 10
114.1388602923439
 20
36.10810541054061
 30
0.0
 10
114.2023008822361
 20
36.12119940047587
 30
0.0
 10
114.3547900277449
 20
36.12128626793731
 30
0.0
 10
114.4430194169483
 20
36.10811647817795
 30
0.0
 10
114.5289351851369
 20
36.08443317062905
 30
0.0
  0
LINE
  5
117
330
1F
100
AcDbEntity
  8
0
  6
Continuous
 62
     7
370
    25
100
AcDbLine
 10
114.0959224832
 20
36.0844331706
 30
0.0
 11
114.0959224832
 21
39.2959776582
 31
0.0
  0
SPLINE
  5
118
330
1F
100
AcDbEntity
  8
0
  6
Continuous
 62
     7
370
    25
100
AcDbSpline
210
0.0
220
0.0
230
1.0
 70
     8
 71
     3
 72
     8
 73
     4
 74
     0
 42
0.00000001
 43
0.00000001
 40
0.0
 40
0.0
 40
0.0
 40
0.0
 40
1.0
 40
1.0
 40
1.0
 40
1.0
 10
125.26912083015
 20
40.85225266474621
 30
0.0
 10
125.2280055545088
 20
40.98828305923575
 30
0.0
 10
125.1875165716409
 20
41.12498712387319
 30
0.0
 10
125.1477373386539
 20
41.26237419807146
 30
0.0
  0
LINE
  5
119
330
1F
100
AcDbEntity
  8
0
  6
Continuous
 62
     7
370
    25
100
AcDbLine
 10
125.1477373387
 20
43.2623741981
 30
0.0
 11
125.1477373387
 21
41.2623741981
 31
0.0
  0
SPLINE
  5
11A
330
1F
100
AcDbEntity
  8
0
  6
Continuous
 62
     7
370
    25
100
AcDbSpline
210
0.0
220
0.0
230
1.0
 70
     8
 71
     3
 72
     8
 73
     4
 74
     0
 42
0.00000001
 43
0.00000001
 40
0.0
 40
0.0
 40
0.0
 40
0.0
 40
1.0
 40
1.0
 40
1.0
 40
1.0
 10
125.26912083015
 20
40.85225266474621
 30
0.0
 10
125.3847534401791
 20
41.31080359680396
 30
0.0
 10
125.5786428449995
 20
41.76287319256222
 30
0.0
 10
125.8254587439139
 20
42.21055934266197
 30
0.0
  0
LINE
  5
11B
330
1F
100
AcDbEntity
  8
0
  6
Continuous
 62
     7
370
    25
100
AcDbLine
 10
115.0939763321
 20
46.6879423416
 30
0.0
 11
115.7013246909
 21
46.6879423416
 31
0.0
  0
ELLIPSE
  5
11C
330
1F
100
AcDbEntity
  8
0
  6
Continuous
 62
     7
370
    25
100
AcDbEllipse
 10
115.3976505133
 20
47.5793666757
 30
0.0
 11
0.08480161849065837
 21
0.0
 31
0.0
210
0.0
220
0.0
230
1.0
 40
0.9533039403
 41
0.3430239404206654
 42
2.798568713169184
  0
LINE
  5
11D
330
1F
100
AcDbEntity
  8
0
  6
Continuous
 62
     7
370
    25
100
AcDbLine
 10
115.7811859293
 20
46.7959740703
 30
0.0
 11
115.4775117516
 21
47.6065566875
 31
0.0
  0
ELLIPSE
  5
11E
330
1F
100
AcDbEntity
  8
0
  6
Continuous
 62
     7
370
    25
100
AcDbEllipse
 10
115.7013246909
 20
46.7687840586
 30
0.0
 11
-0.08480161849067258
 21
-4.263256414560601E-14
 31
0.0
210
0.0
220
0.0
230
1.0
 40
0.9533039403
 41
1.570796326794417
 42
3.484616592149308
  0
ELLIPSE
  5
11F
330
1F
100
AcDbEntity
  8
0
  6
Continuous
 62
     7
370
    25
100
AcDbEllipse
 10
115.0939763321
 20
46.7687840586
 30
0.0
 11
0.08480161849065837
 21
-7.105427357601002E-15
 31
0.0
210
0.0
220
0.0
230
1.0
 40
0.9533039403
 41
2.798568711308326
 42
4.712388980384782
  0
LINE
  5
120
330
1F
100
AcDbEntity
  8
0
  6
Continuous
 62
     7
370
    25
100
AcDbLine
 10
115.317789275
 20
47.6065566875
 30
0.0
 11
115.0141150939
 21
46.7959740706
 31
0.0
  0
LINE
  5
121
330
1F
100
AcDbEntity
  8
0
  6
Continuous
 62
     7
370
    25
100
AcDbLine
 10
125.1477373387
 20
54.6235901302
 30
0.0
 11
125.1477373387
 21
51.2623741981
 31
0.0
  0
SPLINE
  5
122
330
1F
100
AcDbEntity
  8
0
  6
Continuous
 62
     7
370
    25
100
AcDbSpline
210
0.0
220
0.0
230
1.0
 70
     8
 71
     3
 72
    10
 73
     6
 74
     0
 42
0.00000001
 43
0.00000001
 40
0.0
 40
0.0
 40
0.0
 40
0.0
 40
0.5
 40
0.5
 40
1.0
 40
1.0
 40
1.0
 40
1.0
 10
125.8254587439141
 20
52.31418905348066
 30
0.0
 10
125.6170379910967
 20
52.69223230288282
 30
0.0
 10
125.4465741558192
 20
53.07300180767867
 30
0.0
 10
125.2115917208808
 20
53.84215033323621
 30
0.0
 10
125.1477373386539
 20
54.23057706141145
 30
0.0
 10
125.1477373386539
 20
54.62359013023919
 30
0.0
  0
SPLINE
  5
123
330
1F
100
AcDbEntity
  8
0
  6
Continuous
 62
     7
370
    25
100
AcDbSpline
210
0.0
220
0.0
230
1.0
 70
     8
 71
     3
 72
    10
 73
     6
 74
     0
 42
0.00000001
 43
0.00000001
 40
0.0
 40
0.0
 40
0.0
 40
0.0
 40
0.5
 40
0.5
 40
1.0
 40
1.0
 40
1.0
 40
1.0
 10
125.8254587439141
 20
51.88117635158846
 30
0.0
 10
125.8491341383385
 20
51.96706341339091
 30
0.0
 10
125.8622252482231
 20
52.05447062237102
 30
0.0
 10
125.8623115695114
 20
52.20710706496476
 30
0.0
 10
125.8491426355676
 20
52.27123010991033
 30
0.0
 10
125.8254587439141
 20
52.31418905348065
 30
0.0
  0
SPLINE
  5
124
330
1F
100
AcDbEntity
  8
0
  6
Continuous
 62
     7
370
    25
100
AcDbSpline
210
0.0
220
0.0
230
1.0
 70
     8
 71
     3
 72
     8
 73
     4
 74
     0
 42
0.00000001
 43
0.00000001
 40
0.0
 40
0.0
 40
0.0
 40
0.0
 40
1.0
 40
1.0
 40
1.0
 40
1.0
 10
111.8583611540373
 20
39.97299801344271
 30
0.0
 10
112.167378296679
 20
40.07400312127285
 30
0.0
 10
112.482696052997
 20
40.17065991033878
 30
0.0
 10
112.80517537984
 20
40.26237419807145
 30
0.0
  0
SPLINE
  5
125
330
1F
100
AcDbEntity
  8
0
  6
Continuous
 62
     7
370
    25
100
AcDbSpline
210
0.0
220
0.0
230
1.0
 70
     8
 71
     3
 72
    12
 73
     8
 74
     0
 42
0.00000001
 43
0.00000001
 40
0.0
 40
0.0
 40
0.0
 40
0.0
 40
0.2500000000000002
 40
0.2500000000000002
 40
0.5000000000000004
 40
0.5000000000000004
 40
1.0
 40
1.0
 40
1.0
 40
1.0
 10
111.858361154032
 20
39.97299801343659
 30
0.0
 10
112.0483873293352
 20
39.96928952758017
 30
0.0
 10
112.2386023920211
 20
39.95070702474248
 30
0.0
 10
112.6155391511535
 20
39.88583998777634
 30
0.0
 10
112.802861942413
 20
39.83957443452607
 30
0.0
 10
113.3617718987271
 20
39.66384990421911
 30
0.0
 10
113.7303075568374
 20
39.49754649544236
 30
0.0
 10
114.0959224832447
 20
39.29597765821645
 30
0.0
  0
SPLINE
  5
126
330
1F
100
AcDbEntity
  8
0
  6
Continuous
 62
     7
370
    25
100
AcDbSpline
210
0.0
220
0.0
230
1.0
 70
     8
 71
     3
 72
     8
 73
     4
 74
     0
 42
0.00000001
 43
0.00000001
 40
0.0
 40
0.0
 40
0.0
 40
0.0
 40
1.0
 40
1.0
 40
1.0
 40
1.0
 10
125.4902992974677
 20
40.26237419807145
 30
0.0
 10
125.812778624317
 20
40.170659910337
 30
0.0
 10
126.128096380641
 20
40.07400312126909
 30
0.0
 10
126.4371135232885
 20
39.97299801343684
 30
0.0
  0
SPLINE
  5
127
330
1F
100
AcDbEntity
  8
0
  6
Continuous
 62
     7
370
    25
100
AcDbSpline
210
0.0
220
0.0
230
1.0
 70
     8
 71
     3
 72
    10
 73
     6
 74
     0
 42
0.00000001
 43
0.00000001
 40
0.0
 40
0.0
 40
0.0
 40
0.0
 40
0.5
 40
0.5
 40
1.0
 40
1.0
 40
1.0
 40
1.0
 10
124.1995521940634
 20
39.2959776582166
 30
0.0
 10
124.5660701409039
 20
39.49804434376752
 30
0.0
 10
124.9351503663698
 20
39.66443711603817
 30
0.0
 10
125.6804027145972
 20
39.89848408990823
 30
0.0
 10
126.0566154865449
 20
39.96557234386706
 30
0.0
 10
126.4371135232885
 20
39.97299801343684
 30
0.0
  0
LINE
  5
128
330
1F
100
AcDbEntity
  8
0
  6
Continuous
 62
     7
370
    25
100
AcDbLine
 10
108.3254587439
 20
52.3141890535
 30
0.0
 11
112.4700159334
 21
52.3141890535
 31
0.0
  0
SPLINE
  5
129
330
1F
100
AcDbEntity
  8
0
  6
Continuous
 62
     7
370
    25
100
AcDbSpline
210
0.0
220
0.0
230
1.0
 70
     8
 71
     3
 72
    10
 73
     6
 74
     0
 42
0.00000001
 43
0.00000001
 40
0.0
 40
0.0
 40
0.0
 40
0.0
 40
0.5
 40
0.5
 40
1.0
 40
1.0
 40
1.0
 40
1.0
 10
130.3256783660963
 20
52.31418905348068
 30
0.0
 10
130.3020029716719
 20
52.27124552257946
 30
0.0
 10
130.2889118617873
 20
52.20780307795533
 30
0.0
 10
130.288825540499
 20
52.05532424083636
 30
0.0
 10
130.3019944744428
 20
51.96709423872909
 30
0.0
 10
130.3256783660963
 20
51.88117635158846
 30
0.0
  0
SPLINE
  5
12A
330
1F
100
AcDbEntity
  8
0
  6
Continuous
 62
     7
370
    25
100
AcDbSpline
210
0.0
220
0.0
230
1.0
 70
     8
 71
     3
 72
    16
 73
    12
 74
     0
 42
0.00000001
 43
0.00000001
 40
0.0
 40
0.0
 40
0.0
 40
0.0
 40
0.2500000000000001
 40
0.2500000000000001
 40
0.5000000000000001
 40
0.5000000000000001
 40
0.6250000000000001
 40
0.6250000000000001
 40
0.7500000000000002
 40
0.7500000000000002
 40
1.0
 40
1.0
 40
1.0
 40
1.0
 10
130.3256783660963
 20
56.93299120699769
 30
0.0
 10
130.5336938142021
 20
56.55568311812119
 30
0.0
 10
130.703900119175
 20
56.17565938774699
 30
0.0
 10
130.9388361507426
 20
55.40803607233629
 30
0.0
 10
131.0029082824063
 20
55.02038925554749
 30
0.0
 10
131.0036412313273
 20
54.43206870365965
 30
0.0
 10
130.9879817512443
 20
54.23499551110401
 30
0.0
 10
130.9267066246073
 20
53.8449385335499
 30
0.0
 10
130.8811503521082
 20
53.65114563296187
 30
0.0
 10
130.7046643193519
 20
53.07306464819844
 30
0.0
 10
130.5340078658662
 20
52.69206678386362
 30
0.0
 10
130.3256783660963
 20
52.31418905348069
 30
0.0
  0
SPLINE
  5
12B
330
1F
100
AcDbEntity
  8
0
  6
Continuous
 62
     7
370
    25
100
AcDbSpline
210
0.0
220
0.0
230
1.0
 70
     8
 71
     3
 72
    10
 73
     6
 74
     0
 42
0.00000001
 43
0.00000001
 40
0.0
 40
0.0
 40
0.0
 40
0.0
 40
0.1601790552921226
 40
0.7197651707803578
 40
1.0
 40
1.0
 40
1.0
 40
1.0
 10
130.2914489329794
 20
56.99526948574744
 30
0.0
 10
130.2906861428861
 20
56.99666171377381
 30
0.0
 10
130.2872585428124
 20
57.00291769550213
 30
0.0
 10
130.3017660076107
 20
56.97641043077423
 30
0.0
 10
130.3196955607285
 20
56.94385457562906
 30
0.0
 10
130.3256783660963
 20
56.93299120699769
 30
0.0
  0
SPLINE
  5
12C
330
1F
100
AcDbEntity
  8
0
  6
Continuous
 62
     7
370
    25
100
AcDbSpline
210
0.0
220
0.0
230
1.0
 70
     8
 71
     3
 72
     9
 73
     5
 74
     0
 42
0.00000001
 43
0.00000001
 40
0.0
 40
0.0
 40
0.0
 40
0.0
 40
0.5797912171256352
 40
1.0
 40
1.0
 40
1.0
 40
1.0
 10
130.3256783660963
 20
37.59175718914523
 30
0.0
 10
130.3133197627498
 20
37.56928354090409
 30
0.0
 10
130.2920041529554
 20
37.53052191848327
 30
0.0
 10
130.2916132104527
 20
37.52978751372505
 30
0.0
 10
130.2914489329794
 20
37.52947891039548
 30
0.0
  0
SPLINE
  5
12D
330
1F
100
AcDbEntity
  8
0
  6
Continuous
 62
     7
370
    25
100
AcDbSpline
210
0.0
220
0.0
230
1.0
 70
     8
 71
     3
 72
    16
 73
    12
 74
     0
 42
0.00000001
 43
0.00000001
 40
0.0
 40
0.0
 40
0.0
 40
0.0
 40
0.2500000000000001
 40
0.2500000000000001
 40
0.5000000000000002
 40
0.5000000000000002
 40
0.6250000000000001
 40
0.6250000000000001
 40
0.7500000000000001
 40
0.7500000000000001
 40
1.0
 40
1.0
 40
1.0
 40
1.0
 10
130.3256783660963
 20
42.21055934266223
 30
0.0
 10
130.5336938142021
 20
41.83325125378573
 30
0.0
 10
130.703900119175
 20
41.45322752341153
 30
0.0
 10
130.9388361507426
 20
40.68560420800084
 30
0.0
 10
131.0029082824063
 20
40.29795739121204
 30
0.0
 10
131.0036412313273
 20
39.70963683932418
 30
0.0
 10
130.9879817512443
 20
39.51256364676854
 30
0.0
 10
130.9267066246073
 20
39.12250666921445
 30
0.0
 10
130.8811503521082
 20
38.9287137686264
 30
0.0
 10
130.7046643193519
 20
38.35063278386298
 30
0.0
 10
130.5340078658662
 20
37.96963491952815
 30
0.0
 10
130.3256783660963
 20
37.59175718914523
 30
0.0
  0
LINE
  5
12E
330
1F
100
AcDbEntity
  8
0
  6
Continuous
 62
     7
370
    25
100
AcDbLine
 10
131.1477373387
 20
55.5123741981
 30
0.0
 11
131.1477373387
 21
39.0123741981
 31
0.0
  0
LINE
  5
12F
330
1F
100
AcDbEntity
  8
0
  6
Continuous
 62
     7
370
    25
100
AcDbLine
 10
125.8254587439
 20
52.3141890535
 30
0.0
 11
130.3256783661
 21
52.3141890535
 31
0.0
  0
LINE
  5
130
330
1F
100
AcDbEntity
  8
0
  6
Continuous
 62
     7
370
    25
100
AcDbLine
 10
112.4700159334
 20
42.2105593427
 30
0.0
 11
108.3254587439
 21
42.2105593427
 31
0.0
  0
LINE
  5
131
330
1F
100
AcDbEntity
  8
0
  6
Continuous
 62
     7
370
    25
100
AcDbLine
 10
127.3977373387
 20
35.2623741981
 30
0.0
 11
110.8977373387
 21
35.2623741981
 31
0.0
  0
SPLINE
  5
132
330
1F
100
AcDbEntity
  8
0
  6
Continuous
 62
     7
370
    25
100
AcDbSpline
210
0.0
220
0.0
230
1.0
 70
     8
 71
     3
 72
    16
 73
    12
 74
     0
 42
0.00000001
 43
0.00000001
 40
0.0
 40
0.0
 40
0.0
 40
0.0
 40
0.2500000000000001
 40
0.2500000000000001
 40
0.5000000000000001
 40
0.5000000000000001
 40
0.6250000000000001
 40
0.6250000000000001
 40
0.7500000000000002
 40
0.7500000000000002
 40
1.0
 40
1.0
 40
1.0
 40
1.0
 10
128.8183543475802
 20
36.08443317062859
 30
0.0
 10
128.4406392998572
 20
35.87619336017993
 30
0.0
 10
128.0604815512312
 20
35.7060200737705
 30
0.0
 10
127.2933882193398
 20
35.47129781415465
 30
0.0
 10
126.9064108620021
 20
35.40739983908017
 30
0.0
 10
126.3198600869775
 20
35.40637613699368
 30
0.0
 10
126.1227809270544
 20
35.42186268413838
 30
0.0
 10
125.7322517875461
 20
35.48298640559637
 30
0.0
 10
125.5382200838731
 20
35.52850813289139
 30
0.0
 10
124.959416011452
 20
35.70500749663655
 30
0.0
 10
124.5779272772855
 20
35.87582947299038
 30
0.0
 10
124.1995521940631
 20
36.08443317062891
 30
0.0
  0
SPLINE
  5
133
330
1F
100
AcDbEntity
  8
0
  6
Continuous
 62
     7
370
    25
100
AcDbSpline
210
0.0
220
0.0
230
1.0
 70
     8
 71
     3
 72
     9
 73
     5
 74
     0
 42
0.00000001
 43
0.00000001
 40
0.0
 40
0.0
 40
0.0
 40
0.0
 40
0.5789479223911497
 40
1.0
 40
1.0
 40
1.0
 40
1.0
 10
128.8183543475801
 20
36.08443317062905
 30
0.0
 10
128.8407957147728
 20
36.09677406094346
 30
0.0
 10
128.8795580391973
 20
36.11809012381738
 30
0.0
 10
128.8803239420564
 20
36.11849829773175
 30
0.0
 10
128.8806464270465
 20
36.11867016020643
 30
0.0
  0
SPLINE
  5
134
330
1F
100
AcDbEntity
  8
0
  6
Continuous
 62
     7
370
    25
100
AcDbSpline
210
0.0
220
0.0
230
1.0
 70
     8
 71
     3
 72
    10
 73
     6
 74
     0
 42
0.00000001
 43
0.00000001
 40
0.0
 40
0.0
 40
0.0
 40
0.0
 40
0.1593935213061664
 40
0.7189934545756295
 40
1.0
 40
1.0
 40
1.0
 40
1.0
 10
109.4148282502613
 20
36.11867016020643
 30
0.0
 10
109.4134383314347
 20
36.1194316872039
 30
0.0
 10
109.4071686754879
 20
36.12286678871976
 30
0.0
 10
109.4336526173119
 20
36.10837216625315
 30
0.0
 10
109.4662300213585
 20
36.09043079576054
 30
0.0
 10
109.4771203297277
 20
36.08443317062905
 30
0.0
  0
SPLINE
  5
135
330
1F
100
AcDbEntity
  8
0
  6
Continuous
 62
     7
370
    25
100
AcDbSpline
210
0.0
220
0.0
230
1.0
 70
     8
 71
     3
 72
    16
 73
    12
 74
     0
 42
0.00000001
 43
0.00000001
 40
0.0
 40
0.0
 40
0.0
 40
0.0
 40
0.2500000000000003
 40
0.2500000000000003
 40
0.5000000000000006
 40
0.5000000000000006
 40
0.6250000000000006
 40
0.6250000000000006
 40
0.7500000000000004
 40
0.7500000000000004
 40
1.0
 40
1.0
 40
1.0
 40
1.0
 10
114.0959224832447
 20
36.08443317062858
 30
0.0
 10
113.7182074355217
 20
35.87619336017993
 30
0.0
 10
113.3380496868957
 20
35.7060200737705
 30
0.0
 10
112.5709563550043
 20
35.47129781415465
 30
0.0
 10
112.1839789976667
 20
35.40739983908017
 30
0.0
 10
111.597428222642
 20
35.40637613699368
 30
0.0
 10
111.4003490627189
 20
35.42186268413837
 30
0.0
 10
111.0098199232107
 20
35.48298640559636
 30
0.0
 10
110.8157882195376
 20
35.52850813289139
 30
0.0
 10
110.2369841471166
 20
35.70500749663656
 30
0.0
 10
109.8554954129501
 20
35.87582947299038
 30
0.0
 10
109.4771203297276
 20
36.08443317062891
 30
0.0
  0
SPLINE
  5
136
330
1F
100
AcDbEntity
  8
0
  6
Continuous
 62
     7
370
    25
100
AcDbSpline
210
0.0
220
0.0
230
1.0
 70
     8
 71
     3
 72
    12
 73
     8
 74
     0
 42
0.00000001
 43
0.00000001
 40
0.0
 40
0.0
 40
0.0
 40
0.0
 40
0.2499999999999999
 40
0.2499999999999999
 40
0.4999999999999998
 40
0.4999999999999998
 40
1.0
 40
1.0
 40
1.0
 40
1.0
 10
125.1477373386539
 20
54.62359013023919
 30
0.0
 10
125.1477373386539
 20
54.8193323931187
 30
0.0
 10
125.1635802747428
 20
55.01599900230926
 30
0.0
 10
125.2250831349805
 20
55.40526722963754
 30
0.0
 10
125.2706867760242
 20
55.59867126259046
 30
0.0
 10
125.4471377935134
 20
56.17560031384722
 30
0.0
 10
125.6175351607653
 20
56.55584974705023
 30
0.0
 10
125.8254587439141
 20
56.93299120699769
 30
0.0
  0
LINE
  5
137
330
1F
100
AcDbEntity
  8
0
  6
Continuous
 62
     7
370
    25
100
AcDbLine
 10
130.3256783661
 20
56.932991207
 30
0.0
 11
125.8254587439
 21
56.932991207
 31
0.0
  0
ELLIPSE
  5
138
330
1F
100
AcDbEntity
  8
0
  6
Continuous
 62
     7
370
    25
100
AcDbEllipse
 10
119.1477373387
 20
37.4474196218
 30
0.0
 11
8.500000000000014
 21
0.0
 31
0.0
210
0.0
220
0.0
230
1.0
 40
0.5773502692
 41
2.374833212873083
 42
2.530692279913058
  0
LINE
  5
139
330
1F
100
AcDbEntity
  8
0
  6
Continuous
 62
     7
370
    25
100
AcDbLine
 10
111.858361154
 20
39.9729980134
 30
0.0
 11
109.4771203297
 21
37.5917571891
 31
0.0
  0
LINE
  5
13A
330
1F
100
AcDbEntity
  8
0
  6
Continuous
 62
     7
370
    25
100
AcDbLine
 10
108.3254587439
 20
37.5917571891
 30
0.0
 11
109.4771203297
 21
37.5917571891
 31
0.0
  0
SPLINE
  5
13B
330
1F
100
AcDbEntity
  8
0
  6
Continuous
 62
     7
370
    25
100
AcDbSpline
210
0.0
220
0.0
230
1.0
 70
     8
 71
     3
 72
    10
 73
     6
 74
     0
 42
0.00000001
 43
0.00000001
 40
0.0
 40
0.0
 40
0.0
 40
0.0
 40
0.5
 40
0.5
 40
1.0
 40
1.0
 40
1.0
 40
1.0
 10
108.3254587439136
 20
37.59175718914519
 30
0.0
 10
108.1166488192474
 20
37.97050633653648
 30
0.0
 10
107.9461146795001
 20
38.35171161294779
 30
0.0
 10
107.7113288744812
 20
39.12094223413556
 30
0.0
 10
107.6477373386539
 20
39.50900993893389
 30
0.0
 10
107.6477373386539
 20
39.90115826590372
 30
0.0
  0
ELLIPSE
  5
13C
330
1F
100
AcDbEntity
  8
0
  6
Continuous
 62
     7
370
    25
100
AcDbEllipse
 10
119.1477373387
 20
37.4474196218
 30
0.0
 11
8.500000000000014
 21
0.0
 31
0.0
210
0.0
220
0.0
230
1.0
 40
0.5773502692
 41
0.6109003736767326
 42
0.7667594407167084
  0
LINE
  5
13D
330
1F
100
AcDbEntity
  8
0
  6
Continuous
 62
     7
370
    25
100
AcDbLine
 10
128.8183543476
 20
37.5917571891
 30
0.0
 11
130.3256783661
 21
37.5917571891
 31
0.0
  0
LINE
  5
13E
330
1F
100
AcDbEntity
  8
0
  6
Continuous
 62
     7
370
    25
100
AcDbLine
 10
128.8183543476
 20
37.5917571891
 30
0.0
 11
126.4371135233
 21
39.9729980134
 31
0.0
  0
SPLINE
  5
13F
330
1F
100
AcDbEntity
  8
0
  6
Continuous
 62
     7
370
    25
100
AcDbSpline
210
0.0
220
0.0
230
1.0
 70
     8
 71
     3
 72
    12
 73
     8
 74
     0
 42
0.00000001
 43
0.00000001
 40
0.0
 40
0.0
 40
0.0
 40
0.0
 40
0.2499999999999999
 40
0.2499999999999999
 40
0.5
 40
0.5
 40
1.0
 40
1.0
 40
1.0
 40
1.0
 10
107.6477373386539
 20
54.62359013023919
 30
0.0
 10
107.6477373386539
 20
54.81859361024498
 30
0.0
 10
107.6634836686759
 20
55.01512826926939
 30
0.0
 10
107.7249286932613
 20
55.40454795687494
 30
0.0
 10
107.770517452515
 20
55.59803264993519
 30
0.0
 10
107.9469684547716
 20
56.1752162486908
 30
0.0
 10
108.1174261567351
 20
56.55565203047376
 30
0.0
 10
108.3254587439139
 20
56.9329912069977
 30
0.0
  0
LINE
  5
140
330
1F
100
AcDbEntity
  8
0
  6
Continuous
 62
     7
370
    25
100
AcDbLine
 10
112.4700159334
 20
56.932991207
 30
0.0
 11
108.3254587439
 21
56.932991207
 31
0.0
  0
SPLINE
  5
141
330
1F
100
AcDbEntity
  8
0
  6
Continuous
 62
     7
370
    25
100
AcDbSpline
210
0.0
220
0.0
230
1.0
 70
     8
 71
     3
 72
    10
 73
     6
 74
     0
 42
0.00000001
 43
0.00000001
 40
0.0
 40
0.0
 40
0.0
 40
0.0
 40
0.5
 40
0.5
 40
1.0
 40
1.0
 40
1.0
 40
1.0
 10
112.4700159333937
 20
56.93299120699771
 30
0.0
 10
112.6784366862111
 20
56.55494795759555
 30
0.0
 10
112.8489005214885
 20
56.17417845279971
 30
0.0
 10
113.0838829564269
 20
55.40502992724216
 30
0.0
 10
113.1477373386539
 20
55.01660319906692
 30
0.0
 10
113.1477373386539
 20
54.62359013023919
 30
0.0
  0
LINE
  5
142
330
1F
100
AcDbEntity
  8
0
  6
Continuous
 62
     7
370
    25
100
AcDbLine
 10
109.4771203297
 20
37.5917571891
 30
0.0
 11
109.4771203297
 21
36.0844331706
 31
0.0
  0
LINE
  5
143
330
1F
100
AcDbEntity
  8
0
  6
Continuous
 62
     7
370
    25
100
AcDbLine
 10
128.8183543476
 20
36.0844331706
 30
0.0
 11
128.8183543476
 21
37.5917571891
 31
0.0
  0
LINE
  5
144
330
1F
100
AcDbEntity
  8
0
  6
Continuous
 62
     7
370
    25
100
AcDbLine
 10
125.1477373387
 20
41.2623741981
 30
0.0
 11
123.1477373387
 21
43.2623741981
 31
0.0
  0
LINE
  5
145
330
1F
100
AcDbEntity
  8
0
  6
Continuous
 62
     7
370
    25
100
AcDbLine
 10
123.1477373387
 20
40.2623741981
 30
0.0
 11
126.1103584113
 21
40.2623741981
 31
0.0
  0
LINE
  5
146
330
1F
100
AcDbEntity
  8
0
  6
Continuous
 62
     7
370
    25
100
AcDbLine
 10
115.1477373387
 20
43.2623741981
 30
0.0
 11
113.1477373387
 21
41.2623741981
 31
0.0
  0
LINE
  5
147
330
1F
100
AcDbEntity
  8
0
  6
Continuous
 62
     7
370
    25
100
AcDbLine
 10
112.185116266
 20
40.2623741981
 30
0.0
 11
115.1477373387
 21
40.2623741981
 31
0.0
  0
LINE
  5
148
330
1F
100
AcDbEntity
  8
0
  6
Continuous
 62
     7
370
    25
100
AcDbLine
 10
113.1477373387
 20
55.1968286763
 30
0.0
 11
113.1477373387
 21
54.6235901302
 31
0.0
  0
SPLINE
  5
149
330
1F
100
AcDbEntity
  8
0
  6
Continuous
 62
     7
370
    25
100
AcDbSpline
210
0.0
220
0.0
230
1.0
 70
     8
 71
     3
 72
    32
 73
    28
 74
     0
 42
0.00000001
 43
0.00000001
 40
0.0
 40
0.0
 40
0.0
 40
0.0
 40
0.0625000000000001
 40
0.0625000000000001
 40
0.1250000000000001
 40
0.1250000000000001
 40
0.1875000000000002
 40
0.1875000000000002
 40
0.2500000000000003
 40
0.2500000000000003
 40
0.3750000000000003
 40
0.3750000000000003
 40
0.4375000000000003
 40
0.4375000000000003
 40
0.5000000000000002
 40
0.5000000000000002
 40
0.5625000000000002
 40
0.5625000000000002
 40
0.6250000000000001
 40
0.6250000000000001
 40
0.7500000000000001
 40
0.7500000000000001
 40
0.8750000000000002
 40
0.8750000000000002
 40
0.9375000000000001
 40
0.9375000000000001
 40
1.0
 40
1.0
 40
1.0
 40
1.0
 10
125.1477373386454
 20
55.1968286762921
 30
0.0
 10
124.9908810027285
 20
55.10187169839641
 30
0.0
 10
124.8178825685729
 20
54.99911852377123
 30
0.0
 10
124.4411779819471
 20
54.78240732212296
 30
0.0
 10
124.2383252014904
 20
54.66898861163295
 30
0.0
 10
123.8123439386878
 20
54.44089847493478
 30
0.0
 10
123.5881659783998
 20
54.32559159248292
 30
0.0
 10
123.1168148848234
 20
54.09726849010815
 30
0.0
 10
122.8681293694583
 20
53.9836184739744
 30
0.0
 10
122.0975568847667
 20
53.66055444274036
 30
0.0
 10
121.5519194746845
 20
53.46765591857686
 30
0.0
 10
120.6691397261881
 20
53.25606199330315
 30
0.0
 10
120.3705006263153
 20
53.20041960718541
 30
0.0
 10
119.7639990255995
 20
53.12475153782157
 30
0.0
 10
119.4538517869336
 20
53.10477829204525
 30
0.0
 10
118.8337662982498
 20
53.1051120582985
 30
0.0
 10
118.5271952607818
 20
53.12511102362129
 30
0.0
 10
117.9205405134736
 20
53.20114980981776
 30
0.0
 10
117.6181674488483
 20
53.25780290994931
 30
0.0
 10
116.7415311460953
 20
53.46858145999515
 30
0.0
 10
116.1934770141184
 20
53.6621272905669
 30
0.0
 10
115.1629797468752
 20
54.09474658384269
 30
0.0
 10
114.6954197115957
 20
54.32722322853312
 30
0.0
 10
114.0572061079678
 20
54.66896122945217
 30
0.0
 10
113.8539963697779
 20
54.78257874488056
 30
0.0
 10
113.4776594433835
 20
54.9990811372368
 30
0.0
 10
113.304680834892
 20
55.10181893368119
 30
0.0
 10
113.1477373386539
 20
55.19682867629726
 30
0.0
  0
LINE
  5
14A
330
1F
100
AcDbEntity
  8
0
  6
Continuous
 62
     7
370
    25
100
AcDbLine
 10
125.1477373387
 20
55.1968286763
 30
0.0
 11
125.1477373387
 21
54.6235901302
 31
0.0
  0
SPLINE
  5
14B
330
1F
100
AcDbEntity
  8
0
  6
Continuous
 62
     7
370
    25
100
AcDbSpline
210
0.0
220
0.0
230
1.0
 70
     8
 71
     3
 72
    12
 73
     8
 74
     0
 42
0.00000001
 43
0.00000001
 40
0.0
 40
0.0
 40
0.0
 40
0.0
 40
0.0821685349195592
 40
0.3096897199422396
 40
0.5425026699013663
 40
0.7710670754315414
 40
1.0
 40
1.0
 40
1.0
 40
1.0
 10
125.3211765759822
 20
56.0555838252555
 30
0.0
 10
125.3223085574386
 20
56.0593534719207
 30
0.0
 10
125.3265749474935
 20
56.07356111017511
 30
0.0
 10
125.2941196341975
 20
55.96620479762834
 30
0.0
 10
125.2381550747464
 20
55.76026668012396
 30
0.0
 10
125.1699456694195
 20
55.47697129800365
 30
0.0
 10
125.1551440898531
 20
55.29025968293516
 30
0.0
 10
125.1477373386539
 20
55.19682867629013
 30
0.0
  0
SPLINE
  5
14C
330
1F
100
AcDbEntity
  8
0
  6
Continuous
 62
     7
370
    25
100
AcDbSpline
210
0.0
220
0.0
230
1.0
 70
     8
 71
     3
 72
    11
 73
     7
 74
     0
 42
0.00000001
 43
0.00000001
 40
0.0
 40
0.0
 40
0.0
 40
0.0
 40
0.3176361187757176
 40
0.6359593706157778
 40
0.8656887257024612
 40
0.9999999999999999
 40
0.9999999999999999
 40
0.9999999999999999
 40
0.9999999999999999
 10
113.1477373386539
 20
55.19682867629717
 30
0.0
 10
113.1340985828624
 20
55.32809330330164
 30
0.0
 10
113.1067915669521
 20
55.59090651829631
 30
0.0
 10
113.0187868991149
 20
55.90255109341621
 30
0.0
 10
112.9742265402541
 20
56.05629753826186
 30
0.0
 10
112.9745752796526
 20
56.05478409583316
 30
0.0
 10
112.9747039456015
 20
56.05422571755128
 30
0.0
  0
LINE
  5
14D
330
1F
100
AcDbEntity
  8
0
  6
Continuous
 62
     7
370
    25
100
AcDbLine
 10
113.2477373387
 20
56.7623741981
 30
0.0
 11
113.248389182
 21
56.7618205978
 31
0.0
  0
LINE
  5
14E
330
1F
100
AcDbEntity
  8
0
  6
Continuous
 62
     7
370
    25
100
AcDbLine
 10
123.9300169655
 20
25.1173222575
 30
0.0
 11
114.3654577118
 21
25.1173222575
 31
0.0
  0
LINE
  5
14F
330
1F
100
AcDbEntity
  8
0
  6
Continuous
 62
     7
370
    25
100
AcDbLine
 10
123.1477373387
 20
23.7623741981
 30
0.0
 11
115.1477373387
 21
23.7623741981
 31
0.0
  0
SPLINE
  5
150
330
1F
100
AcDbEntity
  8
0
  6
Continuous
 62
     7
370
    25
100
AcDbSpline
210
0.0
220
0.0
230
1.0
 70
     8
 71
     3
 72
    10
 73
     6
 74
     0
 42
0.00000001
 43
0.00000001
 40
0.0
 40
0.0
 40
0.0
 40
0.0
 40
0.1601790552921523
 40
0.7197651707804853
 40
1.0
 40
1.0
 40
1.0
 40
1.0
 10
112.4357865002768
 20
56.99526948574743
 30
0.0
 10
112.4350237101835
 20
56.99666171377381
 30
0.0
 10
112.4315961101098
 20
57.00291769550213
 30
0.0
 10
112.4461035749081
 20
56.97641043077423
 30
0.0
 10
112.4640331280259
 20
56.94385457562908
 30
0.0
 10
112.4700159333937
 20
56.93299120699771
 30
0.0
  0
SPLINE
  5
151
330
1F
100
AcDbEntity
  8
0
  6
Continuous
 62
     7
370
    25
100
AcDbSpline
210
0.0
220
0.0
230
1.0
 70
     8
 71
     3
 72
    10
 73
     6
 74
     0
 42
0.00000001
 43
0.00000001
 40
0.0
 40
0.0
 40
0.0
 40
0.0
 40
0.1593935212994522
 40
0.7189934545690309
 40
1.0
 40
1.0
 40
1.0
 40
1.0
 10
108.3596957334915
 20
56.99528328646415
 30
0.0
 10
108.360457260489
 20
56.99667320529077
 30
0.0
 10
108.3638923620049
 20
57.0029428612377
 30
0.0
 10
108.3493977395384
 20
56.97645891941391
 30
0.0
 10
108.3314563690457
 20
56.94388151536704
 30
0.0
 10
108.3254587439141
 20
56.93299120699768
 30
0.0
  0
LINE
  5
152
330
1F
100
AcDbEntity
  8
0
  6
Continuous
 62
     7
370
    25
100
AcDbLine
 10
107.6477373387
 20
55.7623741981
 30
0.0
 11
107.6477373387
 21
54.6235901302
 31
0.0
  0
SPLINE
  5
153
330
1F
100
AcDbEntity
  8
0
  6
Continuous
 62
     7
370
    25
100
AcDbSpline
210
0.0
220
0.0
230
1.0
 70
     8
 71
     3
 72
     9
 73
     5
 74
     0
 42
0.00000001
 43
0.00000001
 40
0.0
 40
0.0
 40
0.0
 40
0.0
 40
0.5797912171256431
 40
1.0
 40
1.0
 40
1.0
 40
1.0
 10
125.8254587439141
 20
56.93299120699769
 30
0.0
 10
125.8378173472605
 20
56.95546485523882
 30
0.0
 10
125.859132957055
 20
56.99422647765964
 30
0.0
 10
125.8595238995577
 20
56.99496088241785
 30
0.0
 10
125.859688177031
 20
56.99526948574744
 30
0.0
  0
SPLINE
  5
154
330
1F
100
AcDbEntity
  8
0
  6
Continuous
 62
     7
370
    25
100
AcDbSpline
210
0.0
220
0.0
230
1.0
 70
     8
 71
     3
 72
     9
 73
     5
 74
     0
 42
0.00000001
 43
0.00000001
 40
0.0
 40
0.0
 40
0.0
 40
0.0
 40
0.5789479223839474
 40
0.9999999999999999
 40
0.9999999999999999
 40
0.9999999999999999
 40
0.9999999999999999
 10
108.3254587439141
 20
37.59175718914522
 30
0.0
 10
108.3377996342283
 20
37.56931582195285
 30
0.0
 10
108.3591156971023
 20
37.53055349752829
 30
0.0
 10
108.3595238710168
 20
37.52978759466893
 30
0.0
 10
108.3596957334915
 20
37.52946510967875
 30
0.0
  0
LINE
  5
155
330
1F
100
AcDbEntity
  8
0
  6
Continuous
 62
     7
370
    25
100
AcDbLine
 10
107.6477373387
 20
39.9011582659
 30
0.0
 11
107.6477373387
 21
38.7623741981
 31
0.0
  0
LINE
  5
156
330
1F
100
AcDbEntity
  8
0
  6
Continuous
 62
     7
370
    25
100
AcDbLine
 10
128.8853416457
 20
37.524769891
 30
0.0
 11
128.8183543476
 21
37.5917571891
 31
0.0
  0
LINE
  5
157
330
1F
100
AcDbEntity
  8
0
  6
Continuous
 62
     7
370
    25
100
AcDbLine
 10
109.4771203297
 20
37.5917571891
 30
0.0
 11
109.4101330316
 21
37.524769891
 31
0.0
  0
LINE
  5
158
330
1F
100
AcDbEntity
  8
0
  6
Continuous
 62
     7
370
    25
100
AcDbLine
 10
96.1377373387
 20
51.007484485
 30
0.0
 11
96.1377373387
 21
41.2623741981
 31
0.0
  0
LINE
  5
159
330
1F
100
AcDbEntity
  8
0
  6
Continuous
 62
     7
370
    25
100
AcDbLine
 10
96.1377373387
 20
53.2623741981
 30
0.0
 11
96.1377373387
 21
51.007484485
 31
0.0
  0
LINE
  5
15A
330
1F
100
AcDbEntity
  8
0
  6
Continuous
 62
     7
370
    25
100
AcDbLine
 10
96.1577373387
 20
51.007484485
 30
0.0
 11
96.1577373387
 21
41.2623741981
 31
0.0
  0
LINE
  5
15B
330
1F
100
AcDbEntity
  8
0
  6
Continuous
 62
     7
370
    25
100
AcDbLine
 10
96.1577373387
 20
53.2623741981
 30
0.0
 11
96.1577373387
 21
51.007484485
 31
0.0
  0
LINE
  5
15C
330
1F
100
AcDbEntity
  8
0
  6
Continuous
 62
     7
370
    25
100
AcDbLine
 10
97.0926725606
 20
50.5927575069
 30
0.0
 11
97.0926725606
 21
41.9268037283
 31
0.0
  0
LINE
  5
15D
330
1F
100
AcDbEntity
  8
0
  6
Continuous
 62
     7
370
    25
100
AcDbLine
 10
97.0926725606
 20
52.5979446679
 30
0.0
 11
97.0926725606
 21
50.5927575069
 31
0.0
  0
LINE
  5
15E
330
1F
100
AcDbEntity
  8
0
  6
Continuous
 62
     7
370
    25
100
AcDbLine
 10
97.5648620666
 20
50.3832994372
 30
0.0
 11
97.5648620666
 21
42.2623741981
 31
0.0
  0
LINE
  5
15F
330
1F
100
AcDbEntity
  8
0
  6
Continuous
 62
     7
370
    25
100
AcDbLine
 10
97.5648620666
 20
52.2623741981
 30
0.0
 11
97.5648620666
 21
50.3832994372
 31
0.0
  0
SPLINE
  5
160
330
1F
100
AcDbEntity
  8
0
  6
Continuous
 62
     7
370
    25
100
AcDbSpline
210
0.0
220
0.0
230
1.0
 70
     8
 71
     3
 72
    31
 73
    27
 74
     0
 42
0.00000001
 43
0.00000001
 40
0.0
 40
0.0
 40
0.0
 40
0.0
 40
0.00927315049237
 40
0.0517139038437353
 40
0.0941819206898643
 40
0.1321039048356122
 40
0.1702160386303429
 40
0.2082072846436239
 40
0.2154700520826105
 40
0.2764855853830928
 40
0.3375003413648153
 40
0.3848205600539791
 40
0.4320455865711681
 40
0.4692145831710517
 40
0.5063446618800971
 40
0.5434324684081577
 40
0.5805695780597955
 40
0.6303325910266734
 40
0.6801877778409449
 40
0.7334674231046968
 40
0.7867383450145984
 40
0.8315826494611374
 40
0.876391993683346
 40
0.9190678024465381
 40
0.9617084416625173
 40
1.0
 40
1.0
 40
1.0
 40
1.0
 10
113.2483891819739
 20
56.76182059777866
 30
0.0
 10
113.2491339631225
 20
56.76118954824324
 30
0.0
 10
113.253287410296
 20
56.75767035214893
 30
0.0
 10
113.3235687518264
 20
56.6977448414442
 30
0.0
 10
113.5148879670224
 20
56.5373546503498
 30
0.0
 10
113.7898094054347
 20
56.31105988769671
 30
0.0
 10
114.1222264989606
 20
56.04569013221069
 30
0.0
 10
114.4092896532271
 20
55.82561135376456
 30
0.0
 10
114.8052370595681
 20
55.53181238412034
 30
0.0
 10
115.3408563069286
 20
55.15139000511503
 30
0.0
 10
116.1566097935811
 20
54.65336552518159
 30
0.0
 10
116.9981689512944
 20
54.24124784585559
 30
0.0
 10
117.781576021268
 20
53.96424868458237
 30
0.0
 10
118.5545608659349
 20
53.81283154121029
 30
0.0
 10
119.2851511799212
 20
53.77468206992442
 30
0.0
 10
120.0098736332596
 20
53.85401396104252
 30
0.0
 10
120.7832432528133
 20
54.04651716885625
 30
0.0
 10
121.5736380750452
 20
54.36367663805558
 30
0.0
 10
122.3704426217186
 20
54.78895517577953
 30
0.0
 10
123.0978097289288
 20
55.25141588664589
 30
0.0
 10
123.7120155618598
 20
55.69182925949713
 30
0.0
 10
124.2054738011792
 20
56.07028845173849
 30
0.0
 10
124.5805420666478
 20
56.37205931263274
 30
0.0
 10
124.8507312224592
 20
56.59564902419656
 30
0.0
 10
125.0191907288545
 20
56.73814054047326
 30
0.0
 10
125.034605103795
 20
56.75115934661535
 30
0.0
 10
125.0418981275249
 20
56.7573189516915
 30
0.0
  0
LINE
  5
161
330
1F
100
AcDbEntity
  8
FORMAT
100
AcDbLine
 10
114.8834313578
 20
24.2201655857
 30
0.0
 11
114.5539873387
 21
34.7623741981
 31
0.0
  0
LINE
  5
162
330
1F
100
AcDbEntity
  8
FORMAT
100
AcDbLine
 10
123.4120433195
 20
24.2201655857
 30
0.0
 11
123.7414873387
 21
34.7623741981
 31
0.0
  0
LINE
  5
163
330
1F
100
AcDbEntity
  8
FORMAT
100
AcDbLine
 10
124.2314248387
 20
34.7623741981
 30
0.0
 11
114.0640498387
 21
34.7623741981
 31
0.0
  0
LINE
  5
164
330
1F
100
AcDbEntity
  8
FORMAT
  6
CENTERX2
370
    18
100
AcDbLine
 10
119.1477373387
 20
77.2919355862
 30
0.0
 11
119.1477373387
 21
21.7885301614
 31
0.0
  0
LINE
  5
165
330
1F
100
AcDbEntity
  8
FORMAT
  6
CENTERX2
370
    18
100
AcDbLine
 10
132.9545939452
 20
47.2623741981
 30
0.0
 11
93.1477373387
 21
47.2623741981
 31
0.0
  0
LINE
  5
166
330
1F
100
AcDbEntity
  8
0
  6
Continuous
 62
     7
370
    25
100
AcDbLine
 10
104.8477373387
 20
115.4734411085
 30
0.0
 11
104.6477373387
 21
115.2734411085
 31
0.0
  0
LINE
  5
167
330
1F
100
AcDbEntity
  8
0
  6
Continuous
 62
     7
370
    25
100
AcDbLine
 10
104.6477373387
 20
99.6734411085
 30
0.0
 11
104.8477373387
 21
99.4734411085
 31
0.0
  0
LINE
  5
168
330
1F
100
AcDbEntity
  8
0
  6
Continuous
 62
     7
370
    25
100
AcDbLine
 10
107.6477373387
 20
115.4734411085
 30
0.0
 11
104.8477373387
 21
115.4734411085
 31
0.0
  0
LINE
  5
169
330
1F
100
AcDbEntity
  8
0
  6
Continuous
 62
     7
370
    25
100
AcDbLine
 10
104.8477373387
 20
99.4734411085
 30
0.0
 11
107.6477373387
 21
99.4734411085
 31
0.0
  0
LINE
  5
16A
330
1F
100
AcDbEntity
  8
0
  6
Continuous
 62
     7
370
    25
100
AcDbLine
 10
96.1577373387
 20
113.4734411085
 30
0.0
 11
96.1377373387
 21
113.4734411085
 31
0.0
  0
LINE
  5
16B
330
1F
100
AcDbEntity
  8
0
  6
Continuous
 62
     7
370
    25
100
AcDbLine
 10
96.1377373387
 20
101.4734411085
 30
0.0
 11
96.1577373387
 21
101.4734411085
 31
0.0
  0
ARC
  5
16C
330
1F
100
AcDbEntity
  8
0
  6
Continuous
 62
     7
370
    25
100
AcDbCircle
 10
96.1577373387
 20
112.4834411085
 30
0.0
 40
0.9899999999999992
100
AcDbArc
 50
19.1995397339
 51
90.0
  0
ARC
  5
16D
330
1F
100
AcDbEntity
  8
0
  6
Continuous
 62
     7
370
    25
100
AcDbCircle
 10
96.1577373387
 20
102.4634411085
 30
0.0
 40
0.9900000000000091
100
AcDbArc
 50
270.0
 51
340.8004602661
  0
ARC
  5
16E
330
1F
100
AcDbEntity
  8
0
  6
Continuous
 62
     7
370
    25
100
AcDbCircle
 10
96.1377373387
 20
112.4834411085
 30
0.0
 40
0.9899999999999949
100
AcDbArc
 50
90.0
 51
180.0
  0
ARC
  5
16F
330
1F
100
AcDbEntity
  8
0
  6
Continuous
 62
     7
370
    25
100
AcDbCircle
 10
96.1377373387
 20
102.4634411085
 30
0.0
 40
0.9900000000000091
100
AcDbArc
 50
180.0
 51
270.0
  0
ARC
  5
170
330
1F
100
AcDbEntity
  8
0
  6
Continuous
 62
     7
370
    25
100
AcDbCircle
 10
97.5648620666
 20
112.9734411085
 30
0.0
 40
0.5000000000000054
100
AcDbArc
 50
199.1995397339
 51
270.0
  0
ARC
  5
171
330
1F
100
AcDbEntity
  8
0
  6
Continuous
 62
     7
370
    25
100
AcDbCircle
 10
97.5648620666
 20
101.9734411085
 30
0.0
 40
0.5000000000000101
100
AcDbArc
 50
90.0
 51
160.8004602661
  0
LINE
  5
172
330
1F
100
AcDbEntity
  8
0
  6
Continuous
 62
     7
370
    25
100
AcDbLine
 10
104.6477373387
 20
112.4734411085
 30
0.0
 11
97.5648620666
 21
112.4734411085
 31
0.0
  0
LINE
  5
173
330
1F
100
AcDbEntity
  8
0
  6
Continuous
 62
     7
370
    25
100
AcDbLine
 10
97.5648620666
 20
102.4734411085
 30
0.0
 11
104.6477373387
 21
102.4734411085
 31
0.0
  0
LINE
  5
174
330
1F
100
AcDbEntity
  8
0
  6
Continuous
 62
     7
370
    25
100
AcDbLine
 10
131.0033997714
 20
98.9734411085
 30
0.0
 11
131.1477373387
 21
99.2234411085
 31
0.0
  0
LINE
  5
175
330
1F
100
AcDbEntity
  8
0
  6
Continuous
 62
     7
370
    25
100
AcDbLine
 10
131.1477373387
 20
115.7234411085
 30
0.0
 11
131.0033997714
 21
115.9734411085
 31
0.0
  0
SPLINE
  5
176
330
1F
100
AcDbEntity
  8
0
  6
Continuous
 62
     7
370
    25
100
AcDbSpline
210
0.0
220
0.0
230
1.0
 70
     8
 71
     3
 72
    15
 73
    11
 74
     0
 42
0.00000001
 43
0.00000001
 40
0.0
 40
0.0
 40
0.0
 40
0.0
 40
0.0090459071881971
 40
0.1032433785236817
 40
0.1542564497735191
 40
0.3133169026715104
 40
0.5243720399414403
 40
0.667806000850918
 40
0.9918332554187028
 40
1.0
 40
1.0
 40
1.0
 40
1.0
 10
113.9086520059958
 20
109.1473541520233
 30
0.0
 10
113.9086576979625
 20
109.1473365062988
 30
0.0
 10
113.9087226619132
 20
109.1471351108863
 30
0.0
 10
113.9107183483491
 20
109.1409454902201
 30
0.0
 10
113.9185353445656
 20
109.1167435583759
 30
0.0
 10
113.9357051683206
 20
109.0637245663743
 30
0.0
 10
113.9622890648881
 20
108.9823536791777
 30
0.0
 10
114.0001183633767
 20
108.8677746071552
 30
0.0
 10
114.0283991433869
 20
108.7833494294361
 30
0.0
 10
114.0482302909182
 20
108.7248785714841
 30
0.0
 10
114.0487178250611
 20
108.723441108545
 30
0.0
  0
ARC
  5
177
330
1F
100
AcDbEntity
  8
0
  6
Continuous
 62
     7
370
    25
100
AcDbCircle
 10
119.1477373387
 20
107.4734411085
 30
0.0
 40
5.500000000000011
100
AcDbArc
 50
17.7189318734
 51
162.2810681266
  0
SPLINE
  5
178
330
1F
100
AcDbEntity
  8
0
  6
Continuous
 62
     7
370
    25
100
AcDbSpline
210
0.0
220
0.0
230
1.0
 70
     8
 71
     3
 72
    15
 73
    11
 74
     0
 42
0.00000001
 43
0.00000001
 40
0.0
 40
0.0
 40
0.0
 40
0.0
 40
0.0081667445812973
 40
0.3321939991490804
 40
0.475627960058556
 40
0.6866830973284891
 40
0.8457435502264751
 40
0.8967566214763124
 40
0.9909540928118028
 40
1.0
 40
1.0
 40
1.0
 40
1.0
 10
124.2467568522467
 20
108.723441108545
 30
0.0
 10
124.2472443863895
 20
108.7248785714841
 30
0.0
 10
124.2670755339208
 20
108.7833494294361
 30
0.0
 10
124.2953563139311
 20
108.8677746071552
 30
0.0
 10
124.3331856124197
 20
108.9823536791777
 30
0.0
 10
124.3597695089872
 20
109.0637245663743
 30
0.0
 10
124.3769393327422
 20
109.1167435583759
 30
0.0
 10
124.3847563289586
 20
109.1409454902201
 30
0.0
 10
124.3867520153945
 20
109.1471351108863
 30
0.0
 10
124.3868169793453
 20
109.1473365062988
 30
0.0
 10
124.386822671312
 20
109.1473541520233
 30
0.0
  0
ARC
  5
179
330
1F
100
AcDbEntity
  8
0
  6
Continuous
 62
     7
370
    25
100
AcDbCircle
 10
119.1477373387
 20
107.4734411085
 30
0.0
 40
5.250000000000009
100
AcDbArc
 50
13.774146998
 51
166.225853002
  0
SPLINE
  5
17A
330
1F
100
AcDbEntity
  8
0
  6
Continuous
 62
     7
370
    25
100
AcDbSpline
210
0.0
220
0.0
230
1.0
 70
     8
 71
     3
 72
    15
 73
    11
 74
     0
 42
0.00000001
 43
0.00000001
 40
0.0
 40
0.0
 40
0.0
 40
0.0
 40
0.0089557228015919
 40
0.0999003359608209
 40
0.1531632460581751
 40
0.3125636920784904
 40
0.5249666935695061
 40
0.6689893599351777
 40
0.991915253381045
 40
1.0
 40
1.0
 40
1.0
 40
1.0
 10
124.6249629137056
 20
108.973441108545
 30
0.0
 10
124.6249471581269
 20
108.9734303241819
 30
0.0
 10
124.6247714059704
 20
108.9733100255164
 30
0.0
 10
124.6193423899509
 20
108.9695915745983
 30
0.0
 10
124.5978069062435
 20
108.954880533532
 30
0.0
 10
124.5501014779787
 20
108.9224316720734
 30
0.0
 10
124.4777105329868
 20
108.87384763173
 30
0.0
 10
124.3757914209691
 20
108.8064771594617
 30
0.0
 10
124.3004363295141
 20
108.7576635947278
 30
0.0
 10
124.2480366837908
 20
108.7242570445333
 30
0.0
 10
124.2467568522467
 20
108.723441108545
 30
0.0
  0
ARC
  5
17B
330
1F
100
AcDbEntity
  8
0
  6
Continuous
 62
     7
370
    25
100
AcDbCircle
 10
124.6249629137
 20
109.2234411085
 30
0.0
 40
0.2500000000000034
100
AcDbArc
 50
197.7189318734
 51
270.0
  0
SPLINE
  5
17C
330
1F
100
AcDbEntity
  8
0
  6
Continuous
 62
     7
370
    25
100
AcDbSpline
210
0.0
220
0.0
230
1.0
 70
     8
 71
     3
 72
    15
 73
    11
 74
     0
 42
0.00000001
 43
0.00000001
 40
0.0
 40
0.0
 40
0.0
 40
0.0
 40
0.0080847466189582
 40
0.3310106400648243
 40
0.4750333064304948
 40
0.6874363079215142
 40
0.8468367539418303
 40
0.9000996640391847
 40
0.9910442771984082
 40
1.0
 40
1.0
 40
1.0
 40
1.0
 10
114.0487178250611
 20
108.723441108545
 30
0.0
 10
114.047437993517
 20
108.7242570445333
 30
0.0
 10
113.9950383477938
 20
108.7576635947279
 30
0.0
 10
113.9196832563386
 20
108.8064771594617
 30
0.0
 10
113.817764144321
 20
108.87384763173
 30
0.0
 10
113.7453731993291
 20
108.9224316720734
 30
0.0
 10
113.6976677710642
 20
108.954880533532
 30
0.0
 10
113.6761322873569
 20
108.9695915745983
 30
0.0
 10
113.6707032713374
 20
108.9733100255164
 30
0.0
 10
113.6705275191808
 20
108.9734303241819
 30
0.0
 10
113.6705117636022
 20
108.973441108545
 30
0.0
  0
ARC
  5
17D
330
1F
100
AcDbEntity
  8
0
  6
Continuous
 62
     7
370
    25
100
AcDbCircle
 10
113.6705117636
 20
109.2234411085
 30
0.0
 40
0.2500000000000034
100
AcDbArc
 50
270.0
 51
342.2810681266
  0
ARC
  5
17E
330
1F
100
AcDbEntity
  8
0
  6
Continuous
 62
     7
370
    25
100
AcDbCircle
 10
124.6249629137
 20
105.7234411085
 30
0.0
 40
0.2500000000000077
100
AcDbArc
 50
90.0
 51
162.2810681266
  0
SPLINE
  5
17F
330
1F
100
AcDbEntity
  8
0
  6
Continuous
 62
     7
370
    25
100
AcDbSpline
210
0.0
220
0.0
230
1.0
 70
     8
 71
     3
 72
    15
 73
    11
 74
     0
 42
0.00000001
 43
0.00000001
 40
0.0
 40
0.0
 40
0.0
 40
0.0
 40
0.0090459071881971
 40
0.1032433785236874
 40
0.1542564497735246
 40
0.313316902671511
 40
0.5243720399414428
 40
0.6678060008509903
 40
0.9918332554187292
 40
1.0
 40
1.0
 40
1.0
 40
1.0
 10
124.386822671312
 20
105.7995280650668
 30
0.0
 10
124.3868169793453
 20
105.7995457107912
 30
0.0
 10
124.3867520153945
 20
105.7997471062038
 30
0.0
 10
124.3847563289586
 20
105.80593672687
 30
0.0
 10
124.3769393327422
 20
105.8301386587141
 30
0.0
 10
124.3597695089872
 20
105.8831576507158
 30
0.0
 10
124.3331856124197
 20
105.9645285379124
 30
0.0
 10
124.2953563139309
 20
106.0791076099348
 30
0.0
 10
124.2670755339216
 20
106.1635327876543
 30
0.0
 10
124.2472443863896
 20
106.222003645606
 30
0.0
 10
124.2467568522467
 20
106.223441108545
 30
0.0
  0
SPLINE
  5
180
330
1F
100
AcDbEntity
  8
0
  6
Continuous
 62
     7
370
    25
100
AcDbSpline
210
0.0
220
0.0
230
1.0
 70
     8
 71
     3
 72
    15
 73
    11
 74
     0
 42
0.00000001
 43
0.00000001
 40
0.0
 40
0.0
 40
0.0
 40
0.0
 40
0.0080847466189818
 40
0.3310106400647567
 40
0.4750333064304972
 40
0.6874363079215137
 40
0.8468367539418253
 40
0.9000996640391794
 40
0.9910442771984082
 40
1.0
 40
1.0
 40
1.0
 40
1.0
 10
124.2467568522467
 20
106.223441108545
 30
0.0
 10
124.2480366837908
 20
106.2226251725568
 30
0.0
 10
124.3004363295146
 20
106.1892186223631
 30
0.0
 10
124.375791420969
 20
106.1404050576282
 30
0.0
 10
124.4777105329868
 20
106.0730345853601
 30
0.0
 10
124.5501014779787
 20
106.0244505450166
 30
0.0
 10
124.5978069062435
 20
105.9920016835581
 30
0.0
 10
124.6193423899509
 20
105.9772906424918
 30
0.0
 10
124.6247714059704
 20
105.9735721915737
 30
0.0
 10
124.6249471581269
 20
105.9734518929082
 30
0.0
 10
124.6249629137056
 20
105.973441108545
 30
0.0
  0
SPLINE
  5
181
330
1F
100
AcDbEntity
  8
0
  6
Continuous
 62
     7
370
    25
100
AcDbSpline
210
0.0
220
0.0
230
1.0
 70
     8
 71
     3
 72
    15
 73
    11
 74
     0
 42
0.00000001
 43
0.00000001
 40
0.0
 40
0.0
 40
0.0
 40
0.0
 40
0.0081667445812695
 40
0.3321939991490083
 40
0.4756279600585602
 40
0.6866830973284899
 40
0.8457435502264811
 40
0.8967566214763185
 40
0.9909540928118029
 40
1.0
 40
1.0
 40
1.0
 40
1.0
 10
114.0487178250611
 20
106.223441108545
 30
0.0
 10
114.0482302909182
 20
106.222003645606
 30
0.0
 10
114.0283991433862
 20
106.1635327876543
 30
0.0
 10
114.0001183633769
 20
106.0791076099348
 30
0.0
 10
113.9622890648881
 20
105.9645285379124
 30
0.0
 10
113.9357051683206
 20
105.8831576507158
 30
0.0
 10
113.9185353445656
 20
105.8301386587141
 30
0.0
 10
113.9107183483491
 20
105.80593672687
 30
0.0
 10
113.9087226619132
 20
105.7997471062038
 30
0.0
 10
113.9086576979625
 20
105.7995457107912
 30
0.0
 10
113.9086520059958
 20
105.7995280650668
 30
0.0
  0
ARC
  5
182
330
1F
100
AcDbEntity
  8
0
  6
Continuous
 62
     7
370
    25
100
AcDbCircle
 10
119.1477373387
 20
107.4734411085
 30
0.0
 40
5.250000000000009
100
AcDbArc
 50
193.774146998
 51
346.225853002
  0
ARC
  5
183
330
1F
100
AcDbEntity
  8
0
  6
Continuous
 62
     7
370
    25
100
AcDbCircle
 10
119.1477373387
 20
107.4734411085
 30
0.0
 40
5.500000000000007
100
AcDbArc
 50
197.7189318734
 51
342.2810681266
  0
ARC
  5
184
330
1F
100
AcDbEntity
  8
0
  6
Continuous
 62
     7
370
    25
100
AcDbCircle
 10
113.6705117636
 20
105.7234411085
 30
0.0
 40
0.2500000000000077
100
AcDbArc
 50
17.7189318734
 51
90.0
  0
SPLINE
  5
185
330
1F
100
AcDbEntity
  8
0
  6
Continuous
 62
     7
370
    25
100
AcDbSpline
210
0.0
220
0.0
230
1.0
 70
     8
 71
     3
 72
    15
 73
    11
 74
     0
 42
0.00000001
 43
0.00000001
 40
0.0
 40
0.0
 40
0.0
 40
0.0
 40
0.0089557228015919
 40
0.0999003359608148
 40
0.153163246058169
 40
0.3125636920784848
 40
0.5249666935694999
 40
0.6689893599352451
 40
0.9919152533810159
 40
1.0
 40
1.0
 40
1.0
 40
1.0
 10
113.6705117636022
 20
105.973441108545
 30
0.0
 10
113.6705275191808
 20
105.9734518929082
 30
0.0
 10
113.6707032713374
 20
105.9735721915737
 30
0.0
 10
113.6761322873569
 20
105.9772906424918
 30
0.0
 10
113.6976677710642
 20
105.9920016835581
 30
0.0
 10
113.7453731993291
 20
106.0244505450166
 30
0.0
 10
113.817764144321
 20
106.0730345853601
 30
0.0
 10
113.9196832563387
 20
106.1404050576283
 30
0.0
 10
113.9950383477932
 20
106.189218622363
 30
0.0
 10
114.047437993517
 20
106.2226251725568
 30
0.0
 10
114.0487178250611
 20
106.223441108545
 30
0.0
  0
LINE
  5
186
330
1F
100
AcDbEntity
  8
0
  6
Continuous
 62
     7
370
    25
100
AcDbLine
 10
114.1477373387
 20
106.8734411085
 30
0.0
 11
124.1477373387
 21
106.8734411085
 31
0.0
  0
LINE
  5
187
330
1F
100
AcDbEntity
  8
0
  6
Continuous
 62
     7
370
    25
100
AcDbLine
 10
124.1477373387
 20
108.0734411085
 30
0.0
 11
114.1477373387
 21
108.0734411085
 31
0.0
  0
LINE
  5
188
330
1F
100
AcDbEntity
  8
0
  6
Continuous
 62
     7
370
    25
100
AcDbLine
 10
124.1477373387
 20
106.8734411085
 30
0.0
 11
124.1477373387
 21
108.0734411085
 31
0.0
  0
LINE
  5
189
330
1F
100
AcDbEntity
  8
0
  6
Continuous
 62
     7
370
    25
100
AcDbLine
 10
114.1477373387
 20
108.0734411085
 30
0.0
 11
114.1477373387
 21
106.8734411085
 31
0.0
  0
LINE
  5
18A
330
1F
100
AcDbEntity
  8
0
  6
Continuous
 62
     7
370
    25
100
AcDbLine
 10
113.3977373387
 20
106.2234411085
 30
0.0
 11
114.0487178251
 21
106.2234411085
 31
0.0
  0
LINE
  5
18B
330
1F
100
AcDbEntity
  8
0
  6
Continuous
 62
     7
370
    25
100
AcDbLine
 10
113.3977373387
 20
108.7234411085
 30
0.0
 11
113.3977373387
 21
106.2234411085
 31
0.0
  0
LINE
  5
18C
330
1F
100
AcDbEntity
  8
0
  6
Continuous
 62
     7
370
    25
100
AcDbLine
 10
114.0487178251
 20
108.7234411085
 30
0.0
 11
113.3977373387
 21
108.7234411085
 31
0.0
  0
LINE
  5
18D
330
1F
100
AcDbEntity
  8
0
  6
Continuous
 62
     7
370
    25
100
AcDbLine
 10
124.8977373387
 20
108.7234411085
 30
0.0
 11
124.2467568522
 21
108.7234411085
 31
0.0
  0
LINE
  5
18E
330
1F
100
AcDbEntity
  8
0
  6
Continuous
 62
     7
370
    25
100
AcDbLine
 10
124.8977373387
 20
106.2234411085
 30
0.0
 11
124.8977373387
 21
108.7234411085
 31
0.0
  0
LINE
  5
18F
330
1F
100
AcDbEntity
  8
0
  6
Continuous
 62
     7
370
    25
100
AcDbLine
 10
124.2467568522
 20
106.2234411085
 30
0.0
 11
124.8977373387
 21
106.2234411085
 31
0.0
  0
ARC
  5
190
330
1F
100
AcDbEntity
  8
0
  6
Continuous
 62
     7
370
    25
100
AcDbCircle
 10
113.3977373387
 20
108.7234411085
 30
0.0
 40
0.25
100
AcDbArc
 50
90.0
 51
180.0
  0
LINE
  5
191
330
1F
100
AcDbEntity
  8
0
  6
Continuous
 62
     7
370
    25
100
AcDbLine
 10
113.3977373387
 20
108.9734411085
 30
0.0
 11
113.3977373387
 21
108.7234411085
 31
0.0
  0
LINE
  5
192
330
1F
100
AcDbEntity
  8
0
  6
Continuous
 62
     7
370
    25
100
AcDbLine
 10
113.3977373387
 20
108.7234411085
 30
0.0
 11
113.1477373387
 21
108.7234411085
 31
0.0
  0
LINE
  5
193
330
1F
100
AcDbEntity
  8
0
  6
Continuous
 62
     7
370
    25
100
AcDbLine
 10
125.1477373387
 20
108.7234411085
 30
0.0
 11
124.8977373387
 21
108.7234411085
 31
0.0
  0
LINE
  5
194
330
1F
100
AcDbEntity
  8
0
  6
Continuous
 62
     7
370
    25
100
AcDbLine
 10
124.8977373387
 20
108.7234411085
 30
0.0
 11
124.8977373387
 21
108.9734411085
 31
0.0
  0
ARC
  5
195
330
1F
100
AcDbEntity
  8
0
  6
Continuous
 62
     7
370
    25
100
AcDbCircle
 10
124.8977373387
 20
108.7234411085
 30
0.0
 40
0.25
100
AcDbArc
 50
0.0
 51
90.0
  0
LINE
  5
196
330
1F
100
AcDbEntity
  8
0
  6
Continuous
 62
     7
370
    25
100
AcDbLine
 10
124.6249629137
 20
108.9734411085
 30
0.0
 11
124.8977373387
 21
108.9734411085
 31
0.0
  0
LINE
  5
197
330
1F
100
AcDbEntity
  8
0
  6
Continuous
 62
     7
370
    25
100
AcDbLine
 10
113.3977373387
 20
108.9734411085
 30
0.0
 11
113.6705117636
 21
108.9734411085
 31
0.0
  0
LINE
  5
198
330
1F
100
AcDbEntity
  8
0
  6
Continuous
 62
     7
370
    25
100
AcDbLine
 10
113.1477373387
 20
106.2234411085
 30
0.0
 11
113.3977373387
 21
106.2234411085
 31
0.0
  0
LINE
  5
199
330
1F
100
AcDbEntity
  8
0
  6
Continuous
 62
     7
370
    25
100
AcDbLine
 10
113.1477373387
 20
106.2234411085
 30
0.0
 11
113.1477373387
 21
108.7234411085
 31
0.0
  0
LINE
  5
19A
330
1F
100
AcDbEntity
  8
0
  6
Continuous
 62
     7
370
    25
100
AcDbLine
 10
125.1477373387
 20
108.7234411085
 30
0.0
 11
125.1477373387
 21
106.2234411085
 31
0.0
  0
LINE
  5
19B
330
1F
100
AcDbEntity
  8
0
  6
Continuous
 62
     7
370
    25
100
AcDbLine
 10
124.8977373387
 20
106.2234411085
 30
0.0
 11
125.1477373387
 21
106.2234411085
 31
0.0
  0
ARC
  5
19C
330
1F
100
AcDbEntity
  8
0
  6
Continuous
 62
     7
370
    25
100
AcDbCircle
 10
113.3977373387
 20
106.2234411085
 30
0.0
 40
0.25
100
AcDbArc
 50
180.0
 51
270.0
  0
LINE
  5
19D
330
1F
100
AcDbEntity
  8
0
  6
Continuous
 62
     7
370
    25
100
AcDbLine
 10
113.3977373387
 20
106.2234411085
 30
0.0
 11
113.3977373387
 21
105.9734411085
 31
0.0
  0
LINE
  5
19E
330
1F
100
AcDbEntity
  8
0
  6
Continuous
 62
     7
370
    25
100
AcDbLine
 10
113.6705117636
 20
105.9734411085
 30
0.0
 11
113.3977373387
 21
105.9734411085
 31
0.0
  0
LINE
  5
19F
330
1F
100
AcDbEntity
  8
0
  6
Continuous
 62
     7
370
    25
100
AcDbLine
 10
124.8977373387
 20
105.9734411085
 30
0.0
 11
124.8977373387
 21
106.2234411085
 31
0.0
  0
LINE
  5
1A0
330
1F
100
AcDbEntity
  8
0
  6
Continuous
 62
     7
370
    25
100
AcDbLine
 10
124.8977373387
 20
105.9734411085
 30
0.0
 11
124.6249629137
 21
105.9734411085
 31
0.0
  0
ARC
  5
1A1
330
1F
100
AcDbEntity
  8
0
  6
Continuous
 62
     7
370
    25
100
AcDbCircle
 10
124.8977373387
 20
106.2234411085
 30
0.0
 40
0.25
100
AcDbArc
 50
270.0
 51
0.0
  0
LINE
  5
1A2
330
1F
100
AcDbEntity
  8
0
  6
Continuous
 62
     7
370
    25
100
AcDbLine
 10
99.1477373387
 20
110.7451403726
 30
0.0
 11
96.9723004771
 21
110.9734411085
 31
0.0
  0
LINE
  5
1A3
330
1F
100
AcDbEntity
  8
0
  6
Continuous
 62
     7
370
    25
100
AcDbLine
 10
99.1477373387
 20
104.2017418445
 30
0.0
 11
99.1477373387
 21
110.7451403726
 31
0.0
  0
LINE
  5
1A4
330
1F
100
AcDbEntity
  8
0
  6
Continuous
 62
     7
370
    25
100
AcDbLine
 10
96.9723004771
 20
103.9734411085
 30
0.0
 11
99.1477373387
 21
104.2017418445
 31
0.0
  0
LINE
  5
1A5
330
1F
100
AcDbEntity
  8
0
  6
Continuous
 62
     7
370
    25
100
AcDbLine
 10
79.1477373387
 20
103.9734411085
 30
0.0
 11
96.9723004771
 21
103.9734411085
 31
0.0
  0
LINE
  5
1A6
330
1F
100
AcDbEntity
  8
0
  6
Continuous
 62
     7
370
    25
100
AcDbLine
 10
79.1477373387
 20
110.9734411085
 30
0.0
 11
79.1477373387
 21
103.9734411085
 31
0.0
  0
LINE
  5
1A7
330
1F
100
AcDbEntity
  8
0
  6
Continuous
 62
     7
370
    25
100
AcDbLine
 10
96.9723004771
 20
110.9734411085
 30
0.0
 11
79.1477373387
 21
110.9734411085
 31
0.0
  0
LINE
  5
1A8
330
1F
100
AcDbEntity
  8
0
  6
Continuous
 62
     7
370
    25
100
AcDbLine
 10
113.9239351643
 20
109.1944555894
 30
0.0
 11
113.7955261256
 21
109.0103139559
 31
0.0
  0
LINE
  5
1A9
330
1F
100
AcDbEntity
  8
0
  6
Continuous
 62
     7
370
    25
100
AcDbLine
 10
113.8050934664
 20
105.9282234412
 30
0.0
 11
113.9239351643
 21
105.7524266277
 31
0.0
  0
LINE
  5
1AA
330
1F
100
AcDbEntity
  8
0
  6
Continuous
 62
     7
370
    25
100
AcDbLine
 10
105.7311676851
 20
110.0542437441
 30
0.0
 11
105.7311676851
 21
104.892638473
 31
0.0
  0
LINE
  5
1AB
330
1F
100
AcDbEntity
  8
0
  6
Continuous
 62
     7
370
    25
100
AcDbLine
 10
113.9239351643
 20
105.7524266277
 30
0.0
 11
105.7311676851
 21
104.892638473
 31
0.0
  0
LINE
  5
1AC
330
1F
100
AcDbEntity
  8
0
  6
Continuous
 62
     7
370
    25
100
AcDbLine
 10
105.7311676851
 20
110.0542437441
 30
0.0
 11
113.9239351643
 21
109.1944555894
 31
0.0
  0
LINE
  5
1AD
330
1F
100
AcDbEntity
  8
0
  6
Continuous
 62
     7
370
    25
100
AcDbLine
 10
105.7311676851
 20
104.892638473
 30
0.0
 11
99.1477373387
 21
104.2017418445
 31
0.0
  0
LINE
  5
1AE
330
1F
100
AcDbEntity
  8
0
  6
Continuous
 62
     7
370
    25
100
AcDbLine
 10
99.1477373387
 20
110.7451403726
 30
0.0
 11
105.7311676851
 21
110.0542437441
 31
0.0
  0
ARC
  5
1AF
330
1F
100
AcDbEntity
  8
0
  6
Continuous
 62
     7
370
    25
100
AcDbCircle
 10
119.1477373387
 20
107.4734411085
 30
0.0
 40
7.450000000000645
100
AcDbArc
 50
233.0863788866
 51
126.9136211134
  0
ARC
  5
1B0
330
1F
100
AcDbEntity
  8
0
  6
Continuous
 62
     7
370
    25
100
AcDbCircle
 10
119.1477373387
 20
107.4734411085
 30
0.0
 40
7.207531252870791
100
AcDbArc
 50
195.3041237151
 51
238.9797515565
  0
ARC
  5
1B1
330
1F
100
AcDbEntity
  8
0
  6
Continuous
 62
     7
370
    25
100
AcDbCircle
 10
119.1477373387
 20
107.4734411085
 30
0.0
 40
7.207531252872434
100
AcDbArc
 50
121.0202484435
 51
164.6958762849
  0
ARC
  5
1B2
330
1F
100
AcDbEntity
  8
0
  6
Continuous
 62
     7
370
    25
100
AcDbCircle
 10
96.9723004771
 20
175.9734411085
 30
0.0
 40
65.00000000000001
100
AcDbArc
 50
270.0
 51
286.5000949923
  0
ARC
  5
1B3
330
1F
100
AcDbEntity
  8
0
  6
Continuous
 62
     7
370
    25
100
AcDbCircle
 10
96.9723004771
 20
38.9734411085
 30
0.0
 40
65.0
100
AcDbArc
 50
73.4999050077
 51
90.0
  0
LINE
  5
1B4
330
1F
100
AcDbEntity
  8
0
  6
Continuous
 62
     7
370
    25
100
AcDbLine
 10
104.8477373387
 20
101.2232288186
 30
0.0
 11
104.8477373387
 21
99.4734411085
 31
0.0
  0
LINE
  5
1B5
330
1F
100
AcDbEntity
  8
0
  6
Continuous
 62
     7
370
    25
100
AcDbLine
 10
104.8477373387
 20
115.4734411085
 30
0.0
 11
104.8477373387
 21
111.4523012066
 31
0.0
  0
LINE
  5
1B6
330
1F
100
AcDbEntity
  8
0
  6
Continuous
 62
     7
370
    25
100
AcDbLine
 10
104.8477373387
 20
103.4945810104
 30
0.0
 11
104.8477373387
 21
101.2232288186
 31
0.0
  0
LINE
  5
1B7
330
1F
100
AcDbEntity
  8
0
  6
Continuous
 62
     7
370
    25
100
AcDbLine
 10
104.6477373387
 20
101.3794841259
 30
0.0
 11
104.6477373387
 21
103.5186784928
 31
0.0
  0
LINE
  5
1B8
330
1F
100
AcDbEntity
  8
0
  6
Continuous
 62
     7
370
    25
100
AcDbLine
 10
104.6477373387
 20
111.4282037243
 30
0.0
 11
104.6477373387
 21
115.2734411085
 31
0.0
  0
LINE
  5
1B9
330
1F
100
AcDbEntity
  8
0
  6
Continuous
 62
     7
370
    25
100
AcDbLine
 10
104.6477373387
 20
99.6734411085
 30
0.0
 11
104.6477373387
 21
101.3794841259
 31
0.0
  0
LINE
  5
1BA
330
1F
100
AcDbEntity
  8
0
  6
Continuous
 62
     7
370
    25
100
AcDbLine
 10
95.1477373387
 20
103.559245662
 30
0.0
 11
95.1477373387
 21
102.4634411085
 31
0.0
  0
LINE
  5
1BB
330
1F
100
AcDbEntity
  8
0
  6
Continuous
 62
     7
370
    25
100
AcDbLine
 10
95.1477373387
 20
112.4834411085
 30
0.0
 11
95.1477373387
 21
110.9734411085
 31
0.0
  0
LINE
  5
1BC
330
1F
100
AcDbEntity
  8
0
  6
Continuous
 62
     7
370
    25
100
AcDbLine
 10
95.1477373387
 20
103.9734411085
 30
0.0
 11
95.1477373387
 21
103.559245662
 31
0.0
  0
SPLINE
  5
1BD
330
1F
100
AcDbEntity
  8
0
  6
Continuous
 62
     7
370
    25
100
AcDbSpline
210
0.0
220
0.0
230
1.0
 70
    24
 71
     3
 72
    10
 73
     6
 74
     0
 42
0.00000001
 43
0.00000001
 40
0.0
 40
0.0
 40
0.0
 40
0.0
 40
0.3696337614891489
 40
0.7423132045605928
 40
1.0
 40
1.0
 40
1.0
 40
1.0
 10
130.3256783660963
 20
98.97344110854503
 30
0.0
 10
130.466880921582
 20
98.97344110854503
 30
0.0
 10
130.750449503176
 20
98.97344110854503
 30
0.0
 10
130.9695829685751
 20
98.97344110854503
 30
0.0
 10
130.9919738884679
 20
98.97344110854503
 30
0.0
 10
131.0011270506166
 20
98.97344110854503
 30
0.0
  0
SPLINE
  5
1BE
330
1F
100
AcDbEntity
  8
0
  6
Continuous
 62
     7
370
    25
100
AcDbSpline
210
0.0
220
0.0
230
1.0
 70
     8
 71
     3
 72
    10
 73
     6
 74
     0
 42
0.00000001
 43
0.00000001
 40
0.0
 40
0.0
 40
0.0
 40
0.0
 40
0.5
 40
0.5
 40
1.0
 40
1.0
 40
1.0
 40
1.0
 10
130.3256783660963
 20
99.22344110854503
 30
0.0
 10
130.3020029716719
 20
99.1490607311677
 30
0.0
 10
130.2889118617873
 20
99.08476009238193
 30
0.0
 10
130.288825540499
 20
98.99654440759899
 30
0.0
 10
130.3019944744428
 20
98.97344110854503
 30
0.0
 10
130.3256783660963
 20
98.97344110854503
 30
0.0
  0
SPLINE
  5
1BF
330
1F
100
AcDbEntity
  8
0
  6
Continuous
 62
     7
370
    25
100
AcDbSpline
210
0.0
220
0.0
230
1.0
 70
     8
 71
     3
 72
    16
 73
    12
 74
     0
 42
0.00000001
 43
0.00000001
 40
0.0
 40
0.0
 40
0.0
 40
0.0
 40
0.2500000000000001
 40
0.2500000000000001
 40
0.5000000000000001
 40
0.5000000000000001
 40
0.6250000000000001
 40
0.6250000000000001
 40
0.7500000000000002
 40
0.7500000000000002
 40
1.0
 40
1.0
 40
1.0
 40
1.0
 10
130.3256783660963
 20
107.223441108545
 30
0.0
 10
130.5336938142021
 20
106.5699243285042
 30
0.0
 10
130.703900119175
 20
105.9117039194143
 30
0.0
 10
130.9388361507426
 20
104.5821413360485
 30
0.0
 10
131.0029082824063
 20
103.9107173539779
 30
0.0
 10
131.0036412313273
 20
102.8917162669712
 30
0.0
 10
130.9879817512443
 20
102.550375484655
 30
0.0
 10
130.9267066246073
 20
101.8747769816845
 30
0.0
 10
130.8811503521082
 20
101.5391178317199
 30
0.0
 10
130.7046643193519
 20
100.5378521952202
 30
0.0
 10
130.5340078658662
 20
99.87794453661708
 30
0.0
 10
130.3256783660963
 20
99.22344110854503
 30
0.0
  0
SPLINE
  5
1C0
330
1F
100
AcDbEntity
  8
0
  6
Continuous
 62
     7
370
    25
100
AcDbSpline
210
0.0
220
0.0
230
1.0
 70
     8
 71
     3
 72
    10
 73
     6
 74
     0
 42
0.00000001
 43
0.00000001
 40
0.0
 40
0.0
 40
0.0
 40
0.0
 40
0.5
 40
0.5
 40
1.0
 40
1.0
 40
1.0
 40
1.0
 10
130.3256783660963
 20
107.723441108545
 30
0.0
 10
130.3020029716719
 20
107.6490607311677
 30
0.0
 10
130.2889118617873
 20
107.5619676430521
 30
0.0
 10
130.288825540499
 20
107.3858092541761
 30
0.0
 10
130.3019944744428
 20
107.2978481814483
 30
0.0
 10
130.3256783660963
 20
107.223441108545
 30
0.0
  0
SPLINE
  5
1C1
330
1F
100
AcDbEntity
  8
0
  6
Continuous
 62
     7
370
    25
100
AcDbSpline
210
0.0
220
0.0
230
1.0
 70
     8
 71
     3
 72
    16
 73
    12
 74
     0
 42
0.00000001
 43
0.00000001
 40
0.0
 40
0.0
 40
0.0
 40
0.0
 40
0.2499999999999997
 40
0.2499999999999997
 40
0.4999999999999993
 40
0.4999999999999993
 40
0.6249999999999993
 40
0.6249999999999993
 40
0.7499999999999996
 40
0.7499999999999996
 40
1.0
 40
1.0
 40
1.0
 40
1.0
 10
130.3256783660963
 20
115.723441108545
 30
0.0
 10
130.5336938142021
 20
115.0699243285042
 30
0.0
 10
130.703900119175
 20
114.4117039194143
 30
0.0
 10
130.9388361507426
 20
113.0821413360485
 30
0.0
 10
131.0029082824063
 20
112.4107173539779
 30
0.0
 10
131.0036412313273
 20
111.3917162669712
 30
0.0
 10
130.9879817512443
 20
111.050375484655
 30
0.0
 10
130.9267066246073
 20
110.3747769816846
 30
0.0
 10
130.8811503521082
 20
110.0391178317199
 30
0.0
 10
130.7046643193519
 20
109.0378521952202
 30
0.0
 10
130.5340078658662
 20
108.3779445366171
 30
0.0
 10
130.3256783660963
 20
107.723441108545
 30
0.0
  0
SPLINE
  5
1C2
330
1F
100
AcDbEntity
  8
0
  6
Continuous
 62
     7
370
    25
100
AcDbSpline
210
0.0
220
0.0
230
1.0
 70
     8
 71
     3
 72
    10
 73
     6
 74
     0
 42
0.00000001
 43
0.00000001
 40
0.0
 40
0.0
 40
0.0
 40
0.0
 40
0.5
 40
0.5
 40
1.0
 40
1.0
 40
1.0
 40
1.0
 10
130.3256783660963
 20
115.973441108545
 30
0.0
 10
130.3020029716719
 20
115.973441108545
 30
0.0
 10
130.2889118617873
 20
115.9506486592152
 30
0.0
 10
130.288825540499
 20
115.8627059551222
 30
0.0
 10
130.3019944744428
 20
115.7978481814483
 30
0.0
 10
130.3256783660963
 20
115.723441108545
 30
0.0
  0
SPLINE
  5
1C3
330
1F
100
AcDbEntity
  8
0
  6
Continuous
 62
     7
370
    25
100
AcDbSpline
210
0.0
220
0.0
230
1.0
 70
    24
 71
     3
 72
    10
 73
     6
 74
     0
 42
0.00000001
 43
0.00000001
 40
0.0
 40
0.0
 40
0.0
 40
0.0
 40
0.2576837039100913
 40
0.6270640449786942
 40
1.0
 40
1.0
 40
1.0
 40
1.0
 10
130.9997856544386
 20
115.973441108545
 30
0.0
 10
130.9911828175956
 20
115.973441108545
 30
0.0
 10
130.9702481229014
 20
115.973441108545
 30
0.0
 10
130.7512838231069
 20
115.973441108545
 30
0.0
 10
130.4679991526398
 20
115.973441108545
 30
0.0
 10
130.3256783660963
 20
115.973441108545
 30
0.0
  0
LINE
  5
1C4
330
1F
100
AcDbEntity
  8
0
  6
Continuous
 62
     7
370
    25
100
AcDbLine
 10
131.1477373387
 20
115.7234411085
 30
0.0
 11
131.1477373387
 21
99.2234411085
 31
0.0
  0
SPLINE
  5
1C5
330
1F
100
AcDbEntity
  8
0
  6
Continuous
 62
     7
370
    25
100
AcDbSpline
210
0.0
220
0.0
230
1.0
 70
     8
 71
     3
 72
    12
 73
     8
 74
     0
 42
0.00000001
 43
0.00000001
 40
0.0
 40
0.0
 40
0.0
 40
0.0
 40
0.0372792167147373
 40
0.2759853223174244
 40
0.5147210750773147
 40
0.757340675295321
 40
1.0
 40
1.0
 40
1.0
 40
1.0
 10
125.1498839233599
 20
111.8803624059035
 30
0.0
 10
125.1504049619845
 20
111.9287963579005
 30
0.0
 10
125.1542623126863
 20
112.2873623641363
 30
0.0
 10
125.2048422212556
 20
112.9555377469832
 30
0.0
 10
125.3434012130153
 20
113.8837729282652
 30
0.0
 10
125.5490297537674
 20
114.8082747593027
 30
0.0
 10
125.7333107188417
 20
115.4183690115461
 30
0.0
 10
125.8254587439141
 20
115.723441108545
 30
0.0
  0
LINE
  5
1C6
330
1F
100
AcDbEntity
  8
0
  6
Continuous
 62
     7
370
    25
100
AcDbLine
 10
130.3256783661
 20
115.7234411085
 30
0.0
 11
125.8254587439
 21
115.7234411085
 31
0.0
  0
SPLINE
  5
1C7
330
1F
100
AcDbEntity
  8
0
  6
Continuous
 62
     7
370
    25
100
AcDbSpline
210
0.0
220
0.0
230
1.0
 70
     8
 71
     3
 72
    12
 73
     8
 74
     0
 42
0.00000001
 43
0.00000001
 40
0.0
 40
0.0
 40
0.0
 40
0.0
 40
0.0896343442505597
 40
0.3155884109119514
 40
0.5415684684891218
 40
0.7707684121709246
 40
0.9999999999999999
 40
0.9999999999999999
 40
0.9999999999999999
 40
0.9999999999999999
 10
107.6510629609706
 20
111.8711325346837
 30
0.0
 10
107.6528559128695
 20
111.9878677500134
 30
0.0
 10
107.6591686141596
 20
112.3988740602774
 30
0.0
 10
107.7232990830576
 20
113.1028347021451
 30
0.0
 10
107.8634849324964
 20
113.9818897115739
 30
0.0
 10
108.0630064469518
 20
114.8570260786978
 30
0.0
 10
108.2379706191768
 20
115.4346228086753
 30
0.0
 10
108.3254587439141
 20
115.723441108545
 30
0.0
  0
LINE
  5
1C8
330
1F
100
AcDbEntity
  8
0
  6
Continuous
 62
     7
370
    25
100
AcDbLine
 10
112.4700159334
 20
115.7234411085
 30
0.0
 11
108.3254587439
 21
115.7234411085
 31
0.0
  0
SPLINE
  5
1C9
330
1F
100
AcDbEntity
  8
0
  6
Continuous
 62
     7
370
    25
100
AcDbSpline
210
0.0
220
0.0
230
1.0
 70
     8
 71
     3
 72
    10
 73
     6
 74
     0
 42
0.00000001
 43
0.00000001
 40
0.0
 40
0.0
 40
0.0
 40
0.0
 40
0.364878018469117
 40
0.7296838523336513
 40
1.0
 40
1.0
 40
1.0
 40
1.0
 10
112.4700159333937
 20
115.7234411085451
 30
0.0
 10
112.5670860237284
 20
115.3991339931244
 30
0.0
 10
112.7612070008126
 20
114.7505839206584
 30
0.0
 10
112.9635627247612
 20
113.8478683857775
 30
0.0
 10
113.0334296014246
 20
113.2676917190024
 30
0.0
 10
113.0631658497333
 20
113.0207610094865
 30
0.0
  0
SPLINE
  5
1CA
330
1F
100
AcDbEntity
  8
0
  6
Continuous
 62
     7
370
    25
100
AcDbSpline
210
0.0
220
0.0
230
1.0
 70
     8
 71
     3
 72
    10
 73
     6
 74
     0
 42
0.00000001
 43
0.00000001
 40
0.0
 40
0.0
 40
0.0
 40
0.0
 40
0.3126046489374005
 40
0.6562741896929457
 40
1.0
 40
1.0
 40
1.0
 40
1.0
 10
113.0690095940649
 20
101.9226945007654
 30
0.0
 10
113.0307655817058
 20
101.63780326224
 30
0.0
 10
112.9504770821365
 20
101.0397098962282
 30
0.0
 10
112.7455279275144
 20
100.1386997088036
 30
0.0
 10
112.5618582764435
 20
99.52854395756084
 30
0.0
 10
112.4700159333937
 20
99.22344110854503
 30
0.0
  0
LINE
  5
1CB
330
1F
100
AcDbEntity
  8
0
  6
Continuous
 62
     7
370
    25
100
AcDbLine
 10
108.3254587439
 20
99.2234411085
 30
0.0
 11
112.4700159334
 21
99.2234411085
 31
0.0
  0
SPLINE
  5
1CC
330
1F
100
AcDbEntity
  8
0
  6
Continuous
 62
     7
370
    25
100
AcDbSpline
210
0.0
220
0.0
230
1.0
 70
     8
 71
     3
 72
    11
 73
     7
 74
     0
 42
0.00000001
 43
0.00000001
 40
0.0
 40
0.0
 40
0.0
 40
0.0
 40
0.2569480758776447
 40
0.5138453191638019
 40
0.775220387037738
 40
1.0
 40
1.0
 40
1.0
 40
1.0
 10
108.3254587439141
 20
99.22344110854503
 30
0.0
 10
108.2276973956157
 20
99.54769503154083
 30
0.0
 10
108.0321940393573
 20
100.1961387296802
 30
0.0
 10
107.8198575608289
 20
101.1906940044246
 30
0.0
 10
107.680860639688
 20
102.1534280686116
 30
0.0
 10
107.6627372936714
 20
102.7874217644128
 30
0.0
 10
107.6543577411056
 20
103.0805565694045
 30
0.0
  0
LINE
  5
1CD
330
1F
100
AcDbEntity
  8
0
  6
Continuous
 62
     7
370
    25
100
AcDbLine
 10
125.8254587439
 20
99.2234411085
 30
0.0
 11
130.3256783661
 21
99.2234411085
 31
0.0
  0
SPLINE
  5
1CE
330
1F
100
AcDbEntity
  8
0
  6
Continuous
 62
     7
370
    25
100
AcDbSpline
210
0.0
220
0.0
230
1.0
 70
     8
 71
     3
 72
    11
 73
     7
 74
     0
 42
0.00000001
 43
0.00000001
 40
0.0
 40
0.0
 40
0.0
 40
0.0
 40
0.2551217387389628
 40
0.5101930061946495
 40
0.7697102707285406
 40
1.0
 40
1.0
 40
1.0
 40
1.0
 10
125.8254587439141
 20
99.22344110854499
 30
0.0
 10
125.7277045143365
 20
99.54769543315578
 30
0.0
 10
125.5322153941113
 20
100.1961399344457
 30
0.0
 10
125.3197715413127
 20
101.1906891514842
 30
0.0
 10
125.1798347158007
 20
102.1627208820955
 30
0.0
 10
125.1616235877889
 20
102.8060603182841
 30
0.0
 10
125.1530613667659
 20
103.1085355104787
 30
0.0
  0
LINE
  5
1CF
330
1F
100
AcDbEntity
  8
0
  6
Continuous
 62
     7
370
    25
100
AcDbLine
 10
125.1477373387
 20
103.0572776152
 30
0.0
 11
125.1477373387
 21
99.9734411085
 31
0.0
  0
LINE
  5
1D0
330
1F
100
AcDbEntity
  8
0
  6
Continuous
 62
     7
370
    25
100
AcDbLine
 10
125.1477373387
 20
99.9734411085
 30
0.0
 11
113.1477373387
 21
99.9734411085
 31
0.0
  0
LINE
  5
1D1
330
1F
100
AcDbEntity
  8
0
  6
Continuous
 62
     7
370
    25
100
AcDbLine
 10
113.1477373387
 20
101.9286255046
 30
0.0
 11
113.1477373387
 21
99.9734411085
 31
0.0
  0
LINE
  5
1D2
330
1F
100
AcDbEntity
  8
0
  6
Continuous
 62
     7
370
    25
100
AcDbLine
 10
113.1477373387
 20
114.9734411085
 30
0.0
 11
113.1477373387
 21
113.0182567125
 31
0.0
  0
LINE
  5
1D3
330
1F
100
AcDbEntity
  8
0
  6
Continuous
 62
     7
370
    25
100
AcDbLine
 10
113.1477373387
 20
114.9734411085
 30
0.0
 11
125.1477373387
 21
114.9734411085
 31
0.0
  0
LINE
  5
1D4
330
1F
100
AcDbEntity
  8
0
  6
Continuous
 62
     7
370
    25
100
AcDbLine
 10
125.1477373387
 20
114.9734411085
 30
0.0
 11
125.1477373387
 21
111.8896046019
 31
0.0
  0
SPLINE
  5
1D5
330
1F
100
AcDbEntity
  8
0
  6
Continuous
 62
     7
370
    25
100
AcDbSpline
210
0.0
220
0.0
230
1.0
 70
     8
 71
     3
 72
     8
 73
     4
 74
     0
 42
0.00000001
 43
0.00000001
 40
0.0
 40
0.0
 40
0.0
 40
0.0
 40
1.0
 40
1.0
 40
1.0
 40
1.0
 10
112.6315012616747
 20
115.973441108545
 30
0.0
 10
112.8052043378945
 20
115.6409296864095
 30
0.0
 10
112.9775065569572
 20
115.3076025865107
 30
0.0
 10
113.1477373386539
 20
114.973441108545
 30
0.0
  0
SPLINE
  5
1D6
330
1F
100
AcDbEntity
  8
0
  6
Continuous
 62
     7
370
    25
100
AcDbSpline
210
0.0
220
0.0
230
1.0
 70
     8
 71
     3
 72
    10
 73
     6
 74
     0
 42
0.00000001
 43
0.00000001
 40
0.0
 40
0.0
 40
0.0
 40
0.0
 40
0.5
 40
0.5
 40
1.0
 40
1.0
 40
1.0
 40
1.0
 10
112.4700159333994
 20
115.973441108545
 30
0.0
 10
112.446340538975
 20
115.973441108545
 30
0.0
 10
112.4332494290847
 20
115.9506486592155
 30
0.0
 10
112.4331631077963
 20
115.8627059551225
 30
0.0
 10
112.4463320417402
 20
115.7978481814485
 30
0.0
 10
112.4700159333937
 20
115.7234411085451
 30
0.0
  0
SPLINE
  5
1D7
330
1F
100
AcDbEntity
  8
0
  6
Continuous
 62
     7
370
    25
100
AcDbSpline
210
0.0
220
0.0
230
1.0
 70
    24
 71
     3
 72
     8
 73
     4
 74
     0
 42
0.00000001
 43
0.00000001
 40
0.0
 40
0.0
 40
0.0
 40
0.0
 40
1.0
 40
1.0
 40
1.0
 40
1.0
 10
112.6315012616747
 20
115.973441108545
 30
0.0
 10
112.5806025447523
 20
115.973441108545
 30
0.0
 10
112.5266684085017
 20
115.973441108545
 30
0.0
 10
112.4700159333941
 20
115.973441108545
 30
0.0
  0
SPLINE
  5
1D8
330
1F
100
AcDbEntity
  8
0
  6
Continuous
 62
     7
370
    25
100
AcDbSpline
210
0.0
220
0.0
230
1.0
 70
     8
 71
     3
 72
     8
 73
     4
 74
     0
 42
0.00000001
 43
0.00000001
 40
0.0
 40
0.0
 40
0.0
 40
0.0
 40
1.0
 40
1.0
 40
1.0
 40
1.0
 10
125.1477373386539
 20
114.973441108545
 30
0.0
 10
125.3180149459976
 20
115.3076945048304
 30
0.0
 10
125.4902866946233
 20
115.6409609943993
 30
0.0
 10
125.663973415633
 20
115.9734411085448
 30
0.0
  0
SPLINE
  5
1D9
330
1F
100
AcDbEntity
  8
0
  6
Continuous
 62
     7
370
    25
100
AcDbSpline
210
0.0
220
0.0
230
1.0
 70
    24
 71
     3
 72
     8
 73
     4
 74
     0
 42
0.00000001
 43
0.00000001
 40
0.0
 40
0.0
 40
0.0
 40
0.0
 40
1.0
 40
1.0
 40
1.0
 40
1.0
 10
125.6639734156325
 20
115.973441108545
 30
0.0
 10
125.7148696488878
 20
115.973441108545
 30
0.0
 10
125.7688036038516
 20
115.973441108545
 30
0.0
 10
125.8254587439141
 20
115.973441108545
 30
0.0
  0
SPLINE
  5
1DA
330
1F
100
AcDbEntity
  8
0
  6
Continuous
 62
     7
370
    25
100
AcDbSpline
210
0.0
220
0.0
230
1.0
 70
     8
 71
     3
 72
    10
 73
     6
 74
     0
 42
0.00000001
 43
0.00000001
 40
0.0
 40
0.0
 40
0.0
 40
0.0
 40
0.5
 40
0.5
 40
1.0
 40
1.0
 40
1.0
 40
1.0
 10
125.8254587439141
 20
115.723441108545
 30
0.0
 10
125.8491341383385
 20
115.7978214859224
 30
0.0
 10
125.8622252482231
 20
115.8621221247082
 30
0.0
 10
125.8623115695114
 20
115.9503378094911
 30
0.0
 10
125.8491426355675
 20
115.973441108545
 30
0.0
 10
125.8254587439141
 20
115.973441108545
 30
0.0
  0
SPLINE
  5
1DB
330
1F
100
AcDbEntity
  8
0
  6
Continuous
 62
     7
370
    25
100
AcDbSpline
210
0.0
220
0.0
230
1.0
 70
     8
 71
     3
 72
    10
 73
     6
 74
     0
 42
0.00000001
 43
0.00000001
 40
0.0
 40
0.0
 40
0.0
 40
0.0
 40
0.5
 40
0.5
 40
1.0
 40
1.0
 40
1.0
 40
1.0
 10
108.3254587439141
 20
115.973441108545
 30
0.0
 10
108.34913264447
 20
115.973441108545
 30
0.0
 10
108.3622252016492
 20
115.9506505368976
 30
0.0
 10
108.3623116156315
 20
115.8627045395988
 30
0.0
 10
108.3491412240328
 20
115.797843746866
 30
0.0
 10
108.3254587439141
 20
115.723441108545
 30
0.0
  0
SPLINE
  5
1DC
330
1F
100
AcDbEntity
  8
0
  6
Continuous
 62
     7
370
    25
100
AcDbSpline
210
0.0
220
0.0
230
1.0
 70
    24
 71
     3
 72
    12
 73
     8
 74
     0
 42
0.00000001
 43
0.00000001
 40
0.0
 40
0.0
 40
0.0
 40
0.0
 40
0.2499999999999999
 40
0.2499999999999999
 40
0.4999999999999998
 40
0.4999999999999998
 40
1.0
 40
1.0
 40
1.0
 40
1.0
 10
107.6477373386539
 20
115.973441108545
 30
0.0
 10
107.6477373386539
 20
115.973441108545
 30
0.0
 10
107.663736143635
 20
115.973441108545
 30
0.0
 10
107.7255062819494
 20
115.973441108545
 30
0.0
 10
107.7712484062509
 20
115.973441108545
 30
0.0
 10
107.9479185535978
 20
115.973441108545
 30
0.0
 10
108.1181736190781
 20
115.973441108545
 30
0.0
 10
108.3254587439141
 20
115.973441108545
 30
0.0
  0
LINE
  5
1DD
330
1F
100
AcDbEntity
  8
0
  6
Continuous
 62
     7
370
    25
100
AcDbLine
 10
107.6477373387
 20
115.9734411085
 30
0.0
 11
107.6477373387
 21
111.8560873904
 31
0.0
  0
SPLINE
  5
1DE
330
1F
100
AcDbEntity
  8
0
  6
Continuous
 62
     7
370
    25
100
AcDbSpline
210
0.0
220
0.0
230
1.0
 70
     8
 71
     3
 72
     8
 73
     4
 74
     0
 42
0.00000001
 43
0.00000001
 40
0.0
 40
0.0
 40
0.0
 40
0.0
 40
1.0
 40
1.0
 40
1.0
 40
1.0
 10
125.6639734156331
 20
98.97344110854503
 30
0.0
 10
125.4902703394133
 20
99.30595253068053
 30
0.0
 10
125.3179681203506
 20
99.6392796305794
 30
0.0
 10
125.1477373386539
 20
99.97344110854503
 30
0.0
  0
SPLINE
  5
1DF
330
1F
100
AcDbEntity
  8
0
  6
Continuous
 62
     7
370
    25
100
AcDbSpline
210
0.0
220
0.0
230
1.0
 70
     8
 71
     3
 72
    10
 73
     6
 74
     0
 42
0.00000001
 43
0.00000001
 40
0.0
 40
0.0
 40
0.0
 40
0.0
 40
0.5
 40
0.5
 40
1.0
 40
1.0
 40
1.0
 40
1.0
 10
125.8254587439141
 20
98.97344110854503
 30
0.0
 10
125.8491341383385
 20
98.97344110854503
 30
0.0
 10
125.8622252482231
 20
98.99623355787482
 30
0.0
 10
125.8623115695114
 20
99.08417626196787
 30
0.0
 10
125.8491426355676
 20
99.14903403564172
 30
0.0
 10
125.8254587439141
 20
99.22344110854498
 30
0.0
  0
SPLINE
  5
1E0
330
1F
100
AcDbEntity
  8
0
  6
Continuous
 62
     7
370
    25
100
AcDbSpline
210
0.0
220
0.0
230
1.0
 70
    24
 71
     3
 72
     8
 73
     4
 74
     0
 42
0.00000001
 43
0.00000001
 40
0.0
 40
0.0
 40
0.0
 40
0.0
 40
1.0
 40
1.0
 40
1.0
 40
1.0
 10
125.6639734156331
 20
98.97344110854503
 30
0.0
 10
125.7148696488881
 20
98.97344110854503
 30
0.0
 10
125.7688036038518
 20
98.97344110854503
 30
0.0
 10
125.8254587439141
 20
98.97344110854503
 30
0.0
  0
SPLINE
  5
1E1
330
1F
100
AcDbEntity
  8
0
  6
Continuous
 62
     7
370
    25
100
AcDbSpline
210
0.0
220
0.0
230
1.0
 70
     8
 71
     3
 72
     8
 73
     4
 74
     0
 42
0.00000001
 43
0.00000001
 40
0.0
 40
0.0
 40
0.0
 40
0.0
 40
1.0
 40
1.0
 40
1.0
 40
1.0
 10
113.1477373386539
 20
99.97344110854503
 30
0.0
 10
112.9774597313101
 20
99.63918771225963
 30
0.0
 10
112.8051879826844
 20
99.30592122269061
 30
0.0
 10
112.6315012616747
 20
98.97344110854503
 30
0.0
  0
SPLINE
  5
1E2
330
1F
100
AcDbEntity
  8
0
  6
Continuous
 62
     7
370
    25
100
AcDbSpline
210
0.0
220
0.0
230
1.0
 70
    24
 71
     3
 72
     8
 73
     4
 74
     0
 42
0.00000001
 43
0.00000001
 40
0.0
 40
0.0
 40
0.0
 40
0.0
 40
1.0
 40
1.0
 40
1.0
 40
1.0
 10
112.6315012616747
 20
98.97344110854503
 30
0.0
 10
112.5806025447522
 20
98.97344110854503
 30
0.0
 10
112.5266684085014
 20
98.97344110854503
 30
0.0
 10
112.4700159333937
 20
98.97344110854503
 30
0.0
  0
SPLINE
  5
1E3
330
1F
100
AcDbEntity
  8
0
  6
Continuous
 62
     7
370
    25
100
AcDbSpline
210
0.0
220
0.0
230
1.0
 70
     8
 71
     3
 72
    10
 73
     6
 74
     0
 42
0.00000001
 43
0.00000001
 40
0.0
 40
0.0
 40
0.0
 40
0.0
 40
0.5
 40
0.5
 40
1.0
 40
1.0
 40
1.0
 40
1.0
 10
112.4700159333937
 20
99.22344110854503
 30
0.0
 10
112.4463405389693
 20
99.1490607311677
 30
0.0
 10
112.4332494290847
 20
99.08476009238193
 30
0.0
 10
112.4331631077964
 20
98.99654440759899
 30
0.0
 10
112.4463320417402
 20
98.97344110854503
 30
0.0
 10
112.4700159333937
 20
98.97344110854503
 30
0.0
  0
SPLINE
  5
1E4
330
1F
100
AcDbEntity
  8
0
  6
Continuous
 62
     7
370
    25
100
AcDbSpline
210
0.0
220
0.0
230
1.0
 70
     8
 71
     3
 72
    10
 73
     6
 74
     0
 42
0.00000001
 43
0.00000001
 40
0.0
 40
0.0
 40
0.0
 40
0.0
 40
0.5
 40
0.5
 40
1.0
 40
1.0
 40
1.0
 40
1.0
 10
108.3254587439141
 20
99.22344110854503
 30
0.0
 10
108.3491309838256
 20
99.14907064161947
 30
0.0
 10
108.3622249737609
 20
99.08476504533161
 30
0.0
 10
108.3623118412224
 20
98.99654225752577
 30
0.0
 10
108.349142051463
 20
98.97344110854503
 30
0.0
 10
108.3254587439141
 20
98.97344110854503
 30
0.0
  0
SPLINE
  5
1E5
330
1F
100
AcDbEntity
  8
0
  6
Continuous
 62
     7
370
    25
100
AcDbSpline
210
0.0
220
0.0
230
1.0
 70
    24
 71
     3
 72
    12
 73
     8
 74
     0
 42
0.00000001
 43
0.00000001
 40
0.0
 40
0.0
 40
0.0
 40
0.0
 40
0.2500000000000001
 40
0.2500000000000001
 40
0.5000000000000001
 40
0.5000000000000001
 40
1.0
 40
1.0
 40
1.0
 40
1.0
 10
107.6477373386539
 20
98.97344110854503
 30
0.0
 10
107.6477373386539
 20
98.97344110854503
 30
0.0
 10
107.663736143635
 20
98.97344110854503
 30
0.0
 10
107.7255062819494
 20
98.97344110854503
 30
0.0
 10
107.7712484062509
 20
98.97344110854503
 30
0.0
 10
107.9479185535978
 20
98.97344110854503
 30
0.0
 10
108.1181736190781
 20
98.97344110854503
 30
0.0
 10
108.3254587439141
 20
98.97344110854503
 30
0.0
  0
LINE
  5
1E6
330
1F
100
AcDbEntity
  8
0
  6
Continuous
 62
     7
370
    25
100
AcDbLine
 10
107.6477373387
 20
98.9734411085
 30
0.0
 11
107.6477373387
 21
103.0907948267
 31
0.0
  0
LINE
  5
1E7
330
1F
100
AcDbEntity
  8
0
  6
Continuous
 62
     7
370
    25
100
AcDbLine
 10
125.8254587439
 20
115.9734411085
 30
0.0
 11
130.3256783661
 21
115.9734411085
 31
0.0
  0
LINE
  5
1E8
330
1F
100
AcDbEntity
  8
0
  6
Continuous
 62
     7
370
    25
100
AcDbLine
 10
108.3254587439
 20
115.9734411085
 30
0.0
 11
112.4700159334
 21
115.9734411085
 31
0.0
  0
LINE
  5
1E9
330
1F
100
AcDbEntity
  8
0
  6
Continuous
 62
     7
370
    25
100
AcDbLine
 10
130.3256783661
 20
98.9734411085
 30
0.0
 11
125.8254587439
 21
98.9734411085
 31
0.0
  0
LINE
  5
1EA
330
1F
100
AcDbEntity
  8
0
  6
Continuous
 62
     7
370
    25
100
AcDbLine
 10
112.4700159334
 20
98.9734411085
 30
0.0
 11
108.3254587439
 21
98.9734411085
 31
0.0
  0
LINE
  5
1EB
330
1F
100
AcDbEntity
  8
0
  6
Continuous
 62
     7
370
    25
100
AcDbLine
 10
125.6639734156
 20
115.9734411085
 30
0.0
 11
112.6315012617
 21
115.9734411085
 31
0.0
  0
LINE
  5
1EC
330
1F
100
AcDbEntity
  8
0
  6
Continuous
 62
     7
370
    25
100
AcDbLine
 10
125.6639734156
 20
98.9734411085
 30
0.0
 11
112.6315012617
 21
98.9734411085
 31
0.0
  0
LINE
  5
1ED
330
1F
100
AcDbEntity
  8
0
  6
Continuous
 62
     7
370
    25
100
AcDbLine
 10
96.1377373387
 20
102.7857818911
 30
0.0
 11
96.1377373387
 21
101.4734411085
 31
0.0
  0
LINE
  5
1EE
330
1F
100
AcDbEntity
  8
0
  6
Continuous
 62
     7
370
    25
100
AcDbLine
 10
96.1377373387
 20
113.4734411085
 30
0.0
 11
96.1377373387
 21
110.9734411085
 31
0.0
  0
LINE
  5
1EF
330
1F
100
AcDbEntity
  8
0
  6
Continuous
 62
     7
370
    25
100
AcDbLine
 10
96.1377373387
 20
103.9734411085
 30
0.0
 11
96.1377373387
 21
102.7857818911
 31
0.0
  0
LINE
  5
1F0
330
1F
100
AcDbEntity
  8
0
  6
Continuous
 62
     7
370
    25
100
AcDbLine
 10
96.1577373387
 20
102.7857818911
 30
0.0
 11
96.1577373387
 21
101.4734411085
 31
0.0
  0
LINE
  5
1F1
330
1F
100
AcDbEntity
  8
0
  6
Continuous
 62
     7
370
    25
100
AcDbLine
 10
96.1577373387
 20
113.4734411085
 30
0.0
 11
96.1577373387
 21
110.9734411085
 31
0.0
  0
LINE
  5
1F2
330
1F
100
AcDbEntity
  8
0
  6
Continuous
 62
     7
370
    25
100
AcDbLine
 10
96.1577373387
 20
103.9734411085
 30
0.0
 11
96.1577373387
 21
102.7857818911
 31
0.0
  0
LINE
  5
1F3
330
1F
100
AcDbEntity
  8
0
  6
Continuous
 62
     7
370
    25
100
AcDbLine
 10
97.0926725606
 20
103.3048850931
 30
0.0
 11
97.0926725606
 21
102.1378706387
 31
0.0
  0
LINE
  5
1F4
330
1F
100
AcDbEntity
  8
0
  6
Continuous
 62
     7
370
    25
100
AcDbLine
 10
97.0926725606
 20
112.8090115783
 30
0.0
 11
97.0926725606
 21
110.9735525659
 31
0.0
  0
LINE
  5
1F5
330
1F
100
AcDbEntity
  8
0
  6
Continuous
 62
     7
370
    25
100
AcDbLine
 10
97.0926725606
 20
103.9733296512
 30
0.0
 11
97.0926725606
 21
103.3048850931
 31
0.0
  0
LINE
  5
1F6
330
1F
100
AcDbEntity
  8
0
  6
Continuous
 62
     7
370
    25
100
AcDbLine
 10
97.5648620666
 20
103.5670584274
 30
0.0
 11
97.5648620666
 21
102.4734411085
 31
0.0
  0
LINE
  5
1F7
330
1F
100
AcDbEntity
  8
0
  6
Continuous
 62
     7
370
    25
100
AcDbLine
 10
97.5648620666
 20
112.4734411085
 30
0.0
 11
97.5648620666
 21
110.9761421588
 31
0.0
  0
LINE
  5
1F8
330
1F
100
AcDbEntity
  8
0
  6
Continuous
 62
     7
370
    25
100
AcDbLine
 10
97.5648620666
 20
103.9707400583
 30
0.0
 11
97.5648620666
 21
103.5670584274
 31
0.0
  0
LINE
  5
1F9
330
1F
100
AcDbEntity
  8
0
  6
Continuous
 62
     7
370
    25
100
AcDbLine
 10
130.3256783661
 20
107.2234411085
 30
0.0
 11
126.5935415263
 21
107.2234411085
 31
0.0
  0
LINE
  5
1FA
330
1F
100
AcDbEntity
  8
0
  6
Continuous
 62
     7
370
    25
100
AcDbLine
 10
126.5935415263
 20
107.7234411085
 30
0.0
 11
130.3256783661
 21
107.7234411085
 31
0.0
  0
INSERT
  5
206
330
1F
100
AcDbEntity
  8
FORMAT
100
AcDbBlockReference
  2
SW_CENTERMARKSYMBOL_0
 10
119.1477373387
 20
107.4734411085
 30
0.0
  0
ARC
  5
207
330
1F
100
AcDbEntity
  8
0
  6
Continuous
 62
     7
370
    25
100
AcDbCircle
 10
182.0269645937
 20
74.3623741981
 30
0.0
 40
0.2500000000000142
100
AcDbArc
 50
0.0
 51
90.0
  0
ARC
  5
208
330
1F
100
AcDbEntity
  8
0
  6
Continuous
 62
     7
370
    25
100
AcDbCircle
 10
171.5269645937
 20
74.3623741981
 30
0.0
 40
0.2500000000000142
100
AcDbArc
 50
90.0
 51
180.0
  0
LINE
  5
209
330
1F
100
AcDbEntity
  8
0
  6
Continuous
 62
     7
370
    25
100
AcDbLine
 10
171.2769645937
 20
74.3623741981
 30
0.0
 11
171.2769645937
 21
73.7623741981
 31
0.0
  0
LINE
  5
20A
330
1F
100
AcDbEntity
  8
0
  6
Continuous
 62
     7
370
    25
100
AcDbLine
 10
182.2769645937
 20
73.7623741981
 30
0.0
 11
182.2769645937
 21
74.3623741981
 31
0.0
  0
LINE
  5
20B
330
1F
100
AcDbEntity
  8
0
  6
Continuous
 62
     7
370
    25
100
AcDbLine
 10
184.2269645937
 20
65.7623741981
 30
0.0
 11
182.2769645937
 21
73.7623741981
 31
0.0
  0
LINE
  5
20C
330
1F
100
AcDbEntity
  8
0
  6
Continuous
 62
     7
370
    25
100
AcDbLine
 10
171.2769645938
 20
73.7623741981
 30
0.0
 11
169.3269645937
 21
65.7623741981
 31
0.0
  0
LINE
  5
20D
330
1F
100
AcDbEntity
  8
0
  6
Continuous
 62
     7
370
    25
100
AcDbLine
 10
169.3269645937
 20
65.7623741981
 30
0.0
 11
169.7769645937
 21
57.7623741981
 31
0.0
  0
LINE
  5
20E
330
1F
100
AcDbEntity
  8
0
  6
Continuous
 62
     7
370
    25
100
AcDbLine
 10
183.7769645937
 20
57.7623741981
 30
0.0
 11
184.2269645937
 21
65.7623741981
 31
0.0
  0
LINE
  5
20F
330
1F
100
AcDbEntity
  8
0
  6
Continuous
 62
     7
370
    25
100
AcDbLine
 10
168.2769645937
 20
35.4067117654
 30
0.0
 11
168.5269645937
 21
35.2623741981
 31
0.0
  0
LINE
  5
210
330
1F
100
AcDbEntity
  8
0
  6
Continuous
 62
     7
370
    25
100
AcDbLine
 10
185.0269645937
 20
35.2623741981
 30
0.0
 11
185.2769645937
 21
35.4067117654
 31
0.0
  0
LINE
  5
211
330
1F
100
AcDbEntity
  8
0
  6
Continuous
 62
     7
370
    25
100
AcDbLine
 10
182.6895371132
 20
53.6637034386
 30
0.0
 11
182.6765087057
 21
53.7950941843
 31
0.0
  0
SPLINE
  5
212
330
1F
100
AcDbEntity
  8
0
  6
Continuous
 62
     7
370
    25
100
AcDbSpline
210
0.0
220
0.0
230
1.0
 70
     8
 71
     3
 72
     9
 73
     5
 74
     0
 42
0.00000001
 43
0.00000001
 40
0.0
 40
0.0
 40
0.0
 40
0.0
 40
0.5948782015576977
 40
1.0
 40
1.0
 40
1.0
 40
1.0
 10
170.8748523893307
 20
53.80170669171076
 30
0.0
 10
170.8762674057792
 20
53.77443692666317
 30
0.0
 10
170.878646071605
 20
53.72859600498177
 30
0.0
 10
170.8704327077873
 20
53.68352796339019
 30
0.0
 10
170.8671052950663
 20
53.66526991732834
 30
0.0
  0
LINE
  5
213
330
1F
100
AcDbEntity
  8
0
  6
Continuous
 62
     7
370
    25
100
AcDbLine
 10
182.6769645937
 20
53.7956004513
 30
0.0
 11
182.6769645937
 21
57.7623741981
 31
0.0
  0
LINE
  5
214
330
1F
100
AcDbEntity
  8
0
  6
Continuous
 62
     7
370
    25
100
AcDbLine
 10
170.8769645937
 20
57.7623741981
 30
0.0
 11
170.8769645937
 21
53.800902862
 31
0.0
  0
LINE
  5
215
330
1F
100
AcDbEntity
  8
0
  6
Continuous
 62
     7
370
    25
100
AcDbLine
 10
171.6776520937
 20
35.2623741981
 30
0.0
 11
171.9946849669
 21
25.1173222575
 31
0.0
  0
LINE
  5
216
330
1F
100
AcDbEntity
  8
0
  6
Continuous
 62
     7
370
    25
100
AcDbLine
 10
181.5592442206
 20
25.1173222575
 30
0.0
 11
181.8762770937
 21
35.2623741981
 31
0.0
  0
LINE
  5
217
330
1F
100
AcDbEntity
  8
0
  6
Continuous
 62
     7
370
    25
100
AcDbLine
 10
171.9946849669
 20
25.1173222575
 30
0.0
 11
172.7769645937
 21
23.7623741981
 31
0.0
  0
LINE
  5
218
330
1F
100
AcDbEntity
  8
0
  6
Continuous
 62
     7
370
    25
100
AcDbLine
 10
180.7769645937
 20
23.7623741981
 30
0.0
 11
181.5592442206
 21
25.1173222575
 31
0.0
  0
LINE
  5
219
330
1F
100
AcDbEntity
  8
0
  6
Continuous
 62
     7
370
    25
100
AcDbLine
 10
178.0269645937
 20
74.3623741981
 30
0.0
 11
178.0269645937
 21
74.6123741981
 31
0.0
  0
LINE
  5
21A
330
1F
100
AcDbEntity
  8
0
  6
Continuous
 62
     7
370
    25
100
AcDbLine
 10
178.0269645937
 20
74.3623741981
 30
0.0
 11
175.5269645937
 21
74.3623741981
 31
0.0
  0
LINE
  5
21B
330
1F
100
AcDbEntity
  8
0
  6
Continuous
 62
     7
370
    25
100
AcDbLine
 10
175.5269645937
 20
74.6123741981
 30
0.0
 11
175.5269645937
 21
74.3623741981
 31
0.0
  0
LINE
  5
21C
330
1F
100
AcDbEntity
  8
0
  6
Continuous
 62
     7
370
    25
100
AcDbLine
 10
175.5269645937
 20
74.6123741981
 30
0.0
 11
178.0269645937
 21
74.6123741981
 31
0.0
  0
LINE
  5
21D
330
1F
100
AcDbEntity
  8
0
  6
Continuous
 62
     7
370
    25
100
AcDbLine
 10
178.0269645937
 20
73.7623741981
 30
0.0
 11
178.0269645937
 21
74.3623741981
 31
0.0
  0
LINE
  5
21E
330
1F
100
AcDbEntity
  8
0
  6
Continuous
 62
     7
370
    25
100
AcDbLine
 10
175.5269645937
 20
74.3623741981
 30
0.0
 11
175.5269645937
 21
73.7623741981
 31
0.0
  0
LINE
  5
21F
330
1F
100
AcDbEntity
  8
0
  6
Continuous
 62
     7
370
    25
100
AcDbLine
 10
178.0269645937
 20
73.7623741981
 30
0.0
 11
175.5269645937
 21
73.7623741981
 31
0.0
  0
LINE
  5
220
330
1F
100
AcDbEntity
  8
0
  6
Continuous
 62
     7
370
    25
100
AcDbLine
 10
175.2769645937
 20
73.7623741981
 30
0.0
 11
175.2769645937
 21
74.3623741981
 31
0.0
  0
LINE
  5
221
330
1F
100
AcDbEntity
  8
0
  6
Continuous
 62
     7
370
    25
100
AcDbLine
 10
175.2769645937
 20
74.3623741981
 30
0.0
 11
175.5269645937
 21
74.3623741981
 31
0.0
  0
LINE
  5
222
330
1F
100
AcDbEntity
  8
0
  6
Continuous
 62
     7
370
    25
100
AcDbLine
 10
175.5269645937
 20
73.7623741981
 30
0.0
 11
175.2769645937
 21
73.7623741981
 31
0.0
  0
ARC
  5
223
330
1F
100
AcDbEntity
  8
0
  6
Continuous
 62
     7
370
    25
100
AcDbCircle
 10
178.0269645937
 20
74.3623741981
 30
0.0
 40
0.2500000000000142
100
AcDbArc
 50
0.0
 51
90.0
  0
LINE
  5
224
330
1F
100
AcDbEntity
  8
0
  6
Continuous
 62
     7
370
    25
100
AcDbLine
 10
178.0269645937
 20
74.3623741981
 30
0.0
 11
178.2769645937
 21
74.3623741981
 31
0.0
  0
LINE
  5
225
330
1F
100
AcDbEntity
  8
0
  6
Continuous
 62
     7
370
    25
100
AcDbLine
 10
178.2769645937
 20
74.3623741981
 30
0.0
 11
178.2769645937
 21
73.7623741981
 31
0.0
  0
LINE
  5
226
330
1F
100
AcDbEntity
  8
0
  6
Continuous
 62
     7
370
    25
100
AcDbLine
 10
178.2769645937
 20
73.7623741981
 30
0.0
 11
178.0269645937
 21
73.7623741981
 31
0.0
  0
ARC
  5
227
330
1F
100
AcDbEntity
  8
0
  6
Continuous
 62
     7
370
    25
100
AcDbCircle
 10
175.5269645937
 20
74.3623741981
 30
0.0
 40
0.2500000000000142
100
AcDbArc
 50
90.0
 51
180.0
  0
SPLINE
  5
228
330
1F
100
AcDbEntity
  8
0
  6
Continuous
 62
     7
370
    25
100
AcDbSpline
210
0.0
220
0.0
230
1.0
 70
     8
 71
     3
 72
    15
 73
    11
 74
     0
 42
0.00000001
 43
0.00000001
 40
0.0
 40
0.0
 40
0.0
 40
0.0
 40
0.0081667445812973
 40
0.3321939991490804
 40
0.475627960058556
 40
0.6866830973284891
 40
0.8457435502264751
 40
0.8967566214763124
 40
0.9909540928118028
 40
1.0
 40
1.0
 40
1.0
 40
1.0
 10
178.026964593748
 20
74.61237419807146
 30
0.0
 10
178.028402056687
 20
74.61237152172568
 30
0.0
 10
178.0868729146391
 20
74.61226265753884
 30
0.0
 10
178.1712980923582
 20
74.60271664526944
 30
0.0
 10
178.2858771643807
 20
74.56535426201488
 30
0.0
 10
178.3672480515773
 20
74.52048874728021
 30
0.0
 10
178.4202670435789
 20
74.46261244770331
 30
0.0
 10
178.4444689754231
 20
74.41193640773139
 30
0.0
 10
178.4506585960893
 20
74.38324212821139
 30
0.0
 10
178.4508599915018
 20
74.36405529665588
 30
0.0
 10
178.4508776372263
 20
74.36237419807145
 30
0.0
  0
LINE
  5
229
330
1F
100
AcDbEntity
  8
0
  6
Continuous
 62
     7
370
    25
100
AcDbLine
 10
178.2769645937
 20
74.3623741981
 30
0.0
 11
178.4508776372
 21
74.3623741981
 31
0.0
  0
LINE
  5
22A
330
1F
100
AcDbEntity
  8
0
  6
Continuous
 62
     7
370
    25
100
AcDbLine
 10
175.1030515503
 20
74.3623741981
 30
0.0
 11
175.2769645937
 21
74.3623741981
 31
0.0
  0
SPLINE
  5
22B
330
1F
100
AcDbEntity
  8
0
  6
Continuous
 62
     7
370
    25
100
AcDbSpline
210
0.0
220
0.0
230
1.0
 70
     8
 71
     3
 72
    15
 73
    11
 74
     0
 42
0.00000001
 43
0.00000001
 40
0.0
 40
0.0
 40
0.0
 40
0.0
 40
0.0090459071881971
 40
0.1032433785236874
 40
0.1542564497735246
 40
0.313316902671511
 40
0.5243720399414428
 40
0.6678060008509903
 40
0.9918332554187292
 40
1.0
 40
1.0
 40
1.0
 40
1.0
 10
175.1030515502698
 20
74.36237419807145
 30
0.0
 10
175.1030691959942
 20
74.36405529665586
 30
0.0
 10
175.1032705914068
 20
74.3832421282114
 30
0.0
 10
175.109460212073
 20
74.41193640773136
 30
0.0
 10
175.1336621439171
 20
74.46261244770334
 30
0.0
 10
175.1866811359188
 20
74.52048874728021
 30
0.0
 10
175.2680520231154
 20
74.56535426201488
 30
0.0
 10
175.3826310951378
 20
74.60271664526944
 30
0.0
 10
175.4670562728573
 20
74.61226265753889
 30
0.0
 10
175.525527130809
 20
74.61237152172568
 30
0.0
 10
175.526964593748
 20
74.61237419807146
 30
0.0
  0
LINE
  5
22C
330
1F
100
AcDbEntity
  8
0
  6
Continuous
 62
     7
370
    25
100
AcDbLine
 10
175.1030515503
 20
73.7623741981
 30
0.0
 11
175.1030515503
 21
74.3623741981
 31
0.0
  0
LINE
  5
22D
330
1F
100
AcDbEntity
  8
0
  6
Continuous
 62
     7
370
    25
100
AcDbLine
 10
175.2769645937
 20
73.7623741981
 30
0.0
 11
175.1030515503
 21
73.7623741981
 31
0.0
  0
LINE
  5
22E
330
1F
100
AcDbEntity
  8
0
  6
Continuous
 62
     7
370
    25
100
AcDbLine
 10
178.4508776372
 20
74.3623741981
 30
0.0
 11
178.4508776372
 21
73.7623741981
 31
0.0
  0
LINE
  5
22F
330
1F
100
AcDbEntity
  8
0
  6
Continuous
 62
     7
370
    25
100
AcDbLine
 10
178.4508776372
 20
73.7623741981
 30
0.0
 11
178.2769645937
 21
73.7623741981
 31
0.0
  0
LINE
  5
230
330
1F
100
AcDbEntity
  8
0
  6
Continuous
 62
     7
370
    25
100
AcDbLine
 10
178.0269645937
 20
74.6123741981
 30
0.0
 11
182.0269645937
 21
74.6123741981
 31
0.0
  0
LINE
  5
231
330
1F
100
AcDbEntity
  8
0
  6
Continuous
 62
     7
370
    25
100
AcDbLine
 10
171.5269645937
 20
74.6123741981
 30
0.0
 11
175.5269645937
 21
74.6123741981
 31
0.0
  0
LINE
  5
232
330
1F
100
AcDbEntity
  8
0
  6
Continuous
 62
     7
370
    25
100
AcDbLine
 10
171.2769645937
 20
73.7623741981
 30
0.0
 11
175.1030515503
 21
73.7623741981
 31
0.0
  0
LINE
  5
233
330
1F
100
AcDbEntity
  8
0
  6
Continuous
 62
     7
370
    25
100
AcDbLine
 10
178.4508776372
 20
73.7623741981
 30
0.0
 11
182.2769645937
 21
73.7623741981
 31
0.0
  0
LINE
  5
234
330
1F
100
AcDbEntity
  8
0
  6
Continuous
 62
     7
370
    25
100
AcDbLine
 10
176.1769645937
 20
74.6223741981
 30
0.0
 11
177.3769645937
 21
74.6223741981
 31
0.0
  0
LINE
  5
235
330
1F
100
AcDbEntity
  8
0
  6
Continuous
 62
     7
370
    25
100
AcDbLine
 10
176.1769645937
 20
74.6123741981
 30
0.0
 11
176.1769645937
 21
74.6223741981
 31
0.0
  0
LINE
  5
236
330
1F
100
AcDbEntity
  8
0
  6
Continuous
 62
     7
370
    25
100
AcDbLine
 10
177.3769645937
 20
74.6123741981
 30
0.0
 11
177.3769645937
 21
74.6223741981
 31
0.0
  0
LINE
  5
237
330
1F
100
AcDbEntity
  8
0
  6
Continuous
 62
     7
370
    25
100
AcDbLine
 10
169.3269645937
 20
65.7623741981
 30
0.0
 11
184.2269645938
 21
65.7623741981
 31
0.0
  0
LINE
  5
238
330
1F
100
AcDbEntity
  8
0
  6
Continuous
 62
     7
370
    25
100
AcDbLine
 10
169.7769645937
 20
57.7623741981
 30
0.0
 11
183.7769645937
 21
57.7623741981
 31
0.0
  0
LINE
  5
239
330
1F
100
AcDbEntity
  8
0
  6
Continuous
 62
     7
370
    25
100
AcDbLine
 10
173.2769645937
 20
75.7623741981
 30
0.0
 11
173.2769645937
 21
74.6123741981
 31
0.0
  0
LINE
  5
23A
330
1F
100
AcDbEntity
  8
0
  6
Continuous
 62
     7
370
    25
100
AcDbLine
 10
173.2769645937
 20
75.7623741981
 30
0.0
 11
173.5052653297
 21
75.7623741981
 31
0.0
  0
LINE
  5
23B
330
1F
100
AcDbEntity
  8
0
  6
Continuous
 62
     7
370
    25
100
AcDbLine
 10
173.5052653297
 20
75.7623741981
 30
0.0
 11
173.5052653297
 21
74.6123741981
 31
0.0
  0
LINE
  5
23C
330
1F
100
AcDbEntity
  8
0
  6
Continuous
 62
     7
370
    25
100
AcDbLine
 10
180.0486638578
 20
75.7623741981
 30
0.0
 11
180.0486638578
 21
74.6123741981
 31
0.0
  0
LINE
  5
23D
330
1F
100
AcDbEntity
  8
0
  6
Continuous
 62
     7
370
    25
100
AcDbLine
 10
180.0486638578
 20
75.7623741981
 30
0.0
 11
180.2769645937
 21
75.7623741981
 31
0.0
  0
LINE
  5
23E
330
1F
100
AcDbEntity
  8
0
  6
Continuous
 62
     7
370
    25
100
AcDbLine
 10
180.2769645937
 20
74.6123741981
 30
0.0
 11
180.2769645937
 21
75.7623741981
 31
0.0
  0
LINE
  5
23F
330
1F
100
AcDbEntity
  8
0
  6
Continuous
 62
     7
370
    25
100
AcDbLine
 10
173.5052653297
 20
75.7623741981
 30
0.0
 11
180.0486638578
 21
75.7623741981
 31
0.0
  0
CIRCLE
  5
240
330
1F
100
AcDbEntity
  8
0
  6
Continuous
 62
     7
370
    25
100
AcDbCircle
 10
176.7769645937
 20
47.2623741981
 30
0.0
 40
8.25
  0
SPLINE
  5
241
330
1F
100
AcDbEntity
  8
0
  6
Continuous
 62
     7
370
    25
100
AcDbSpline
210
0.0
220
0.0
230
1.0
 70
     8
 71
     3
 72
    10
 73
     6
 74
     0
 42
0.00000001
 43
0.00000001
 40
0.0
 40
0.0
 40
0.0
 40
0.0
 40
0.5
 40
0.5
 40
1.0
 40
1.0
 40
1.0
 40
1.0
 10
168.276964593748
 20
42.64357204455445
 30
0.0
 10
168.276964593748
 20
42.55768498275199
 30
0.0
 10
168.2997570430778
 20
42.47027777377185
 30
0.0
 10
168.3876997471709
 20
42.31764133117812
 30
0.0
 10
168.4525575208447
 20
42.25351828623253
 30
0.0
 10
168.526964593748
 20
42.21055934266223
 30
0.0
  0
SPLINE
  5
242
330
1F
100
AcDbEntity
  8
0
  6
Continuous
 62
     7
370
    25
100
AcDbSpline
210
0.0
220
0.0
230
1.0
 70
    24
 71
     3
 72
    14
 73
    10
 74
     0
 42
0.00000001
 43
0.00000001
 40
0.0
 40
0.0
 40
0.0
 40
0.0
 40
0.25
 40
0.25
 40
0.5
 40
0.5
 40
0.75
 40
0.75
 40
1.0
 40
1.0
 40
1.0
 40
1.0
 10
168.276964593748
 20
42.6435720445544
 30
0.0
 10
168.276964593748
 20
43.39795210520438
 30
0.0
 10
168.276964593748
 20
44.16739327266988
 30
0.0
 10
168.276964593748
 20
45.70790463361104
 30
0.0
 10
168.276964593748
 20
46.48275901361806
 30
0.0
 10
168.276964593748
 20
48.04311996850362
 30
0.0
 10
168.276964593748
 20
48.83357616128865
 30
0.0
 10
168.276964593748
 20
50.37585582409712
 30
0.0
 10
168.276964593748
 20
51.13324657729831
 30
0.0
 10
168.276964593748
 20
51.88117635158846
 30
0.0
  0
SPLINE
  5
243
330
1F
100
AcDbEntity
  8
0
  6
Continuous
 62
     7
370
    25
100
AcDbSpline
210
0.0
220
0.0
230
1.0
 70
     8
 71
     3
 72
    10
 73
     6
 74
     0
 42
0.00000001
 43
0.00000001
 40
0.0
 40
0.0
 40
0.0
 40
0.0
 40
0.5
 40
0.5
 40
1.0
 40
1.0
 40
1.0
 40
1.0
 10
168.526964593748
 20
52.31418905348068
 30
0.0
 10
168.4525842163707
 20
52.27124552257946
 30
0.0
 10
168.3882835775849
 20
52.20780307795533
 30
0.0
 10
168.300067892802
 20
52.05532424083636
 30
0.0
 10
168.276964593748
 20
51.96709423872909
 30
0.0
 10
168.276964593748
 20
51.88117635158846
 30
0.0
  0
SPLINE
  5
244
330
1F
100
AcDbEntity
  8
0
  6
Continuous
 62
     7
370
    25
100
AcDbSpline
210
0.0
220
0.0
230
1.0
 70
    24
 71
     3
 72
    16
 73
    12
 74
     0
 42
0.00000001
 43
0.00000001
 40
0.0
 40
0.0
 40
0.0
 40
0.0
 40
0.2500000000000001
 40
0.2500000000000001
 40
0.5000000000000001
 40
0.5000000000000001
 40
0.6250000000000001
 40
0.6250000000000001
 40
0.7500000000000002
 40
0.7500000000000002
 40
1.0
 40
1.0
 40
1.0
 40
1.0
 10
176.526964593748
 20
56.93299120699769
 30
0.0
 10
175.8734478137072
 20
56.55568311812119
 30
0.0
 10
175.2152274046173
 20
56.17565938774699
 30
0.0
 10
173.8856648212515
 20
55.40803607233629
 30
0.0
 10
173.2142408391809
 20
55.02038925554749
 30
0.0
 10
172.1952397521742
 20
54.43206870365965
 30
0.0
 10
171.853898969858
 20
54.23499551110401
 30
0.0
 10
171.1783004668875
 20
53.8449385335499
 30
0.0
 10
170.8426413169229
 20
53.65114563296187
 30
0.0
 10
169.8413756804232
 20
53.07306464819844
 30
0.0
 10
169.1814680218201
 20
52.69206678386362
 30
0.0
 10
168.526964593748
 20
52.31418905348069
 30
0.0
  0
SPLINE
  5
245
330
1F
100
AcDbEntity
  8
0
  6
Continuous
 62
     7
370
    25
100
AcDbSpline
210
0.0
220
0.0
230
1.0
 70
     8
 71
     3
 72
    10
 73
     6
 74
     0
 42
0.00000001
 43
0.00000001
 40
0.0
 40
0.0
 40
0.0
 40
0.0
 40
0.5
 40
0.5
 40
1.0
 40
1.0
 40
1.0
 40
1.0
 10
177.026964593748
 20
56.93299120699769
 30
0.0
 10
176.9525842163707
 20
56.97593473789892
 30
0.0
 10
176.8654911282551
 20
56.99989950225491
 30
0.0
 10
176.6893327393791
 20
57.00005710772968
 30
0.0
 10
176.6013716666513
 20
56.975950150568
 30
0.0
 10
176.526964593748
 20
56.93299120699769
 30
0.0
  0
SPLINE
  5
246
330
1F
100
AcDbEntity
  8
0
  6
Continuous
 62
     7
370
    25
100
AcDbSpline
210
0.0
220
0.0
230
1.0
 70
    24
 71
     3
 72
    16
 73
    12
 74
     0
 42
0.00000001
 43
0.00000001
 40
0.0
 40
0.0
 40
0.0
 40
0.0
 40
0.2499999999999997
 40
0.2499999999999997
 40
0.4999999999999993
 40
0.4999999999999993
 40
0.6249999999999993
 40
0.6249999999999993
 40
0.7499999999999996
 40
0.7499999999999996
 40
1.0
 40
1.0
 40
1.0
 40
1.0
 10
185.026964593748
 20
52.31418905348068
 30
0.0
 10
184.3734478137072
 20
52.69149714235719
 30
0.0
 10
183.7152274046173
 20
53.07152087273138
 30
0.0
 10
182.3856648212515
 20
53.83914418814208
 30
0.0
 10
181.7142408391809
 20
54.22679100493088
 30
0.0
 10
180.6952397521742
 20
54.81511155681873
 30
0.0
 10
180.353898969858
 20
55.01218474937438
 30
0.0
 10
179.6783004668876
 20
55.40224172692847
 30
0.0
 10
179.3426413169229
 20
55.59603462751652
 30
0.0
 10
178.3413756804233
 20
56.17411561227994
 30
0.0
 10
177.6814680218201
 20
56.55511347661476
 30
0.0
 10
177.026964593748
 20
56.93299120699769
 30
0.0
  0
SPLINE
  5
247
330
1F
100
AcDbEntity
  8
0
  6
Continuous
 62
     7
370
    25
100
AcDbSpline
210
0.0
220
0.0
230
1.0
 70
     8
 71
     3
 72
    10
 73
     6
 74
     0
 42
0.00000001
 43
0.00000001
 40
0.0
 40
0.0
 40
0.0
 40
0.0
 40
0.5
 40
0.5
 40
1.0
 40
1.0
 40
1.0
 40
1.0
 10
185.276964593748
 20
51.88117635158846
 30
0.0
 10
185.276964593748
 20
51.96706341339092
 30
0.0
 10
185.2541721444182
 20
52.05447062237103
 30
0.0
 10
185.1662294403252
 20
52.20710706496478
 30
0.0
 10
185.1013716666513
 20
52.27123010991038
 30
0.0
 10
185.026964593748
 20
52.31418905348068
 30
0.0
  0
SPLINE
  5
248
330
1F
100
AcDbEntity
  8
0
  6
Continuous
 62
     7
370
    25
100
AcDbSpline
210
0.0
220
0.0
230
1.0
 70
    24
 71
     3
 72
    14
 73
    10
 74
     0
 42
0.00000001
 43
0.00000001
 40
0.0
 40
0.0
 40
0.0
 40
0.0
 40
0.25
 40
0.25
 40
0.5
 40
0.5
 40
0.75
 40
0.75
 40
1.0
 40
1.0
 40
1.0
 40
1.0
 10
185.276964593748
 20
42.64357204455439
 30
0.0
 10
185.276964593748
 20
43.39795210520438
 30
0.0
 10
185.276964593748
 20
44.16739327266987
 30
0.0
 10
185.276964593748
 20
45.70790463361104
 30
0.0
 10
185.276964593748
 20
46.48275901361806
 30
0.0
 10
185.276964593748
 20
48.04311996850362
 30
0.0
 10
185.276964593748
 20
48.83357616128865
 30
0.0
 10
185.276964593748
 20
50.37585582409712
 30
0.0
 10
185.276964593748
 20
51.1332465772983
 30
0.0
 10
185.276964593748
 20
51.88117635158846
 30
0.0
  0
SPLINE
  5
249
330
1F
100
AcDbEntity
  8
0
  6
Continuous
 62
     7
370
    25
100
AcDbSpline
210
0.0
220
0.0
230
1.0
 70
     8
 71
     3
 72
    10
 73
     6
 74
     0
 42
0.00000001
 43
0.00000001
 40
0.0
 40
0.0
 40
0.0
 40
0.0
 40
0.5
 40
0.5
 40
1.0
 40
1.0
 40
1.0
 40
1.0
 10
185.026964593748
 20
42.21055934266223
 30
0.0
 10
185.1013449711252
 20
42.25350287356336
 30
0.0
 10
185.1656456099107
 20
42.31694531818703
 30
0.0
 10
185.253861294694
 20
42.46942415530616
 30
0.0
 10
185.276964593748
 20
42.55765415741364
 30
0.0
 10
185.276964593748
 20
42.64357204455442
 30
0.0
  0
SPLINE
  5
24A
330
1F
100
AcDbEntity
  8
0
  6
Continuous
 62
     7
370
    25
100
AcDbSpline
210
0.0
220
0.0
230
1.0
 70
    24
 71
     3
 72
    16
 73
    12
 74
     0
 42
0.00000001
 43
0.00000001
 40
0.0
 40
0.0
 40
0.0
 40
0.0
 40
0.2500000000000002
 40
0.2500000000000002
 40
0.5000000000000004
 40
0.5000000000000004
 40
0.6250000000000003
 40
0.6250000000000003
 40
0.7500000000000002
 40
0.7500000000000002
 40
1.0
 40
1.0
 40
1.0
 40
1.0
 10
177.026964593748
 20
37.59175718914523
 30
0.0
 10
177.6804813737888
 20
37.9690652780217
 30
0.0
 10
178.3387017828787
 20
38.34908900839586
 30
0.0
 10
179.6682643662444
 20
39.1167123238065
 30
0.0
 10
180.3396883483149
 20
39.50435914059527
 30
0.0
 10
181.3586894353215
 20
40.09267969248306
 30
0.0
 10
181.7000302176377
 20
40.28975288503869
 30
0.0
 10
182.3756287206081
 20
40.67980986259277
 30
0.0
 10
182.7112878705727
 20
40.87360276318079
 30
0.0
 10
183.7125535070723
 20
41.45168374794418
 30
0.0
 10
184.3724611656754
 20
41.83268161227898
 30
0.0
 10
185.0269645937474
 20
42.21055934266188
 30
0.0
  0
SPLINE
  5
24B
330
1F
100
AcDbEntity
  8
0
  6
Continuous
 62
     7
370
    25
100
AcDbSpline
210
0.0
220
0.0
230
1.0
 70
     8
 71
     3
 72
    10
 73
     6
 74
     0
 42
0.00000001
 43
0.00000001
 40
0.0
 40
0.0
 40
0.0
 40
0.0
 40
0.5
 40
0.5
 40
1.0
 40
1.0
 40
1.0
 40
1.0
 10
176.526964593748
 20
37.59175718914523
 30
0.0
 10
176.6013449711254
 20
37.54881365824399
 30
0.0
 10
176.6884380592409
 20
37.52484889388801
 30
0.0
 10
176.8645964481169
 20
37.52469128841322
 30
0.0
 10
176.9525575208448
 20
37.54879824557491
 30
0.0
 10
177.026964593748
 20
37.59175718914522
 30
0.0
  0
SPLINE
  5
24C
330
1F
100
AcDbEntity
  8
0
  6
Continuous
 62
     7
370
    25
100
AcDbSpline
210
0.0
220
0.0
230
1.0
 70
    24
 71
     3
 72
    16
 73
    12
 74
     0
 42
0.00000001
 43
0.00000001
 40
0.0
 40
0.0
 40
0.0
 40
0.0
 40
0.2500000000000001
 40
0.2500000000000001
 40
0.5000000000000002
 40
0.5000000000000002
 40
0.6250000000000001
 40
0.6250000000000001
 40
0.7500000000000001
 40
0.7500000000000001
 40
1.0
 40
1.0
 40
1.0
 40
1.0
 10
168.526964593748
 20
42.21055934266223
 30
0.0
 10
169.1804813737888
 20
41.83325125378573
 30
0.0
 10
169.8387017828788
 20
41.45322752341153
 30
0.0
 10
171.1682643662446
 20
40.68560420800084
 30
0.0
 10
171.8396883483151
 20
40.29795739121204
 30
0.0
 10
172.8586894353219
 20
39.70963683932418
 30
0.0
 10
173.200030217638
 20
39.51256364676854
 30
0.0
 10
173.8756287206085
 20
39.12250666921445
 30
0.0
 10
174.2112878705731
 20
38.9287137686264
 30
0.0
 10
175.2125535070728
 20
38.35063278386298
 30
0.0
 10
175.872461165676
 20
37.96963491952815
 30
0.0
 10
176.526964593748
 20
37.59175718914523
 30
0.0
  0
LINE
  5
24D
330
1F
100
AcDbEntity
  8
0
  6
Continuous
 62
     7
370
    25
100
AcDbLine
 10
185.0269645937
 20
35.2623741981
 30
0.0
 11
168.5269645937
 21
35.2623741981
 31
0.0
  0
SPLINE
  5
24E
330
1F
100
AcDbEntity
  8
0
  6
Continuous
 62
     7
370
    25
100
AcDbSpline
210
0.0
220
0.0
230
1.0
 70
     8
 71
     3
 72
    10
 73
     6
 74
     0
 42
0.00000001
 43
0.00000001
 40
0.0
 40
0.0
 40
0.0
 40
0.0
 40
0.5
 40
0.5
 40
1.0
 40
1.0
 40
1.0
 40
1.0
 10
168.276964593748
 20
36.08443317062905
 30
0.0
 10
168.276964593748
 20
36.108107071185
 30
0.0
 10
168.2997551653955
 20
36.12119962836415
 30
0.0
 10
168.3877011626943
 20
36.12128604234642
 30
0.0
 10
168.4525619554271
 20
36.1081156507478
 30
0.0
 10
168.526964593748
 20
36.08443317062905
 30
0.0
  0
SPLINE
  5
24F
330
1F
100
AcDbEntity
  8
0
  6
Continuous
 62
     7
370
    25
100
AcDbSpline
210
0.0
220
0.0
230
1.0
 70
     8
 71
     3
 72
    16
 73
    12
 74
     0
 42
0.00000001
 43
0.00000001
 40
0.0
 40
0.0
 40
0.0
 40
0.0
 40
0.2500000000000001
 40
0.2500000000000001
 40
0.5000000000000001
 40
0.5000000000000001
 40
0.6250000000000001
 40
0.6250000000000001
 40
0.7500000000000002
 40
0.7500000000000002
 40
1.0
 40
1.0
 40
1.0
 40
1.0
 10
176.5269645937481
 20
36.08443317062859
 30
0.0
 10
175.8727429403085
 20
35.87619336017993
 30
0.0
 10
175.2142904047974
 20
35.7060200737705
 30
0.0
 10
173.8856457798142
 20
35.47129781415465
 30
0.0
 10
173.2153813355266
 20
35.40739983908017
 30
0.0
 10
172.199445591965
 20
35.40637613699368
 30
0.0
 10
171.8580944738652
 20
35.42186268413838
 30
0.0
 10
171.1816781624008
 20
35.48298640559637
 30
0.0
 10
170.8456053933599
 20
35.52850813289139
 30
0.0
 10
169.8430873322989
 20
35.70500749663655
 30
0.0
 10
169.1823294622073
 20
35.87582947299038
 30
0.0
 10
168.526964593748
 20
36.08443317062891
 30
0.0
  0
SPLINE
  5
250
330
1F
100
AcDbEntity
  8
0
  6
Continuous
 62
     7
370
    25
100
AcDbSpline
210
0.0
220
0.0
230
1.0
 70
     8
 71
     3
 72
    10
 73
     6
 74
     0
 42
0.00000001
 43
0.00000001
 40
0.0
 40
0.0
 40
0.0
 40
0.0
 40
0.5
 40
0.5
 40
1.0
 40
1.0
 40
1.0
 40
1.0
 10
176.526964593748
 20
36.08443317062905
 30
0.0
 10
176.6013393477381
 20
36.10810677512017
 30
0.0
 10
176.688433079304
 20
36.1211995509134
 30
0.0
 10
176.8645989078485
 20
36.12128611901435
 30
0.0
 10
176.9525599317388
 20
36.10811629489107
 30
0.0
 10
177.026964593748
 20
36.08443317062905
 30
0.0
  0
SPLINE
  5
251
330
1F
100
AcDbEntity
  8
0
  6
Continuous
 62
     7
370
    25
100
AcDbSpline
210
0.0
220
0.0
230
1.0
 70
     8
 71
     3
 72
    16
 73
    12
 74
     0
 42
0.00000001
 43
0.00000001
 40
0.0
 40
0.0
 40
0.0
 40
0.0
 40
0.2500000000000001
 40
0.2500000000000001
 40
0.5000000000000002
 40
0.5000000000000002
 40
0.6250000000000001
 40
0.6250000000000001
 40
0.75
 40
0.75
 40
1.0
 40
1.0
 40
1.0
 40
1.0
 10
185.0269645937481
 20
36.08443317062859
 30
0.0
 10
184.3727429403086
 20
35.87619336017994
 30
0.0
 10
183.7142904047974
 20
35.7060200737705
 30
0.0
 10
182.3856457798142
 20
35.47129781415465
 30
0.0
 10
181.7153813355266
 20
35.40739983908017
 30
0.0
 10
180.699445591965
 20
35.40637613699368
 30
0.0
 10
180.3580944738652
 20
35.42186268413838
 30
0.0
 10
179.6816781624008
 20
35.48298640559636
 30
0.0
 10
179.3456053933599
 20
35.52850813289139
 30
0.0
 10
178.3430873322989
 20
35.70500749663655
 30
0.0
 10
177.6823294622073
 20
35.87582947299038
 30
0.0
 10
177.026964593748
 20
36.08443317062891
 30
0.0
  0
SPLINE
  5
252
330
1F
100
AcDbEntity
  8
0
  6
Continuous
 62
     7
370
    25
100
AcDbSpline
210
0.0
220
0.0
230
1.0
 70
     8
 71
     3
 72
    10
 73
     6
 74
     0
 42
0.00000001
 43
0.00000001
 40
0.0
 40
0.0
 40
0.0
 40
0.0
 40
0.5
 40
0.5
 40
1.0
 40
1.0
 40
1.0
 40
1.0
 10
185.026964593748
 20
36.08443317062905
 30
0.0
 10
185.1013350606736
 20
36.10810541054061
 30
0.0
 10
185.1656406569614
 20
36.12119940047587
 30
0.0
 10
185.2538634447673
 20
36.12128626793731
 30
0.0
 10
185.276964593748
 20
36.10811647817795
 30
0.0
 10
185.276964593748
 20
36.08443317062905
 30
0.0
  0
SPLINE
  5
253
330
1F
100
AcDbEntity
  8
0
  6
Continuous
 62
     7
370
    25
100
AcDbSpline
210
0.0
220
0.0
230
1.0
 70
    24
 71
     3
 72
    12
 73
     8
 74
     0
 42
0.00000001
 43
0.00000001
 40
0.0
 40
0.0
 40
0.0
 40
0.0
 40
0.2327579625505698
 40
0.4654780883560543
 40
0.7016677579640516
 40
0.9378259597212679
 40
1.0
 40
1.0
 40
1.0
 40
1.0
 10
168.276964593748
 20
36.08443317062905
 30
0.0
 10
168.276964593748
 20
35.99255844295686
 30
0.0
 10
168.276964593748
 20
35.80882392261456
 30
0.0
 10
168.276964593748
 20
35.60016721162912
 30
0.0
 10
168.276964593748
 20
35.46412051146419
 30
0.0
 10
168.276964593748
 20
35.39938041211362
 30
0.0
 10
168.276964593748
 20
35.41317427147235
 30
0.0
 10
168.276964593748
 20
35.41604898578923
 30
0.0
  0
SPLINE
  5
254
330
1F
100
AcDbEntity
  8
0
  6
Continuous
 62
     7
370
    25
100
AcDbSpline
210
0.0
220
0.0
230
1.0
 70
    24
 71
     3
 72
    12
 73
     8
 74
     0
 42
0.00000001
 43
0.00000001
 40
0.0
 40
0.0
 40
0.0
 40
0.0
 40
0.0621715493461531
 40
0.2946426170269179
 40
0.5271430029577943
 40
0.7635513158523072
 40
1.0
 40
1.0
 40
1.0
 40
1.0
 10
185.276964593748
 20
35.41631273907145
 30
0.0
 10
185.276964593748
 20
35.41333515159288
 30
0.0
 10
185.276964593748
 20
35.3992238068325
 30
0.0
 10
185.276964593748
 20
35.4629157432836
 30
0.0
 10
185.276964593748
 20
35.59639243270043
 30
0.0
 10
185.276964593748
 20
35.80468495954272
 30
0.0
 10
185.276964593748
 20
35.99117845949651
 30
0.0
 10
185.276964593748
 20
36.08443317062905
 30
0.0
  0
LINE
  5
255
330
1F
100
AcDbEntity
  8
0
  6
Continuous
 62
     7
370
    25
100
AcDbLine
 10
177.0269645937
 20
37.5917571891
 30
0.0
 11
177.0269645937
 21
36.0844331706
 31
0.0
  0
LINE
  5
256
330
1F
100
AcDbEntity
  8
0
  6
Continuous
 62
     7
370
    25
100
AcDbLine
 10
176.5269645937
 20
36.0844331706
 30
0.0
 11
176.5269645937
 21
37.5917571891
 31
0.0
  0
LINE
  5
257
330
1F
100
AcDbEntity
  8
0
  6
Continuous
 62
     7
370
    25
100
AcDbLine
 10
168.5269645937
 20
39.2959776582
 30
0.0
 11
168.5269645937
 21
36.0844331706
 31
0.0
  0
SPLINE
  5
258
330
1F
100
AcDbEntity
  8
0
  6
Continuous
 62
     7
370
    25
100
AcDbSpline
210
0.0
220
0.0
230
1.0
 70
     8
 71
     3
 72
    10
 73
     6
 74
     0
 42
0.00000001
 43
0.00000001
 40
0.0
 40
0.0
 40
0.0
 40
0.0
 40
0.5
 40
0.5
 40
1.0
 40
1.0
 40
1.0
 40
1.0
 10
168.5269645937485
 20
39.2959776582166
 30
0.0
 10
169.1617922995622
 20
39.49804434376752
 30
0.0
 10
169.8010580021379
 20
39.66443711603817
 30
0.0
 10
171.0918729337278
 20
39.89848408990823
 30
0.0
 10
171.7434925691977
 20
39.96557234386706
 30
0.0
 10
172.4025345010178
 20
39.97299801343684
 30
0.0
  0
SPLINE
  5
259
330
1F
100
AcDbEntity
  8
0
  6
Continuous
 62
     7
370
    25
100
AcDbSpline
210
0.0
220
0.0
230
1.0
 70
     8
 71
     3
 72
    12
 73
     8
 74
     0
 42
0.00000001
 43
0.00000001
 40
0.0
 40
0.0
 40
0.0
 40
0.0
 40
0.2499999999999999
 40
0.2499999999999999
 40
0.4999999999999998
 40
0.4999999999999998
 40
1.0
 40
1.0
 40
1.0
 40
1.0
 10
181.1513946865004
 20
39.97299801343659
 30
0.0
 10
181.4805296768936
 20
39.96928952758017
 30
0.0
 10
181.8099918298303
 20
39.95070702474248
 30
0.0
 10
182.462865447888
 20
39.88583998777634
 30
0.0
 10
182.787318039765
 20
39.83957443452607
 30
0.0
 10
183.7553784809571
 20
39.66384990421911
 30
0.0
 10
184.3937009652051
 20
39.49754649544235
 30
0.0
 10
185.026964593748
 20
39.29597765821645
 30
0.0
  0
LINE
  5
25A
330
1F
100
AcDbEntity
  8
0
  6
Continuous
 62
     7
370
    25
100
AcDbLine
 10
185.0269645937
 20
36.0844331706
 30
0.0
 11
185.0269645937
 21
39.2959776582
 31
0.0
  0
SPLINE
  5
25B
330
1F
100
AcDbEntity
  8
0
  6
Continuous
 62
     7
370
    25
100
AcDbSpline
210
0.0
220
0.0
230
1.0
 70
     8
 71
     3
 72
     8
 73
     4
 74
     0
 42
0.00000001
 43
0.00000001
 40
0.0
 40
0.0
 40
0.0
 40
0.0
 40
1.0
 40
1.0
 40
1.0
 40
1.0
 10
168.276964593748
 20
39.45746298649748
 30
0.0
 10
168.7987707450498
 20
39.73005312216682
 30
0.0
 10
169.322424213906
 20
39.99920562328822
 30
0.0
 10
169.8487613634725
 20
40.26237419807145
 30
0.0
  0
SPLINE
  5
25C
330
1F
100
AcDbEntity
  8
0
  6
Continuous
 62
     7
370
    25
100
AcDbSpline
210
0.0
220
0.0
230
1.0
 70
     8
 71
     3
 72
    10
 73
     6
 74
     0
 42
0.00000001
 43
0.00000001
 40
0.0
 40
0.0
 40
0.0
 40
0.0
 40
0.5
 40
0.5
 40
1.0
 40
1.0
 40
1.0
 40
1.0
 10
168.276964593748
 20
39.29597765821644
 30
0.0
 10
168.276964593748
 20
39.27230226379203
 30
0.0
 10
168.2997570430779
 20
39.25921115390739
 30
0.0
 10
168.3876997471711
 20
39.25912483261917
 30
0.0
 10
168.4525575208453
 20
39.27229376656312
 30
0.0
 10
168.5269645937487
 20
39.29597765821666
 30
0.0
  0
SPLINE
  5
25D
330
1F
100
AcDbEntity
  8
0
  6
Continuous
 62
     7
370
    25
100
AcDbSpline
210
0.0
220
0.0
230
1.0
 70
    24
 71
     3
 72
     8
 73
     4
 74
     0
 42
0.00000001
 43
0.00000001
 40
0.0
 40
0.0
 40
0.0
 40
0.0
 40
1.0
 40
1.0
 40
1.0
 40
1.0
 10
168.276964593748
 20
39.45746298649748
 30
0.0
 10
168.276964593748
 20
39.40656819679665
 30
0.0
 10
168.276964593748
 20
39.35263434743521
 30
0.0
 10
168.276964593748
 20
39.29597765821645
 30
0.0
  0
SPLINE
  5
25E
330
1F
100
AcDbEntity
  8
0
  6
Continuous
 62
     7
370
    25
100
AcDbSpline
210
0.0
220
0.0
230
1.0
 70
     8
 71
     3
 72
     8
 73
     4
 74
     0
 42
0.00000001
 43
0.00000001
 40
0.0
 40
0.0
 40
0.0
 40
0.0
 40
1.0
 40
1.0
 40
1.0
 40
1.0
 10
183.7051678240235
 20
40.26237419807145
 30
0.0
 10
184.2315886852328
 20
39.99916376746685
 30
0.0
 10
184.7551331419464
 20
39.73006633908015
 30
0.0
 10
185.276964593748
 20
39.45746298649749
 30
0.0
  0
SPLINE
  5
25F
330
1F
100
AcDbEntity
  8
0
  6
Continuous
 62
     7
370
    25
100
AcDbSpline
210
0.0
220
0.0
230
1.0
 70
     8
 71
     3
 72
    10
 73
     6
 74
     0
 42
0.00000001
 43
0.00000001
 40
0.0
 40
0.0
 40
0.0
 40
0.0
 40
0.5
 40
0.5
 40
1.0
 40
1.0
 40
1.0
 40
1.0
 10
185.026964593748
 20
39.29597765821645
 30
0.0
 10
185.1013449711254
 20
39.27230226379206
 30
0.0
 10
185.1656456099111
 20
39.25921115390742
 30
0.0
 10
185.2538612946941
 20
39.25912483261914
 30
0.0
 10
185.276964593748
 20
39.27229376656298
 30
0.0
 10
185.276964593748
 20
39.29597765821645
 30
0.0
  0
SPLINE
  5
260
330
1F
100
AcDbEntity
  8
0
  6
Continuous
 62
     7
370
    25
100
AcDbSpline
210
0.0
220
0.0
230
1.0
 70
    24
 71
     3
 72
     8
 73
     4
 74
     0
 42
0.00000001
 43
0.00000001
 40
0.0
 40
0.0
 40
0.0
 40
0.0
 40
1.0
 40
1.0
 40
1.0
 40
1.0
 10
185.276964593748
 20
39.45746298649748
 30
0.0
 10
185.276964593748
 20
39.40656819679665
 30
0.0
 10
185.276964593748
 20
39.35263434743521
 30
0.0
 10
185.276964593748
 20
39.29597765821645
 30
0.0
  0
LINE
  5
261
330
1F
100
AcDbEntity
  8
0
  6
Continuous
 62
     7
370
    25
100
AcDbLine
 10
169.2769645937
 20
40.2623741981
 30
0.0
 11
171.9013202467
 21
40.2623741981
 31
0.0
  0
LINE
  5
262
330
1F
100
AcDbEntity
  8
0
  6
Continuous
 62
     7
370
    25
100
AcDbLine
 10
169.2769645937
 20
40.2623741981
 30
0.0
 11
169.2769645937
 21
41.7775466408
 31
0.0
  0
LINE
  5
263
330
1F
100
AcDbEntity
  8
0
  6
Continuous
 62
     7
370
    25
100
AcDbLine
 10
181.6526089408
 20
40.2623741981
 30
0.0
 11
184.2769645937
 21
40.2623741981
 31
0.0
  0
LINE
  5
264
330
1F
100
AcDbEntity
  8
0
  6
Continuous
 62
     7
370
    25
100
AcDbLine
 10
184.2769645937
 20
41.7775466408
 30
0.0
 11
184.2769645937
 21
40.2623741981
 31
0.0
  0
LINE
  5
265
330
1F
100
AcDbEntity
  8
0
  6
Continuous
 62
     7
370
    25
100
AcDbLine
 10
176.7769645937
 20
25.1173222575
 30
0.0
 11
171.9946849669
 21
25.1173222575
 31
0.0
  0
LINE
  5
266
330
1F
100
AcDbEntity
  8
0
  6
Continuous
 62
     7
370
    25
100
AcDbLine
 10
181.5592442206
 20
25.1173222575
 30
0.0
 11
176.7769645937
 21
25.1173222575
 31
0.0
  0
LINE
  5
267
330
1F
100
AcDbEntity
  8
0
  6
Continuous
 62
     7
370
    25
100
AcDbLine
 10
168.2769645937
 20
36.0844331706
 30
0.0
 11
168.2769645937
 21
39.2959776582
 31
0.0
  0
LINE
  5
268
330
1F
100
AcDbEntity
  8
0
  6
Continuous
 62
     7
370
    25
100
AcDbLine
 10
185.2769645937
 20
39.2959776582
 30
0.0
 11
185.2769645937
 21
36.0844331706
 31
0.0
  0
LINE
  5
269
330
1F
100
AcDbEntity
  8
0
  6
Continuous
 62
     7
370
    25
100
AcDbLine
 10
180.7769645937
 20
23.7623741981
 30
0.0
 11
172.7769645937
 21
23.7623741981
 31
0.0
  0
LINE
  5
26A
330
1F
100
AcDbEntity
  8
0
  6
Continuous
 62
     7
370
    25
100
AcDbLine
 10
168.2769645937
 20
39.4574629865
 30
0.0
 11
168.2769645937
 21
42.6173197587
 31
0.0
  0
LINE
  5
26B
330
1F
100
AcDbEntity
  8
0
  6
Continuous
 62
     7
370
    25
100
AcDbLine
 10
185.2769645937
 20
39.4574629865
 30
0.0
 11
185.2769645937
 21
42.6173197587
 31
0.0
  0
LINE
  5
26C
330
1F
100
AcDbEntity
  8
0
  6
Continuous
 62
     7
370
    25
100
AcDbLine
 10
182.2769645937
 20
74.3623741981
 30
0.0
 11
178.4508776372
 21
74.3623741981
 31
0.0
  0
LINE
  5
26D
330
1F
100
AcDbEntity
  8
0
  6
Continuous
 62
     7
370
    25
100
AcDbLine
 10
175.1030515503
 20
74.3623741981
 30
0.0
 11
171.2769645937
 21
74.3623741981
 31
0.0
  0
SPLINE
  5
26E
330
1F
100
AcDbEntity
  8
0
  6
Continuous
 62
     7
370
    25
100
AcDbSpline
210
0.0
220
0.0
230
1.0
 70
     8
 71
     3
 72
    19
 73
    15
 74
     0
 42
0.00000001
 43
0.00000001
 40
0.0
 40
0.0
 40
0.0
 40
0.0
 40
0.0167573826826194
 40
0.0954755060510614
 40
0.1742982743076084
 40
0.2799192683922351
 40
0.3857358996139616
 40
0.4988208750148552
 40
0.6118873352726639
 40
0.707068469458202
 40
0.8021754012707921
 40
0.8927539469857374
 40
0.9832578460441271
 40
1.0
 40
1.0
 40
1.0
 40
1.0
 10
170.8846046056788
 20
53.80177352255335
 30
0.0
 10
170.8820817840282
 20
53.79864222207944
 30
0.0
 10
170.8677079597664
 20
53.78080157816699
 30
0.0
 10
170.9311533447638
 20
53.85986462591912
 30
0.0
 10
171.0862565844626
 20
54.0443461822791
 30
0.0
 10
171.3745550638513
 20
54.36432630280969
 30
0.0
 10
171.8069887018355
 20
54.78877422064987
 30
0.0
 10
172.3614215375089
 20
55.25143889972762
 30
0.0
 10
173.0043170707284
 20
55.69191886817705
 30
0.0
 10
173.7037540005727
 20
56.06997980780797
 30
0.0
 10
174.4257543193969
 20
56.37320333626223
 30
0.0
 10
175.2034737089673
 20
56.59160245481254
 30
0.0
 10
175.7915221816604
 20
56.71300221450959
 30
0.0
 10
176.1211123601763
 20
56.72630204186083
 30
0.0
 10
176.1725645987991
 20
56.72837827451316
 30
0.0
  0
SPLINE
  5
26F
330
1F
100
AcDbEntity
  8
0
  6
Continuous
 62
     7
370
    25
100
AcDbSpline
210
0.0
220
0.0
230
1.0
 70
     8
 71
     3
 72
    20
 73
    16
 74
     0
 42
0.00000001
 43
0.00000001
 40
0.0
 40
0.0
 40
0.0
 40
0.0
 40
0.0313496571532458
 40
0.0973827920587142
 40
0.1973819577193631
 40
0.2974933726048342
 40
0.4180636397194386
 40
0.5387303357032754
 40
0.6171107651945357
 40
0.6956726178065843
 40
0.773937980113099
 40
0.8504615539000254
 40
0.9268844326762161
 40
0.9967412916389355
 40
1.0
 40
1.0
 40
1.0
 40
1.0
 10
177.3891618036891
 20
56.72387655033849
 30
0.0
 10
177.4850337149208
 20
56.71865651850537
 30
0.0
 10
177.7828447675301
 20
56.70244130849338
 30
0.0
 10
178.3657307137325
 20
56.58806844034593
 30
0.0
 10
179.1149716521163
 20
56.37879845417785
 30
0.0
 10
179.9354508722386
 20
56.03446582194057
 30
0.0
 10
180.7025327805015
 20
55.59891477867244
 30
0.0
 10
181.3095581866691
 20
55.15751458849165
 30
0.0
 10
181.7547899794432
 20
54.77513554568607
 30
0.0
 10
182.0765814303284
 20
54.46639965081295
 30
0.0
 10
182.3362795216651
 20
54.19240789229649
 30
0.0
 10
182.5313729713957
 20
53.9693541032626
 30
0.0
 10
182.6424491844271
 20
53.8349207105599
 30
0.0
 10
182.6864316689075
 20
53.78101784151607
 30
0.0
 10
182.6755070056429
 20
53.794350847027
 30
0.0
 10
182.6750201012418
 20
53.7949450895136
 30
0.0
  0
INSERT
  5
27B
330
1F
100
AcDbEntity
  8
FORMAT
100
AcDbBlockReference
  2
SW_CENTERMARKSYMBOL_1
 10
176.7769645937
 20
47.2623741981
 30
0.0
  0
ARC
  5
27C
330
1F
100
AcDbEntity
  8
FORMAT
100
AcDbCircle
 10
176.7769645937
 20
47.2623741981
 30
0.0
 40
7.000000000000005
100
AcDbArc
 50
75.0
 51
345.0
  0
LINE
  5
27D
330
1F
100
AcDbEntity
  8
FORMAT
100
AcDbLine
 10
172.5126586129
 20
24.2201655857
 30
0.0
 11
172.1832145937
 21
34.7623741981
 31
0.0
  0
LINE
  5
27E
330
1F
100
AcDbEntity
  8
FORMAT
100
AcDbLine
 10
181.0412705746
 20
24.2201655857
 30
0.0
 11
181.3707145937
 21
34.7623741981
 31
0.0
  0
LINE
  5
27F
330
1F
100
AcDbEntity
  8
FORMAT
100
AcDbLine
 10
181.8606520937
 20
34.7623741981
 30
0.0
 11
171.6932770937
 21
34.7623741981
 31
0.0
  0
ENDSEC
  0
SECTION
  2
OBJECTS
  0
DICTIONARY
  5
C
330
0
100
AcDbDictionary
281
     1
  3
ACAD_GROUP
350
D
  3
ACAD_LAYOUT
350
1A
  3
ACAD_MLINESTYLE
350
17
  3
ACAD_PLOTSETTINGS
350
19
  3
ACAD_PLOTSTYLENAME
350
E
  3
ACAD_SCALELIST
350
47
  3
DWGPROPS
350
280
  0
DICTIONARY
  5
D
102
{ACAD_REACTORS
330
C
102
}
330
C
100
AcDbDictionary
281
     1
  0
DICTIONARY
  5
1A
102
{ACAD_REACTORS
330
C
102
}
330
C
100
AcDbDictionary
281
     1
  3
Layout1
350
1E
  3
Layout2
350
26
  3
Model
350
22
  0
DICTIONARY
  5
17
102
{ACAD_REACTORS
330
C
102
}
330
C
100
AcDbDictionary
281
     1
  3
Standard
350
18
  0
DICTIONARY
  5
19
102
{ACAD_REACTORS
330
C
102
}
330
C
100
AcDbDictionary
281
     1
  0
ACDBDICTIONARYWDFLT
  5
E
102
{ACAD_REACTORS
330
C
102
}
330
C
100
AcDbDictionary
281
     1
  3
Normal
350
F
100
AcDbDictionaryWithDefault
340
F
  0
DICTIONARY
  5
47
102
{ACAD_REACTORS
330
C
102
}
330
C
100
AcDbDictionary
281
     1
  3
A0
350
48
  3
A1
350
49
  3
A2
350
4A
  3
A3
350
4B
  3
A4
350
4C
  3
A5
350
4D
  3
A6
350
4E
  3
A7
350
4F
  3
A8
350
50
  3
A9
350
51
  3
B0
350
52
  3
B1
350
53
  3
B2
350
54
  3
B3
350
55
  3
B4
350
56
  3
B5
350
57
  3
B6
350
58
  0
XRECORD
  5
280
102
{ACAD_REACTORS
330
C
102
}
330
C
100
AcDbXrecord
280
     1
  1
DWGPROPS COOKIE
  2

  3

  4

  6

  7

  8
user28
  9

300
=
301
=
302
=
303
=
304
=
305
=
306
=
307
=
308
=
309
=
 40
0.0
 41
2460333.007684271
 42
2460333.007685475
  1

 90
        0
  0
LAYOUT
  5
1E
102
{ACAD_REACTORS
330
1A
102
}
330
1A
100
AcDbPlotSettings
  1

  2
none_device
  4

  6

 40
0.0
 41
0.0
 42
0.0
 43
0.0
 44
0.0
 45
0.0
 46
0.0
 47
0.0
 48
0.0
 49
0.0
140
0.0
141
0.0
142
1.0
143
1.0
 70
   688
 72
     1
 73
     0
 74
     5
  7

 75
    16
147
1.0
148
0.0
149
0.0
100
AcDbLayout
  1
Layout1
 70
     1
 71
     1
 10
0.0
 20
0.0
 11
420.0
 21
297.0
 12
0.0
 22
0.0
 32
0.0
 14
1.0000000000E+20
 24
1.0000000000E+20
 34
1.0000000000E+20
 15
-1.0000000000E+20
 25
-1.0000000000E+20
 35
-1.0000000000E+20
146
0.0
 13
0.0
 23
0.0
 33
0.0
 16
1.0
 26
0.0
 36
0.0
 17
0.0
 27
1.0
 37
0.0
 76
     0
330
1B
  0
LAYOUT
  5
26
102
{ACAD_REACTORS
330
1A
102
}
330
1A
100
AcDbPlotSettings
  1

  2
none_device
  4

  6

 40
0.0
 41
0.0
 42
0.0
 43
0.0
 44
0.0
 45
0.0
 46
0.0
 47
0.0
 48
0.0
 49
0.0
140
0.0
141
0.0
142
1.0
143
1.0
 70
   688
 72
     1
 73
     0
 74
     5
  7

 75
    16
147
1.0
148
0.0
149
0.0
100
AcDbLayout
  1
Layout2
 70
     1
 71
     2
 10
0.0
 20
0.0
 11
0.0
 21
0.0
 12
0.0
 22
0.0
 32
0.0
 14
0.0
 24
0.0
 34
0.0
 15
0.0
 25
0.0
 35
0.0
146
0.0
 13
0.0
 23
0.0
 33
0.0
 16
1.0
 26
0.0
 36
0.0
 17
0.0
 27
1.0
 37
0.0
 76
     0
330
23
  0
LAYOUT
  5
22
102
{ACAD_REACTORS
330
1A
102
}
330
1A
100
AcDbPlotSettings
  1

  2
none_device
  4
Letter_(8.50_x_11.00_Inches)
  6

 40
6.35
 41
6.35
 42
6.35000508
 43
6.35000508
 44
215.9
 45
279.4
 46
0.0
 47
0.0
 48
0.0
 49
0.0
140
0.0
141
0.0
142
1.0
143
1.0
 70
  1712
 72
     1
 73
     0
 74
     0
  7

 75
     0
147
1.0
148
0.0
149
0.0
100
AcDbLayout
  1
Model
 70
     1
 71
     0
 10
0.0
 20
0.0
 11
297.0
 21
210.0
 12
0.0
 22
0.0
 32
0.0
 14
0.0
 24
0.0
 34
0.0
 15
297.0
 25
210.0
 35
0.0
146
0.0
 13
0.0
 23
0.0
 33
0.0
 16
1.0
 26
0.0
 36
0.0
 17
0.0
 27
1.0
 37
0.0
 76
     0
330
1F
331
29
  0
MLINESTYLE
  5
18
102
{ACAD_REACTORS
330
17
102
}
330
17
100
AcDbMlineStyle
  2
Standard
 70
     0
  3

 62
   256
 51
90.0
 52
90.0
 71
     2
 49
0.5
 62
   256
  6
BYLAYER
 49
-0.5
 62
   256
  6
BYLAYER
  0
ACDBPLACEHOLDER
  5
F
102
{ACAD_REACTORS
330
E
102
}
330
E
  0
SCALE
  5
48
102
{ACAD_REACTORS
330
47
102
}
330
47
100
AcDbScale
 70
     0
300
1:1
140
1.0
141
1.0
290
     1
  0
SCALE
  5
49
102
{ACAD_REACTORS
330
47
102
}
330
47
100
AcDbScale
 70
     0
300
1:2
140
1.0
141
2.0
290
     0
  0
SCALE
  5
4A
102
{ACAD_REACTORS
330
47
102
}
330
47
100
AcDbScale
 70
     0
300
1:4
140
1.0
141
4.0
290
     0
  0
SCALE
  5
4B
102
{ACAD_REACTORS
330
47
102
}
330
47
100
AcDbScale
 70
     0
300
1:5
140
1.0
141
5.0
290
     0
  0
SCALE
  5
4C
102
{ACAD_REACTORS
330
47
102
}
330
47
100
AcDbScale
 70
     0
300
1:8
140
1.0
141
8.0
290
     0
  0
SCALE
  5
4D
102
{ACAD_REACTORS
330
47
102
}
330
47
100
AcDbScale
 70
     0
300
1:10
140
1.0
141
10.0
290
     0
  0
SCALE
  5
4E
102
{ACAD_REACTORS
330
47
102
}
330
47
100
AcDbScale
 70
     0
300
1:16
140
1.0
141
16.0
290
     0
  0
SCALE
  5
4F
102
{ACAD_REACTORS
330
47
102
}
330
47
100
AcDbScale
 70
     0
300
1:20
140
1.0
141
20.0
290
     0
  0
SCALE
  5
50
102
{ACAD_REACTORS
330
47
102
}
330
47
100
AcDbScale
 70
     0
300
1:30
140
1.0
141
30.0
290
     0
  0
SCALE
  5
51
102
{ACAD_REACTORS
330
47
102
}
330
47
100
AcDbScale
 70
     0
300
1:40
140
1.0
141
40.0
290
     0
  0
SCALE
  5
52
102
{ACAD_REACTORS
330
47
102
}
330
47
100
AcDbScale
 70
     0
300
1:50
140
1.0
141
50.0
290
     0
  0
SCALE
  5
53
102
{ACAD_REACTORS
330
47
102
}
330
47
100
AcDbScale
 70
     0
300
1:100
140
1.0
141
100.0
290
     0
  0
SCALE
  5
54
102
{ACAD_REACTORS
330
47
102
}
330
47
100
AcDbScale
 70
     0
300
2:1
140
2.0
141
1.0
290
     0
  0
SCALE
  5
55
102
{ACAD_REACTORS
330
47
102
}
330
47
100
AcDbScale
 70
     0
300
4:1
140
4.0
141
1.0
290
     0
  0
SCALE
  5
56
102
{ACAD_REACTORS
330
47
102
}
330
47
100
AcDbScale
 70
     0
300
8:1
140
8.0
141
1.0
290
     0
  0
SCALE
  5
57
102
{ACAD_REACTORS
330
47
102
}
330
47
100
AcDbScale
 70
     0
300
10:1
140
10.0
141
1.0
290
     0
  0
SCALE
  5
58
102
{ACAD_REACTORS
330
47
102
}
330
47
100
AcDbScale
 70
     0
300
100:1
140
100.0
141
1.0
290
     0
  0
ENDSEC
  0
EOF
