  0
SECTION
  2
HEADER
  9
$ACADVER
  1
AC1015
  9
$ACADMAINTVER
 70
     6
  9
$DWGCODEPAGE
  3
DOS932
  9
$INSBASE
 10
0.0
 20
0.0
 30
0.0
  9
$EXTMIN
 10
0.0
 20
0.0
 30
0.0
  9
$EXTMAX
 10
297.0
 20
210.0
 30
0.0
  9
$LIMMIN
 10
0.0
 20
0.0
  9
$LIMMAX
 10
297.0
 20
210.0
  9
$ORTHOMODE
 70
     0
  9
$REGENMODE
 70
     1
  9
$FILLMODE
 70
     1
  9
$QTEXTMODE
 70
     0
  9
$MIRRTEXT
 70
     1
  9
$LTSCALE
 40
1.0
  9
$ATTMODE
 70
     1
  9
$TEXTSIZE
 40
3.5277777778
  9
$TRACEWID
 40
1.0
  9
$TEXTSTYLE
  7
Standard
  9
$CLAYER
  8
0
  9
$CELTYPE
  6
ByLayer
  9
$CECOLOR
 62
   256
  9
$CELTSCALE
 40
1.0
  9
$DISPSILH
 70
     0
  9
$DIMSCALE
 40
1.0
  9
$DIMASZ
 40
2.728515625
  9
$DIMEXO
 40
1.0
  9
$DIMDLI
 40
3.75
  9
$DIMRND
 40
0.0
  9
$DIMDLE
 40
0.0
  9
$DIMEXE
 40
1.0
  9
$DIMTP
 40
0.0
  9
$DIMTM
 40
0.0
  9
$DIMTXT
 40
3.5277777778
  9
$DIMCEN
 40
2.5
  9
$DIMTSZ
 40
0.0
  9
$DIMTOL
 70
     0
  9
$DIMLIM
 70
     0
  9
$DIMTIH
 70
     1
  9
$DIMTOH
 70
     1
  9
$DIMSE1
 70
     0
  9
$DIMSE2
 70
     0
  9
$DIMTAD
 70
     1
  9
$DIMZIN
 70
     0
  9
$DIMBLK
  1

  9
$DIMASO
 70
     1
  9
$DIMSHO
 70
     1
  9
$DIMPOST
  1

  9
$DIMAPOST
  1

  9
$DIMALT
 70
     0
  9
$DIMALTD
 70
     3
  9
$DIMALTF
 40
0.0393700787
  9
$DIMLFAC
 40
1.0
  9
$DIMTOFL
 70
     1
  9
$DIMTVP
 40
0.0
  9
$DIMTIX
 70
     0
  9
$DIMSOXD
 70
     0
  9
$DIMSAH
 70
     0
  9
$DIMBLK1
  1

  9
$DIMBLK2
  1

  9
$DIMSTYLE
  2
ISO-25
  9
$DIMCLRD
 70
     0
  9
$DIMCLRE
 70
     0
  9
$DIMCLRT
 70
     0
  9
$DIMTFAC
 40
1.0
  9
$DIMGAP
 40
1.524
  9
$DIMJUST
 70
     0
  9
$DIMSD1
 70
     0
  9
$DIMSD2
 70
     0
  9
$DIMTOLJ
 70
     0
  9
$DIMTZIN
 70
     0
  9
$DIMALTZ
 70
     0
  9
$DIMALTTZ
 70
     0
  9
$DIMUPT
 70
     0
  9
$DIMDEC
 70
     2
  9
$DIMTDEC
 70
     2
  9
$DIMALTU
 70
     2
  9
$DIMALTTD
 70
     3
  9
$DIMTXSTY
  7
Standard
  9
$DIMAUNIT
 70
     0
  9
$DIMADEC
 70
     2
  9
$DIMALTRND
 40
0.0
  9
$DIMAZIN
 70
     0
  9
$DIMDSEP
 70
    44
  9
$DIMATFIT
 70
     3
  9
$DIMFRAC
 70
     0
  9
$DIMLDRBLK
  1

  9
$DIMLUNIT
 70
     2
  9
$DIMLWD
 70
    -2
  9
$DIMLWE
 70
    -2
  9
$DIMTMOVE
 70
     0
  9
$LUNITS
 70
     2
  9
$LUPREC
 70
     2
  9
$SKETCHINC
 40
1.0
  9
$FILLETRAD
 40
0.0
  9
$AUNITS
 70
     0
  9
$AUPREC
 70
     2
  9
$MENU
  1
.
  9
$ELEVATION
 40
0.0
  9
$PELEVATION
 40
0.0
  9
$THICKNESS
 40
0.0
  9
$LIMCHECK
 70
     0
  9
$CHAMFERA
 40
0.0
  9
$CHAMFERB
 40
0.0
  9
$CHAMFERC
 40
0.0
  9
$CHAMFERD
 40
0.0
  9
$SKPOLY
 70
     0
  9
$TDCREATE
 40
2460426.479744074
  9
$TDUCREATE
 40
2460426.104744074
  9
$TDUPDATE
 40
2460426.479745347
  9
$TDUUPDATE
 40
2460426.104745347
  9
$TDINDWG
 40
0.0000000116
  9
$TDUSRTIMER
 40
0.0000000116
  9
$USRTIMER
 70
     1
  9
$ANGBASE
 50
0.0
  9
$ANGDIR
 70
     0
  9
$PDMODE
 70
     0
  9
$PDSIZE
 40
-1.0
  9
$PLINEWID
 40
0.0
  9
$SPLFRAME
 70
     0
  9
$SPLINETYPE
 70
     6
  9
$SPLINESEGS
 70
     8
  9
$HANDSEED
  5
28B
  9
$SURFTAB1
 70
     6
  9
$SURFTAB2
 70
     6
  9
$SURFTYPE
 70
     6
  9
$SURFU
 70
     6
  9
$SURFV
 70
     6
  9
$UCSBASE
  2

  9
$UCSNAME
  2

  9
$UCSORG
 10
0.0
 20
0.0
 30
0.0
  9
$UCSXDIR
 10
1.0
 20
0.0
 30
0.0
  9
$UCSYDIR
 10
0.0
 20
1.0
 30
0.0
  9
$UCSORTHOREF
  2

  9
$UCSORTHOVIEW
 70
     0
  9
$UCSORGTOP
 10
0.0
 20
0.0
 30
0.0
  9
$UCSORGBOTTOM
 10
0.0
 20
0.0
 30
0.0
  9
$UCSORGLEFT
 10
0.0
 20
0.0
 30
0.0
  9
$UCSORGRIGHT
 10
0.0
 20
0.0
 30
0.0
  9
$UCSORGFRONT
 10
0.0
 20
0.0
 30
0.0
  9
$UCSORGBACK
 10
0.0
 20
0.0
 30
0.0
  9
$PUCSBASE
  2

  9
$PUCSNAME
  2

  9
$PUCSORG
 10
0.0
 20
0.0
 30
0.0
  9
$PUCSXDIR
 10
1.0
 20
0.0
 30
0.0
  9
$PUCSYDIR
 10
0.0
 20
1.0
 30
0.0
  9
$PUCSORTHOREF
  2

  9
$PUCSORTHOVIEW
 70
     0
  9
$PUCSORGTOP
 10
0.0
 20
0.0
 30
0.0
  9
$PUCSORGBOTTOM
 10
0.0
 20
0.0
 30
0.0
  9
$PUCSORGLEFT
 10
0.0
 20
0.0
 30
0.0
  9
$PUCSORGRIGHT
 10
0.0
 20
0.0
 30
0.0
  9
$PUCSORGFRONT
 10
0.0
 20
0.0
 30
0.0
  9
$PUCSORGBACK
 10
0.0
 20
0.0
 30
0.0
  9
$USERI1
 70
     0
  9
$USERI2
 70
     0
  9
$USERI3
 70
     0
  9
$USERI4
 70
     0
  9
$USERI5
 70
     0
  9
$USERR1
 40
0.0
  9
$USERR2
 40
0.0
  9
$USERR3
 40
0.0
  9
$USERR4
 40
0.0
  9
$USERR5
 40
0.0
  9
$WORLDVIEW
 70
     1
  9
$SHADEDGE
 70
     3
  9
$SHADEDIF
 70
    70
  9
$TILEMODE
 70
     1
  9
$MAXACTVP
 70
    64
  9
$PINSBASE
 10
0.0
 20
0.0
 30
0.0
  9
$PLIMCHECK
 70
     0
  9
$PEXTMIN
 10
1.0000000000E+20
 20
1.0000000000E+20
 30
1.0000000000E+20
  9
$PEXTMAX
 10
-1.0000000000E+20
 20
-1.0000000000E+20
 30
-1.0000000000E+20
  9
$PLIMMIN
 10
0.0
 20
0.0
  9
$PLIMMAX
 10
420.0
 20
297.0
  9
$UNITMODE
 70
     0
  9
$VISRETAIN
 70
     1
  9
$PLINEGEN
 70
     0
  9
$PSLTSCALE
 70
     1
  9
$TREEDEPTH
 70
  3020
  9
$CMLSTYLE
  2
Standard
  9
$CMLJUST
 70
     0
  9
$CMLSCALE
 40
20.0
  9
$PROXYGRAPHICS
 70
     1
  9
$MEASUREMENT
 70
     1
  9
$CELWEIGHT
370
    -1
  9
$ENDCAPS
280
     0
  9
$JOINSTYLE
280
     0
  9
$LWDISPLAY
290
     1
  9
$INSUNITS
 70
     4
  9
$HYPERLINKBASE
  1

  9
$STYLESHEET
  1

  9
$XEDIT
290
     1
  9
$CEPSNTYPE
380
     0
  9
$PSTYLEMODE
290
     1
  9
$FINGERPRINTGUID
  2
{d3ff44f4-8a37-4278-882d-b1fc711a8bd9}
  9
$VERSIONGUID
  2
{FAEB1C32-E019-11D5-929B-00C0DF256EC4}
  9
$EXTNAMES
290
     1
  9
$PSVPSCALE
 40
0.0
  9
$OLESTARTUP
290
     0
  0
ENDSEC
  0
SECTION
  2
CLASSES
  0
CLASS
  1
ACDBDICTIONARYWDFLT
  2
AcDbDictionaryWithDefault
  3
ObjectDBX Classes
 90
        0
280
     0
281
     0
  0
CLASS
  1
VISUALSTYLE
  2
AcDbVisualStyle
  3
ObjectDBX Classes
 90
     4095
280
     0
281
     0
  0
CLASS
  1
MATERIAL
  2
AcDbMaterial
  3
ObjectDBX Classes
 90
     1153
280
     0
281
     0
  0
CLASS
  1
SCALE
  2
AcDbScale
  3
ObjectDBX Classes
 90
     1153
280
     0
281
     0
  0
CLASS
  1
TABLESTYLE
  2
AcDbTableStyle
  3
ObjectDBX Classes
 90
     4095
280
     0
281
     0
  0
CLASS
  1
MLEADERSTYLE
  2
AcDbMLeaderStyle
  3
ACDB_MLEADERSTYLE_CLASS
 90
     4095
280
     0
281
     0
  0
CLASS
  1
SUN
  2
AcDbSun
  3
SCENEOE
 90
     1153
280
     0
281
     0
  0
CLASS
  1
ACDBPLACEHOLDER
  2
AcDbPlaceHolder
  3
ObjectDBX Classes
 90
        0
280
     0
281
     0
  0
CLASS
  1
LAYOUT
  2
AcDbLayout
  3
ObjectDBX Classes
 90
        0
280
     0
281
     0
  0
ENDSEC
  0
SECTION
  2
TABLES
  0
TABLE
  2
VPORT
  5
8
330
0
100
AcDbSymbolTable
 70
     1
  0
VPORT
  5
29
330
8
100
AcDbSymbolTableRecord
100
AcDbViewportTableRecord
  2
*Active
 70
     0
 10
0.0
 20
0.0
 11
1.0
 21
1.0
 12
148.5
 22
105.0
 13
0.0
 23
0.0
 14
10.0
 24
10.0
 15
10.0
 25
10.0
 16
0.0
 26
0.0
 36
1.0
 17
0.0
 27
0.0
 37
0.0
 40
210.0
 41
1.4142857143
 42
50.0
 43
0.0
 44
0.0
 50
0.0
 51
0.0
 71
     0
 72
  2000
 73
     1
 74
     3
 75
     0
 76
     0
 77
     0
 78
     0
281
     0
 65
     1
110
0.0
120
0.0
130
0.0
111
1.0
121
0.0
131
0.0
112
0.0
122
1.0
132
0.0
 79
     0
146
0.0
  0
ENDTAB
  0
TABLE
  2
LTYPE
  5
5
330
0
100
AcDbSymbolTable
 70
     6
  0
LTYPE
  5
14
330
5
100
AcDbSymbolTableRecord
100
AcDbLinetypeTableRecord
  2
ByBlock
 70
     0
  3

 72
    65
 73
     0
 40
0.0
  0
LTYPE
  5
15
330
5
100
AcDbSymbolTableRecord
100
AcDbLinetypeTableRecord
  2
ByLayer
 70
     0
  3

 72
    65
 73
     0
 40
0.0
  0
LTYPE
  5
16
330
5
100
AcDbSymbolTableRecord
100
AcDbLinetypeTableRecord
  2
Continuous
 70
     0
  3
Solid line
 72
    65
 73
     0
 40
0.0
  0
LTYPE
  5
5E
330
5
100
AcDbSymbolTableRecord
100
AcDbLinetypeTableRecord
  2
HIDDEN
 70
     0
  3
Hidden __ __ __ __ __ __ __ __ __ __ __ __ __ __
 72
    65
 73
     2
 40
1.905
 49
1.27
 74
     0
 49
-0.635
 74
     0
  0
LTYPE
  5
5F
330
5
100
AcDbSymbolTableRecord
100
AcDbLinetypeTableRecord
  2
PHANTOM
 70
     0
  3
Phantom ______  __  __  ______  __  __  ______
 72
    65
 73
     6
 40
12.7
 49
6.35
 74
     0
 49
-1.27
 74
     0
 49
1.27
 74
     0
 49
-1.27
 74
     0
 49
1.27
 74
     0
 49
-1.27
 74
     0
  0
LTYPE
  5
60
330
5
100
AcDbSymbolTableRecord
100
AcDbLinetypeTableRecord
  2
CENTER
 70
     0
  3
Center ____ _ ____ _ ____ _ ____ _ ____ _ ____
 72
    65
 73
     4
 40
10.16
 49
6.35
 74
     0
 49
-1.27
 74
     0
 49
1.27
 74
     0
 49
-1.27
 74
     0
  0
LTYPE
  5
61
330
5
100
AcDbSymbolTableRecord
100
AcDbLinetypeTableRecord
  2
CENTERX2
 70
     0
  3
Center (2x) ________  __  ________  __  _____
 72
    65
 73
     4
 40
20.32
 49
12.7
 74
     0
 49
-2.54
 74
     0
 49
2.54
 74
     0
 49
-2.54
 74
     0
  0
LTYPE
  5
62
330
5
100
AcDbSymbolTableRecord
100
AcDbLinetypeTableRecord
  2
DOT2
 70
     0
  3
Dot (.5x) ........................................
 72
    65
 73
     2
 40
0.635
 49
0.0
 74
     0
 49
-0.635
 74
     0
  0
ENDTAB
  0
TABLE
  2
LAYER
  5
2
330
0
100
AcDbSymbolTable
 70
     2
  0
LAYER
  5
10
330
2
100
AcDbSymbolTableRecord
100
AcDbLayerTableRecord
  2
0
 70
     0
 62
     7
  6
Continuous
370
    -3
390
F
  0
LAYER
  5
63
330
2
100
AcDbSymbolTableRecord
100
AcDbLayerTableRecord
  2
FORMAT
 70
     0
 62
     7
  6
Continuous
370
    -3
390
F
  0
ENDTAB
  0
TABLE
  2
STYLE
  5
3
330
0
100
AcDbSymbolTable
 70
     2
  0
STYLE
  5
11
330
3
100
AcDbSymbolTableRecord
100
AcDbTextStyleTableRecord
  2
Standard
 70
     0
 40
0.0
 41
1.0
 50
0.0
 71
     0
 42
3.5277777778
  3
txt
  4
bigfont
  0
STYLE
  5
64
330
3
100
AcDbSymbolTableRecord
100
AcDbTextStyleTableRecord
  2
SLDTEXTSTYLE0
 70
     0
 40
0.0
 41
0.7
 50
0.0
 71
     0
 42
3.5277777778
  3
TXT
  4
bigfont
  0
ENDTAB
  0
TABLE
  2
VIEW
  5
6
330
0
100
AcDbSymbolTable
 70
     0
  0
ENDTAB
  0
TABLE
  2
UCS
  5
7
330
0
100
AcDbSymbolTable
 70
     0
  0
ENDTAB
  0
TABLE
  2
APPID
  5
9
330
0
100
AcDbSymbolTable
 70
     1
  0
APPID
  5
12
330
9
100
AcDbSymbolTableRecord
100
AcDbRegAppTableRecord
  2
ACAD
 70
     0
  0
ENDTAB
  0
TABLE
  2
DIMSTYLE
  5
A
330
0
100
AcDbSymbolTable
 70
     1
100
AcDbDimStyleTable
  0
DIMSTYLE
105
27
330
A
100
AcDbSymbolTableRecord
100
AcDbDimStyleTableRecord
  2
ISO-25
 70
     0
 41
2.5
 42
0.625
 43
3.75
 44
1.25
 73
     0
 74
     0
 77
     1
 78
     8
140
2.5
141
2.5
143
0.0393700787
147
0.625
171
     3
172
     1
178
     0
271
     2
272
     2
274
     3
278
    44
283
     0
284
     8
340
11
  0
ENDTAB
  0
TABLE
  2
BLOCK_RECORD
  5
1
330
0
100
AcDbSymbolTable
 70
     3
  0
BLOCK_RECORD
  5
1F
330
1
100
AcDbSymbolTableRecord
100
AcDbBlockTableRecord
  2
*Model_Space
340
22
  0
BLOCK_RECORD
  5
1B
330
1
100
AcDbSymbolTableRecord
100
AcDbBlockTableRecord
  2
*Paper_Space
340
1E
  0
BLOCK_RECORD
  5
23
330
1
100
AcDbSymbolTableRecord
100
AcDbBlockTableRecord
  2
*Paper_Space0
340
26
  0
BLOCK_RECORD
  5
1DA
330
1
100
AcDbSymbolTableRecord
100
AcDbBlockTableRecord
  2
SW_CENTERMARKSYMBOL_0
340
0
102
{BLKREFS
331
1E5
102
}
  0
BLOCK_RECORD
  5
27E
330
1
100
AcDbSymbolTableRecord
100
AcDbBlockTableRecord
  2
SW_CENTERMARKSYMBOL_1
340
0
102
{BLKREFS
331
289
102
}
  0
ENDTAB
  0
ENDSEC
  0
SECTION
  2
BLOCKS
  0
BLOCK
  5
20
330
1F
100
AcDbEntity
  8
0
100
AcDbBlockBegin
  2
*Model_Space
 70
     0
 10
0.0
 20
0.0
 30
0.0
  3
*Model_Space
  1

  0
ENDBLK
  5
21
330
1F
100
AcDbEntity
  8
0
100
AcDbBlockEnd
  0
BLOCK
  5
1C
330
1B
100
AcDbEntity
 67
     1
  8
0
100
AcDbBlockBegin
  2
*Paper_Space
 70
     0
 10
0.0
 20
0.0
 30
0.0
  3
*Paper_Space
  1

  0
ENDBLK
  5
1D
330
1B
100
AcDbEntity
 67
     1
  8
0
100
AcDbBlockEnd
  0
BLOCK
  5
24
330
23
100
AcDbEntity
  8
0
100
AcDbBlockBegin
  2
*Paper_Space0
 70
     0
 10
0.0
 20
0.0
 30
0.0
  3
*Paper_Space0
  1

  0
ENDBLK
  5
25
330
23
100
AcDbEntity
  8
0
100
AcDbBlockEnd
  0
BLOCK
  5
1DB
330
1DA
100
AcDbEntity
  8
0
100
AcDbBlockBegin
  2
SW_CENTERMARKSYMBOL_0
 70
     0
 10
0.0
 20
0.0
 30
0.0
  3
SW_CENTERMARKSYMBOL_0
  1

  0
LINE
  5
1DD
330
1DA
100
AcDbEntity
  8
FORMAT
 62
     0
100
AcDbLine
 10
0.0
 20
0.0
 30
0.0
 11
0.0
 21
2.5
 31
0.0
  0
LINE
  5
1DE
330
1DA
100
AcDbEntity
  8
FORMAT
 62
     0
100
AcDbLine
 10
0.0
 20
0.0
 30
0.0
 11
-2.5
 21
0.0
 31
0.0
  0
LINE
  5
1DF
330
1DA
100
AcDbEntity
  8
FORMAT
 62
     0
100
AcDbLine
 10
0.0
 20
0.0
 30
0.0
 11
0.0
 21
-2.5
 31
0.0
  0
LINE
  5
1E0
330
1DA
100
AcDbEntity
  8
FORMAT
 62
     0
100
AcDbLine
 10
0.0
 20
0.0
 30
0.0
 11
2.5
 21
0.0
 31
0.0
  0
LINE
  5
1E1
330
1DA
100
AcDbEntity
  8
FORMAT
 62
     0
100
AcDbLine
 10
0.0
 20
5.0
 30
0.0
 11
0.0
 21
29.5626845076
 31
0.0
  0
LINE
  5
1E2
330
1DA
100
AcDbEntity
  8
FORMAT
 62
     0
100
AcDbLine
 10
-5.0
 20
0.0
 30
0.0
 11
-10.75
 21
0.0
 31
0.0
  0
LINE
  5
1E3
330
1DA
100
AcDbEntity
  8
FORMAT
 62
     0
100
AcDbLine
 10
0.0
 20
-5.0
 30
0.0
 11
0.0
 21
-24.925755836
 31
0.0
  0
LINE
  5
1E4
330
1DA
100
AcDbEntity
  8
FORMAT
 62
     0
100
AcDbLine
 10
5.0
 20
0.0
 30
0.0
 11
10.75
 21
0.0
 31
0.0
  0
ENDBLK
  5
1DC
330
1DA
100
AcDbEntity
  8
0
100
AcDbBlockEnd
  0
BLOCK
  5
27F
330
27E
100
AcDbEntity
  8
0
100
AcDbBlockBegin
  2
SW_CENTERMARKSYMBOL_1
 70
     0
 10
0.0
 20
0.0
 30
0.0
  3
SW_CENTERMARKSYMBOL_1
  1

  0
LINE
  5
281
330
27E
100
AcDbEntity
  8
FORMAT
 62
     0
100
AcDbLine
 10
0.0
 20
0.0
 30
0.0
 11
0.0
 21
2.5
 31
0.0
  0
LINE
  5
282
330
27E
100
AcDbEntity
  8
FORMAT
 62
     0
100
AcDbLine
 10
0.0
 20
0.0
 30
0.0
 11
-2.5
 21
0.0
 31
0.0
  0
LINE
  5
283
330
27E
100
AcDbEntity
  8
FORMAT
 62
     0
100
AcDbLine
 10
0.0
 20
0.0
 30
0.0
 11
0.0
 21
-2.5
 31
0.0
  0
LINE
  5
284
330
27E
100
AcDbEntity
  8
FORMAT
 62
     0
100
AcDbLine
 10
0.0
 20
0.0
 30
0.0
 11
2.5
 21
0.0
 31
0.0
  0
LINE
  5
285
330
27E
100
AcDbEntity
  8
FORMAT
 62
     0
100
AcDbLine
 10
0.0
 20
5.0
 30
0.0
 11
0.0
 21
9.95
 31
0.0
  0
LINE
  5
286
330
27E
100
AcDbEntity
  8
FORMAT
 62
     0
100
AcDbLine
 10
-5.0
 20
0.0
 30
0.0
 11
-41.8627110855
 21
0.0
 31
0.0
  0
LINE
  5
287
330
27E
100
AcDbEntity
  8
FORMAT
 62
     0
100
AcDbLine
 10
0.0
 20
-5.0
 30
0.0
 11
0.0
 21
-9.95
 31
0.0
  0
LINE
  5
288
330
27E
100
AcDbEntity
  8
FORMAT
 62
     0
100
AcDbLine
 10
5.0
 20
0.0
 30
0.0
 11
13.073272916
 21
0.0
 31
0.0
  0
ENDBLK
  5
280
330
27E
100
AcDbEntity
  8
0
100
AcDbBlockEnd
  0
ENDSEC
  0
SECTION
  2
ENTITIES
  0
MTEXT
  5
65
330
1F
100
AcDbEntity
  8
FORMAT
100
AcDbMText
 10
122.7807061907
 20
104.6520061506
 30
0.0
 40
3.7041666667
 41
0.0
 71
     1
 72
     1
  1
エースボール　アングル型
  7
SLDTEXTSTYLE0
 73
     1
 44
1.0
  0
MTEXT
  5
66
330
1F
100
AcDbEntity
  8
FORMAT
100
AcDbMText
 10
122.7807061907
 20
98.7131171575
 30
0.0
 40
3.7041666667
 41
0.0
 71
     1
 72
     1
  1
BC-3210
  7
SLDTEXTSTYLE0
 73
     1
 44
1.0
  0
ARC
  5
67
330
1F
100
AcDbEntity
  8
0
  6
Continuous
 62
     7
370
    25
100
AcDbCircle
 10
82.4026599343
 20
67.0977414032
 30
0.0
 40
0.3000000000000114
100
AcDbArc
 50
90.0
 51
180.0
  0
ARC
  5
68
330
1F
100
AcDbEntity
  8
0
  6
Continuous
 62
     7
370
    25
100
AcDbCircle
 10
82.4026599343
 20
51.1977414032
 30
0.0
 40
0.3000000000000114
100
AcDbArc
 50
180.0
 51
270.0
  0
LINE
  5
69
330
1F
100
AcDbEntity
  8
0
  6
Continuous
 62
     7
370
    25
100
AcDbLine
 10
83.3526599343
 20
67.3977414032
 30
0.0
 11
82.4026599343
 21
67.3977414032
 31
0.0
  0
LINE
  5
6A
330
1F
100
AcDbEntity
  8
0
  6
Continuous
 62
     7
370
    25
100
AcDbLine
 10
82.4026599343
 20
50.8977414032
 30
0.0
 11
83.3526599343
 21
50.8977414032
 31
0.0
  0
LINE
  5
6B
330
1F
100
AcDbEntity
  8
0
  6
Continuous
 62
     7
370
    25
100
AcDbLine
 10
85.1026599343
 20
66.8977414032
 30
0.0
 11
84.3026599343
 21
66.8977414032
 31
0.0
  0
LINE
  5
6C
330
1F
100
AcDbEntity
  8
0
  6
Continuous
 62
     7
370
    25
100
AcDbLine
 10
84.3026599343
 20
51.3977414032
 30
0.0
 11
85.1026599343
 21
51.3977414032
 31
0.0
  0
ARC
  5
6D
330
1F
100
AcDbEntity
  8
0
  6
Continuous
 62
     7
370
    25
100
AcDbCircle
 10
84.3026599343
 20
66.6977414032
 30
0.0
 40
0.2000000000000028
100
AcDbArc
 50
90.0
 51
180.0
  0
ARC
  5
6E
330
1F
100
AcDbEntity
  8
0
  6
Continuous
 62
     7
370
    25
100
AcDbCircle
 10
84.3026599343
 20
51.5977414032
 30
0.0
 40
0.2000000000000028
100
AcDbArc
 50
180.0
 51
270.0
  0
LINE
  5
6F
330
1F
100
AcDbEntity
  8
0
  6
Continuous
 62
     7
370
    25
100
AcDbLine
 10
84.1026599343
 20
65.5227414032
 30
0.0
 11
83.3526599343
 21
65.5227414032
 31
0.0
  0
LINE
  5
70
330
1F
100
AcDbEntity
  8
0
  6
Continuous
 62
     7
370
    25
100
AcDbLine
 10
83.3526599343
 20
52.7727414032
 30
0.0
 11
84.1026599343
 21
52.7727414032
 31
0.0
  0
LINE
  5
71
330
1F
100
AcDbEntity
  8
0
  6
Continuous
 62
     7
370
    25
100
AcDbLine
 10
85.3026599343
 20
68.8977414032
 30
0.0
 11
85.1026599343
 21
68.6977414032
 31
0.0
  0
LINE
  5
72
330
1F
100
AcDbEntity
  8
0
  6
Continuous
 62
     7
370
    25
100
AcDbLine
 10
85.1026599343
 20
49.5977414032
 30
0.0
 11
85.3026599343
 21
49.3977414032
 31
0.0
  0
LINE
  5
73
330
1F
100
AcDbEntity
  8
0
  6
Continuous
 62
     7
370
    25
100
AcDbLine
 10
104.3809720978
 20
49.3977414032
 30
0.0
 11
105.1026599343
 21
50.6477414032
 31
0.0
  0
LINE
  5
74
330
1F
100
AcDbEntity
  8
0
  6
Continuous
 62
     7
370
    25
100
AcDbLine
 10
105.1026599343
 20
67.6477414032
 30
0.0
 11
104.3809720978
 21
68.8977414032
 31
0.0
  0
LINE
  5
75
330
1F
100
AcDbEntity
  8
0
  6
Continuous
 62
     7
370
    25
100
AcDbLine
 10
104.3809720978
 20
68.8977414032
 30
0.0
 11
85.3026599343
 21
68.8977414032
 31
0.0
  0
LINE
  5
76
330
1F
100
AcDbEntity
  8
0
  6
Continuous
 62
     7
370
    25
100
AcDbLine
 10
85.3026599343
 20
49.3977414032
 30
0.0
 11
104.3809720978
 21
49.3977414032
 31
0.0
  0
LINE
  5
77
330
1F
100
AcDbEntity
  8
0
  6
Continuous
 62
     7
370
    25
100
AcDbLine
 10
124.0526599343
 20
77.6477414032
 30
0.0
 11
122.1026599343
 21
85.6477414032
 31
0.0
  0
LINE
  5
78
330
1F
100
AcDbEntity
  8
0
  6
Continuous
 62
     7
370
    25
100
AcDbLine
 10
123.6026599343
 20
69.6477414032
 30
0.0
 11
124.0526599343
 21
77.6477414032
 31
0.0
  0
LINE
  5
79
330
1F
100
AcDbEntity
  8
0
  6
Continuous
 62
     7
370
    25
100
AcDbLine
 10
109.5320033085
 20
70.9038591946
 30
0.0
 11
109.6026599343
 21
69.6477414032
 31
0.0
  0
LINE
  5
7A
330
1F
100
AcDbEntity
  8
0
  6
Continuous
 62
     7
370
    25
100
AcDbLine
 10
111.1026599343
 20
85.6477414032
 30
0.0
 11
110.8494283998
 21
84.6088428001
 31
0.0
  0
LINE
  5
7B
330
1F
100
AcDbEntity
  8
0
  6
Continuous
 62
     7
370
    25
100
AcDbLine
 10
127.7437911872
 20
49.4101370962
 30
0.0
 11
128.6026599343
 21
50.8977414032
 31
0.0
  0
LINE
  5
7C
330
1F
100
AcDbEntity
  8
0
  6
Continuous
 62
     7
370
    25
100
AcDbLine
 10
128.6026599343
 20
67.3977414032
 30
0.0
 11
127.7437911872
 21
68.8853457103
 31
0.0
  0
LINE
  5
7D
330
1F
100
AcDbEntity
  8
0
  6
Continuous
 62
     7
370
    25
100
AcDbLine
 10
109.8444724343
 20
47.1477414032
 30
0.0
 11
110.1381078757
 21
37.7514072771
 31
0.0
  0
LINE
  5
7E
330
1F
100
AcDbEntity
  8
0
  6
Continuous
 62
     7
370
    25
100
AcDbLine
 10
123.0672119929
 20
37.7514072771
 30
0.0
 11
123.3608474343
 21
47.1477414032
 31
0.0
  0
SPLINE
  5
7F
330
1F
100
AcDbEntity
  8
0
  6
Continuous
 62
     7
370
    25
100
AcDbSpline
210
0.0
220
0.0
230
1.0
 70
     8
 71
     3
 72
    11
 73
     7
 74
     0
 42
0.00000001
 43
0.00000001
 40
0.0
 40
0.0
 40
0.0
 40
0.0
 40
0.1938427411800586
 40
0.4530233903228436
 40
0.7169693185797155
 40
1.0
 40
1.0
 40
1.0
 40
1.0
 10
110.7131378279065
 20
68.64971533679932
 30
0.0
 10
110.7131971810442
 20
68.59873571452874
 30
0.0
 10
110.7133358932783
 20
68.47959294354958
 30
0.0
 10
110.6651819500795
 20
68.29596350786578
 30
0.0
 10
110.5771410827918
 20
68.10164577326303
 30
0.0
 10
110.4834590537254
 20
67.9921157869771
 30
0.0
 10
110.4349836928883
 20
67.9354399692072
 30
0.0
  0
SPLINE
  5
80
330
1F
100
AcDbEntity
  8
0
  6
Continuous
 62
     7
370
    25
100
AcDbSpline
210
0.0
220
0.0
230
1.0
 70
     8
 71
     3
 72
    12
 73
     8
 74
     0
 42
0.00000001
 43
0.00000001
 40
0.0
 40
0.0
 40
0.0
 40
0.0
 40
0.1038355413829016
 40
0.3986846474316255
 40
0.6671848830322868
 40
0.9142061116068729
 40
1.0
 40
1.0
 40
1.0
 40
1.0
 10
122.7885036964316
 20
67.95361010199602
 30
0.0
 10
122.7691048696619
 20
67.97171355786317
 30
0.0
 10
122.6946215635776
 20
68.04122318648905
 30
0.0
 10
122.605143235328
 20
68.1899440286635
 30
0.0
 10
122.5317645788669
 20
68.38307760364074
 30
0.0
 10
122.5015510263245
 20
68.53569446486071
 30
0.0
 10
122.5047513689089
 20
68.62063760257767
 30
0.0
 10
122.5055763609856
 20
68.64253445072403
 30
0.0
  0
LINE
  5
81
330
1F
100
AcDbEntity
  8
0
  6
Continuous
 62
     7
370
    25
100
AcDbLine
 10
110.1381078757
 20
37.7514072771
 30
0.0
 11
111.3526599343
 21
35.6477414032
 31
0.0
  0
LINE
  5
82
330
1F
100
AcDbEntity
  8
0
  6
Continuous
 62
     7
370
    25
100
AcDbLine
 10
121.8526599343
 20
35.6477414032
 30
0.0
 11
123.0672119929
 21
37.7514072771
 31
0.0
  0
LINE
  5
83
330
1F
100
AcDbEntity
  8
0
  6
Continuous
 62
     7
370
    25
100
AcDbLine
 10
122.5026599343
 20
68.6432105832
 30
0.0
 11
122.5026599343
 21
69.6477414032
 31
0.0
  0
LINE
  5
84
330
1F
100
AcDbEntity
  8
0
  6
Continuous
 62
     7
370
    25
100
AcDbLine
 10
110.7026599343
 20
69.6477414032
 30
0.0
 11
110.7026599343
 21
68.6477414032
 31
0.0
  0
LINE
  5
85
330
1F
100
AcDbEntity
  8
0
  6
Continuous
 62
     7
370
    25
100
AcDbLine
 10
110.4324930269
 20
67.9424791325
 30
0.0
 11
109.8881287545
 21
68.8853457103
 31
0.0
  0
LINE
  5
86
330
1F
100
AcDbEntity
  8
0
  6
Continuous
 62
     7
370
    25
100
AcDbLine
 10
105.8171911141
 20
68.8853457103
 30
0.0
 11
105.1026599343
 21
67.6477414032
 31
0.0
  0
LINE
  5
87
330
1F
100
AcDbEntity
  8
0
  6
Continuous
 62
     7
370
    25
100
AcDbLine
 10
123.3171911141
 20
68.8853457103
 30
0.0
 11
122.7728268416
 21
67.9424791325
 31
0.0
  0
LINE
  5
88
330
1F
100
AcDbEntity
  8
0
  6
Continuous
 62
     7
370
    25
100
AcDbLine
 10
125.1026599343
 20
47.1477414032
 30
0.0
 11
126.3402642413
 21
47.8622725831
 31
0.0
  0
LINE
  5
89
330
1F
100
AcDbEntity
  8
0
  6
Continuous
 62
     7
370
    25
100
AcDbLine
 10
106.8650556273
 20
47.8622725831
 30
0.0
 11
108.1026599343
 21
47.1477414032
 31
0.0
  0
LINE
  5
8A
330
1F
100
AcDbEntity
  8
0
  6
Continuous
 62
     7
370
    25
100
AcDbLine
 10
105.1026599343
 20
50.6477414032
 30
0.0
 11
105.8171911141
 21
49.4101370962
 31
0.0
  0
LINE
  5
8B
330
1F
100
AcDbEntity
  8
0
  6
Continuous
 62
     7
370
    25
100
AcDbLine
 10
126.3402642413
 20
49.4101370962
 30
0.0
 11
127.7463592426
 21
49.4101370962
 31
0.0
  0
LINE
  5
8C
330
1F
100
AcDbEntity
  8
0
  6
Continuous
 62
     7
370
    25
100
AcDbLine
 10
126.3402642413
 20
47.8597122017
 30
0.0
 11
126.3402642413
 21
49.4101370962
 31
0.0
  0
LINE
  5
8D
330
1F
100
AcDbEntity
  8
0
  6
Continuous
 62
     7
370
    25
100
AcDbLine
 10
109.8906968099
 20
68.8853457103
 30
0.0
 11
105.8146307328
 21
68.8853457103
 31
0.0
  0
LINE
  5
8E
330
1F
100
AcDbEntity
  8
0
  6
Continuous
 62
     7
370
    25
100
AcDbLine
 10
127.7463592426
 20
68.8853457103
 30
0.0
 11
123.3146230586
 21
68.8853457103
 31
0.0
  0
LINE
  5
8F
330
1F
100
AcDbEntity
  8
0
  6
Continuous
 62
     7
370
    25
100
AcDbLine
 10
106.8650556273
 20
49.4101370962
 30
0.0
 11
106.8650556273
 21
47.8597122017
 31
0.0
  0
LINE
  5
90
330
1F
100
AcDbEntity
  8
0
  6
Continuous
 62
     7
370
    25
100
AcDbLine
 10
105.8146307328
 20
49.4101370962
 30
0.0
 11
106.8650556273
 21
49.4101370962
 31
0.0
  0
LINE
  5
91
330
1F
100
AcDbEntity
  8
0
  6
Continuous
 62
     7
370
    25
100
AcDbLine
 10
82.1026599343
 20
51.1977414032
 30
0.0
 11
82.1026599343
 21
67.0977414032
 31
0.0
  0
LINE
  5
92
330
1F
100
AcDbEntity
  8
0
  6
Continuous
 62
     7
370
    25
100
AcDbLine
 10
83.3526599343
 20
67.3977414032
 30
0.0
 11
83.3526599343
 21
50.8977414032
 31
0.0
  0
LINE
  5
93
330
1F
100
AcDbEntity
  8
0
  6
Continuous
 62
     7
370
    25
100
AcDbLine
 10
84.1026599343
 20
51.5977414032
 30
0.0
 11
84.1026599343
 21
66.6977414032
 31
0.0
  0
LINE
  5
94
330
1F
100
AcDbEntity
  8
0
  6
Continuous
 62
     7
370
    25
100
AcDbLine
 10
85.1026599343
 20
55.5358451973
 30
0.0
 11
85.1026599343
 21
68.6977414032
 31
0.0
  0
LINE
  5
95
330
1F
100
AcDbEntity
  8
0
  6
Continuous
 62
     7
370
    25
100
AcDbLine
 10
85.1026599343
 20
49.5977414032
 30
0.0
 11
85.1026599343
 21
55.5358451973
 31
0.0
  0
LINE
  5
96
330
1F
100
AcDbEntity
  8
0
  6
Continuous
 62
     7
370
    25
100
AcDbLine
 10
85.3026599343
 20
55.460203392
 30
0.0
 11
85.3026599343
 21
49.3977414032
 31
0.0
  0
LINE
  5
97
330
1F
100
AcDbEntity
  8
0
  6
Continuous
 62
     7
370
    25
100
AcDbLine
 10
85.3026599343
 20
68.8977414032
 30
0.0
 11
85.3026599343
 21
55.460203392
 31
0.0
  0
LINE
  5
98
330
1F
100
AcDbEntity
  8
0
  6
Continuous
 62
     7
370
    25
100
AcDbLine
 10
104.3809720978
 20
55.460203392
 30
0.0
 11
104.3809720978
 21
49.3977414032
 31
0.0
  0
LINE
  5
99
330
1F
100
AcDbEntity
  8
0
  6
Continuous
 62
     7
370
    25
100
AcDbLine
 10
104.3809720978
 20
68.8977414032
 30
0.0
 11
104.3809720978
 21
55.460203392
 31
0.0
  0
LINE
  5
9A
330
1F
100
AcDbEntity
  8
0
  6
Continuous
 62
     7
370
    25
100
AcDbLine
 10
105.1026599343
 20
67.6477414032
 30
0.0
 11
105.1026599343
 21
50.6477414032
 31
0.0
  0
LINE
  5
9B
330
1F
100
AcDbEntity
  8
0
  6
Continuous
 62
     7
370
    25
100
AcDbLine
 10
121.841745267
 20
85.6477414032
 30
0.0
 11
121.841745267
 21
86.2477414032
 31
0.0
  0
LINE
  5
9C
330
1F
100
AcDbEntity
  8
0
  6
Continuous
 62
     7
370
    25
100
AcDbLine
 10
111.3635746016
 20
86.2477414032
 30
0.0
 11
111.3635746016
 21
85.6477414032
 31
0.0
  0
LINE
  5
9D
330
1F
100
AcDbEntity
  8
0
  6
Continuous
 62
     7
370
    25
100
AcDbLine
 10
121.841745267
 20
86.2477414032
 30
0.0
 11
111.3635746016
 21
86.2477414032
 31
0.0
  0
LINE
  5
9E
330
1F
100
AcDbEntity
  8
0
  6
Continuous
 62
     7
370
    25
100
AcDbLine
 10
111.3635746016
 20
85.6477414032
 30
0.0
 11
121.841745267
 21
85.6477414032
 31
0.0
  0
SPLINE
  5
9F
330
1F
100
AcDbEntity
  8
0
  6
Continuous
 62
     7
370
    25
100
AcDbSpline
210
0.0
220
0.0
230
1.0
 70
     8
 71
     3
 72
    15
 73
    11
 74
     0
 42
0.00000001
 43
0.00000001
 40
0.0
 40
0.0
 40
0.0
 40
0.0
 40
0.0090459071881971
 40
0.1032433785236816
 40
0.1542564497735189
 40
0.31331690267151
 40
0.5243720399414428
 40
0.6678060008509183
 40
0.9918332554187028
 40
1.0
 40
1.0
 40
1.0
 40
1.0
 10
121.841745266951
 20
86.24774140324638
 30
0.0
 10
121.8417395749843
 20
86.24942250183081
 30
0.0
 10
121.8416746110335
 20
86.26860933338631
 30
0.0
 10
121.8396789245976
 20
86.2973036129063
 30
0.0
 10
121.8318619283812
 20
86.34797965287824
 30
0.0
 10
121.8146921046262
 20
86.40585595245513
 30
0.0
 10
121.7881082080587
 20
86.45072146718982
 30
0.0
 10
121.7502789095701
 20
86.48808385044435
 30
0.0
 10
121.7219981295598
 20
86.49762986271382
 30
0.0
 10
121.7021669820285
 20
86.49773872690061
 30
0.0
 10
121.7016794478857
 20
86.49774140324638
 30
0.0
  0
SPLINE
  5
A0
330
1F
100
AcDbEntity
  8
0
  6
Continuous
 62
     7
370
    25
100
AcDbSpline
210
0.0
220
0.0
230
1.0
 70
     8
 71
     3
 72
    15
 73
    11
 74
     0
 42
0.00000001
 43
0.00000001
 40
0.0
 40
0.0
 40
0.0
 40
0.0
 40
0.0081667445812973
 40
0.3321939991490804
 40
0.475627960058556
 40
0.6866830973284891
 40
0.8457435502264751
 40
0.8967566214763124
 40
0.9909540928118028
 40
1.0
 40
1.0
 40
1.0
 40
1.0
 10
111.5036404207001
 20
86.49774140324638
 30
0.0
 10
111.5031528865572
 20
86.4977387269006
 30
0.0
 10
111.483321739026
 20
86.49762986271377
 30
0.0
 10
111.4550409590157
 20
86.48808385044437
 30
0.0
 10
111.4172116605271
 20
86.45072146718982
 30
0.0
 10
111.3906277639596
 20
86.40585595245513
 30
0.0
 10
111.3734579402046
 20
86.34797965287824
 30
0.0
 10
111.3656409439881
 20
86.29730361290632
 30
0.0
 10
111.3636452575522
 20
86.26860933338628
 30
0.0
 10
111.3635802936015
 20
86.24942250183081
 30
0.0
 10
111.3635746016348
 20
86.24774140324638
 30
0.0
  0
LINE
  5
A1
330
1F
100
AcDbEntity
  8
0
  6
Continuous
 62
     7
370
    25
100
AcDbLine
 10
111.5036404207
 20
86.4977414032
 30
0.0
 11
121.7016794479
 21
86.4977414032
 31
0.0
  0
SPLINE
  5
A2
330
1F
100
AcDbEntity
  8
0
  6
Continuous
 62
     7
370
    25
100
AcDbSpline
210
0.0
220
0.0
230
1.0
 70
     8
 71
     3
 72
    15
 73
    11
 74
     0
 42
0.00000001
 43
0.00000001
 40
0.0
 40
0.0
 40
0.0
 40
0.0
 40
0.0089557228015919
 40
0.0999003359608209
 40
0.1531632460581751
 40
0.3125636920784904
 40
0.5249666935695061
 40
0.6689893599351777
 40
0.991915253381045
 40
1.0
 40
1.0
 40
1.0
 40
1.0
 10
111.1254343592412
 20
86.24774140324638
 30
0.0
 10
111.1254501148198
 20
86.24942252881928
 30
0.0
 10
111.1256258669764
 20
86.26817534344372
 30
0.0
 10
111.1310548829959
 20
86.29693757255123
 30
0.0
 10
111.1525903667032
 20
86.34782464601955
 30
0.0
 10
111.2002957949681
 20
86.40596029615219
 30
0.0
 10
111.27268673996
 20
86.4506681693356
 30
0.0
 10
111.3746058519776
 20
86.48794999279735
 30
0.0
 10
111.4499609434327
 20
86.49762914763498
 30
0.0
 10
111.502360589156
 20
86.4977387268367
 30
0.0
 10
111.5036404207001
 20
86.49774140324638
 30
0.0
  0
LINE
  5
A3
330
1F
100
AcDbEntity
  8
0
  6
Continuous
 62
     7
370
    25
100
AcDbLine
 10
111.1254343592
 20
86.2477414032
 30
0.0
 11
111.3635746016
 21
86.2477414032
 31
0.0
  0
SPLINE
  5
A4
330
1F
100
AcDbEntity
  8
0
  6
Continuous
 62
     7
370
    25
100
AcDbSpline
210
0.0
220
0.0
230
1.0
 70
     8
 71
     3
 72
    15
 73
    11
 74
     0
 42
0.00000001
 43
0.00000001
 40
0.0
 40
0.0
 40
0.0
 40
0.0
 40
0.0080847466189582
 40
0.3310106400648243
 40
0.4750333064304948
 40
0.6874363079215142
 40
0.8468367539418303
 40
0.9000996640391847
 40
0.9910442771984082
 40
1.0
 40
1.0
 40
1.0
 40
1.0
 10
121.7016794478857
 20
86.49774140324638
 30
0.0
 10
121.7029592794298
 20
86.4977387268367
 30
0.0
 10
121.755358925153
 20
86.49762914763498
 30
0.0
 10
121.8307140166082
 20
86.48794999279734
 30
0.0
 10
121.9326331286258
 20
86.45066816933561
 30
0.0
 10
122.0050240736177
 20
86.40596029615219
 30
0.0
 10
122.0527295018826
 20
86.34782464601955
 30
0.0
 10
122.0742649855899
 20
86.29693757255122
 30
0.0
 10
122.0796940016094
 20
86.26817534344372
 30
0.0
 10
122.0798697537659
 20
86.24942252881928
 30
0.0
 10
122.0798855093445
 20
86.24774140324638
 30
0.0
  0
LINE
  5
A5
330
1F
100
AcDbEntity
  8
0
  6
Continuous
 62
     7
370
    25
100
AcDbLine
 10
121.841745267
 20
86.2477414032
 30
0.0
 11
122.0798855093
 21
86.2477414032
 31
0.0
  0
LINE
  5
A6
330
1F
100
AcDbEntity
  8
0
  6
Continuous
 62
     7
370
    25
100
AcDbLine
 10
111.1254343592
 20
85.6477414032
 30
0.0
 11
111.1254343592
 21
86.2477414032
 31
0.0
  0
LINE
  5
A7
330
1F
100
AcDbEntity
  8
0
  6
Continuous
 62
     7
370
    25
100
AcDbLine
 10
111.3635746016
 20
85.6477414032
 30
0.0
 11
111.1254343592
 21
85.6477414032
 31
0.0
  0
LINE
  5
A8
330
1F
100
AcDbEntity
  8
0
  6
Continuous
 62
     7
370
    25
100
AcDbLine
 10
122.0798855093
 20
86.2477414032
 30
0.0
 11
122.0798855093
 21
85.6477414032
 31
0.0
  0
LINE
  5
A9
330
1F
100
AcDbEntity
  8
0
  6
Continuous
 62
     7
370
    25
100
AcDbLine
 10
122.0798855093
 20
85.6477414032
 30
0.0
 11
121.841745267
 21
85.6477414032
 31
0.0
  0
LINE
  5
AA
330
1F
100
AcDbEntity
  8
0
  6
Continuous
 62
     7
370
    25
100
AcDbLine
 10
110.6026599343
 20
85.6477414032
 30
0.0
 11
110.6026599343
 21
86.2477414032
 31
0.0
  0
LINE
  5
AB
330
1F
100
AcDbEntity
  8
0
  6
Continuous
 62
     7
370
    25
100
AcDbLine
 10
110.6026599343
 20
86.2477414032
 30
0.0
 11
110.8526599343
 21
86.2477414032
 31
0.0
  0
LINE
  5
AC
330
1F
100
AcDbEntity
  8
0
  6
Continuous
 62
     7
370
    25
100
AcDbLine
 10
110.8526599343
 20
86.2477414032
 30
0.0
 11
110.8526599343
 21
85.6477414032
 31
0.0
  0
LINE
  5
AD
330
1F
100
AcDbEntity
  8
0
  6
Continuous
 62
     7
370
    25
100
AcDbLine
 10
110.8526599343
 20
85.6477414032
 30
0.0
 11
110.6026599343
 21
85.6477414032
 31
0.0
  0
ARC
  5
AE
330
1F
100
AcDbEntity
  8
0
  6
Continuous
 62
     7
370
    25
100
AcDbCircle
 10
110.8526599343
 20
86.2477414032
 30
0.0
 40
0.25
100
AcDbArc
 50
90.0
 51
180.0
  0
LINE
  5
AF
330
1F
100
AcDbEntity
  8
0
  6
Continuous
 62
     7
370
    25
100
AcDbLine
 10
110.8526599343
 20
86.4977414032
 30
0.0
 11
110.8526599343
 21
86.2477414032
 31
0.0
  0
LINE
  5
B0
330
1F
100
AcDbEntity
  8
0
  6
Continuous
 62
     7
370
    25
100
AcDbLine
 10
111.1254343592
 20
86.2477414032
 30
0.0
 11
110.8526599343
 21
86.2477414032
 31
0.0
  0
LINE
  5
B1
330
1F
100
AcDbEntity
  8
0
  6
Continuous
 62
     7
370
    25
100
AcDbLine
 10
110.8526599343
 20
86.4977414032
 30
0.0
 11
111.5036404207
 21
86.4977414032
 31
0.0
  0
LINE
  5
B2
330
1F
100
AcDbEntity
  8
0
  6
Continuous
 62
     7
370
    25
100
AcDbLine
 10
110.8526599343
 20
85.6477414032
 30
0.0
 11
111.1254343592
 21
85.6477414032
 31
0.0
  0
LINE
  5
B3
330
1F
100
AcDbEntity
  8
0
  6
Continuous
 62
     7
370
    25
100
AcDbLine
 10
122.3526599343
 20
86.2477414032
 30
0.0
 11
122.3526599343
 21
86.4977414032
 31
0.0
  0
LINE
  5
B4
330
1F
100
AcDbEntity
  8
0
  6
Continuous
 62
     7
370
    25
100
AcDbLine
 10
122.3526599343
 20
86.2477414032
 30
0.0
 11
122.0798855093
 21
86.2477414032
 31
0.0
  0
LINE
  5
B5
330
1F
100
AcDbEntity
  8
0
  6
Continuous
 62
     7
370
    25
100
AcDbLine
 10
121.7016794479
 20
86.4977414032
 30
0.0
 11
122.3526599343
 21
86.4977414032
 31
0.0
  0
LINE
  5
B6
330
1F
100
AcDbEntity
  8
0
  6
Continuous
 62
     7
370
    25
100
AcDbLine
 10
122.3526599343
 20
85.6477414032
 30
0.0
 11
122.3526599343
 21
86.2477414032
 31
0.0
  0
LINE
  5
B7
330
1F
100
AcDbEntity
  8
0
  6
Continuous
 62
     7
370
    25
100
AcDbLine
 10
122.3526599343
 20
86.2477414032
 30
0.0
 11
122.6026599343
 21
86.2477414032
 31
0.0
  0
LINE
  5
B8
330
1F
100
AcDbEntity
  8
0
  6
Continuous
 62
     7
370
    25
100
AcDbLine
 10
122.6026599343
 20
86.2477414032
 30
0.0
 11
122.6026599343
 21
85.6477414032
 31
0.0
  0
LINE
  5
B9
330
1F
100
AcDbEntity
  8
0
  6
Continuous
 62
     7
370
    25
100
AcDbLine
 10
122.6026599343
 20
85.6477414032
 30
0.0
 11
122.3526599343
 21
85.6477414032
 31
0.0
  0
ARC
  5
BA
330
1F
100
AcDbEntity
  8
0
  6
Continuous
 62
     7
370
    25
100
AcDbCircle
 10
122.3526599343
 20
86.2477414032
 30
0.0
 40
0.25
100
AcDbArc
 50
0.0
 51
90.0
  0
LINE
  5
BB
330
1F
100
AcDbEntity
  8
0
  6
Continuous
 62
     7
370
    25
100
AcDbLine
 10
122.0798855093
 20
85.6477414032
 30
0.0
 11
122.3526599343
 21
85.6477414032
 31
0.0
  0
LINE
  5
BC
330
1F
100
AcDbEntity
  8
0
  6
Continuous
 62
     7
370
    25
100
AcDbLine
 10
121.6026599343
 20
86.4977414032
 30
0.0
 11
121.6026599343
 21
86.5077414032
 31
0.0
  0
LINE
  5
BD
330
1F
100
AcDbEntity
  8
0
  6
Continuous
 62
     7
370
    25
100
AcDbLine
 10
111.6026599343
 20
86.4977414032
 30
0.0
 11
111.6026599343
 21
86.5077414032
 31
0.0
  0
LINE
  5
BE
330
1F
100
AcDbEntity
  8
0
  6
Continuous
 62
     7
370
    25
100
AcDbLine
 10
111.6026599343
 20
86.5077414032
 30
0.0
 11
121.6026599343
 21
86.5077414032
 31
0.0
  0
LINE
  5
BF
330
1F
100
AcDbEntity
  8
0
  6
Continuous
 62
     7
370
    25
100
AcDbLine
 10
112.1281130502
 20
77.6477414032
 30
0.0
 11
124.0526599343
 21
77.6477414032
 31
0.0
  0
SPLINE
  5
C0
330
1F
100
AcDbEntity
  8
0
  6
Continuous
 62
     7
370
    25
100
AcDbSpline
210
0.0
220
0.0
230
1.0
 70
     8
 71
     3
 72
     9
 73
     5
 74
     0
 42
0.00000001
 43
0.00000001
 40
0.0
 40
0.0
 40
0.0
 40
0.0
 40
0.4978401817595071
 40
1.0
 40
1.0
 40
1.0
 40
1.0
 10
112.8883238059725
 20
78.64248498121331
 30
0.0
 10
112.7520018976018
 20
78.4859737985207
 30
0.0
 10
112.478175249281
 20
78.1715934242017
 30
0.0
 10
112.2451359981843
 20
77.82286087617543
 30
0.0
 10
112.1281130502107
 20
77.64774140324401
 30
0.0
  0
LINE
  5
C1
330
1F
100
AcDbEntity
  8
0
  6
Continuous
 62
     7
370
    25
100
AcDbLine
 10
111.3788577599
 20
85.6477414032
 30
0.0
 11
109.650719096
 21
78.6424849812
 31
0.0
  0
LINE
  5
C2
330
1F
100
AcDbEntity
  8
0
  6
Continuous
 62
     7
370
    25
100
AcDbLine
 10
121.841745267
 20
85.6477414032
 30
0.0
 11
111.3788577599
 21
85.6477414032
 31
0.0
  0
LINE
  5
C3
330
1F
100
AcDbEntity
  8
0
  6
Continuous
 62
     7
370
    25
100
AcDbLine
 10
114.6026599343
 20
69.6477414032
 30
0.0
 11
123.6026599343
 21
69.6477414032
 31
0.0
  0
LINE
  5
C4
330
1F
100
AcDbEntity
  8
0
  6
Continuous
 62
     7
370
    25
100
AcDbLine
 10
114.6026599343
 20
69.685558327
 30
0.0
 11
114.6026599343
 21
69.6477414032
 31
0.0
  0
SPLINE
  5
C5
330
1F
100
AcDbEntity
  8
0
  6
Continuous
 62
     7
370
    25
100
AcDbSpline
210
0.0
220
0.0
230
1.0
 70
     8
 71
     3
 72
     9
 73
     5
 74
     0
 42
0.00000001
 43
0.00000001
 40
0.0
 40
0.0
 40
0.0
 40
0.0
 40
0.4875141023677128
 40
0.9999999999999999
 40
0.9999999999999999
 40
0.9999999999999999
 40
0.9999999999999999
 10
114.4467146838657
 20
69.64774140324644
 30
0.0
 10
114.4730212577883
 20
69.64946874921816
 30
0.0
 10
114.5269818997365
 20
69.65301192050963
 30
0.0
 10
114.5770174304313
 20
69.67453040645893
 30
0.0
 10
114.6026599342929
 20
69.68555832704637
 30
0.0
  0
SPLINE
  5
C6
330
1F
100
AcDbEntity
  8
0
  6
Continuous
 62
     7
370
    25
100
AcDbSpline
210
0.0
220
0.0
230
1.0
 70
     8
 71
     3
 72
    17
 73
    13
 74
     0
 42
0.00000001
 43
0.00000001
 40
0.0
 40
0.0
 40
0.0
 40
0.0
 40
0.3241697628029873
 40
0.5422758463620719
 40
0.689509052693928
 40
0.7894036290694505
 40
0.8577090008137825
 40
0.9049823971474137
 40
0.9551712229700868
 40
0.9753097783197817
 40
0.9919572060138848
 40
1.0
 40
1.0
 40
1.0
 40
1.0
 10
112.1281130502107
 20
77.64774140324401
 30
0.0
 10
112.2708284102279
 20
76.73512790063835
 30
0.0
 10
112.5095647191699
 20
75.208494894377
 30
0.0
 10
112.8891519136215
 20
73.28172199209602
 30
0.0
 10
113.1982861219686
 20
71.99408652116327
 30
0.0
 10
113.4543996501687
 20
71.13493455444151
 30
0.0
 10
113.6687106530637
 20
70.5614666660641
 30
0.0
 10
113.8719448740916
 20
70.13993451203416
 30
0.0
 10
114.0564901386342
 20
69.85944196923873
 30
0.0
 10
114.2425612250024
 20
69.70389330065805
 30
0.0
 10
114.3577718242583
 20
69.65328270146055
 30
0.0
 10
114.4248606297312
 20
69.64910294965591
 30
0.0
 10
114.4467146838657
 20
69.64774140324644
 30
0.0
  0
SPLINE
  5
C7
330
1F
100
AcDbEntity
  8
0
  6
Continuous
 62
     7
370
    25
100
AcDbSpline
210
0.0
220
0.0
230
1.0
 70
     8
 71
     3
 72
    14
 73
    10
 74
     0
 42
0.00000001
 43
0.00000001
 40
0.0
 40
0.0
 40
0.0
 40
0.0
 40
0.1576095309202822
 40
0.3152382602707096
 40
0.4726926441579499
 40
0.6301650083177254
 40
0.7907313191165901
 40
0.9513050385928076
 40
1.0
 40
1.0
 40
1.0
 40
1.0
 10
110.1026599342929
 20
69.64774140324639
 30
0.0
 10
110.0360889195109
 20
69.86124319172377
 30
0.0
 10
109.9029387809259
 20
70.2882727753493
 30
0.0
 10
109.5743718191752
 20
70.87351985420561
 30
0.0
 10
109.1609821784432
 20
71.39567439502802
 30
0.0
 10
108.6653072594986
 20
71.8446525224479
 30
0.0
 10
108.0990175542141
 20
72.20393425425428
 30
0.0
 10
107.622766897821
 20
72.40850043335546
 30
0.0
 10
107.3425723296283
 20
72.48929498170676
 30
0.0
 10
107.2773735448552
 20
72.50809515475353
 30
0.0
  0
LINE
  5
C8
330
1F
100
AcDbEntity
  8
0
  6
Continuous
 62
     7
370
    25
100
AcDbLine
 10
107.2773735449
 20
72.5080951548
 30
0.0
 11
101.497616695
 21
74.0767165952
 31
0.0
  0
SPLINE
  5
C9
330
1F
100
AcDbEntity
  8
0
  6
Continuous
 62
     7
370
    25
100
AcDbSpline
210
0.0
220
0.0
230
1.0
 70
     8
 71
     3
 72
    11
 73
     7
 74
     0
 42
0.00000001
 43
0.00000001
 40
0.0
 40
0.0
 40
0.0
 40
0.0
 40
0.2488466353289359
 40
0.4976946020535202
 40
0.7488461225871275
 40
0.9999999999999999
 40
0.9999999999999999
 40
0.9999999999999999
 40
0.9999999999999999
 10
94.42722307275623
 20
75.39991709622193
 30
0.0
 10
95.0216591218925
 20
75.33039271972828
 30
0.0
 10
96.21053440055591
 20
75.19134359476712
 30
0.0
 10
97.98525907126496
 20
74.89101485664183
 30
0.0
 10
99.7518397130073
 20
74.52910523838669
 30
0.0
 10
100.915689214027
 20
74.22751328132215
 30
0.0
 10
101.497616695
 20
74.07671659523642
 30
0.0
  0
LINE
  5
CA
330
1F
100
AcDbEntity
  8
0
  6
Continuous
 62
     7
370
    25
100
AcDbLine
 10
94.4272230728
 20
75.3999170962
 30
0.0
 11
94.4272230728
 21
78.6424849812
 31
0.0
  0
LINE
  5
CB
330
1F
100
AcDbEntity
  8
0
  6
Continuous
 62
     7
370
    25
100
AcDbLine
 10
94.4272230728
 20
78.6424849812
 30
0.0
 11
112.888323806
 21
78.6424849812
 31
0.0
  0
LINE
  5
CC
330
1F
100
AcDbEntity
  8
0
  6
Continuous
 62
     7
370
    25
100
AcDbLine
 10
114.4467146839
 20
69.6477414032
 30
0.0
 11
110.1026599343
 21
69.6477414032
 31
0.0
  0
LINE
  5
CD
330
1F
100
AcDbEntity
  8
0
  6
Continuous
 62
     7
370
    25
100
AcDbLine
 10
114.6026599343
 20
69.685558327
 30
0.0
 11
114.5958605764
 21
69.6477414032
 31
0.0
  0
LINE
  5
CE
330
1F
100
AcDbEntity
  8
0
  6
Continuous
 62
     7
370
    25
100
AcDbLine
 10
114.6026599343
 20
69.6477414032
 30
0.0
 11
114.5958605764
 21
69.6477414032
 31
0.0
  0
LINE
  5
CF
330
1F
100
AcDbEntity
  8
0
  6
Continuous
 62
     7
370
    25
100
AcDbLine
 10
114.5958605764
 20
69.6477414032
 30
0.0
 11
114.4467146839
 21
69.6477414032
 31
0.0
  0
LINE
  5
D0
330
1F
100
AcDbEntity
  8
0
  6
Continuous
 62
     7
370
    25
100
AcDbLine
 10
76.6026599343
 20
87.6477414032
 30
0.0
 11
94.4272230728
 21
87.6477414032
 31
0.0
  0
LINE
  5
D1
330
1F
100
AcDbEntity
  8
0
  6
Continuous
 62
     7
370
    25
100
AcDbLine
 10
94.4272230728
 20
87.6477414032
 30
0.0
 11
94.4272230728
 21
78.6424849812
 31
0.0
  0
LINE
  5
D2
330
1F
100
AcDbEntity
  8
0
  6
Continuous
 62
     7
370
    25
100
AcDbLine
 10
89.7109920765
 20
75.6477414032
 30
0.0
 11
81.6026599343
 21
75.6477414032
 31
0.0
  0
ARC
  5
D3
330
1F
100
AcDbEntity
  8
0
  6
Continuous
 62
     7
370
    25
100
AcDbCircle
 10
81.6026599343
 20
80.6477414032
 30
0.0
 40
4.999999999999986
100
AcDbArc
 50
180.0
 51
270.0
  0
LINE
  5
D4
330
1F
100
AcDbEntity
  8
0
  6
Continuous
 62
     7
370
    25
100
AcDbLine
 10
76.6026599343
 20
80.6477414032
 30
0.0
 11
76.6026599343
 21
87.6477414032
 31
0.0
  0
ARC
  5
D5
330
1F
100
AcDbEntity
  8
0
  6
Continuous
 62
     7
370
    25
100
AcDbCircle
 10
89.7109920765
 20
30.6476121491
 30
0.0
 40
45.00012925418374
100
AcDbArc
 50
83.9840777705
 51
90.0
  0
LINE
  5
D6
330
1F
100
AcDbEntity
  8
0
  6
Continuous
 62
     7
370
    25
100
AcDbLine
 10
96.6026599343
 20
87.6477414032
 30
0.0
 11
96.6026599343
 21
85.6666969266
 31
0.0
  0
ARC
  5
D7
330
1F
100
AcDbEntity
  8
0
  6
Continuous
 62
     7
370
    25
100
AcDbCircle
 10
102.6026599343
 20
85.6666969266
 30
0.0
 40
6.000000000000004
100
AcDbArc
 50
180.0
 51
275.5801667845
  0
ARC
  5
D8
330
1F
100
AcDbEntity
  8
0
  6
Continuous
 62
     7
370
    25
100
AcDbCircle
 10
102.21370637
 20
89.6477414032
 30
0.0
 40
10.00000000000846
100
AcDbArc
 50
275.5801667845
 51
336.4218215217
  0
LINE
  5
D9
330
1F
100
AcDbEntity
  8
0
  6
Continuous
 62
     7
370
    25
100
AcDbLine
 10
94.4272230728
 20
87.6477414032
 30
0.0
 11
96.6026599343
 21
87.6477414032
 31
0.0
  0
LINE
  5
DA
330
1F
100
AcDbEntity
  8
0
  6
Continuous
 62
     7
370
    25
100
AcDbLine
 10
110.1026599343
 20
69.6477414032
 30
0.0
 11
109.6026599343
 21
69.6477414032
 31
0.0
  0
LINE
  5
DB
330
1F
100
AcDbEntity
  8
0
  6
Continuous
 62
     7
370
    25
100
AcDbLine
 10
111.3635746016
 20
85.6477414032
 30
0.0
 11
111.3788577599
 21
85.6477414032
 31
0.0
  0
SPLINE
  5
DC
330
1F
100
AcDbEntity
  8
0
  6
Continuous
 62
     7
370
    25
100
AcDbSpline
210
0.0
220
0.0
230
1.0
 70
     8
 71
     3
 72
    10
 73
     6
 74
     0
 42
0.00000001
 43
0.00000001
 40
0.0
 40
0.0
 40
0.0
 40
0.0
 40
0.5000000000000001
 40
0.5000000000000001
 40
1.0
 40
1.0
 40
1.0
 40
1.0
 10
111.9838577807759
 20
47.82546280850654
 30
0.0
 10
112.7345364802717
 20
47.61853275497386
 30
0.0
 10
113.4988174244944
 20
47.44672714460015
 30
0.0
 10
115.0533921585819
 20
47.20977663806877
 30
0.0
 10
115.828967126098
 20
47.14774140324638
 30
0.0
 10
116.6026599342929
 20
47.14774140324639
 30
0.0
  0
LINE
  5
DD
330
1F
100
AcDbEntity
  8
0
  6
Continuous
 62
     7
370
    25
100
AcDbLine
 10
111.9838577808
 20
51.1813448634
 30
0.0
 11
111.9838577808
 21
47.8254628085
 31
0.0
  0
SPLINE
  5
DE
330
1F
100
AcDbEntity
  8
0
  6
Continuous
 62
     7
370
    25
100
AcDbSpline
210
0.0
220
0.0
230
1.0
 70
     8
 71
     3
 72
     8
 73
     4
 74
     0
 42
0.00000001
 43
0.00000001
 40
0.0
 40
0.0
 40
0.0
 40
0.0
 40
1.0
 40
1.0
 40
1.0
 40
1.0
 10
111.9838577807759
 20
51.18134486339139
 30
0.0
 10
112.1890436033192
 20
51.23790583051561
 30
0.0
 10
112.3952668040265
 20
51.29184590192944
 30
0.0
 10
112.6026599342929
 20
51.34283019167241
 30
0.0
  0
LINE
  5
DF
330
1F
100
AcDbEntity
  8
0
  6
Continuous
 62
     7
370
    25
100
AcDbLine
 10
112.6026599343
 20
51.3428301917
 30
0.0
 11
112.6026599343
 21
55.1477414032
 31
0.0
  0
SPLINE
  5
E0
330
1F
100
AcDbEntity
  8
0
  6
Continuous
 62
     7
370
    25
100
AcDbSpline
210
0.0
220
0.0
230
1.0
 70
     8
 71
     3
 72
     8
 73
     4
 74
     0
 42
0.00000001
 43
0.00000001
 40
0.0
 40
0.0
 40
0.0
 40
0.0
 40
1.0
 40
1.0
 40
1.0
 40
1.0
 10
109.9249385290327
 20
54.52893924972935
 30
0.0
 10
109.981501898501
 20
54.73413378723911
 30
0.0
 10
110.0354418213222
 20
54.94035744075627
 30
0.0
 10
110.0864238573137
 20
55.14774140324638
 30
0.0
  0
LINE
  5
E1
330
1F
100
AcDbEntity
  8
0
  6
Continuous
 62
     7
370
    25
100
AcDbLine
 10
105.7803813396
 20
54.5289392497
 30
0.0
 11
109.924938529
 21
54.5289392497
 31
0.0
  0
SPLINE
  5
E2
330
1F
100
AcDbEntity
  8
0
  6
Continuous
 62
     7
370
    25
100
AcDbSpline
210
0.0
220
0.0
230
1.0
 70
     8
 71
     3
 72
    10
 73
     6
 74
     0
 42
0.00000001
 43
0.00000001
 40
0.0
 40
0.0
 40
0.0
 40
0.0
 40
0.5
 40
0.5
 40
1.0
 40
1.0
 40
1.0
 40
1.0
 10
105.7803813395531
 20
54.52893924972937
 30
0.0
 10
105.5723126633219
 20
55.28374852277866
 30
0.0
 10
105.4019136572973
 20
56.04449491001056
 30
0.0
 10
105.1667536775985
 20
57.58263728763382
 30
0.0
 10
105.1026599342929
 20
58.36013844015864
 30
0.0
 10
105.1026599342929
 20
59.14774140324639
 30
0.0
  0
SPLINE
  5
E3
330
1F
100
AcDbEntity
  8
0
  6
Continuous
 62
     7
370
    25
100
AcDbSpline
210
0.0
220
0.0
230
1.0
 70
     8
 71
     3
 72
    12
 73
     8
 74
     0
 42
0.00000001
 43
0.00000001
 40
0.0
 40
0.0
 40
0.0
 40
0.0
 40
0.2500000000000001
 40
0.2500000000000001
 40
0.5000000000000001
 40
0.5000000000000001
 40
1.0
 40
1.0
 40
1.0
 40
1.0
 10
105.1026599342929
 20
59.14774140324639
 30
0.0
 10
105.1026599342929
 20
59.54205948391822
 30
0.0
 10
105.118658739274
 20
59.93571852786866
 30
0.0
 10
105.1804288775884
 20
60.715254527414
 30
0.0
 10
105.22617100189
 20
61.10220771553942
 30
0.0
 10
105.4028411492368
 20
62.25559427839342
 30
0.0
 10
105.5730962147171
 20
63.01457676759846
 30
0.0
 10
105.7803813395531
 20
63.76654355676339
 30
0.0
  0
LINE
  5
E4
330
1F
100
AcDbEntity
  8
0
  6
Continuous
 62
     7
370
    25
100
AcDbLine
 10
109.924938529
 20
63.7665435568
 30
0.0
 11
105.7803813396
 21
63.7665435568
 31
0.0
  0
SPLINE
  5
E5
330
1F
100
AcDbEntity
  8
0
  6
Continuous
 62
     7
370
    25
100
AcDbSpline
210
0.0
220
0.0
230
1.0
 70
     8
 71
     3
 72
     8
 73
     4
 74
     0
 42
0.00000001
 43
0.00000001
 40
0.0
 40
0.0
 40
0.0
 40
0.0
 40
1.0
 40
1.0
 40
1.0
 40
1.0
 10
110.0864238573137
 20
63.14774140324639
 30
0.0
 10
110.0355251403912
 20
63.35478644167537
 30
0.0
 10
109.9815910041404
 20
63.56102577135201
 30
0.0
 10
109.9249385290327
 20
63.76654355676339
 30
0.0
  0
SPLINE
  5
E6
330
1F
100
AcDbEntity
  8
0
  6
Continuous
 62
     7
370
    25
100
AcDbSpline
210
0.0
220
0.0
230
1.0
 70
     8
 71
     3
 72
     8
 73
     4
 74
     0
 42
0.00000001
 43
0.00000001
 40
0.0
 40
0.0
 40
0.0
 40
0.0
 40
1.0
 40
1.0
 40
1.0
 40
1.0
 10
123.1188960112721
 20
63.14774140324646
 30
0.0
 10
123.1697922445272
 20
63.3547763386502
 30
0.0
 10
123.2237261994908
 20
63.5610161037152
 30
0.0
 10
123.2803813395531
 20
63.76654355676339
 30
0.0
  0
LINE
  5
E7
330
1F
100
AcDbEntity
  8
0
  6
Continuous
 62
     7
370
    25
100
AcDbLine
 10
127.7806009617
 20
63.7665435568
 30
0.0
 11
123.2803813396
 21
63.7665435568
 31
0.0
  0
SPLINE
  5
E8
330
1F
100
AcDbEntity
  8
0
  6
Continuous
 62
     7
370
    25
100
AcDbSpline
210
0.0
220
0.0
230
1.0
 70
     8
 71
     3
 72
    14
 73
    10
 74
     0
 42
0.00000001
 43
0.00000001
 40
0.0
 40
0.0
 40
0.0
 40
0.0
 40
0.25
 40
0.25
 40
0.5
 40
0.5
 40
0.75
 40
0.75
 40
1.0
 40
1.0
 40
1.0
 40
1.0
 10
127.7806009617353
 20
54.52893924972933
 30
0.0
 10
127.9885513224411
 20
55.28331931037932
 30
0.0
 10
128.16077313113
 20
56.05276047784481
 30
0.0
 10
128.3954082538808
 20
57.59327183878597
 30
0.0
 10
128.4583523125085
 20
58.36812621879299
 30
0.0
 10
128.4582923997771
 20
59.92848717367855
 30
0.0
 10
128.393677733485
 20
60.71894336646358
 30
0.0
 10
128.1571183940837
 20
62.26122302927205
 30
0.0
 10
127.9867732540043
 20
63.01861378247324
 30
0.0
 10
127.7806009617353
 20
63.76654355676339
 30
0.0
  0
LINE
  5
E9
330
1F
100
AcDbEntity
  8
0
  6
Continuous
 62
     7
370
    25
100
AcDbLine
 10
123.2803813396
 20
54.5289392497
 30
0.0
 11
127.7806009617
 21
54.5289392497
 31
0.0
  0
SPLINE
  5
EA
330
1F
100
AcDbEntity
  8
0
  6
Continuous
 62
     7
370
    25
100
AcDbSpline
210
0.0
220
0.0
230
1.0
 70
     8
 71
     3
 72
     8
 73
     4
 74
     0
 42
0.00000001
 43
0.00000001
 40
0.0
 40
0.0
 40
0.0
 40
0.0
 40
1.0
 40
1.0
 40
1.0
 40
1.0
 10
123.2803813395531
 20
54.52893924972935
 30
0.0
 10
123.2238194961161
 20
54.73412825126617
 30
0.0
 10
123.1698794788598
 20
54.94035161733087
 30
0.0
 10
123.1188960112721
 20
55.14774140324633
 30
0.0
  0
LINE
  5
EB
330
1F
100
AcDbEntity
  8
0
  6
Continuous
 62
     7
370
    25
100
AcDbLine
 10
123.1188960113
 20
55.1477414032
 30
0.0
 11
120.6026599343
 21
55.1477414032
 31
0.0
  0
LINE
  5
EC
330
1F
100
AcDbEntity
  8
0
  6
Continuous
 62
     7
370
    25
100
AcDbLine
 10
120.6026599343
 20
51.3428301917
 30
0.0
 11
120.6026599343
 21
55.1477414032
 31
0.0
  0
SPLINE
  5
ED
330
1F
100
AcDbEntity
  8
0
  6
Continuous
 62
     7
370
    25
100
AcDbSpline
210
0.0
220
0.0
230
1.0
 70
     8
 71
     3
 72
     8
 73
     4
 74
     0
 42
0.00000001
 43
0.00000001
 40
0.0
 40
0.0
 40
0.0
 40
0.0
 40
1.0
 40
1.0
 40
1.0
 40
1.0
 10
120.6026599342929
 20
51.3428301916724
 30
0.0
 10
120.8096889976283
 20
51.29193540197158
 30
0.0
 10
121.0159290148976
 20
51.23800155261014
 30
0.0
 10
121.2214620878099
 20
51.18134486339138
 30
0.0
  0
LINE
  5
EE
330
1F
100
AcDbEntity
  8
0
  6
Continuous
 62
     7
370
    25
100
AcDbLine
 10
121.2214620878
 20
47.8254628085
 30
0.0
 11
121.2214620878
 21
51.1813448634
 31
0.0
  0
SPLINE
  5
EF
330
1F
100
AcDbEntity
  8
0
  6
Continuous
 62
     7
370
    25
100
AcDbSpline
210
0.0
220
0.0
230
1.0
 70
     8
 71
     3
 72
    10
 73
     6
 74
     0
 42
0.00000001
 43
0.00000001
 40
0.0
 40
0.0
 40
0.0
 40
0.0
 40
0.5
 40
0.5
 40
1.0
 40
1.0
 40
1.0
 40
1.0
 10
116.6026599342929
 20
47.14774140324639
 30
0.0
 10
117.3782398708999
 20
47.14774140324639
 30
0.0
 10
118.1519300896263
 20
47.21002576522491
 30
0.0
 10
119.6959646319592
 20
47.44487388323193
 30
0.0
 10
120.469273308114
 20
47.61811649036313
 30
0.0
 10
121.2214620878099
 20
47.82546280850657
 30
0.0
  0
ARC
  5
F0
330
1F
100
AcDbEntity
  8
0
  6
Continuous
 62
     7
370
    25
100
AcDbCircle
 10
118.15339129
 20
58.5708224099
 30
0.0
 40
0.8889999999999868
100
AcDbArc
 50
45.0
 51
315.0
  0
LINE
  5
F1
330
1F
100
AcDbEntity
  8
0
  6
Continuous
 62
     7
370
    25
100
AcDbLine
 10
118.7820092185
 20
59.1994403384
 30
0.0
 11
119.2486196041
 21
59.666050724
 31
0.0
  0
ARC
  5
F2
330
1F
100
AcDbEntity
  8
0
  6
Continuous
 62
     7
370
    25
100
AcDbCircle
 10
118.15339129
 20
58.5708224099
 30
0.0
 40
1.548886735692384
100
AcDbArc
 50
45.0
 51
315.0
  0
LINE
  5
F3
330
1F
100
AcDbEntity
  8
0
  6
Continuous
 62
     7
370
    25
100
AcDbLine
 10
119.2486196041
 20
57.4755940958
 30
0.0
 11
118.7820092185
 21
57.9422044815
 31
0.0
  0
ARC
  5
F4
330
1F
100
AcDbEntity
  8
0
  6
Continuous
 62
     7
370
    25
100
AcDbCircle
 10
121.4955358864
 20
58.5708224099
 30
0.0
 40
0.8889999999999768
100
AcDbArc
 50
45.0
 51
159.0751675724
  0
LINE
  5
F5
330
1F
100
AcDbEntity
  8
0
  6
Continuous
 62
     7
370
    25
100
AcDbLine
 10
122.1241538148
 20
59.1994403384
 30
0.0
 11
122.5907642005
 21
59.666050724
 31
0.0
  0
ARC
  5
F6
330
1F
100
AcDbEntity
  8
0
  6
Continuous
 62
     7
370
    25
100
AcDbCircle
 10
121.4955358864
 20
58.5708224099
 30
0.0
 40
1.548886735692379
100
AcDbArc
 50
45.0
 51
315.0
  0
LINE
  5
F7
330
1F
100
AcDbEntity
  8
0
  6
Continuous
 62
     7
370
    25
100
AcDbLine
 10
122.5907642005
 20
57.4755940958
 30
0.0
 11
122.1241538148
 21
57.9422044815
 31
0.0
  0
ARC
  5
F8
330
1F
100
AcDbEntity
  8
0
  6
Continuous
 62
     7
370
    25
100
AcDbCircle
 10
121.4955358864
 20
58.5708224099
 30
0.0
 40
0.889000000000014
100
AcDbArc
 50
200.9248324276
 51
315.0
  0
LINE
  5
F9
330
1F
100
AcDbEntity
  8
0
  6
Continuous
 62
     7
370
    25
100
AcDbLine
 10
120.6651656376
 20
58.2533224099
 30
0.0
 11
122.5907642005
 21
58.2533224099
 31
0.0
  0
LINE
  5
FA
330
1F
100
AcDbEntity
  8
0
  6
Continuous
 62
     7
370
    25
100
AcDbLine
 10
122.5907642005
 20
58.2533224099
 30
0.0
 11
122.5907642005
 21
58.8883224099
 31
0.0
  0
LINE
  5
FB
330
1F
100
AcDbEntity
  8
0
  6
Continuous
 62
     7
370
    25
100
AcDbLine
 10
122.5907642005
 20
58.8883224099
 30
0.0
 11
120.6651656376
 21
58.8883224099
 31
0.0
  0
LINE
  5
FC
330
1F
100
AcDbEntity
  8
0
  6
Continuous
 62
     7
370
    25
100
AcDbLine
 10
115.7009010203
 20
57.7253683857
 30
0.0
 11
115.659250701
 21
57.7015634558
 31
0.0
  0
ELLIPSE
  5
FD
330
1F
100
AcDbEntity
  8
0
  6
Continuous
 62
     7
370
    25
100
AcDbEllipse
 10
115.3104075215
 20
58.256245927
 30
0.0
 11
0.6784129479252528
 21
6.110667527536863E-13
 31
0.0
210
0.0
220
0.0
230
1.0
 40
0.9533039403
 41
3.470145824140262
 42
5.252469180536296
  0
LINE
  5
FE
330
1F
100
AcDbEntity
  8
0
  6
Continuous
 62
     7
370
    25
100
AcDbLine
 10
114.6682827545
 20
58.0475618121
 30
0.0
 11
113.4086285496
 21
61.5700062087
 31
0.0
  0
ELLIPSE
  5
FF
330
1F
100
AcDbEntity
  8
0
  6
Continuous
 62
     7
370
    25
100
AcDbEllipse
 10
112.8176459916
 20
61.3076669726
 30
0.0
 11
0.6519124952381361
 21
6.110667527536862E-13
 31
0.0
210
0.0
220
0.0
230
1.0
 40
0.9533023292
 41
0.435790504435483
 42
2.705800116361537
  0
LINE
  5
100
330
1F
100
AcDbEntity
  8
0
  6
Continuous
 62
     7
370
    25
100
AcDbLine
 10
112.2266639931
 20
61.5700073539
 30
0.0
 11
110.9672991915
 21
58.0483839522
 31
0.0
  0
ELLIPSE
  5
101
330
1F
100
AcDbEntity
  8
0
  6
Continuous
 62
     7
370
    25
100
AcDbEllipse
 10
110.3251780075
 20
58.2570667859
 30
0.0
 11
-0.6784085062757725
 21
3.268496584496461E-13
 31
0.0
210
0.0
220
0.0
230
1.0
 40
0.9533122623
 41
1.047193771187939
 42
2.813042320199948
  0
LINE
  5
102
330
1F
100
AcDbEntity
  8
0
  6
Continuous
 62
     7
370
    25
100
AcDbLine
 10
109.9859715335
 20
57.6969789407
 30
0.0
 11
109.934390963
 21
57.7253683857
 31
0.0
  0
LINE
  5
103
330
1F
100
AcDbEntity
  8
0
  6
Continuous
 62
     7
370
    25
100
AcDbLine
 10
109.934390963
 20
57.7253683857
 30
0.0
 11
110.7306596225
 21
56.2071962842
 31
0.0
  0
ELLIPSE
  5
104
330
1F
100
AcDbEntity
  8
0
  6
Continuous
 62
     7
370
    25
100
AcDbEllipse
 10
110.8065084959
 20
56.2433497992
 30
0.0
 11
0.08480161849065837
 21
-2.131628207280301E-14
 31
0.0
210
0.0
220
0.0
230
1.0
 40
0.9533039403
 41
3.605240262590711
 42
5.462183310215417
  0
ELLIPSE
  5
105
330
1F
100
AcDbEntity
  8
0
  6
Continuous
 62
     7
370
    25
100
AcDbEllipse
 10
112.8176459916
 20
54.1845011787
 30
0.0
 11
2.866293551216202
 21
-1.492139745096210E-12
 31
0.0
210
0.0
220
0.0
230
1.0
 40
0.9533046568
 41
0.8210016221243804
 42
2.320591031466442
  0
ELLIPSE
  5
106
330
1F
100
AcDbEntity
  8
0
  6
Continuous
 62
     7
370
    25
100
AcDbEllipse
 10
114.8287834874
 20
56.2433497992
 30
0.0
 11
0.08480161849061574
 21
-7.105427357601002E-15
 31
0.0
210
0.0
220
0.0
230
1.0
 40
0.9533039403
 41
3.962594650556591
 42
5.819537698177299
  0
LINE
  5
107
330
1F
100
AcDbEntity
  8
0
  6
Continuous
 62
     7
370
    25
100
AcDbLine
 10
114.9046323608
 20
56.2071962842
 30
0.0
 11
115.7009010203
 21
57.7253683857
 31
0.0
  0
LINE
  5
108
330
1F
100
AcDbEntity
  8
0
  6
Continuous
 62
     7
370
    25
100
AcDbLine
 10
123.1188960113
 20
63.1477414032
 30
0.0
 11
110.0864238573
 21
63.1477414032
 31
0.0
  0
LINE
  5
109
330
1F
100
AcDbEntity
  8
0
  6
Continuous
 62
     7
370
    25
100
AcDbLine
 10
112.6026599343
 20
55.1477414032
 30
0.0
 11
110.0864238573
 21
55.1477414032
 31
0.0
  0
LINE
  5
10A
330
1F
100
AcDbEntity
  8
0
  6
Continuous
 62
     7
370
    25
100
AcDbLine
 10
110.6026599343
 20
66.5089573354
 30
0.0
 11
110.6026599343
 21
63.1477414032
 31
0.0
  0
SPLINE
  5
10B
330
1F
100
AcDbEntity
  8
0
  6
Continuous
 62
     7
370
    25
100
AcDbSpline
210
0.0
220
0.0
230
1.0
 70
     8
 71
     3
 72
    10
 73
     6
 74
     0
 42
0.00000001
 43
0.00000001
 40
0.0
 40
0.0
 40
0.0
 40
0.0
 40
0.5
 40
0.5
 40
1.0
 40
1.0
 40
1.0
 40
1.0
 10
109.9249385290327
 20
64.19955625865562
 30
0.0
 10
109.9012631346083
 20
64.15661272775439
 30
0.0
 10
109.8881720247237
 20
64.09317028313026
 30
0.0
 10
109.8880857034354
 20
63.94069144601129
 30
0.0
 10
109.9012546373792
 20
63.85246144390403
 30
0.0
 10
109.9249385290327
 20
63.76654355676339
 30
0.0
  0
SPLINE
  5
10C
330
1F
100
AcDbEntity
  8
0
  6
Continuous
 62
     7
370
    25
100
AcDbSpline
210
0.0
220
0.0
230
1.0
 70
     8
 71
     3
 72
    12
 73
     8
 74
     0
 42
0.00000001
 43
0.00000001
 40
0.0
 40
0.0
 40
0.0
 40
0.0
 40
0.2500000000000001
 40
0.2500000000000001
 40
0.5000000000000002
 40
0.5000000000000002
 40
1.0
 40
1.0
 40
1.0
 40
1.0
 10
110.6026599342929
 20
66.50895733541412
 30
0.0
 10
110.6026599342929
 20
66.3132150725346
 30
0.0
 10
110.5868169982039
 20
66.11654846334405
 30
0.0
 10
110.5253141379663
 20
65.72728023601576
 30
0.0
 10
110.4797104969226
 20
65.53387620306283
 30
0.0
 10
110.3032594794334
 20
64.95694715180608
 30
0.0
 10
110.1328621121815
 20
64.57669771860307
 30
0.0
 10
109.9249385290327
 20
64.19955625865562
 30
0.0
  0
LINE
  5
10D
330
1F
100
AcDbEntity
  8
0
  6
Continuous
 62
     7
370
    25
100
AcDbLine
 10
122.6026599343
 20
66.5089573354
 30
0.0
 11
122.6026599343
 21
63.1477414032
 31
0.0
  0
SPLINE
  5
10E
330
1F
100
AcDbEntity
  8
0
  6
Continuous
 62
     7
370
    25
100
AcDbSpline
210
0.0
220
0.0
230
1.0
 70
     8
 71
     3
 72
    10
 73
     6
 74
     0
 42
0.00000001
 43
0.00000001
 40
0.0
 40
0.0
 40
0.0
 40
0.0
 40
0.5
 40
0.5
 40
1.0
 40
1.0
 40
1.0
 40
1.0
 10
123.2803813395531
 20
64.19955625865559
 30
0.0
 10
123.0719605867357
 20
64.57759950805774
 30
0.0
 10
122.9014967514582
 20
64.9583690128536
 30
0.0
 10
122.6665143165199
 20
65.72751753841115
 30
0.0
 10
122.6026599342929
 20
66.11594426658638
 30
0.0
 10
122.6026599342929
 20
66.50895733541412
 30
0.0
  0
SPLINE
  5
10F
330
1F
100
AcDbEntity
  8
0
  6
Continuous
 62
     7
370
    25
100
AcDbSpline
210
0.0
220
0.0
230
1.0
 70
     8
 71
     3
 72
    10
 73
     6
 74
     0
 42
0.00000001
 43
0.00000001
 40
0.0
 40
0.0
 40
0.0
 40
0.0
 40
0.5
 40
0.5
 40
1.0
 40
1.0
 40
1.0
 40
1.0
 10
123.2803813395531
 20
63.76654355676339
 30
0.0
 10
123.3040567339775
 20
63.85243061856584
 30
0.0
 10
123.3171478438621
 20
63.93983782754595
 30
0.0
 10
123.3172341651504
 20
64.09247427013969
 30
0.0
 10
123.3040652312066
 20
64.15659731508526
 30
0.0
 10
123.2803813395531
 20
64.19955625865559
 30
0.0
  0
SPLINE
  5
110
330
1F
100
AcDbEntity
  8
0
  6
Continuous
 62
     7
370
    25
100
AcDbSpline
210
0.0
220
0.0
230
1.0
 70
     8
 71
     3
 72
     8
 73
     4
 74
     0
 42
0.00000001
 43
0.00000001
 40
0.0
 40
0.0
 40
0.0
 40
0.0
 40
1.0
 40
1.0
 40
1.0
 40
1.0
 10
109.3132837496763
 20
51.85836521861765
 30
0.0
 10
109.622300892318
 20
51.95937032644778
 30
0.0
 10
109.937618648636
 20
52.05602711551371
 30
0.0
 10
110.260097975479
 20
52.14774140324639
 30
0.0
  0
SPLINE
  5
111
330
1F
100
AcDbEntity
  8
0
  6
Continuous
 62
     7
370
    25
100
AcDbSpline
210
0.0
220
0.0
230
1.0
 70
     8
 71
     3
 72
    10
 73
     6
 74
     0
 42
0.00000001
 43
0.00000001
 40
0.0
 40
0.0
 40
0.0
 40
0.0
 40
0.5
 40
0.5
 40
1.0
 40
1.0
 40
1.0
 40
1.0
 10
111.5508450788837
 20
51.18134486339138
 30
0.0
 10
111.5937886097849
 20
51.15766946896699
 30
0.0
 10
111.657231054409
 20
51.14457835908236
 30
0.0
 10
111.809709891528
 20
51.14449203779407
 30
0.0
 10
111.8979398936353
 20
51.15766097173791
 30
0.0
 10
111.9838577807759
 20
51.18134486339137
 30
0.0
  0
SPLINE
  5
112
330
1F
100
AcDbEntity
  8
0
  6
Continuous
 62
     7
370
    25
100
AcDbSpline
210
0.0
220
0.0
230
1.0
 70
     8
 71
     3
 72
    12
 73
     8
 74
     0
 42
0.00000001
 43
0.00000001
 40
0.0
 40
0.0
 40
0.0
 40
0.0
 40
0.2500000000000002
 40
0.2500000000000002
 40
0.5000000000000004
 40
0.5000000000000004
 40
1.0
 40
1.0
 40
1.0
 40
1.0
 10
109.313283749671
 20
51.85836521861152
 30
0.0
 10
109.5033099249742
 20
51.85465673275509
 30
0.0
 10
109.6935249876601
 20
51.83607422991741
 30
0.0
 10
110.0704617467925
 20
51.77120719295127
 30
0.0
 10
110.257784538052
 20
51.72494163970099
 30
0.0
 10
110.8166944943661
 20
51.54921710939404
 30
0.0
 10
111.1852301524764
 20
51.38291370061729
 30
0.0
 10
111.5508450788837
 20
51.18134486339138
 30
0.0
  0
SPLINE
  5
113
330
1F
100
AcDbEntity
  8
0
  6
Continuous
 62
     7
370
    25
100
AcDbSpline
210
0.0
220
0.0
230
1.0
 70
     8
 71
     3
 72
     8
 73
     4
 74
     0
 42
0.00000001
 43
0.00000001
 40
0.0
 40
0.0
 40
0.0
 40
0.0
 40
1.0
 40
1.0
 40
1.0
 40
1.0
 10
122.9452218931068
 20
52.14774140324639
 30
0.0
 10
123.267701219956
 20
52.05602711551192
 30
0.0
 10
123.58301897628
 20
51.95937032644402
 30
0.0
 10
123.8920361189275
 20
51.85836521861177
 30
0.0
  0
SPLINE
  5
114
330
1F
100
AcDbEntity
  8
0
  6
Continuous
 62
     7
370
    25
100
AcDbSpline
210
0.0
220
0.0
230
1.0
 70
     8
 71
     3
 72
    10
 73
     6
 74
     0
 42
0.00000001
 43
0.00000001
 40
0.0
 40
0.0
 40
0.0
 40
0.0
 40
0.5
 40
0.5
 40
1.0
 40
1.0
 40
1.0
 40
1.0
 10
121.6544747897024
 20
51.18134486339154
 30
0.0
 10
122.0209927365429
 20
51.38341154894245
 30
0.0
 10
122.3900729620088
 20
51.5498043212131
 30
0.0
 10
123.1353253102362
 20
51.78385129508316
 30
0.0
 10
123.5115380821839
 20
51.85093954904198
 30
0.0
 10
123.8920361189275
 20
51.85836521861177
 30
0.0
  0
SPLINE
  5
115
330
1F
100
AcDbEntity
  8
0
  6
Continuous
 62
     7
370
    25
100
AcDbSpline
210
0.0
220
0.0
230
1.0
 70
     8
 71
     3
 72
    10
 73
     6
 74
     0
 42
0.00000001
 43
0.00000001
 40
0.0
 40
0.0
 40
0.0
 40
0.0
 40
0.5
 40
0.5
 40
1.0
 40
1.0
 40
1.0
 40
1.0
 10
121.2214620878099
 20
51.18134486339136
 30
0.0
 10
121.3073491496124
 20
51.15766946896695
 30
0.0
 10
121.3947563585926
 20
51.14457835908232
 30
0.0
 10
121.5473928011865
 20
51.1444920377941
 30
0.0
 10
121.6115158461323
 20
51.15766097173805
 30
0.0
 10
121.6544747897025
 20
51.1813448633916
 30
0.0
  0
SPLINE
  5
116
330
1F
100
AcDbEntity
  8
0
  6
Continuous
 62
     7
370
    25
100
AcDbSpline
210
0.0
220
0.0
230
1.0
 70
     8
 71
     3
 72
    10
 73
     6
 74
     0
 42
0.00000001
 43
0.00000001
 40
0.0
 40
0.0
 40
0.0
 40
0.0
 40
0.5
 40
0.5
 40
1.0
 40
1.0
 40
1.0
 40
1.0
 10
111.5508450788837
 20
47.82546280850657
 30
0.0
 10
111.5937828879829
 20
47.84913504841814
 30
0.0
 10
111.6572234778751
 20
47.8622290383534
 30
0.0
 10
111.8097126233839
 20
47.86231590581484
 30
0.0
 10
111.8979420125873
 20
47.84914611605548
 30
0.0
 10
111.9838577807759
 20
47.82546280850657
 30
0.0
  0
LINE
  5
117
330
1F
100
AcDbEntity
  8
0
  6
Continuous
 62
     7
370
    25
100
AcDbLine
 10
111.5508450789
 20
47.8254628085
 30
0.0
 11
111.5508450789
 21
51.1813448634
 31
0.0
  0
SPLINE
  5
118
330
1F
100
AcDbEntity
  8
0
  6
Continuous
 62
     7
370
    25
100
AcDbSpline
210
0.0
220
0.0
230
1.0
 70
     8
 71
     3
 72
    10
 73
     6
 74
     0
 42
0.00000001
 43
0.00000001
 40
0.0
 40
0.0
 40
0.0
 40
0.0
 40
0.5
 40
0.5
 40
1.0
 40
1.0
 40
1.0
 40
1.0
 10
121.2214620878099
 20
47.82546280850657
 30
0.0
 10
121.3073437303163
 20
47.84913670906253
 30
0.0
 10
121.3947529362818
 20
47.86222926624167
 30
0.0
 10
121.5473954213567
 20
47.86231568022395
 30
0.0
 10
121.6115184064391
 20
47.84914528862533
 30
0.0
 10
121.6544747897021
 20
47.82546280850657
 30
0.0
  0
SPLINE
  5
119
330
1F
100
AcDbEntity
  8
0
  6
Continuous
 62
     7
370
    25
100
AcDbSpline
210
0.0
220
0.0
230
1.0
 70
     8
 71
     3
 72
    12
 73
     8
 74
     0
 42
0.00000001
 43
0.00000001
 40
0.0
 40
0.0
 40
0.0
 40
0.0
 40
0.2499999999999998
 40
0.2499999999999998
 40
0.4999999999999996
 40
0.4999999999999996
 40
1.0
 40
1.0
 40
1.0
 40
1.0
 10
123.9638758664606
 20
47.14774140324639
 30
0.0
 10
123.7688723864548
 20
47.14774140324638
 30
0.0
 10
123.5723377274304
 20
47.16348773326834
 30
0.0
 10
123.1829180398249
 20
47.22493275785377
 30
0.0
 10
122.9894333467646
 20
47.2705215171075
 30
0.0
 10
122.412249748009
 20
47.4469725193641
 30
0.0
 10
122.0318139662261
 20
47.61743022132759
 30
0.0
 10
121.6544747897021
 20
47.82546280850643
 30
0.0
  0
LINE
  5
11A
330
1F
100
AcDbEntity
  8
0
  6
Continuous
 62
     7
370
    25
100
AcDbLine
 10
116.6026599343
 20
47.1477414032
 30
0.0
 11
123.9638758665
 21
47.1477414032
 31
0.0
  0
LINE
  5
11B
330
1F
100
AcDbEntity
  8
0
  6
Continuous
 62
     7
370
    25
100
AcDbLine
 10
109.2414440021
 20
47.1477414032
 30
0.0
 11
116.6026599343
 21
47.1477414032
 31
0.0
  0
SPLINE
  5
11C
330
1F
100
AcDbEntity
  8
0
  6
Continuous
 62
     7
370
    25
100
AcDbSpline
210
0.0
220
0.0
230
1.0
 70
     8
 71
     3
 72
    10
 73
     6
 74
     0
 42
0.00000001
 43
0.00000001
 40
0.0
 40
0.0
 40
0.0
 40
0.0
 40
0.5
 40
0.5
 40
1.0
 40
1.0
 40
1.0
 40
1.0
 10
111.5508450788837
 20
47.82546280850611
 30
0.0
 10
111.1720959314924
 20
47.61665288383985
 30
0.0
 10
110.7908906550811
 20
47.44611874409259
 30
0.0
 10
110.0216600338933
 20
47.21133293907368
 30
0.0
 10
109.633592329095
 20
47.14774140324638
 30
0.0
 10
109.2414440021252
 20
47.14774140324639
 30
0.0
  0
ELLIPSE
  5
11D
330
1F
100
AcDbEntity
  8
0
  6
Continuous
 62
     7
370
    25
100
AcDbEllipse
 10
112.5488989278
 20
58.6541512638
 30
0.0
 11
0.08480161849065837
 21
-7.105427357601002E-15
 31
0.0
210
0.0
220
0.0
230
1.0
 40
0.9533039403
 41
2.798568711308354
 42
4.712388980384782
  0
ELLIPSE
  5
11E
330
1F
100
AcDbEntity
  8
0
  6
Continuous
 62
     7
370
    25
100
AcDbEllipse
 10
112.852573109
 20
59.4647338809
 30
0.0
 11
0.08480161849065837
 21
0.0
 31
0.0
210
0.0
220
0.0
230
1.0
 40
0.9533039403
 41
0.3430239404206104
 42
2.798568713169156
  0
LINE
  5
11F
330
1F
100
AcDbEntity
  8
0
  6
Continuous
 62
     7
370
    25
100
AcDbLine
 10
112.5488989278
 20
58.5733095468
 30
0.0
 11
113.1562472866
 21
58.5733095468
 31
0.0
  0
LINE
  5
120
330
1F
100
AcDbEntity
  8
0
  6
Continuous
 62
     7
370
    25
100
AcDbLine
 10
113.2361085249
 20
58.6813412755
 30
0.0
 11
112.9324343473
 21
59.4919238927
 31
0.0
  0
ELLIPSE
  5
121
330
1F
100
AcDbEntity
  8
0
  6
Continuous
 62
     7
370
    25
100
AcDbEllipse
 10
113.1562472866
 20
58.6541512638
 30
0.0
 11
-0.08480161849067258
 21
-4.973799150320701E-14
 31
0.0
210
0.0
220
0.0
230
1.0
 40
0.9533039403
 41
1.570796326794337
 42
3.484616592149193
  0
LINE
  5
122
330
1F
100
AcDbEntity
  8
0
  6
Continuous
 62
     7
370
    25
100
AcDbLine
 10
112.7727118707
 20
59.4919238927
 30
0.0
 11
112.4690376895
 21
58.6813412758
 31
0.0
  0
SPLINE
  5
123
330
1F
100
AcDbEntity
  8
0
  6
Continuous
 62
     7
370
    25
100
AcDbSpline
210
0.0
220
0.0
230
1.0
 70
     8
 71
     3
 72
    10
 73
     6
 74
     0
 42
0.00000001
 43
0.00000001
 40
0.0
 40
0.0
 40
0.0
 40
0.0
 40
0.5
 40
0.5
 40
1.0
 40
1.0
 40
1.0
 40
1.0
 10
109.9249385290326
 20
54.52893924972938
 30
0.0
 10
109.9012631346083
 20
54.44305218792692
 30
0.0
 10
109.8881720247237
 20
54.35564497894679
 30
0.0
 10
109.8880857034354
 20
54.20300853635305
 30
0.0
 10
109.9012546373792
 20
54.13888549140747
 30
0.0
 10
109.9249385290327
 20
54.09592654783716
 30
0.0
  0
LINE
  5
124
330
1F
100
AcDbEntity
  8
0
  6
Continuous
 62
     7
370
    25
100
AcDbLine
 10
109.924938529
 20
54.0959265478
 30
0.0
 11
105.7803813396
 21
54.0959265478
 31
0.0
  0
SPLINE
  5
125
330
1F
100
AcDbEntity
  8
0
  6
Continuous
 62
     7
370
    25
100
AcDbSpline
210
0.0
220
0.0
230
1.0
 70
     8
 71
     3
 72
    10
 73
     6
 74
     0
 42
0.00000001
 43
0.00000001
 40
0.0
 40
0.0
 40
0.0
 40
0.0
 40
0.5
 40
0.5
 40
1.0
 40
1.0
 40
1.0
 40
1.0
 10
105.7803813395531
 20
54.52893924972937
 30
0.0
 10
105.804055240109
 20
54.44305760722291
 30
0.0
 10
105.8171477972882
 20
54.35564840125748
 30
0.0
 10
105.8172342112705
 20
54.20300591618255
 30
0.0
 10
105.8040638196718
 20
54.13888293110018
 30
0.0
 10
105.7803813395531
 20
54.09592654783716
 30
0.0
  0
LINE
  5
126
330
1F
100
AcDbEntity
  8
0
  6
Continuous
 62
     7
370
    25
100
AcDbLine
 10
121.6544747897
 20
51.1813448634
 30
0.0
 11
121.6544747897
 21
47.8254628085
 31
0.0
  0
SPLINE
  5
127
330
1F
100
AcDbEntity
  8
0
  6
Continuous
 62
     7
370
    25
100
AcDbSpline
210
0.0
220
0.0
230
1.0
 70
     8
 71
     3
 72
    10
 73
     6
 74
     0
 42
0.00000001
 43
0.00000001
 40
0.0
 40
0.0
 40
0.0
 40
0.0
 40
0.5
 40
0.5
 40
1.0
 40
1.0
 40
1.0
 40
1.0
 10
105.7803813395526
 20
64.19955625865559
 30
0.0
 10
105.5715714148864
 20
64.57830540604687
 30
0.0
 10
105.4010372751391
 20
64.95951068245817
 30
0.0
 10
105.1662514701202
 20
65.72874130364595
 30
0.0
 10
105.1026599342929
 20
66.11680900844428
 30
0.0
 10
105.1026599342929
 20
66.50895733541412
 30
0.0
  0
SPLINE
  5
128
330
1F
100
AcDbEntity
  8
0
  6
Continuous
 62
     7
370
    25
100
AcDbSpline
210
0.0
220
0.0
230
1.0
 70
     8
 71
     3
 72
    10
 73
     6
 74
     0
 42
0.00000001
 43
0.00000001
 40
0.0
 40
0.0
 40
0.0
 40
0.0
 40
0.5
 40
0.5
 40
1.0
 40
1.0
 40
1.0
 40
1.0
 10
105.7803813395531
 20
64.19955625865562
 30
0.0
 10
105.8040535794647
 20
64.15661844955638
 30
0.0
 10
105.8171475693999
 20
64.09317785966418
 30
0.0
 10
105.8172344368614
 20
63.94068871415534
 30
0.0
 10
105.804064647102
 20
63.85245932495202
 30
0.0
 10
105.7803813395531
 20
63.76654355676339
 30
0.0
  0
LINE
  5
129
330
1F
100
AcDbEntity
  8
0
  6
Continuous
 62
     7
370
    25
100
AcDbLine
 10
105.1026599343
 20
59.1477414032
 30
0.0
 11
105.1026599343
 21
66.5089573354
 31
0.0
  0
SPLINE
  5
12A
330
1F
100
AcDbEntity
  8
0
  6
Continuous
 62
     7
370
    25
100
AcDbSpline
210
0.0
220
0.0
230
1.0
 70
     8
 71
     3
 72
     8
 73
     4
 74
     0
 42
0.00000001
 43
0.00000001
 40
0.0
 40
0.0
 40
0.0
 40
0.0
 40
1.0
 40
1.0
 40
1.0
 40
1.0
 10
122.724043425789
 20
52.73761986992114
 30
0.0
 10
122.6829281501478
 20
52.87365026441069
 30
0.0
 10
122.6424391672799
 20
53.01035432904813
 30
0.0
 10
122.6026599342929
 20
53.14774140324638
 30
0.0
  0
LINE
  5
12B
330
1F
100
AcDbEntity
  8
0
  6
Continuous
 62
     7
370
    25
100
AcDbLine
 10
122.6026599343
 20
55.1477414032
 30
0.0
 11
122.6026599343
 21
53.1477414032
 31
0.0
  0
SPLINE
  5
12C
330
1F
100
AcDbEntity
  8
0
  6
Continuous
 62
     7
370
    25
100
AcDbSpline
210
0.0
220
0.0
230
1.0
 70
     8
 71
     3
 72
    10
 73
     6
 74
     0
 42
0.00000001
 43
0.00000001
 40
0.0
 40
0.0
 40
0.0
 40
0.0
 40
0.5
 40
0.5
 40
1.0
 40
1.0
 40
1.0
 40
1.0
 10
123.2803813395498
 20
54.09592654783716
 30
0.0
 10
123.3040567339742
 20
54.13887007873831
 30
0.0
 10
123.3171478438621
 20
54.2023125233621
 30
0.0
 10
123.3172341651504
 20
54.35479136048119
 30
0.0
 10
123.3040652312066
 20
54.44302136258862
 30
0.0
 10
123.2803813395531
 20
54.52893924972937
 30
0.0
  0
SPLINE
  5
12D
330
1F
100
AcDbEntity
  8
0
  6
Continuous
 62
     7
370
    25
100
AcDbSpline
210
0.0
220
0.0
230
1.0
 70
     8
 71
     3
 72
     8
 73
     4
 74
     0
 42
0.00000001
 43
0.00000001
 40
0.0
 40
0.0
 40
0.0
 40
0.0
 40
1.0
 40
1.0
 40
1.0
 40
1.0
 10
122.724043425789
 20
52.73761986992114
 30
0.0
 10
122.8396760358181
 20
53.1961708019789
 30
0.0
 10
123.0335654406385
 20
53.64824039773715
 30
0.0
 10
123.2803813395529
 20
54.0959265478369
 30
0.0
  0
LINE
  5
12E
330
1F
100
AcDbEntity
  8
0
  6
Continuous
 62
     7
370
    25
100
AcDbLine
 10
127.7806009617
 20
54.0959265478
 30
0.0
 11
123.2803813396
 21
54.0959265478
 31
0.0
  0
SPLINE
  5
12F
330
1F
100
AcDbEntity
  8
0
  6
Continuous
 62
     7
370
    25
100
AcDbSpline
210
0.0
220
0.0
230
1.0
 70
     8
 71
     3
 72
    10
 73
     6
 74
     0
 42
0.00000001
 43
0.00000001
 40
0.0
 40
0.0
 40
0.0
 40
0.0
 40
0.5
 40
0.5
 40
1.0
 40
1.0
 40
1.0
 40
1.0
 10
127.7806009617352
 20
54.52893924972938
 30
0.0
 10
127.7569255673108
 20
54.44305218792692
 30
0.0
 10
127.7438344574263
 20
54.35564497894678
 30
0.0
 10
127.743748136138
 20
54.20300853635305
 30
0.0
 10
127.7569170700818
 20
54.13888549140747
 30
0.0
 10
127.7806009617353
 20
54.09592654783716
 30
0.0
  0
LINE
  5
130
330
1F
100
AcDbEntity
  8
0
  6
Continuous
 62
     7
370
    25
100
AcDbLine
 10
110.6026599343
 20
55.1477414032
 30
0.0
 11
110.6026599343
 21
53.1477414032
 31
0.0
  0
SPLINE
  5
131
330
1F
100
AcDbEntity
  8
0
  6
Continuous
 62
     7
370
    25
100
AcDbSpline
210
0.0
220
0.0
230
1.0
 70
     8
 71
     3
 72
     8
 73
     4
 74
     0
 42
0.00000001
 43
0.00000001
 40
0.0
 40
0.0
 40
0.0
 40
0.0
 40
1.0
 40
1.0
 40
1.0
 40
1.0
 10
110.6026599342929
 20
53.14774140324638
 30
0.0
 10
110.5628812761027
 20
53.01035631424627
 30
0.0
 10
110.5223923132745
 20
52.87365223243451
 30
0.0
 10
110.4812764427967
 20
52.73761986992113
 30
0.0
  0
SPLINE
  5
132
330
1F
100
AcDbEntity
  8
0
  6
Continuous
 62
     7
370
    25
100
AcDbSpline
210
0.0
220
0.0
230
1.0
 70
     8
 71
     3
 72
     8
 73
     4
 74
     0
 42
0.00000001
 43
0.00000001
 40
0.0
 40
0.0
 40
0.0
 40
0.0
 40
1.0
 40
1.0
 40
1.0
 40
1.0
 10
109.9249385290327
 20
54.09592654783716
 30
0.0
 10
110.1721123099166
 20
53.64759125478583
 30
0.0
 10
110.3658339782206
 20
53.19541676404224
 30
0.0
 10
110.4812764427967
 20
52.73761986992113
 30
0.0
  0
SPLINE
  5
133
330
1F
100
AcDbEntity
  8
0
  6
Continuous
 62
     7
370
    25
100
AcDbSpline
210
0.0
220
0.0
230
1.0
 70
     8
 71
     3
 72
    10
 73
     6
 74
     0
 42
0.00000001
 43
0.00000001
 40
0.0
 40
0.0
 40
0.0
 40
0.0
 40
0.5
 40
0.5
 40
1.0
 40
1.0
 40
1.0
 40
1.0
 10
127.7806009617353
 20
64.19955625865562
 30
0.0
 10
127.7569255673109
 20
64.15661272775439
 30
0.0
 10
127.7438344574263
 20
64.09317028313026
 30
0.0
 10
127.743748136138
 20
63.94069144601129
 30
0.0
 10
127.7569170700818
 20
63.85246144390403
 30
0.0
 10
127.7806009617353
 20
63.76654355676339
 30
0.0
  0
SPLINE
  5
134
330
1F
100
AcDbEntity
  8
0
  6
Continuous
 62
     7
370
    25
100
AcDbSpline
210
0.0
220
0.0
230
1.0
 70
     8
 71
     3
 72
    16
 73
    12
 74
     0
 42
0.00000001
 43
0.00000001
 40
0.0
 40
0.0
 40
0.0
 40
0.0
 40
0.2500000000000001
 40
0.2500000000000001
 40
0.5000000000000001
 40
0.5000000000000001
 40
0.6250000000000001
 40
0.6250000000000001
 40
0.7500000000000002
 40
0.7500000000000002
 40
1.0
 40
1.0
 40
1.0
 40
1.0
 10
127.7806009617353
 20
68.81835841217263
 30
0.0
 10
127.988616409841
 20
68.44105032329612
 30
0.0
 10
128.1588227148141
 20
68.06102659292192
 30
0.0
 10
128.3937587463816
 20
67.29340327751122
 30
0.0
 10
128.4578308780453
 20
66.90575646072243
 30
0.0
 10
128.4585638269663
 20
66.31743590883458
 30
0.0
 10
128.4429043468833
 20
66.12036271627895
 30
0.0
 10
128.3816292202463
 20
65.73030573872484
 30
0.0
 10
128.3360729477472
 20
65.5365128381368
 30
0.0
 10
128.1595869149909
 20
64.95843185337337
 30
0.0
 10
127.9889304615052
 20
64.57743398903855
 30
0.0
 10
127.7806009617353
 20
64.19955625865562
 30
0.0
  0
SPLINE
  5
135
330
1F
100
AcDbEntity
  8
0
  6
Continuous
 62
     7
370
    25
100
AcDbSpline
210
0.0
220
0.0
230
1.0
 70
     8
 71
     3
 72
    10
 73
     6
 74
     0
 42
0.00000001
 43
0.00000001
 40
0.0
 40
0.0
 40
0.0
 40
0.0
 40
0.1601790552921226
 40
0.7197651707803578
 40
1.0
 40
1.0
 40
1.0
 40
1.0
 10
127.7463715286184
 20
68.88063669092237
 30
0.0
 10
127.7456087385251
 20
68.88202891894873
 30
0.0
 10
127.7421811384514
 20
68.88828490067705
 30
0.0
 10
127.7566886032497
 20
68.86177763594915
 30
0.0
 10
127.7746181563675
 20
68.82922178080399
 30
0.0
 10
127.7806009617353
 20
68.81835841217263
 30
0.0
  0
SPLINE
  5
136
330
1F
100
AcDbEntity
  8
0
  6
Continuous
 62
     7
370
    25
100
AcDbSpline
210
0.0
220
0.0
230
1.0
 70
     8
 71
     3
 72
     9
 73
     5
 74
     0
 42
0.00000001
 43
0.00000001
 40
0.0
 40
0.0
 40
0.0
 40
0.0
 40
0.5797912171256352
 40
1.0
 40
1.0
 40
1.0
 40
1.0
 10
127.7806009617353
 20
49.47712439432015
 30
0.0
 10
127.7682423583888
 20
49.45465074607902
 30
0.0
 10
127.7469267485944
 20
49.4158891236582
 30
0.0
 10
127.7465358060917
 20
49.41515471889999
 30
0.0
 10
127.7463715286184
 20
49.41484611557041
 30
0.0
  0
SPLINE
  5
137
330
1F
100
AcDbEntity
  8
0
  6
Continuous
 62
     7
370
    25
100
AcDbSpline
210
0.0
220
0.0
230
1.0
 70
     8
 71
     3
 72
    16
 73
    12
 74
     0
 42
0.00000001
 43
0.00000001
 40
0.0
 40
0.0
 40
0.0
 40
0.0
 40
0.2500000000000001
 40
0.2500000000000001
 40
0.5000000000000002
 40
0.5000000000000002
 40
0.6250000000000001
 40
0.6250000000000001
 40
0.7500000000000001
 40
0.7500000000000001
 40
1.0
 40
1.0
 40
1.0
 40
1.0
 10
127.7806009617353
 20
54.09592654783716
 30
0.0
 10
127.988616409841
 20
53.71861845896066
 30
0.0
 10
128.1588227148141
 20
53.33859472858646
 30
0.0
 10
128.3937587463816
 20
52.57097141317576
 30
0.0
 10
128.4578308780453
 20
52.18332459638697
 30
0.0
 10
128.4585638269663
 20
51.59500404449912
 30
0.0
 10
128.4429043468833
 20
51.39793085194347
 30
0.0
 10
128.3816292202463
 20
51.00787387438937
 30
0.0
 10
128.3360729477472
 20
50.81408097380134
 30
0.0
 10
128.1595869149909
 20
50.23599998903791
 30
0.0
 10
127.9889304615052
 20
49.85500212470308
 30
0.0
 10
127.7806009617353
 20
49.47712439432015
 30
0.0
  0
LINE
  5
138
330
1F
100
AcDbEntity
  8
0
  6
Continuous
 62
     7
370
    25
100
AcDbLine
 10
128.6026599343
 20
67.3977414032
 30
0.0
 11
128.6026599343
 21
50.8977414032
 31
0.0
  0
LINE
  5
139
330
1F
100
AcDbEntity
  8
0
  6
Continuous
 62
     7
370
    25
100
AcDbLine
 10
105.7803813396
 20
64.1995562587
 30
0.0
 11
109.924938529
 21
64.1995562587
 31
0.0
  0
SPLINE
  5
13A
330
1F
100
AcDbEntity
  8
0
  6
Continuous
 62
     7
370
    25
100
AcDbSpline
210
0.0
220
0.0
230
1.0
 70
     8
 71
     3
 72
    12
 73
     8
 74
     0
 42
0.00000001
 43
0.00000001
 40
0.0
 40
0.0
 40
0.0
 40
0.0
 40
0.2499999999999999
 40
0.2499999999999999
 40
0.4999999999999998
 40
0.4999999999999998
 40
1.0
 40
1.0
 40
1.0
 40
1.0
 10
105.1026599342929
 20
51.78652547107865
 30
0.0
 10
105.1026599342929
 20
51.98152895108445
 30
0.0
 10
105.1184062643149
 20
52.17806361010886
 30
0.0
 10
105.1798512889003
 20
52.5674832977144
 30
0.0
 10
105.225440048154
 20
52.76096799077467
 30
0.0
 10
105.4018910504106
 20
53.33815158953027
 30
0.0
 10
105.5723487523741
 20
53.71858737131323
 30
0.0
 10
105.7803813395529
 20
54.09592654783717
 30
0.0
  0
LINE
  5
13B
330
1F
100
AcDbEntity
  8
0
  6
Continuous
 62
     7
370
    25
100
AcDbLine
 10
105.1026599343
 20
59.1477414032
 30
0.0
 11
105.1026599343
 21
51.7865254711
 31
0.0
  0
LINE
  5
13C
330
1F
100
AcDbEntity
  8
0
  6
Continuous
 62
     7
370
    25
100
AcDbLine
 10
123.2803813396
 20
64.1995562587
 30
0.0
 11
127.7806009617
 21
64.1995562587
 31
0.0
  0
SPLINE
  5
13D
330
1F
100
AcDbEntity
  8
0
  6
Continuous
 62
     7
370
    25
100
AcDbSpline
210
0.0
220
0.0
230
1.0
 70
     8
 71
     3
 72
    12
 73
     8
 74
     0
 42
0.00000001
 43
0.00000001
 40
0.0
 40
0.0
 40
0.0
 40
0.0
 40
0.2499999999999999
 40
0.2499999999999999
 40
0.4999999999999998
 40
0.4999999999999998
 40
1.0
 40
1.0
 40
1.0
 40
1.0
 10
122.6026599342929
 20
66.50895733541412
 30
0.0
 10
122.6026599342929
 20
66.70469959829363
 30
0.0
 10
122.6185028703818
 20
66.90136620748419
 30
0.0
 10
122.6800057306195
 20
67.29063443481246
 30
0.0
 10
122.7256093716632
 20
67.48403846776539
 30
0.0
 10
122.9020603891524
 20
68.06096751902216
 30
0.0
 10
123.0724577564043
 20
68.44121695222516
 30
0.0
 10
123.2803813395531
 20
68.81835841217263
 30
0.0
  0
LINE
  5
13E
330
1F
100
AcDbEntity
  8
0
  6
Continuous
 62
     7
370
    25
100
AcDbLine
 10
127.7806009617
 20
68.8183584122
 30
0.0
 11
123.2803813396
 21
68.8183584122
 31
0.0
  0
ELLIPSE
  5
13F
330
1F
100
AcDbEntity
  8
0
  6
Continuous
 62
     7
370
    25
100
AcDbEllipse
 10
116.6026599343
 20
49.332786827
 30
0.0
 11
8.500000000000014
 21
0.0
 31
0.0
210
0.0
220
0.0
230
1.0
 40
0.5773502692
 41
2.374833212873085
 42
2.530692279913057
  0
LINE
  5
140
330
1F
100
AcDbEntity
  8
0
  6
Continuous
 62
     7
370
    25
100
AcDbLine
 10
109.3132837497
 20
51.8583652186
 30
0.0
 11
106.9320429254
 21
49.4771243943
 31
0.0
  0
LINE
  5
141
330
1F
100
AcDbEntity
  8
0
  6
Continuous
 62
     7
370
    25
100
AcDbLine
 10
105.7803813396
 20
49.4771243943
 30
0.0
 11
106.9320429254
 21
49.4771243943
 31
0.0
  0
SPLINE
  5
142
330
1F
100
AcDbEntity
  8
0
  6
Continuous
 62
     7
370
    25
100
AcDbSpline
210
0.0
220
0.0
230
1.0
 70
     8
 71
     3
 72
    10
 73
     6
 74
     0
 42
0.00000001
 43
0.00000001
 40
0.0
 40
0.0
 40
0.0
 40
0.0
 40
0.5
 40
0.5
 40
1.0
 40
1.0
 40
1.0
 40
1.0
 10
105.7803813395526
 20
49.47712439432011
 30
0.0
 10
105.5715714148864
 20
49.8558735417114
 30
0.0
 10
105.4010372751391
 20
50.23707881812271
 30
0.0
 10
105.1662514701202
 20
51.00630943931049
 30
0.0
 10
105.1026599342929
 20
51.39437714410882
 30
0.0
 10
105.1026599342929
 20
51.78652547107865
 30
0.0
  0
ELLIPSE
  5
143
330
1F
100
AcDbEntity
  8
0
  6
Continuous
 62
     7
370
    25
100
AcDbEllipse
 10
116.6026599343
 20
49.332786827
 30
0.0
 11
8.500000000000014
 21
0.0
 31
0.0
210
0.0
220
0.0
230
1.0
 40
0.5773502692
 41
0.6109003736767337
 42
0.7667594407167084
  0
LINE
  5
144
330
1F
100
AcDbEntity
  8
0
  6
Continuous
 62
     7
370
    25
100
AcDbLine
 10
126.2732769432
 20
49.4771243943
 30
0.0
 11
127.7806009617
 21
49.4771243943
 31
0.0
  0
LINE
  5
145
330
1F
100
AcDbEntity
  8
0
  6
Continuous
 62
     7
370
    25
100
AcDbLine
 10
126.2732769432
 20
49.4771243943
 30
0.0
 11
123.8920361189
 21
51.8583652186
 31
0.0
  0
SPLINE
  5
146
330
1F
100
AcDbEntity
  8
0
  6
Continuous
 62
     7
370
    25
100
AcDbSpline
210
0.0
220
0.0
230
1.0
 70
     8
 71
     3
 72
    12
 73
     8
 74
     0
 42
0.00000001
 43
0.00000001
 40
0.0
 40
0.0
 40
0.0
 40
0.0
 40
0.2499999999999999
 40
0.2499999999999999
 40
0.5
 40
0.5
 40
1.0
 40
1.0
 40
1.0
 40
1.0
 10
105.1026599342929
 20
66.50895733541412
 30
0.0
 10
105.1026599342929
 20
66.7039608154199
 30
0.0
 10
105.1184062643149
 20
66.90049547444433
 30
0.0
 10
105.1798512889003
 20
67.28991516204987
 30
0.0
 10
105.225440048154
 20
67.48339985511012
 30
0.0
 10
105.4018910504106
 20
68.06058345386573
 30
0.0
 10
105.5723487523741
 20
68.44101923564868
 30
0.0
 10
105.7803813395529
 20
68.81835841217263
 30
0.0
  0
LINE
  5
147
330
1F
100
AcDbEntity
  8
0
  6
Continuous
 62
     7
370
    25
100
AcDbLine
 10
109.924938529
 20
68.8183584122
 30
0.0
 11
105.7803813396
 21
68.8183584122
 31
0.0
  0
SPLINE
  5
148
330
1F
100
AcDbEntity
  8
0
  6
Continuous
 62
     7
370
    25
100
AcDbSpline
210
0.0
220
0.0
230
1.0
 70
     8
 71
     3
 72
    10
 73
     6
 74
     0
 42
0.00000001
 43
0.00000001
 40
0.0
 40
0.0
 40
0.0
 40
0.0
 40
0.5
 40
0.5
 40
1.0
 40
1.0
 40
1.0
 40
1.0
 10
109.9249385290327
 20
68.81835841217264
 30
0.0
 10
110.1333592818501
 20
68.44031516277047
 30
0.0
 10
110.3038231171275
 20
68.05954565797464
 30
0.0
 10
110.5388055520659
 20
67.2903971324171
 30
0.0
 10
110.6026599342929
 20
66.90197040424185
 30
0.0
 10
110.6026599342929
 20
66.50895733541412
 30
0.0
  0
LINE
  5
149
330
1F
100
AcDbEntity
  8
0
  6
Continuous
 62
     7
370
    25
100
AcDbLine
 10
126.2732769432
 20
47.8254628085
 30
0.0
 11
126.2732769432
 21
49.4771243943
 31
0.0
  0
SPLINE
  5
14A
330
1F
100
AcDbEntity
  8
0
  6
Continuous
 62
     7
370
    25
100
AcDbSpline
210
0.0
220
0.0
230
1.0
 70
     8
 71
     3
 72
    10
 73
     6
 74
     0
 42
0.00000001
 43
0.00000001
 40
0.0
 40
0.0
 40
0.0
 40
0.0
 40
0.5
 40
0.5
 40
1.0
 40
1.0
 40
1.0
 40
1.0
 10
126.2732769432192
 20
47.82546280850611
 30
0.0
 10
125.8945277958279
 20
47.61665288383985
 30
0.0
 10
125.5133225194166
 20
47.4461187440926
 30
0.0
 10
124.7440918982288
 20
47.21133293907368
 30
0.0
 10
124.3560241934305
 20
47.14774140324639
 30
0.0
 10
123.9638758664606
 20
47.14774140324639
 30
0.0
  0
SPLINE
  5
14B
330
1F
100
AcDbEntity
  8
0
  6
Continuous
 62
     7
370
    25
100
AcDbSpline
210
0.0
220
0.0
230
1.0
 70
     8
 71
     3
 72
    12
 73
     8
 74
     0
 42
0.00000001
 43
0.00000001
 40
0.0
 40
0.0
 40
0.0
 40
0.0
 40
0.2500000000000002
 40
0.2500000000000002
 40
0.5000000000000001
 40
0.5000000000000001
 40
1.0
 40
1.0
 40
1.0
 40
1.0
 10
109.2414440021252
 20
47.14774140324639
 30
0.0
 10
109.0464405221194
 20
47.14774140324639
 30
0.0
 10
108.849905863095
 20
47.16348773326835
 30
0.0
 10
108.4604861754894
 20
47.22493275785377
 30
0.0
 10
108.2670014824292
 20
47.2705215171075
 30
0.0
 10
107.6898178836735
 20
47.44697251936409
 30
0.0
 10
107.3093821018906
 20
47.61743022132759
 30
0.0
 10
106.9320429253666
 20
47.82546280850643
 30
0.0
  0
LINE
  5
14C
330
1F
100
AcDbEntity
  8
0
  6
Continuous
 62
     7
370
    25
100
AcDbLine
 10
106.9320429254
 20
49.4771243943
 30
0.0
 11
106.9320429254
 21
47.8254628085
 31
0.0
  0
LINE
  5
14D
330
1F
100
AcDbEntity
  8
0
  6
Continuous
 62
     7
370
    25
100
AcDbLine
 10
122.6026599343
 20
53.1477414032
 30
0.0
 11
120.6026599343
 21
55.1477414032
 31
0.0
  0
LINE
  5
14E
330
1F
100
AcDbEntity
  8
0
  6
Continuous
 62
     7
370
    25
100
AcDbLine
 10
120.6026599343
 20
52.1477414032
 30
0.0
 11
123.5652810069
 21
52.1477414032
 31
0.0
  0
LINE
  5
14F
330
1F
100
AcDbEntity
  8
0
  6
Continuous
 62
     7
370
    25
100
AcDbLine
 10
112.6026599343
 20
55.1477414032
 30
0.0
 11
110.6026599343
 21
53.1477414032
 31
0.0
  0
LINE
  5
150
330
1F
100
AcDbEntity
  8
0
  6
Continuous
 62
     7
370
    25
100
AcDbLine
 10
109.6400388616
 20
52.1477414032
 30
0.0
 11
112.6026599343
 21
52.1477414032
 31
0.0
  0
LINE
  5
151
330
1F
100
AcDbEntity
  8
0
  6
Continuous
 62
     7
370
    25
100
AcDbLine
 10
110.6026599343
 20
67.0821958815
 30
0.0
 11
110.6026599343
 21
66.5089573354
 31
0.0
  0
SPLINE
  5
152
330
1F
100
AcDbEntity
  8
0
  6
Continuous
 62
     7
370
    25
100
AcDbSpline
210
0.0
220
0.0
230
1.0
 70
     8
 71
     3
 72
    32
 73
    28
 74
     0
 42
0.00000001
 43
0.00000001
 40
0.0
 40
0.0
 40
0.0
 40
0.0
 40
0.0625000000000001
 40
0.0625000000000001
 40
0.1250000000000001
 40
0.1250000000000001
 40
0.1875000000000002
 40
0.1875000000000002
 40
0.2500000000000003
 40
0.2500000000000003
 40
0.3750000000000003
 40
0.3750000000000003
 40
0.4375000000000003
 40
0.4375000000000003
 40
0.5000000000000002
 40
0.5000000000000002
 40
0.5625000000000002
 40
0.5625000000000002
 40
0.6250000000000001
 40
0.6250000000000001
 40
0.7500000000000001
 40
0.7500000000000001
 40
0.8750000000000002
 40
0.8750000000000002
 40
0.9375000000000001
 40
0.9375000000000001
 40
1.0
 40
1.0
 40
1.0
 40
1.0
 10
122.6026599342844
 20
67.08219588146703
 30
0.0
 10
122.4458035983675
 20
66.98723890357134
 30
0.0
 10
122.2728051642119
 20
66.88448572894616
 30
0.0
 10
121.8961005775861
 20
66.66777452729788
 30
0.0
 10
121.6932477971294
 20
66.55435581680788
 30
0.0
 10
121.2672665343268
 20
66.32626568010971
 30
0.0
 10
121.0430885740388
 20
66.21095879765785
 30
0.0
 10
120.5717374804624
 20
65.98263569528308
 30
0.0
 10
120.3230519650973
 20
65.86898567914932
 30
0.0
 10
119.5524794804057
 20
65.54592164791528
 30
0.0
 10
119.0068420703235
 20
65.35302312375178
 30
0.0
 10
118.1240623218272
 20
65.14142919847808
 30
0.0
 10
117.8254232219543
 20
65.08578681236034
 30
0.0
 10
117.2189216212385
 20
65.0101187429965
 30
0.0
 10
116.9087743825726
 20
64.99014549722018
 30
0.0
 10
116.2886888938888
 20
64.99047926347343
 30
0.0
 10
115.9821178564208
 20
65.01047822879622
 30
0.0
 10
115.3754631091126
 20
65.08651701499268
 30
0.0
 10
115.0730900444873
 20
65.14317011512424
 30
0.0
 10
114.1964537417343
 20
65.35394866517008
 30
0.0
 10
113.6483996097574
 20
65.54749449574183
 30
0.0
 10
112.6179023425142
 20
65.98011378901762
 30
0.0
 10
112.1503423072347
 20
66.21259043370806
 30
0.0
 10
111.5121287036068
 20
66.5543284346271
 30
0.0
 10
111.3089189654169
 20
66.66794595005548
 30
0.0
 10
110.9325820390225
 20
66.88444834241173
 30
0.0
 10
110.759603430531
 20
66.98718613885612
 30
0.0
 10
110.6026599342929
 20
67.08219588147219
 30
0.0
  0
LINE
  5
153
330
1F
100
AcDbEntity
  8
0
  6
Continuous
 62
     7
370
    25
100
AcDbLine
 10
122.6026599343
 20
67.0821958815
 30
0.0
 11
122.6026599343
 21
66.5089573354
 31
0.0
  0
LINE
  5
154
330
1F
100
AcDbEntity
  8
0
  6
Continuous
 62
     7
370
    25
100
AcDbLine
 10
110.1381078757
 20
37.7514072771
 30
0.0
 11
123.0672119929
 21
37.7514072771
 31
0.0
  0
SPLINE
  5
155
330
1F
100
AcDbEntity
  8
0
  6
Continuous
 62
     7
370
    25
100
AcDbSpline
210
0.0
220
0.0
230
1.0
 70
     8
 71
     3
 72
    12
 73
     8
 74
     0
 42
0.00000001
 43
0.00000001
 40
0.0
 40
0.0
 40
0.0
 40
0.0
 40
0.0821682142679489
 40
0.3096894787769371
 40
0.5425025100710911
 40
0.7710669954520313
 40
0.9999999999999999
 40
0.9999999999999999
 40
0.9999999999999999
 40
0.9999999999999999
 10
122.7760991792375
 20
67.9409510559172
 30
0.0
 10
122.7772311542754
 20
67.94472068123711
 30
0.0
 10
122.7814975334658
 20
67.95892828342132
 30
0.0
 10
122.7490422256085
 20
67.85157198880013
 30
0.0
 10
122.6930776715006
 20
67.64563388899235
 30
0.0
 10
122.6248682647813
 20
67.36233850226058
 30
0.0
 10
122.6100666853997
 20
67.17562688780393
 30
0.0
 10
122.6026599342929
 20
67.08219588146505
 30
0.0
  0
SPLINE
  5
156
330
1F
100
AcDbEntity
  8
0
  6
Continuous
 62
     7
370
    25
100
AcDbSpline
210
0.0
220
0.0
230
1.0
 70
     8
 71
     3
 72
    11
 73
     7
 74
     0
 42
0.00000001
 43
0.00000001
 40
0.0
 40
0.0
 40
0.0
 40
0.0
 40
0.3176426818556392
 40
0.6359725109733426
 40
0.865706612787582
 40
1.0
 40
1.0
 40
1.0
 40
1.0
 10
110.6026599342929
 20
67.0821958814721
 30
0.0
 10
110.589021157339
 20
67.21346058176557
 30
0.0
 10
110.5617140990578
 20
67.47627394349679
 30
0.0
 10
110.4737097199773
 20
67.78791751860743
 30
0.0
 10
110.4291499977428
 20
67.94166177606792
 30
0.0
 10
110.4294984422898
 20
67.94014937210673
 30
0.0
 10
110.4296269869736
 20
67.9395914311355
 30
0.0
  0
LINE
  5
157
330
1F
100
AcDbEntity
  8
0
  6
Continuous
 62
     7
370
    25
100
AcDbLine
 10
121.8526599343
 20
35.6477414032
 30
0.0
 11
111.3526599343
 21
35.6477414032
 31
0.0
  0
SPLINE
  5
158
330
1F
100
AcDbEntity
  8
0
  6
Continuous
 62
     7
370
    25
100
AcDbSpline
210
0.0
220
0.0
230
1.0
 70
     8
 71
     3
 72
    10
 73
     6
 74
     0
 42
0.00000001
 43
0.00000001
 40
0.0
 40
0.0
 40
0.0
 40
0.0
 40
0.1601790552921523
 40
0.7197651707804853
 40
1.0
 40
1.0
 40
1.0
 40
1.0
 10
109.8907090959158
 20
68.88063669092237
 30
0.0
 10
109.8899463058225
 20
68.88202891894873
 30
0.0
 10
109.8865187057488
 20
68.88828490067705
 30
0.0
 10
109.9010261705471
 20
68.86177763594915
 30
0.0
 10
109.9189557236649
 20
68.829221780804
 30
0.0
 10
109.9249385290327
 20
68.81835841217264
 30
0.0
  0
SPLINE
  5
159
330
1F
100
AcDbEntity
  8
0
  6
Continuous
 62
     7
370
    25
100
AcDbSpline
210
0.0
220
0.0
230
1.0
 70
     8
 71
     3
 72
    10
 73
     6
 74
     0
 42
0.00000001
 43
0.00000001
 40
0.0
 40
0.0
 40
0.0
 40
0.0
 40
0.1593935212994522
 40
0.7189934545690309
 40
1.0
 40
1.0
 40
1.0
 40
1.0
 10
105.8146183291305
 20
68.88065049163907
 30
0.0
 10
105.815379856128
 20
68.88204041046569
 30
0.0
 10
105.8188149576439
 20
68.88831006641263
 30
0.0
 10
105.8043203351774
 20
68.86182612458884
 30
0.0
 10
105.7863789646847
 20
68.82924872054197
 30
0.0
 10
105.7803813395531
 20
68.81835841217263
 30
0.0
  0
LINE
  5
15A
330
1F
100
AcDbEntity
  8
0
  6
Continuous
 62
     7
370
    25
100
AcDbLine
 10
105.1026599343
 20
67.6477414032
 30
0.0
 11
105.1026599343
 21
66.5089573354
 31
0.0
  0
SPLINE
  5
15B
330
1F
100
AcDbEntity
  8
0
  6
Continuous
 62
     7
370
    25
100
AcDbSpline
210
0.0
220
0.0
230
1.0
 70
     8
 71
     3
 72
     9
 73
     5
 74
     0
 42
0.00000001
 43
0.00000001
 40
0.0
 40
0.0
 40
0.0
 40
0.0
 40
0.5797912171256431
 40
1.0
 40
1.0
 40
1.0
 40
1.0
 10
123.2803813395531
 20
68.81835841217263
 30
0.0
 10
123.2927399428995
 20
68.84083206041375
 30
0.0
 10
123.314055552694
 20
68.87959368283457
 30
0.0
 10
123.3144464951967
 20
68.88032808759279
 30
0.0
 10
123.31461077267
 20
68.88063669092237
 30
0.0
  0
SPLINE
  5
15C
330
1F
100
AcDbEntity
  8
0
  6
Continuous
 62
     7
370
    25
100
AcDbSpline
210
0.0
220
0.0
230
1.0
 70
     8
 71
     3
 72
     9
 73
     5
 74
     0
 42
0.00000001
 43
0.00000001
 40
0.0
 40
0.0
 40
0.0
 40
0.0
 40
0.5789479223911498
 40
1.0
 40
1.0
 40
1.0
 40
1.0
 10
126.2732769432191
 20
47.82546280850658
 30
0.0
 10
126.2957183104118
 20
47.83780369882098
 30
0.0
 10
126.3344806348363
 20
47.8591197616949
 30
0.0
 10
126.3352465376954
 20
47.85952793560929
 30
0.0
 10
126.3355690226855
 20
47.85969979808396
 30
0.0
  0
LINE
  5
15D
330
1F
100
AcDbEntity
  8
0
  6
Continuous
 62
     7
370
    25
100
AcDbLine
 10
123.9638758665
 20
47.1477414032
 30
0.0
 11
125.1026599343
 21
47.1477414032
 31
0.0
  0
SPLINE
  5
15E
330
1F
100
AcDbEntity
  8
0
  6
Continuous
 62
     7
370
    25
100
AcDbSpline
210
0.0
220
0.0
230
1.0
 70
     8
 71
     3
 72
    10
 73
     6
 74
     0
 42
0.00000001
 43
0.00000001
 40
0.0
 40
0.0
 40
0.0
 40
0.0
 40
0.1593935213061655
 40
0.7189934545756295
 40
1.0
 40
1.0
 40
1.0
 40
1.0
 10
106.8697508459003
 20
47.85969979808396
 30
0.0
 10
106.8683609270737
 20
47.86046132508142
 30
0.0
 10
106.8620912711269
 20
47.86389642659728
 30
0.0
 10
106.8885752129509
 20
47.84940180413068
 30
0.0
 10
106.9211526169975
 20
47.83146043363806
 30
0.0
 10
106.9320429253667
 20
47.82546280850657
 30
0.0
  0
LINE
  5
15F
330
1F
100
AcDbEntity
  8
0
  6
Continuous
 62
     7
370
    25
100
AcDbLine
 10
108.1026599343
 20
47.1477414032
 30
0.0
 11
109.2414440021
 21
47.1477414032
 31
0.0
  0
SPLINE
  5
160
330
1F
100
AcDbEntity
  8
0
  6
Continuous
 62
     7
370
    25
100
AcDbSpline
210
0.0
220
0.0
230
1.0
 70
     8
 71
     3
 72
     9
 73
     5
 74
     0
 42
0.00000001
 43
0.00000001
 40
0.0
 40
0.0
 40
0.0
 40
0.0
 40
0.5789479223839474
 40
0.9999999999999999
 40
0.9999999999999999
 40
0.9999999999999999
 40
0.9999999999999999
 10
105.7803813395531
 20
49.47712439432014
 30
0.0
 10
105.7927222298673
 20
49.45468302712778
 30
0.0
 10
105.8140382927413
 20
49.41592070270323
 30
0.0
 10
105.8144464666558
 20
49.41515479984386
 30
0.0
 10
105.8146183291305
 20
49.41483231485368
 30
0.0
  0
LINE
  5
161
330
1F
100
AcDbEntity
  8
0
  6
Continuous
 62
     7
370
    25
100
AcDbLine
 10
105.1026599343
 20
51.7865254711
 30
0.0
 11
105.1026599343
 21
50.6477414032
 31
0.0
  0
LINE
  5
162
330
1F
100
AcDbEntity
  8
0
  6
Continuous
 62
     7
370
    25
100
AcDbLine
 10
126.3402642413
 20
49.4101370962
 30
0.0
 11
126.2732769432
 21
49.4771243943
 31
0.0
  0
LINE
  5
163
330
1F
100
AcDbEntity
  8
0
  6
Continuous
 62
     7
370
    25
100
AcDbLine
 10
106.9320429254
 20
49.4771243943
 30
0.0
 11
106.8650556273
 21
49.4101370962
 31
0.0
  0
LINE
  5
164
330
1F
100
AcDbEntity
  8
0
  6
Continuous
 62
     7
370
    25
100
AcDbLine
 10
82.4026599343
 20
67.3977414032
 30
0.0
 11
82.4026599343
 21
50.8977414032
 31
0.0
  0
LINE
  5
165
330
1F
100
AcDbEntity
  8
0
  6
Continuous
 62
     7
370
    25
100
AcDbLine
 10
84.3026599343
 20
66.8977414032
 30
0.0
 11
84.3026599343
 21
51.3977414032
 31
0.0
  0
SPLINE
  5
166
330
1F
100
AcDbEntity
  8
0
  6
Continuous
 62
     7
370
    25
100
AcDbSpline
210
0.0
220
0.0
230
1.0
 70
     8
 71
     3
 72
    31
 73
    27
 74
     0
 42
0.00000001
 43
0.00000001
 40
0.0
 40
0.0
 40
0.0
 40
0.0
 40
0.0110620248792692
 40
0.053426152342489
 40
0.0958174940768056
 40
0.1336710108772321
 40
0.1717143340154468
 40
0.2096369876325603
 40
0.2168866422975865
 40
0.2777920133351345
 40
0.3386966084573554
 40
0.385931391486264
 40
0.4330711542106637
 40
0.4701730429684134
 40
0.5072360841007588
 40
0.5442569293736539
 40
0.5813269887543726
 40
0.6310001556472703
 40
0.6807653299696174
 40
0.7339487799536905
 40
0.7871235223337452
 40
0.8318868613311547
 40
0.8766153032241841
 40
0.9192140617116251
 40
0.9617777141497316
 40
1.0
 40
1.0
 40
1.0
 40
1.0
 10
110.7026599342929
 20
68.6477414032464
 30
0.0
 10
110.7034838951063
 20
68.64704366194016
 30
0.0
 10
110.7074633705117
 20
68.64367378764241
 30
0.0
 10
110.7782551899528
 20
68.5833135593113
 30
0.0
 10
110.9698663655184
 20
68.42267423906816
 30
0.0
 10
111.2447176447971
 20
68.19643934305125
 30
0.0
 10
111.5771531014759
 20
67.9310539183268
 30
0.0
 10
111.8642120949521
 20
67.71097869027395
 30
0.0
 10
112.2601598202923
 20
67.41717944842843
 30
0.0
 10
112.7957788314213
 20
67.03675727099895
 30
0.0
 10
113.6115324035962
 20
66.53873271808939
 30
0.0
 10
114.4530915434823
 20
66.12661505397533
 30
0.0
 10
115.2364986176147
 20
65.84961588915337
 30
0.0
 10
116.009483461404
 20
65.69819874653024
 30
0.0
 10
116.7400737756057
 20
65.66004927506064
 30
0.0
 10
117.4647962288862
 20
65.73938116622752
 30
0.0
 10
118.238165848458
 20
65.93188437402836
 30
0.0
 10
119.0285606706768
 20
66.24904384322652
 30
0.0
 10
119.8253652173812
 20
66.67432238097376
 30
0.0
 10
120.5527323244745
 20
67.13678309174209
 30
0.0
 10
121.1669381578224
 20
67.57719646494584
 30
0.0
 10
121.6603963958215
 20
67.9556556560701
 30
0.0
 10
122.0354646659498
 20
68.25742652090675
 30
0.0
 10
122.3056538051493
 20
68.48101621841606
 30
0.0
 10
122.4741131825163
 20
68.62350762556623
 30
0.0
 10
122.4895275576539
 20
68.63652643191365
 30
0.0
 10
122.4968205676157
 20
68.64268602537983
 30
0.0
  0
LINE
  5
167
330
1F
100
AcDbEntity
  8
FORMAT
100
AcDbLine
 10
110.8531216305
 20
36.5129671258
 30
0.0
 11
110.5364099343
 21
46.6477414032
 31
0.0
  0
LINE
  5
168
330
1F
100
AcDbEntity
  8
FORMAT
100
AcDbLine
 10
122.3521982381
 20
36.5129671258
 30
0.0
 11
122.6689099343
 21
46.6477414032
 31
0.0
  0
LINE
  5
169
330
1F
100
AcDbEntity
  8
FORMAT
100
AcDbLine
 10
123.3452224343
 20
46.6477414032
 30
0.0
 11
109.8600974343
 21
46.6477414032
 31
0.0
  0
LINE
  5
16A
330
1F
100
AcDbEntity
  8
FORMAT
  6
CENTERX2
370
    18
100
AcDbLine
 10
129.8997046792
 20
59.1477414032
 30
0.0
 11
79.9985868286
 21
59.1477414032
 31
0.0
  0
LINE
  5
16B
330
1F
100
AcDbEntity
  8
FORMAT
  6
CENTERX2
370
    18
100
AcDbLine
 10
116.6026599343
 20
33.5506700804
 30
0.0
 11
116.6026599343
 21
88.262882253
 31
0.0
  0
ARC
  5
16C
330
1F
100
AcDbEntity
  8
0
  6
Continuous
 62
     7
370
    25
100
AcDbCircle
 10
160.2890292262
 20
86.2477414032
 30
0.0
 40
0.25
100
AcDbArc
 50
90.0
 51
180.0
  0
ARC
  5
16D
330
1F
100
AcDbEntity
  8
0
  6
Continuous
 62
     7
370
    25
100
AcDbCircle
 10
170.7890292262
 20
86.2477414032
 30
0.0
 40
0.25
100
AcDbArc
 50
0.0
 51
90.0
  0
LINE
  5
16E
330
1F
100
AcDbEntity
  8
0
  6
Continuous
 62
     7
370
    25
100
AcDbLine
 10
160.0390292262
 20
86.2477414032
 30
0.0
 11
160.0390292262
 21
85.6477414032
 31
0.0
  0
LINE
  5
16F
330
1F
100
AcDbEntity
  8
0
  6
Continuous
 62
     7
370
    25
100
AcDbLine
 10
171.0390292262
 20
85.6477414032
 30
0.0
 11
171.0390292262
 21
86.2477414032
 31
0.0
  0
LINE
  5
170
330
1F
100
AcDbEntity
  8
0
  6
Continuous
 62
     7
370
    25
100
AcDbLine
 10
172.9890292262
 20
77.6477414032
 30
0.0
 11
171.0390292262
 21
85.6477414032
 31
0.0
  0
LINE
  5
171
330
1F
100
AcDbEntity
  8
0
  6
Continuous
 62
     7
370
    25
100
AcDbLine
 10
160.0390292262
 20
85.6477414032
 30
0.0
 11
158.0890292262
 21
77.6477414032
 31
0.0
  0
LINE
  5
172
330
1F
100
AcDbEntity
  8
0
  6
Continuous
 62
     7
370
    25
100
AcDbLine
 10
158.0890292262
 20
77.6477414032
 30
0.0
 11
158.5390292262
 21
69.6477414032
 31
0.0
  0
LINE
  5
173
330
1F
100
AcDbEntity
  8
0
  6
Continuous
 62
     7
370
    25
100
AcDbLine
 10
172.5390292262
 20
69.6477414032
 30
0.0
 11
172.9890292262
 21
77.6477414032
 31
0.0
  0
LINE
  5
174
330
1F
100
AcDbEntity
  8
0
  6
Continuous
 62
     7
370
    25
100
AcDbLine
 10
158.7808417262
 20
47.1477414032
 30
0.0
 11
159.0744771676
 21
37.7514072771
 31
0.0
  0
LINE
  5
175
330
1F
100
AcDbEntity
  8
0
  6
Continuous
 62
     7
370
    25
100
AcDbLine
 10
172.0035812847
 20
37.7514072771
 30
0.0
 11
172.2972167262
 21
47.1477414032
 31
0.0
  0
LINE
  5
176
330
1F
100
AcDbEntity
  8
0
  6
Continuous
 62
     7
370
    25
100
AcDbLine
 10
159.0744771676
 20
37.7514072771
 30
0.0
 11
160.2890292262
 21
35.6477414032
 31
0.0
  0
LINE
  5
177
330
1F
100
AcDbEntity
  8
0
  6
Continuous
 62
     7
370
    25
100
AcDbLine
 10
170.7890292262
 20
35.6477414032
 30
0.0
 11
172.0035812847
 21
37.7514072771
 31
0.0
  0
LINE
  5
178
330
1F
100
AcDbEntity
  8
0
  6
Continuous
 62
     7
370
    25
100
AcDbLine
 10
171.4506710628
 20
65.5496079737
 30
0.0
 11
171.4399925362
 21
65.680552903
 31
0.0
  0
SPLINE
  5
179
330
1F
100
AcDbEntity
  8
0
  6
Continuous
 62
     7
370
    25
100
AcDbSpline
210
0.0
220
0.0
230
1.0
 70
     8
 71
     3
 72
     9
 73
     5
 74
     0
 42
0.00000001
 43
0.00000001
 40
0.0
 40
0.0
 40
0.0
 40
0.0
 40
0.9840487795983311
 40
1.0
 40
1.0
 40
1.0
 40
1.0
 10
159.6384966202593
 20
65.68752482084989
 30
0.0
 10
159.6397076039218
 20
65.64269815078308
 30
0.0
 10
159.6409382173707
 20
65.59714484997504
 30
0.0
 10
159.6319618511042
 20
65.55287256993567
 30
0.0
 10
159.6318186671075
 20
65.55216637303907
 30
0.0
  0
LINE
  5
17A
330
1F
100
AcDbEntity
  8
0
  6
Continuous
 62
     7
370
    25
100
AcDbLine
 10
171.4390292262
 20
65.6809676564
 30
0.0
 11
171.4390292262
 21
69.6477414032
 31
0.0
  0
LINE
  5
17B
330
1F
100
AcDbEntity
  8
0
  6
Continuous
 62
     7
370
    25
100
AcDbLine
 10
159.6390292262
 20
69.6477414032
 30
0.0
 11
159.6390292262
 21
65.6862700672
 31
0.0
  0
LWPOLYLINE
  5
17C
330
1F
100
AcDbEntity
  8
0
  6
Continuous
 62
     7
370
    25
100
AcDbPolyline
 90
        3
 70
   128
 43
0.0
 10
156.5132570478
 20
55.460203392
 10
156.8140649981
 20
54.7960176966
 10
157.0390292262
 20
54.3714981096
  0
ARC
  5
17D
330
1F
100
AcDbEntity
  8
0
  6
Continuous
 62
     7
370
    25
100
AcDbCircle
 10
165.5390292262
 20
59.1477414032
 30
0.0
 40
9.75
100
AcDbArc
 50
330.6678898323
 51
52.7619320169
  0
ARC
  5
17E
330
1F
100
AcDbEntity
  8
0
  6
Continuous
 62
     7
370
    25
100
AcDbCircle
 10
165.5390292262
 20
59.1477414032
 30
0.0
 40
9.750000000000005
100
AcDbArc
 50
127.2380679831
 51
202.2227896966
  0
LINE
  5
17F
330
1F
100
AcDbEntity
  8
0
  6
Continuous
 62
     7
370
    25
100
AcDbLine
 10
166.7890292262
 20
86.2477414032
 30
0.0
 11
167.0390292262
 21
86.2477414032
 31
0.0
  0
LINE
  5
180
330
1F
100
AcDbEntity
  8
0
  6
Continuous
 62
     7
370
    25
100
AcDbLine
 10
166.7890292262
 20
86.2477414032
 30
0.0
 11
166.7890292262
 21
86.4977414032
 31
0.0
  0
ARC
  5
181
330
1F
100
AcDbEntity
  8
0
  6
Continuous
 62
     7
370
    25
100
AcDbCircle
 10
166.7890292262
 20
86.2477414032
 30
0.0
 40
0.25
100
AcDbArc
 50
0.0
 51
90.0
  0
LINE
  5
182
330
1F
100
AcDbEntity
  8
0
  6
Continuous
 62
     7
370
    25
100
AcDbLine
 10
166.7890292262
 20
85.6477414032
 30
0.0
 11
166.7890292262
 21
86.2477414032
 31
0.0
  0
LINE
  5
183
330
1F
100
AcDbEntity
  8
0
  6
Continuous
 62
     7
370
    25
100
AcDbLine
 10
167.0390292262
 20
86.2477414032
 30
0.0
 11
167.0390292262
 21
85.6477414032
 31
0.0
  0
LINE
  5
184
330
1F
100
AcDbEntity
  8
0
  6
Continuous
 62
     7
370
    25
100
AcDbLine
 10
167.0390292262
 20
85.6477414032
 30
0.0
 11
166.7890292262
 21
85.6477414032
 31
0.0
  0
LINE
  5
185
330
1F
100
AcDbEntity
  8
0
  6
Continuous
 62
     7
370
    25
100
AcDbLine
 10
164.2890292262
 20
86.2477414032
 30
0.0
 11
164.2890292262
 21
85.6477414032
 31
0.0
  0
LINE
  5
186
330
1F
100
AcDbEntity
  8
0
  6
Continuous
 62
     7
370
    25
100
AcDbLine
 10
166.7890292262
 20
86.2477414032
 30
0.0
 11
164.2890292262
 21
86.2477414032
 31
0.0
  0
LINE
  5
187
330
1F
100
AcDbEntity
  8
0
  6
Continuous
 62
     7
370
    25
100
AcDbLine
 10
164.2890292262
 20
85.6477414032
 30
0.0
 11
166.7890292262
 21
85.6477414032
 31
0.0
  0
LINE
  5
188
330
1F
100
AcDbEntity
  8
0
  6
Continuous
 62
     7
370
    25
100
AcDbLine
 10
164.2890292262
 20
86.4977414032
 30
0.0
 11
164.2890292262
 21
86.2477414032
 31
0.0
  0
LINE
  5
189
330
1F
100
AcDbEntity
  8
0
  6
Continuous
 62
     7
370
    25
100
AcDbLine
 10
164.2890292262
 20
86.4977414032
 30
0.0
 11
166.7890292262
 21
86.4977414032
 31
0.0
  0
LINE
  5
18A
330
1F
100
AcDbEntity
  8
0
  6
Continuous
 62
     7
370
    25
100
AcDbLine
 10
164.0390292262
 20
86.2477414032
 30
0.0
 11
164.2890292262
 21
86.2477414032
 31
0.0
  0
ARC
  5
18B
330
1F
100
AcDbEntity
  8
0
  6
Continuous
 62
     7
370
    25
100
AcDbCircle
 10
164.2890292262
 20
86.2477414032
 30
0.0
 40
0.25
100
AcDbArc
 50
90.0
 51
180.0
  0
LINE
  5
18C
330
1F
100
AcDbEntity
  8
0
  6
Continuous
 62
     7
370
    25
100
AcDbLine
 10
164.0390292262
 20
85.6477414032
 30
0.0
 11
164.0390292262
 21
86.2477414032
 31
0.0
  0
LINE
  5
18D
330
1F
100
AcDbEntity
  8
0
  6
Continuous
 62
     7
370
    25
100
AcDbLine
 10
164.2890292262
 20
85.6477414032
 30
0.0
 11
164.0390292262
 21
85.6477414032
 31
0.0
  0
SPLINE
  5
18E
330
1F
100
AcDbEntity
  8
0
  6
Continuous
 62
     7
370
    25
100
AcDbSpline
210
0.0
220
0.0
230
1.0
 70
     8
 71
     3
 72
    15
 73
    11
 74
     0
 42
0.00000001
 43
0.00000001
 40
0.0
 40
0.0
 40
0.0
 40
0.0
 40
0.0090459071881971
 40
0.1032433785236816
 40
0.1542564497735189
 40
0.31331690267151
 40
0.5243720399414428
 40
0.6678060008509183
 40
0.9918332554187028
 40
1.0
 40
1.0
 40
1.0
 40
1.0
 10
163.8651161826855
 20
86.24774140324638
 30
0.0
 10
163.8651338284099
 20
86.24942250183081
 30
0.0
 10
163.8653352238225
 20
86.26860933338631
 30
0.0
 10
163.8715248444887
 20
86.2973036129063
 30
0.0
 10
163.8957267763328
 20
86.34797965287824
 30
0.0
 10
163.9487457683345
 20
86.40585595245513
 30
0.0
 10
164.0301166555311
 20
86.45072146718982
 30
0.0
 10
164.1446957275535
 20
86.48808385044435
 30
0.0
 10
164.2291209052727
 20
86.49762986271382
 30
0.0
 10
164.2875917632247
 20
86.49773872690061
 30
0.0
 10
164.2890292261637
 20
86.49774140324638
 30
0.0
  0
LINE
  5
18F
330
1F
100
AcDbEntity
  8
0
  6
Continuous
 62
     7
370
    25
100
AcDbLine
 10
163.8651161827
 20
86.2477414032
 30
0.0
 11
164.0390292262
 21
86.2477414032
 31
0.0
  0
LINE
  5
190
330
1F
100
AcDbEntity
  8
0
  6
Continuous
 62
     7
370
    25
100
AcDbLine
 10
167.0390292262
 20
86.2477414032
 30
0.0
 11
167.2129422696
 21
86.2477414032
 31
0.0
  0
SPLINE
  5
191
330
1F
100
AcDbEntity
  8
0
  6
Continuous
 62
     7
370
    25
100
AcDbSpline
210
0.0
220
0.0
230
1.0
 70
     8
 71
     3
 72
    15
 73
    11
 74
     0
 42
0.00000001
 43
0.00000001
 40
0.0
 40
0.0
 40
0.0
 40
0.0
 40
0.0081667445812695
 40
0.3321939991490083
 40
0.4756279600585602
 40
0.6866830973284899
 40
0.8457435502264811
 40
0.8967566214763185
 40
0.9909540928118029
 40
1.0
 40
1.0
 40
1.0
 40
1.0
 10
166.7890292261637
 20
86.49774140324638
 30
0.0
 10
166.7904666891027
 20
86.49773872690061
 30
0.0
 10
166.8489375470544
 20
86.49762986271375
 30
0.0
 10
166.9333627247739
 20
86.48808385044437
 30
0.0
 10
167.0479417967964
 20
86.45072146718982
 30
0.0
 10
167.129312683993
 20
86.40585595245514
 30
0.0
 10
167.1823316759946
 20
86.34797965287824
 30
0.0
 10
167.2065336078388
 20
86.2973036129063
 30
0.0
 10
167.212723228505
 20
86.2686093333863
 30
0.0
 10
167.2129246239175
 20
86.24942250183081
 30
0.0
 10
167.212942269642
 20
86.24774140324638
 30
0.0
  0
LINE
  5
192
330
1F
100
AcDbEntity
  8
0
  6
Continuous
 62
     7
370
    25
100
AcDbLine
 10
167.2129422696
 20
86.2477414032
 30
0.0
 11
167.2129422696
 21
85.6477414032
 31
0.0
  0
LINE
  5
193
330
1F
100
AcDbEntity
  8
0
  6
Continuous
 62
     7
370
    25
100
AcDbLine
 10
167.2129422696
 20
85.6477414032
 30
0.0
 11
167.0390292262
 21
85.6477414032
 31
0.0
  0
LINE
  5
194
330
1F
100
AcDbEntity
  8
0
  6
Continuous
 62
     7
370
    25
100
AcDbLine
 10
163.8651161827
 20
85.6477414032
 30
0.0
 11
163.8651161827
 21
86.2477414032
 31
0.0
  0
LINE
  5
195
330
1F
100
AcDbEntity
  8
0
  6
Continuous
 62
     7
370
    25
100
AcDbLine
 10
164.0390292262
 20
85.6477414032
 30
0.0
 11
163.8651161827
 21
85.6477414032
 31
0.0
  0
LINE
  5
196
330
1F
100
AcDbEntity
  8
0
  6
Continuous
 62
     7
370
    25
100
AcDbLine
 10
160.2890292262
 20
86.4977414032
 30
0.0
 11
164.2890292262
 21
86.4977414032
 31
0.0
  0
LINE
  5
197
330
1F
100
AcDbEntity
  8
0
  6
Continuous
 62
     7
370
    25
100
AcDbLine
 10
166.7890292262
 20
86.4977414032
 30
0.0
 11
170.7890292262
 21
86.4977414032
 31
0.0
  0
LINE
  5
198
330
1F
100
AcDbEntity
  8
0
  6
Continuous
 62
     7
370
    25
100
AcDbLine
 10
160.0390292262
 20
85.6477414032
 30
0.0
 11
163.8651161827
 21
85.6477414032
 31
0.0
  0
LINE
  5
199
330
1F
100
AcDbEntity
  8
0
  6
Continuous
 62
     7
370
    25
100
AcDbLine
 10
167.2129422696
 20
85.6477414032
 30
0.0
 11
171.0390292262
 21
85.6477414032
 31
0.0
  0
LINE
  5
19A
330
1F
100
AcDbEntity
  8
0
  6
Continuous
 62
     7
370
    25
100
AcDbLine
 10
164.9390292262
 20
86.5077414032
 30
0.0
 11
166.1390292262
 21
86.5077414032
 31
0.0
  0
LINE
  5
19B
330
1F
100
AcDbEntity
  8
0
  6
Continuous
 62
     7
370
    25
100
AcDbLine
 10
166.1390292262
 20
86.4977414032
 30
0.0
 11
166.1390292262
 21
86.5077414032
 31
0.0
  0
LINE
  5
19C
330
1F
100
AcDbEntity
  8
0
  6
Continuous
 62
     7
370
    25
100
AcDbLine
 10
164.9390292262
 20
86.4977414032
 30
0.0
 11
164.9390292262
 21
86.5077414032
 31
0.0
  0
LINE
  5
19D
330
1F
100
AcDbEntity
  8
0
  6
Continuous
 62
     7
370
    25
100
AcDbLine
 10
158.0890292262
 20
77.6477414032
 30
0.0
 11
172.9890292262
 21
77.6477414032
 31
0.0
  0
LINE
  5
19E
330
1F
100
AcDbEntity
  8
0
  6
Continuous
 62
     7
370
    25
100
AcDbLine
 10
158.5390292262
 20
69.6477414032
 30
0.0
 11
172.5390292262
 21
69.6477414032
 31
0.0
  0
LINE
  5
19F
330
1F
100
AcDbEntity
  8
0
  6
Continuous
 62
     7
370
    25
100
AcDbLine
 10
162.0390292262
 20
87.6477414032
 30
0.0
 11
162.0390292262
 21
86.4977414032
 31
0.0
  0
LINE
  5
1A0
330
1F
100
AcDbEntity
  8
0
  6
Continuous
 62
     7
370
    25
100
AcDbLine
 10
162.0390292262
 20
87.6477414032
 30
0.0
 11
162.2673299621
 21
87.6477414032
 31
0.0
  0
LINE
  5
1A1
330
1F
100
AcDbEntity
  8
0
  6
Continuous
 62
     7
370
    25
100
AcDbLine
 10
162.2673299621
 20
87.6477414032
 30
0.0
 11
162.2673299621
 21
86.4977414032
 31
0.0
  0
LINE
  5
1A2
330
1F
100
AcDbEntity
  8
0
  6
Continuous
 62
     7
370
    25
100
AcDbLine
 10
168.8107284902
 20
87.6477414032
 30
0.0
 11
168.8107284902
 21
86.4977414032
 31
0.0
  0
LINE
  5
1A3
330
1F
100
AcDbEntity
  8
0
  6
Continuous
 62
     7
370
    25
100
AcDbLine
 10
168.8107284902
 20
87.6477414032
 30
0.0
 11
169.0390292262
 21
87.6477414032
 31
0.0
  0
LINE
  5
1A4
330
1F
100
AcDbEntity
  8
0
  6
Continuous
 62
     7
370
    25
100
AcDbLine
 10
169.0390292262
 20
86.4977414032
 30
0.0
 11
169.0390292262
 21
87.6477414032
 31
0.0
  0
LINE
  5
1A5
330
1F
100
AcDbEntity
  8
0
  6
Continuous
 62
     7
370
    25
100
AcDbLine
 10
162.2673299621
 20
87.6477414032
 30
0.0
 11
168.8107284902
 21
87.6477414032
 31
0.0
  0
SPLINE
  5
1A6
330
1F
100
AcDbEntity
  8
0
  6
Continuous
 62
     7
370
    25
100
AcDbSpline
210
0.0
220
0.0
230
1.0
 70
     8
 71
     3
 72
    10
 73
     6
 74
     0
 42
0.00000001
 43
0.00000001
 40
0.0
 40
0.0
 40
0.0
 40
0.0
 40
0.5
 40
0.5
 40
1.0
 40
1.0
 40
1.0
 40
1.0
 10
157.0390292261637
 20
54.52893924972938
 30
0.0
 10
157.0390292261637
 20
54.44305218792692
 30
0.0
 10
157.0618216754935
 20
54.35564497894678
 30
0.0
 10
157.1497643795866
 20
54.20300853635305
 30
0.0
 10
157.2146221532605
 20
54.13888549140747
 30
0.0
 10
157.2890292261637
 20
54.09592654783716
 30
0.0
  0
SPLINE
  5
1A7
330
1F
100
AcDbEntity
  8
0
  6
Continuous
 62
     7
370
    25
100
AcDbSpline
210
0.0
220
0.0
230
1.0
 70
    24
 71
     3
 72
    14
 73
    10
 74
     0
 42
0.00000001
 43
0.00000001
 40
0.0
 40
0.0
 40
0.0
 40
0.0
 40
0.25
 40
0.25
 40
0.5
 40
0.5
 40
0.75
 40
0.75
 40
1.0
 40
1.0
 40
1.0
 40
1.0
 10
157.0390292261637
 20
54.52893924972933
 30
0.0
 10
157.0390292261637
 20
55.28331931037932
 30
0.0
 10
157.0390292261637
 20
56.05276047784481
 30
0.0
 10
157.0390292261637
 20
57.59327183878597
 30
0.0
 10
157.0390292261637
 20
58.36812621879299
 30
0.0
 10
157.0390292261637
 20
59.92848717367855
 30
0.0
 10
157.0390292261637
 20
60.71894336646358
 30
0.0
 10
157.0390292261637
 20
62.26122302927205
 30
0.0
 10
157.0390292261637
 20
63.01861378247324
 30
0.0
 10
157.0390292261637
 20
63.76654355676339
 30
0.0
  0
SPLINE
  5
1A8
330
1F
100
AcDbEntity
  8
0
  6
Continuous
 62
     7
370
    25
100
AcDbSpline
210
0.0
220
0.0
230
1.0
 70
     8
 71
     3
 72
    10
 73
     6
 74
     0
 42
0.00000001
 43
0.00000001
 40
0.0
 40
0.0
 40
0.0
 40
0.0
 40
0.5
 40
0.5
 40
1.0
 40
1.0
 40
1.0
 40
1.0
 10
157.2890292261637
 20
64.19955625865562
 30
0.0
 10
157.2146488487864
 20
64.15661272775439
 30
0.0
 10
157.1503482100006
 20
64.09317028313026
 30
0.0
 10
157.0621325252177
 20
63.94069144601129
 30
0.0
 10
157.0390292261637
 20
63.85246144390403
 30
0.0
 10
157.0390292261637
 20
63.76654355676339
 30
0.0
  0
SPLINE
  5
1A9
330
1F
100
AcDbEntity
  8
0
  6
Continuous
 62
     7
370
    25
100
AcDbSpline
210
0.0
220
0.0
230
1.0
 70
    24
 71
     3
 72
    16
 73
    12
 74
     0
 42
0.00000001
 43
0.00000001
 40
0.0
 40
0.0
 40
0.0
 40
0.0
 40
0.2500000000000001
 40
0.2500000000000001
 40
0.5000000000000001
 40
0.5000000000000001
 40
0.6250000000000001
 40
0.6250000000000001
 40
0.7500000000000002
 40
0.7500000000000002
 40
1.0
 40
1.0
 40
1.0
 40
1.0
 10
165.2890292261637
 20
68.81835841217263
 30
0.0
 10
164.6355124461229
 20
68.44105032329612
 30
0.0
 10
163.977292037033
 20
68.06102659292192
 30
0.0
 10
162.6477294536672
 20
67.29340327751122
 30
0.0
 10
161.9763054715966
 20
66.90575646072243
 30
0.0
 10
160.9573043845899
 20
66.31743590883458
 30
0.0
 10
160.6159636022737
 20
66.12036271627895
 30
0.0
 10
159.9403650993032
 20
65.73030573872484
 30
0.0
 10
159.6047059493386
 20
65.5365128381368
 30
0.0
 10
158.6034403128389
 20
64.95843185337337
 30
0.0
 10
157.9435326542358
 20
64.57743398903855
 30
0.0
 10
157.2890292261637
 20
64.19955625865562
 30
0.0
  0
SPLINE
  5
1AA
330
1F
100
AcDbEntity
  8
0
  6
Continuous
 62
     7
370
    25
100
AcDbSpline
210
0.0
220
0.0
230
1.0
 70
     8
 71
     3
 72
    10
 73
     6
 74
     0
 42
0.00000001
 43
0.00000001
 40
0.0
 40
0.0
 40
0.0
 40
0.0
 40
0.5
 40
0.5
 40
1.0
 40
1.0
 40
1.0
 40
1.0
 10
165.7890292261637
 20
68.81835841217263
 30
0.0
 10
165.7146488487864
 20
68.86130194307385
 30
0.0
 10
165.6275557606708
 20
68.88526670742984
 30
0.0
 10
165.4513973717948
 20
68.88542431290462
 30
0.0
 10
165.363436299067
 20
68.86131735574294
 30
0.0
 10
165.2890292261637
 20
68.81835841217263
 30
0.0
  0
SPLINE
  5
1AB
330
1F
100
AcDbEntity
  8
0
  6
Continuous
 62
     7
370
    25
100
AcDbSpline
210
0.0
220
0.0
230
1.0
 70
    24
 71
     3
 72
    16
 73
    12
 74
     0
 42
0.00000001
 43
0.00000001
 40
0.0
 40
0.0
 40
0.0
 40
0.0
 40
0.2499999999999997
 40
0.2499999999999997
 40
0.4999999999999993
 40
0.4999999999999993
 40
0.6249999999999993
 40
0.6249999999999993
 40
0.7499999999999996
 40
0.7499999999999996
 40
1.0
 40
1.0
 40
1.0
 40
1.0
 10
173.7890292261637
 20
64.19955625865562
 30
0.0
 10
173.1355124461229
 20
64.57686434753211
 30
0.0
 10
172.477292037033
 20
64.95688807790631
 30
0.0
 10
171.1477294536672
 20
65.724511393317
 30
0.0
 10
170.4763054715966
 20
66.11215821010582
 30
0.0
 10
169.4573043845899
 20
66.70047876199365
 30
0.0
 10
169.1159636022737
 20
66.8975519545493
 30
0.0
 10
168.4403650993033
 20
67.28760893210341
 30
0.0
 10
168.1047059493386
 20
67.48140183269145
 30
0.0
 10
167.1034403128389
 20
68.05948281745488
 30
0.0
 10
166.4435326542358
 20
68.4404806817897
 30
0.0
 10
165.7890292261637
 20
68.81835841217263
 30
0.0
  0
SPLINE
  5
1AC
330
1F
100
AcDbEntity
  8
0
  6
Continuous
 62
     7
370
    25
100
AcDbSpline
210
0.0
220
0.0
230
1.0
 70
     8
 71
     3
 72
    10
 73
     6
 74
     0
 42
0.00000001
 43
0.00000001
 40
0.0
 40
0.0
 40
0.0
 40
0.0
 40
0.5
 40
0.5
 40
1.0
 40
1.0
 40
1.0
 40
1.0
 10
174.0390292261637
 20
63.76654355676339
 30
0.0
 10
174.0390292261637
 20
63.85243061856585
 30
0.0
 10
174.0162367768339
 20
63.93983782754596
 30
0.0
 10
173.9282940727409
 20
64.09247427013972
 30
0.0
 10
173.863436299067
 20
64.1565973150853
 30
0.0
 10
173.7890292261637
 20
64.19955625865562
 30
0.0
  0
SPLINE
  5
1AD
330
1F
100
AcDbEntity
  8
0
  6
Continuous
 62
     7
370
    25
100
AcDbSpline
210
0.0
220
0.0
230
1.0
 70
    24
 71
     3
 72
    14
 73
    10
 74
     0
 42
0.00000001
 43
0.00000001
 40
0.0
 40
0.0
 40
0.0
 40
0.0
 40
0.25
 40
0.25
 40
0.5
 40
0.5
 40
0.75
 40
0.75
 40
1.0
 40
1.0
 40
1.0
 40
1.0
 10
174.0390292261637
 20
54.52893924972933
 30
0.0
 10
174.0390292261637
 20
55.28331931037931
 30
0.0
 10
174.0390292261637
 20
56.05276047784481
 30
0.0
 10
174.0390292261637
 20
57.59327183878597
 30
0.0
 10
174.0390292261637
 20
58.36812621879299
 30
0.0
 10
174.0390292261637
 20
59.92848717367855
 30
0.0
 10
174.0390292261637
 20
60.71894336646358
 30
0.0
 10
174.0390292261637
 20
62.26122302927205
 30
0.0
 10
174.0390292261637
 20
63.01861378247322
 30
0.0
 10
174.0390292261637
 20
63.76654355676339
 30
0.0
  0
SPLINE
  5
1AE
330
1F
100
AcDbEntity
  8
0
  6
Continuous
 62
     7
370
    25
100
AcDbSpline
210
0.0
220
0.0
230
1.0
 70
     8
 71
     3
 72
    10
 73
     6
 74
     0
 42
0.00000001
 43
0.00000001
 40
0.0
 40
0.0
 40
0.0
 40
0.0
 40
0.5
 40
0.5
 40
1.0
 40
1.0
 40
1.0
 40
1.0
 10
173.7890292261637
 20
54.09592654783716
 30
0.0
 10
173.8634096035409
 20
54.13887007873829
 30
0.0
 10
173.9277102423264
 20
54.20231252336196
 30
0.0
 10
174.0159259271097
 20
54.35479136048108
 30
0.0
 10
174.0390292261637
 20
54.44302136258857
 30
0.0
 10
174.0390292261637
 20
54.52893924972935
 30
0.0
  0
SPLINE
  5
1AF
330
1F
100
AcDbEntity
  8
0
  6
Continuous
 62
     7
370
    25
100
AcDbSpline
210
0.0
220
0.0
230
1.0
 70
    24
 71
     3
 72
    16
 73
    12
 74
     0
 42
0.00000001
 43
0.00000001
 40
0.0
 40
0.0
 40
0.0
 40
0.0
 40
0.2500000000000002
 40
0.2500000000000002
 40
0.5000000000000004
 40
0.5000000000000004
 40
0.6250000000000003
 40
0.6250000000000003
 40
0.7500000000000002
 40
0.7500000000000002
 40
1.0
 40
1.0
 40
1.0
 40
1.0
 10
165.7890292261637
 20
49.47712439432015
 30
0.0
 10
166.4425460062045
 20
49.85443248319662
 30
0.0
 10
167.1007664152944
 20
50.23445621357079
 30
0.0
 10
168.4303289986601
 20
51.00207952898143
 30
0.0
 10
169.1017529807306
 20
51.3897263457702
 30
0.0
 10
170.1207540677372
 20
51.97804689765799
 30
0.0
 10
170.4620948500534
 20
52.17512009021362
 30
0.0
 10
171.1376933530238
 20
52.5651770677677
 30
0.0
 10
171.4733525029884
 20
52.75896996835572
 30
0.0
 10
172.474618139488
 20
53.33705095311911
 30
0.0
 10
173.1345257980911
 20
53.7180488174539
 30
0.0
 10
173.7890292261631
 20
54.0959265478368
 30
0.0
  0
SPLINE
  5
1B0
330
1F
100
AcDbEntity
  8
0
  6
Continuous
 62
     7
370
    25
100
AcDbSpline
210
0.0
220
0.0
230
1.0
 70
     8
 71
     3
 72
    10
 73
     6
 74
     0
 42
0.00000001
 43
0.00000001
 40
0.0
 40
0.0
 40
0.0
 40
0.0
 40
0.5
 40
0.5
 40
1.0
 40
1.0
 40
1.0
 40
1.0
 10
165.2890292261637
 20
49.47712439432015
 30
0.0
 10
165.3634096035411
 20
49.43418086341892
 30
0.0
 10
165.4505026916566
 20
49.41021609906294
 30
0.0
 10
165.6266610805326
 20
49.41005849358815
 30
0.0
 10
165.7146221532605
 20
49.43416545074984
 30
0.0
 10
165.7890292261637
 20
49.47712439432015
 30
0.0
  0
SPLINE
  5
1B1
330
1F
100
AcDbEntity
  8
0
  6
Continuous
 62
     7
370
    25
100
AcDbSpline
210
0.0
220
0.0
230
1.0
 70
    24
 71
     3
 72
    16
 73
    12
 74
     0
 42
0.00000001
 43
0.00000001
 40
0.0
 40
0.0
 40
0.0
 40
0.0
 40
0.2500000000000001
 40
0.2500000000000001
 40
0.5000000000000002
 40
0.5000000000000002
 40
0.6250000000000001
 40
0.6250000000000001
 40
0.7500000000000001
 40
0.7500000000000001
 40
1.0
 40
1.0
 40
1.0
 40
1.0
 10
157.2890292261637
 20
54.09592654783716
 30
0.0
 10
157.9425460062045
 20
53.71861845896066
 30
0.0
 10
158.6007664152945
 20
53.33859472858646
 30
0.0
 10
159.9303289986603
 20
52.57097141317576
 30
0.0
 10
160.6017529807309
 20
52.18332459638697
 30
0.0
 10
161.6207540677376
 20
51.59500404449912
 30
0.0
 10
161.9620948500537
 20
51.39793085194347
 30
0.0
 10
162.6376933530242
 20
51.00787387438937
 30
0.0
 10
162.9733525029888
 20
50.81408097380134
 30
0.0
 10
163.9746181394885
 20
50.23599998903791
 30
0.0
 10
164.6345257980917
 20
49.85500212470308
 30
0.0
 10
165.2890292261637
 20
49.47712439432015
 30
0.0
  0
CIRCLE
  5
1B2
330
1F
100
AcDbEntity
  8
0
  6
Continuous
 62
     7
370
    25
100
AcDbCircle
 10
165.5390292262
 20
59.1477414032
 30
0.0
 40
8.25
  0
LINE
  5
1B3
330
1F
100
AcDbEntity
  8
0
  6
Continuous
 62
     7
370
    25
100
AcDbLine
 10
165.7890292262
 20
49.4771243943
 30
0.0
 11
165.7890292262
 21
47.8254628085
 31
0.0
  0
SPLINE
  5
1B4
330
1F
100
AcDbEntity
  8
0
  6
Continuous
 62
     7
370
    25
100
AcDbSpline
210
0.0
220
0.0
230
1.0
 70
     8
 71
     3
 72
    10
 73
     6
 74
     0
 42
0.00000001
 43
0.00000001
 40
0.0
 40
0.0
 40
0.0
 40
0.0
 40
0.5
 40
0.5
 40
1.0
 40
1.0
 40
1.0
 40
1.0
 10
165.2890292261637
 20
47.82546280850658
 30
0.0
 10
165.3634039801538
 20
47.8491364129977
 30
0.0
 10
165.4504977117197
 20
47.86222918879093
 30
0.0
 10
165.6266635402641
 20
47.86231575689188
 30
0.0
 10
165.7146245641545
 20
47.84914593276859
 30
0.0
 10
165.7890292261637
 20
47.82546280850657
 30
0.0
  0
LINE
  5
1B5
330
1F
100
AcDbEntity
  8
0
  6
Continuous
 62
     7
370
    25
100
AcDbLine
 10
165.2890292262
 20
47.8254628085
 30
0.0
 11
165.2890292262
 21
49.4771243943
 31
0.0
  0
SPLINE
  5
1B6
330
1F
100
AcDbEntity
  8
0
  6
Continuous
 62
     7
370
    25
100
AcDbSpline
210
0.0
220
0.0
230
1.0
 70
     8
 71
     3
 72
    12
 73
     8
 74
     0
 42
0.00000001
 43
0.00000001
 40
0.0
 40
0.0
 40
0.0
 40
0.0
 40
0.2500000000000003
 40
0.2500000000000003
 40
0.5000000000000002
 40
0.5000000000000002
 40
1.0
 40
1.0
 40
1.0
 40
1.0
 10
169.7890292261637
 20
47.14774140324639
 30
0.0
 10
169.451273291141
 20
47.14774140324639
 30
0.0
 10
169.1108652762624
 20
47.16348773326834
 30
0.0
 10
168.436370591862
 20
47.22493275785377
 30
0.0
 10
168.1012452729948
 20
47.2705215171075
 30
0.0
 10
167.1015339546547
 20
47.4469725193641
 30
0.0
 10
166.4425998515894
 20
47.61743022132759
 30
0.0
 10
165.7890292261637
 20
47.82546280850643
 30
0.0
  0
LINE
  5
1B7
330
1F
100
AcDbEntity
  8
0
  6
Continuous
 62
     7
370
    25
100
AcDbLine
 10
161.2890292262
 20
47.1477414032
 30
0.0
 11
169.7890292262
 21
47.1477414032
 31
0.0
  0
SPLINE
  5
1B8
330
1F
100
AcDbEntity
  8
0
  6
Continuous
 62
     7
370
    25
100
AcDbSpline
210
0.0
220
0.0
230
1.0
 70
     8
 71
     3
 72
    10
 73
     6
 74
     0
 42
0.00000001
 43
0.00000001
 40
0.0
 40
0.0
 40
0.0
 40
0.0
 40
0.5
 40
0.5
 40
1.0
 40
1.0
 40
1.0
 40
1.0
 10
165.2890292261638
 20
47.82546280850611
 30
0.0
 10
164.6330164595587
 20
47.61665288383985
 30
0.0
 10
163.972749552701
 20
47.4461187440926
 30
0.0
 10
162.640403034066
 20
47.21133293907368
 30
0.0
 10
161.9682500525786
 20
47.14774140324639
 30
0.0
 10
161.2890292261637
 20
47.14774140324639
 30
0.0
  0
SPLINE
  5
1B9
330
1F
100
AcDbEntity
  8
0
  6
Continuous
 62
     7
370
    25
100
AcDbSpline
210
0.0
220
0.0
230
1.0
 70
     8
 71
     3
 72
    12
 73
     8
 74
     0
 42
0.00000001
 43
0.00000001
 40
0.0
 40
0.0
 40
0.0
 40
0.0
 40
0.2499999999999999
 40
0.2499999999999999
 40
0.4999999999999998
 40
0.4999999999999998
 40
1.0
 40
1.0
 40
1.0
 40
1.0
 10
169.9134593189161
 20
51.85836521861152
 30
0.0
 10
170.2425943093093
 20
51.85465673275509
 30
0.0
 10
170.572056462246
 20
51.83607422991741
 30
0.0
 10
171.2249300803036
 20
51.77120719295127
 30
0.0
 10
171.5493826721807
 20
51.72494163970099
 30
0.0
 10
172.5174431133728
 20
51.54921710939404
 30
0.0
 10
173.1557655976208
 20
51.38291370061728
 30
0.0
 10
173.7890292261637
 20
51.18134486339138
 30
0.0
  0
LINE
  5
1BA
330
1F
100
AcDbEntity
  8
0
  6
Continuous
 62
     7
370
    25
100
AcDbLine
 10
173.7890292262
 20
47.8254628085
 30
0.0
 11
173.7890292262
 21
51.1813448634
 31
0.0
  0
SPLINE
  5
1BB
330
1F
100
AcDbEntity
  8
0
  6
Continuous
 62
     7
370
    25
100
AcDbSpline
210
0.0
220
0.0
230
1.0
 70
     8
 71
     3
 72
    10
 73
     6
 74
     0
 42
0.00000001
 43
0.00000001
 40
0.0
 40
0.0
 40
0.0
 40
0.0
 40
0.5
 40
0.5
 40
1.0
 40
1.0
 40
1.0
 40
1.0
 10
173.7890292261638
 20
47.82546280850611
 30
0.0
 10
173.1330164595587
 20
47.61665288383985
 30
0.0
 10
172.472749552701
 20
47.4461187440926
 30
0.0
 10
171.140403034066
 20
47.21133293907368
 30
0.0
 10
170.4682500525786
 20
47.14774140324639
 30
0.0
 10
169.7890292261637
 20
47.14774140324639
 30
0.0
  0
SPLINE
  5
1BC
330
1F
100
AcDbEntity
  8
0
  6
Continuous
 62
     7
370
    25
100
AcDbSpline
210
0.0
220
0.0
230
1.0
 70
     8
 71
     3
 72
    12
 73
     8
 74
     0
 42
0.00000001
 43
0.00000001
 40
0.0
 40
0.0
 40
0.0
 40
0.0
 40
0.2499999999999998
 40
0.2499999999999998
 40
0.4999999999999996
 40
0.4999999999999996
 40
1.0
 40
1.0
 40
1.0
 40
1.0
 10
161.2890292261637
 20
47.14774140324639
 30
0.0
 10
160.951273291141
 20
47.14774140324638
 30
0.0
 10
160.6108652762624
 20
47.16348773326834
 30
0.0
 10
159.936370591862
 20
47.22493275785377
 30
0.0
 10
159.6012452729948
 20
47.2705215171075
 30
0.0
 10
158.6015339546547
 20
47.4469725193641
 30
0.0
 10
157.9425998515894
 20
47.61743022132759
 30
0.0
 10
157.2890292261637
 20
47.82546280850643
 30
0.0
  0
LINE
  5
1BD
330
1F
100
AcDbEntity
  8
0
  6
Continuous
 62
     7
370
    25
100
AcDbLine
 10
157.2890292262
 20
51.1813448634
 30
0.0
 11
157.2890292262
 21
47.8254628085
 31
0.0
  0
SPLINE
  5
1BE
330
1F
100
AcDbEntity
  8
0
  6
Continuous
 62
     7
370
    25
100
AcDbSpline
210
0.0
220
0.0
230
1.0
 70
     8
 71
     3
 72
    10
 73
     6
 74
     0
 42
0.00000001
 43
0.00000001
 40
0.0
 40
0.0
 40
0.0
 40
0.0
 40
0.5
 40
0.5
 40
1.0
 40
1.0
 40
1.0
 40
1.0
 10
157.2890292261642
 20
51.18134486339154
 30
0.0
 10
157.9238569319779
 20
51.38341154894245
 30
0.0
 10
158.5631226345536
 20
51.5498043212131
 30
0.0
 10
159.8539375661435
 20
51.78385129508316
 30
0.0
 10
160.5055572016134
 20
51.85093954904198
 30
0.0
 10
161.1645991334335
 20
51.85836521861177
 30
0.0
  0
SPLINE
  5
1BF
330
1F
100
AcDbEntity
  8
0
  6
Continuous
 62
     7
370
    25
100
AcDbSpline
210
0.0
220
0.0
230
1.0
 70
     8
 71
     3
 72
    10
 73
     6
 74
     0
 42
0.00000001
 43
0.00000001
 40
0.0
 40
0.0
 40
0.0
 40
0.0
 40
0.5
 40
0.5
 40
1.0
 40
1.0
 40
1.0
 40
1.0
 10
157.0390292261637
 20
47.82546280850657
 30
0.0
 10
157.0390292261637
 20
47.84913670906253
 30
0.0
 10
157.0618197978112
 20
47.86222926624167
 30
0.0
 10
157.14976579511
 20
47.86231568022395
 30
0.0
 10
157.2146265878428
 20
47.84914528862533
 30
0.0
 10
157.2890292261637
 20
47.82546280850657
 30
0.0
  0
LINE
  5
1C0
330
1F
100
AcDbEntity
  8
0
  6
Continuous
 62
     7
370
    25
100
AcDbLine
 10
157.0390292262
 20
47.1477414032
 30
0.0
 11
161.2890292262
 21
47.1477414032
 31
0.0
  0
SPLINE
  5
1C1
330
1F
100
AcDbEntity
  8
0
  6
Continuous
 62
     7
370
    25
100
AcDbSpline
210
0.0
220
0.0
230
1.0
 70
    24
 71
     3
 72
    10
 73
     6
 74
     0
 42
0.00000001
 43
0.00000001
 40
0.0
 40
0.0
 40
0.0
 40
0.0
 40
0.5
 40
0.5
 40
1.0
 40
1.0
 40
1.0
 40
1.0
 10
157.0390292261637
 20
47.14774140324639
 30
0.0
 10
157.0390292261637
 20
47.14774140324639
 30
0.0
 10
157.0390292261637
 20
47.21002576522491
 30
0.0
 10
157.0390292261637
 20
47.44487388323193
 30
0.0
 10
157.0390292261637
 20
47.61811649036313
 30
0.0
 10
157.0390292261637
 20
47.82546280850657
 30
0.0
  0
SPLINE
  5
1C2
330
1F
100
AcDbEntity
  8
0
  6
Continuous
 62
     7
370
    25
100
AcDbSpline
210
0.0
220
0.0
230
1.0
 70
     8
 71
     3
 72
    10
 73
     6
 74
     0
 42
0.00000001
 43
0.00000001
 40
0.0
 40
0.0
 40
0.0
 40
0.0
 40
0.5
 40
0.5
 40
1.0
 40
1.0
 40
1.0
 40
1.0
 10
173.7890292261637
 20
47.82546280850658
 30
0.0
 10
173.8633996930893
 20
47.84913504841814
 30
0.0
 10
173.9277052893771
 20
47.8622290383534
 30
0.0
 10
174.015928077183
 20
47.86231590581484
 30
0.0
 10
174.0390292261637
 20
47.84914611605548
 30
0.0
 10
174.0390292261637
 20
47.82546280850657
 30
0.0
  0
LINE
  5
1C3
330
1F
100
AcDbEntity
  8
0
  6
Continuous
 62
     7
370
    25
100
AcDbLine
 10
169.7890292262
 20
47.1477414032
 30
0.0
 11
174.0390292262
 21
47.1477414032
 31
0.0
  0
SPLINE
  5
1C4
330
1F
100
AcDbEntity
  8
0
  6
Continuous
 62
     7
370
    25
100
AcDbSpline
210
0.0
220
0.0
230
1.0
 70
    24
 71
     3
 72
    10
 73
     6
 74
     0
 42
0.00000001
 43
0.00000001
 40
0.0
 40
0.0
 40
0.0
 40
0.0
 40
0.4999999999999999
 40
0.4999999999999999
 40
1.0
 40
1.0
 40
1.0
 40
1.0
 10
174.0390292261637
 20
47.14774140324639
 30
0.0
 10
174.0390292261637
 20
47.14774140324639
 30
0.0
 10
174.0390292261637
 20
47.21002576522491
 30
0.0
 10
174.0390292261637
 20
47.44487388323193
 30
0.0
 10
174.0390292261637
 20
47.61811649036314
 30
0.0
 10
174.0390292261637
 20
47.82546280850658
 30
0.0
  0
SPLINE
  5
1C5
330
1F
100
AcDbEntity
  8
0
  6
Continuous
 62
     7
370
    25
100
AcDbSpline
210
0.0
220
0.0
230
1.0
 70
     8
 71
     3
 72
     8
 73
     4
 74
     0
 42
0.00000001
 43
0.00000001
 40
0.0
 40
0.0
 40
0.0
 40
0.0
 40
1.0
 40
1.0
 40
1.0
 40
1.0
 10
157.0390292261637
 20
51.3428301916724
 30
0.0
 10
157.5608353774655
 20
51.61542032734175
 30
0.0
 10
158.0844888463217
 20
51.88457282846315
 30
0.0
 10
158.6108259958882
 20
52.14774140324639
 30
0.0
  0
SPLINE
  5
1C6
330
1F
100
AcDbEntity
  8
0
  6
Continuous
 62
     7
370
    25
100
AcDbSpline
210
0.0
220
0.0
230
1.0
 70
     8
 71
     3
 72
    10
 73
     6
 74
     0
 42
0.00000001
 43
0.00000001
 40
0.0
 40
0.0
 40
0.0
 40
0.0
 40
0.5
 40
0.5
 40
1.0
 40
1.0
 40
1.0
 40
1.0
 10
157.0390292261637
 20
51.18134486339136
 30
0.0
 10
157.0390292261637
 20
51.15766946896695
 30
0.0
 10
157.0618216754936
 20
51.14457835908232
 30
0.0
 10
157.1497643795868
 20
51.1444920377941
 30
0.0
 10
157.214622153261
 20
51.15766097173805
 30
0.0
 10
157.2890292261644
 20
51.1813448633916
 30
0.0
  0
SPLINE
  5
1C7
330
1F
100
AcDbEntity
  8
0
  6
Continuous
 62
     7
370
    25
100
AcDbSpline
210
0.0
220
0.0
230
1.0
 70
    24
 71
     3
 72
     8
 73
     4
 74
     0
 42
0.00000001
 43
0.00000001
 40
0.0
 40
0.0
 40
0.0
 40
0.0
 40
1.0
 40
1.0
 40
1.0
 40
1.0
 10
157.0390292261637
 20
51.3428301916724
 30
0.0
 10
157.0390292261637
 20
51.29193540197158
 30
0.0
 10
157.0390292261637
 20
51.23800155261014
 30
0.0
 10
157.0390292261637
 20
51.18134486339138
 30
0.0
  0
SPLINE
  5
1C8
330
1F
100
AcDbEntity
  8
0
  6
Continuous
 62
     7
370
    25
100
AcDbSpline
210
0.0
220
0.0
230
1.0
 70
     8
 71
     3
 72
     8
 73
     4
 74
     0
 42
0.00000001
 43
0.00000001
 40
0.0
 40
0.0
 40
0.0
 40
0.0
 40
1.0
 40
1.0
 40
1.0
 40
1.0
 10
172.4672324564392
 20
52.14774140324638
 30
0.0
 10
172.9936533176485
 20
51.88453097264178
 30
0.0
 10
173.5171977743621
 20
51.61543354425508
 30
0.0
 10
174.0390292261637
 20
51.34283019167242
 30
0.0
  0
SPLINE
  5
1C9
330
1F
100
AcDbEntity
  8
0
  6
Continuous
 62
     7
370
    25
100
AcDbSpline
210
0.0
220
0.0
230
1.0
 70
     8
 71
     3
 72
    10
 73
     6
 74
     0
 42
0.00000001
 43
0.00000001
 40
0.0
 40
0.0
 40
0.0
 40
0.0
 40
0.5
 40
0.5
 40
1.0
 40
1.0
 40
1.0
 40
1.0
 10
173.7890292261637
 20
51.18134486339138
 30
0.0
 10
173.8634096035411
 20
51.15766946896699
 30
0.0
 10
173.9277102423268
 20
51.14457835908236
 30
0.0
 10
174.0159259271098
 20
51.14449203779407
 30
0.0
 10
174.0390292261637
 20
51.15766097173791
 30
0.0
 10
174.0390292261637
 20
51.18134486339137
 30
0.0
  0
SPLINE
  5
1CA
330
1F
100
AcDbEntity
  8
0
  6
Continuous
 62
     7
370
    25
100
AcDbSpline
210
0.0
220
0.0
230
1.0
 70
    24
 71
     3
 72
     8
 73
     4
 74
     0
 42
0.00000001
 43
0.00000001
 40
0.0
 40
0.0
 40
0.0
 40
0.0
 40
1.0
 40
1.0
 40
1.0
 40
1.0
 10
174.0390292261637
 20
51.3428301916724
 30
0.0
 10
174.0390292261637
 20
51.29193540197158
 30
0.0
 10
174.0390292261637
 20
51.23800155261014
 30
0.0
 10
174.0390292261637
 20
51.18134486339138
 30
0.0
  0
LINE
  5
1CB
330
1F
100
AcDbEntity
  8
0
  6
Continuous
 62
     7
370
    25
100
AcDbLine
 10
158.0390292262
 20
52.1477414032
 30
0.0
 11
160.6633848791
 21
52.1477414032
 31
0.0
  0
LINE
  5
1CC
330
1F
100
AcDbEntity
  8
0
  6
Continuous
 62
     7
370
    25
100
AcDbLine
 10
158.0390292262
 20
52.1477414032
 30
0.0
 11
158.0390292262
 21
53.6629138459
 31
0.0
  0
LINE
  5
1CD
330
1F
100
AcDbEntity
  8
0
  6
Continuous
 62
     7
370
    25
100
AcDbLine
 10
173.0390292262
 20
53.6629138459
 30
0.0
 11
173.0390292262
 21
52.1477414032
 31
0.0
  0
LINE
  5
1CE
330
1F
100
AcDbEntity
  8
0
  6
Continuous
 62
     7
370
    25
100
AcDbLine
 10
170.4146735732
 20
52.1477414032
 30
0.0
 11
173.0390292262
 21
52.1477414032
 31
0.0
  0
LINE
  5
1CF
330
1F
100
AcDbEntity
  8
0
  6
Continuous
 62
     7
370
    25
100
AcDbLine
 10
165.5390292262
 20
37.7514072771
 30
0.0
 11
172.0035812847
 21
37.7514072771
 31
0.0
  0
LINE
  5
1D0
330
1F
100
AcDbEntity
  8
0
  6
Continuous
 62
     7
370
    25
100
AcDbLine
 10
159.0744771676
 20
37.7514072771
 30
0.0
 11
165.5390292262
 21
37.7514072771
 31
0.0
  0
LINE
  5
1D1
330
1F
100
AcDbEntity
  8
0
  6
Continuous
 62
     7
370
    25
100
AcDbLine
 10
170.7890292262
 20
35.6477414032
 30
0.0
 11
160.2890292262
 21
35.6477414032
 31
0.0
  0
LINE
  5
1D2
330
1F
100
AcDbEntity
  8
0
  6
Continuous
 62
     7
370
    25
100
AcDbLine
 10
157.0390292262
 20
47.8254628085
 30
0.0
 11
157.0390292262
 21
51.1813448634
 31
0.0
  0
LINE
  5
1D3
330
1F
100
AcDbEntity
  8
0
  6
Continuous
 62
     7
370
    25
100
AcDbLine
 10
174.0390292262
 20
51.1813448634
 30
0.0
 11
174.0390292262
 21
47.8254628085
 31
0.0
  0
LINE
  5
1D4
330
1F
100
AcDbEntity
  8
0
  6
Continuous
 62
     7
370
    25
100
AcDbLine
 10
157.0390292262
 20
51.3428301917
 30
0.0
 11
157.0390292262
 21
54.5020929395
 31
0.0
  0
LINE
  5
1D5
330
1F
100
AcDbEntity
  8
0
  6
Continuous
 62
     7
370
    25
100
AcDbLine
 10
174.0390292262
 20
51.3428301917
 30
0.0
 11
174.0390292262
 21
54.5020929395
 31
0.0
  0
LINE
  5
1D6
330
1F
100
AcDbEntity
  8
0
  6
Continuous
 62
     7
370
    25
100
AcDbLine
 10
163.8651161827
 20
86.2477414032
 30
0.0
 11
160.0390292262
 21
86.2477414032
 31
0.0
  0
LINE
  5
1D7
330
1F
100
AcDbEntity
  8
0
  6
Continuous
 62
     7
370
    25
100
AcDbLine
 10
171.0390292262
 20
86.2477414032
 30
0.0
 11
167.2129422696
 21
86.2477414032
 31
0.0
  0
SPLINE
  5
1D8
330
1F
100
AcDbEntity
  8
0
  6
Continuous
 62
     7
370
    25
100
AcDbSpline
210
0.0
220
0.0
230
1.0
 70
     8
 71
     3
 72
    19
 73
    15
 74
     0
 42
0.00000001
 43
0.00000001
 40
0.0
 40
0.0
 40
0.0
 40
0.0
 40
0.0167726369500615
 40
0.0954895390662051
 40
0.174311084446967
 40
0.2799304399015518
 40
0.3857454294580737
 40
0.4988286504308861
 40
0.611893356547862
 40
0.7070730140699085
 40
0.802178470370201
 40
0.8927556108273427
 40
0.9832581057860154
 40
1.0
 40
1.0
 40
1.0
 40
1.0
 10
159.646674844061
 20
65.68714768087105
 30
0.0
 10
159.6441493114149
 20
65.68401301421788
 30
0.0
 10
159.6297710148481
 20
65.66616681181513
 30
0.0
 10
159.6932163583669
 20
65.74522981614953
 30
0.0
 10
159.8483218176586
 20
65.92971413524839
 30
0.0
 10
160.1366195159885
 20
66.24969328359091
 30
0.0
 10
160.569053386325
 20
66.67414149064132
 30
0.0
 10
161.1234861555018
 20
67.13680608695036
 30
0.0
 10
161.7663817063348
 20
67.57728607732349
 30
0.0
 10
162.4658186321956
 20
67.9553470119961
 30
0.0
 10
163.1878189520144
 20
68.25857054168833
 30
0.0
 10
163.9655383413279
 20
68.47696965991881
 30
0.0
 10
164.553586814078
 20
68.59836941968697
 30
0.0
 10
164.8831769925922
 20
68.61166924703609
 30
0.0
 10
164.9346292312148
 20
68.61374547968809
 30
0.0
  0
SPLINE
  5
1D9
330
1F
100
AcDbEntity
  8
0
  6
Continuous
 62
     7
370
    25
100
AcDbSpline
210
0.0
220
0.0
230
1.0
 70
     8
 71
     3
 72
    19
 73
    15
 74
     0
 42
0.00000001
 43
0.00000001
 40
0.0
 40
0.0
 40
0.0
 40
0.0
 40
0.0313541899069433
 40
0.0973968723470126
 40
0.1974104965896382
 40
0.2975363862868677
 40
0.4181240862978319
 40
0.5388082291203921
 40
0.6564393875206866
 40
0.773904151426702
 40
0.85043878952959
 40
0.9268727180625499
 40
0.9967396774207604
 40
1.0
 40
1.0
 40
1.0
 40
1.0
 10
166.1512264361048
 20
68.60924375551342
 30
0.0
 10
166.2470983577273
 20
68.6040237159811
 30
0.0
 10
166.5449094426139
 20
68.58780848205271
 30
0.0
 10
167.1277948445694
 20
68.47343601717304
 30
0.0
 10
167.8770391830408
 20
68.2641635116601
 30
0.0
 10
168.6975039086717
 20
67.91984161932898
 30
0.0
 10
169.464650595359
 20
67.48424257753646
 30
0.0
 10
170.1459411881754
 20
66.98884368517153
 30
0.0
 10
170.6966512903644
 20
66.49844764320625
 30
0.0
 10
171.0653888238115
 20
66.1154916462934
 30
0.0
 10
171.2934142114504
 20
65.85473967582732
 30
0.0
 10
171.4045199882657
 20
65.72028300642009
 30
0.0
 10
171.4484962739811
 20
65.66638505904933
 30
0.0
 10
171.4375713242768
 20
65.67971843418692
 30
0.0
 10
171.4370842439526
 20
65.68031289227243
 30
0.0
  0
INSERT
  5
1E5
330
1F
100
AcDbEntity
  8
FORMAT
100
AcDbBlockReference
  2
SW_CENTERMARKSYMBOL_0
 10
165.5390292262
 20
59.1477414032
 30
0.0
  0
ARC
  5
1E6
330
1F
100
AcDbEntity
  8
FORMAT
100
AcDbCircle
 10
165.5390292262
 20
59.1477414032
 30
0.0
 40
6.999999999999998
100
AcDbArc
 50
75.0
 51
345.0
  0
LINE
  5
1E7
330
1F
100
AcDbEntity
  8
FORMAT
100
AcDbLine
 10
159.7894909223
 20
36.5129671258
 30
0.0
 11
159.4727792262
 21
46.6477414032
 31
0.0
  0
LINE
  5
1E8
330
1F
100
AcDbEntity
  8
FORMAT
100
AcDbLine
 10
171.28856753
 20
36.5129671258
 30
0.0
 11
171.6052792262
 21
46.6477414032
 31
0.0
  0
LINE
  5
1E9
330
1F
100
AcDbEntity
  8
FORMAT
100
AcDbLine
 10
172.2815917262
 20
46.6477414032
 30
0.0
 11
158.7964667262
 21
46.6477414032
 31
0.0
  0
ARC
  5
1EA
330
1F
100
AcDbEntity
  8
0
  6
Continuous
 62
     7
370
    25
100
AcDbCircle
 10
82.4026599343
 20
128.3089071549
 30
0.0
 40
0.3000000000000398
100
AcDbArc
 50
90.0
 51
180.0
  0
ARC
  5
1EB
330
1F
100
AcDbEntity
  8
0
  6
Continuous
 62
     7
370
    25
100
AcDbCircle
 10
82.4026599343
 20
112.4089071549
 30
0.0
 40
0.3000000000000114
100
AcDbArc
 50
180.0
 51
270.0
  0
LINE
  5
1EC
330
1F
100
AcDbEntity
  8
0
  6
Continuous
 62
     7
370
    25
100
AcDbLine
 10
83.3526599343
 20
128.6089071549
 30
0.0
 11
82.4026599343
 21
128.6089071549
 31
0.0
  0
LINE
  5
1ED
330
1F
100
AcDbEntity
  8
0
  6
Continuous
 62
     7
370
    25
100
AcDbLine
 10
82.4026599343
 20
112.1089071549
 30
0.0
 11
83.3526599343
 21
112.1089071549
 31
0.0
  0
LINE
  5
1EE
330
1F
100
AcDbEntity
  8
0
  6
Continuous
 62
     7
370
    25
100
AcDbLine
 10
85.1026599343
 20
128.1089071549
 30
0.0
 11
84.3026599343
 21
128.1089071549
 31
0.0
  0
LINE
  5
1EF
330
1F
100
AcDbEntity
  8
0
  6
Continuous
 62
     7
370
    25
100
AcDbLine
 10
84.3026599343
 20
112.6089071549
 30
0.0
 11
85.1026599343
 21
112.6089071549
 31
0.0
  0
ARC
  5
1F0
330
1F
100
AcDbEntity
  8
0
  6
Continuous
 62
     7
370
    25
100
AcDbCircle
 10
84.3026599343
 20
127.9089071549
 30
0.0
 40
0.2000000000000171
100
AcDbArc
 50
90.0
 51
180.0
  0
ARC
  5
1F1
330
1F
100
AcDbEntity
  8
0
  6
Continuous
 62
     7
370
    25
100
AcDbCircle
 10
84.3026599343
 20
112.8089071549
 30
0.0
 40
0.2000000000000171
100
AcDbArc
 50
180.0
 51
270.0
  0
LINE
  5
1F2
330
1F
100
AcDbEntity
  8
0
  6
Continuous
 62
     7
370
    25
100
AcDbLine
 10
84.1026599343
 20
126.7339071549
 30
0.0
 11
83.3526599343
 21
126.7339071549
 31
0.0
  0
LINE
  5
1F3
330
1F
100
AcDbEntity
  8
0
  6
Continuous
 62
     7
370
    25
100
AcDbLine
 10
83.3526599343
 20
113.9839071549
 30
0.0
 11
84.1026599343
 21
113.9839071549
 31
0.0
  0
LINE
  5
1F4
330
1F
100
AcDbEntity
  8
0
  6
Continuous
 62
     7
370
    25
100
AcDbLine
 10
104.3809720978
 20
130.1089071549
 30
0.0
 11
85.3026599343
 21
130.1089071549
 31
0.0
  0
LINE
  5
1F5
330
1F
100
AcDbEntity
  8
0
  6
Continuous
 62
     7
370
    25
100
AcDbLine
 10
85.3026599343
 20
110.6089071549
 30
0.0
 11
104.3809720978
 21
110.6089071549
 31
0.0
  0
LINE
  5
1F6
330
1F
100
AcDbEntity
  8
0
  6
Continuous
 62
     7
370
    25
100
AcDbLine
 10
104.3809720978
 20
110.6089071549
 30
0.0
 11
105.1026599343
 21
111.8589071549
 31
0.0
  0
LINE
  5
1F7
330
1F
100
AcDbEntity
  8
0
  6
Continuous
 62
     7
370
    25
100
AcDbLine
 10
105.1026599343
 20
128.8589071549
 30
0.0
 11
104.3809720978
 21
130.1089071549
 31
0.0
  0
LINE
  5
1F8
330
1F
100
AcDbEntity
  8
0
  6
Continuous
 62
     7
370
    25
100
AcDbLine
 10
85.3026599343
 20
130.1089071549
 30
0.0
 11
85.1026599343
 21
129.9089071549
 31
0.0
  0
LINE
  5
1F9
330
1F
100
AcDbEntity
  8
0
  6
Continuous
 62
     7
370
    25
100
AcDbLine
 10
85.1026599343
 20
110.8089071549
 30
0.0
 11
85.3026599343
 21
110.6089071549
 31
0.0
  0
LINE
  5
1FA
330
1F
100
AcDbEntity
  8
0
  6
Continuous
 62
     7
370
    25
100
AcDbLine
 10
128.458322367
 20
111.8589071549
 30
0.0
 11
128.6026599343
 21
112.1089071549
 31
0.0
  0
LINE
  5
1FB
330
1F
100
AcDbEntity
  8
0
  6
Continuous
 62
     7
370
    25
100
AcDbLine
 10
128.6026599343
 20
128.6089071549
 30
0.0
 11
128.458322367
 21
128.8589071549
 31
0.0
  0
LINE
  5
1FC
330
1F
100
AcDbEntity
  8
0
  6
Continuous
 62
     7
370
    25
100
AcDbLine
 10
82.1026599343
 20
112.4089071549
 30
0.0
 11
82.1026599343
 21
116.8589071549
 31
0.0
  0
LINE
  5
1FD
330
1F
100
AcDbEntity
  8
0
  6
Continuous
 62
     7
370
    25
100
AcDbLine
 10
82.1026599343
 20
123.8589071549
 30
0.0
 11
82.1026599343
 21
128.3089071549
 31
0.0
  0
LINE
  5
1FE
330
1F
100
AcDbEntity
  8
0
  6
Continuous
 62
     7
370
    25
100
AcDbLine
 10
83.3526599343
 20
128.6089071549
 30
0.0
 11
83.3526599343
 21
123.8589071549
 31
0.0
  0
LINE
  5
1FF
330
1F
100
AcDbEntity
  8
0
  6
Continuous
 62
     7
370
    25
100
AcDbLine
 10
83.3526599343
 20
116.8589071549
 30
0.0
 11
83.3526599343
 21
112.1089071549
 31
0.0
  0
LINE
  5
200
330
1F
100
AcDbEntity
  8
0
  6
Continuous
 62
     7
370
    25
100
AcDbLine
 10
84.1026599343
 20
112.8089071549
 30
0.0
 11
84.1026599343
 21
116.8589071549
 31
0.0
  0
LINE
  5
201
330
1F
100
AcDbEntity
  8
0
  6
Continuous
 62
     7
370
    25
100
AcDbLine
 10
84.1026599343
 20
123.8589071549
 30
0.0
 11
84.1026599343
 21
127.9089071549
 31
0.0
  0
LINE
  5
202
330
1F
100
AcDbEntity
  8
0
  6
Continuous
 62
     7
370
    25
100
AcDbLine
 10
104.3809720978
 20
130.1089071549
 30
0.0
 11
104.3809720978
 21
124.6255600496
 31
0.0
  0
LINE
  5
203
330
1F
100
AcDbEntity
  8
0
  6
Continuous
 62
     7
370
    25
100
AcDbLine
 10
104.3809720978
 20
116.0922542602
 30
0.0
 11
104.3809720978
 21
110.6089071549
 31
0.0
  0
LINE
  5
204
330
1F
100
AcDbEntity
  8
0
  6
Continuous
 62
     7
370
    25
100
AcDbLine
 10
85.3026599343
 20
130.1089071549
 30
0.0
 11
85.3026599343
 21
123.8589071549
 31
0.0
  0
LINE
  5
205
330
1F
100
AcDbEntity
  8
0
  6
Continuous
 62
     7
370
    25
100
AcDbLine
 10
85.3026599343
 20
116.8589071549
 30
0.0
 11
85.3026599343
 21
110.6089071549
 31
0.0
  0
LINE
  5
206
330
1F
100
AcDbEntity
  8
0
  6
Continuous
 62
     7
370
    25
100
AcDbLine
 10
105.1026599343
 20
128.227529054
 30
0.0
 11
105.1026599343
 21
124.7415534368
 31
0.0
  0
LINE
  5
207
330
1F
100
AcDbEntity
  8
0
  6
Continuous
 62
     7
370
    25
100
AcDbLine
 10
105.1026599343
 20
115.976260873
 30
0.0
 11
105.1026599343
 21
111.8589071549
 31
0.0
  0
LINE
  5
208
330
1F
100
AcDbEntity
  8
0
  6
Continuous
 62
     7
370
    25
100
AcDbLine
 10
105.1026599343
 20
128.8589071549
 30
0.0
 11
105.1026599343
 21
128.227529054
 31
0.0
  0
LINE
  5
209
330
1F
100
AcDbEntity
  8
0
  6
Continuous
 62
     7
370
    25
100
AcDbLine
 10
85.1026599343
 20
110.8089071549
 30
0.0
 11
85.1026599343
 21
116.8589071549
 31
0.0
  0
LINE
  5
20A
330
1F
100
AcDbEntity
  8
0
  6
Continuous
 62
     7
370
    25
100
AcDbLine
 10
85.1026599343
 20
123.8589071549
 30
0.0
 11
85.1026599343
 21
129.9089071549
 31
0.0
  0
SPLINE
  5
20B
330
1F
100
AcDbEntity
  8
0
  6
Continuous
 62
     7
370
    25
100
AcDbSpline
210
0.0
220
0.0
230
1.0
 70
     8
 71
     3
 72
    15
 73
    11
 74
     0
 42
0.00000001
 43
0.00000001
 40
0.0
 40
0.0
 40
0.0
 40
0.0
 40
0.0081667445812695
 40
0.3321939991490083
 40
0.4756279600585602
 40
0.6866830973284899
 40
0.8457435502264811
 40
0.8967566214763185
 40
0.9909540928118029
 40
1.0
 40
1.0
 40
1.0
 40
1.0
 10
121.7016794478857
 20
121.6089071549072
 30
0.0
 10
121.7021669820286
 20
121.6103446178463
 30
0.0
 10
121.7219981295606
 20
121.668815475798
 30
0.0
 10
121.7502789095699
 20
121.7532406535175
 30
0.0
 10
121.7881082080587
 20
121.8678197255399
 30
0.0
 10
121.8146921046262
 20
121.9491906127365
 30
0.0
 10
121.8318619283812
 20
122.0022096047382
 30
0.0
 10
121.8396789245976
 20
122.0264115365823
 30
0.0
 10
121.8416746110335
 20
122.0326011572485
 30
0.0
 10
121.8417395749843
 20
122.032802552661
 30
0.0
 10
121.841745266951
 20
122.0328201983855
 30
0.0
  0
ARC
  5
20C
330
1F
100
AcDbEntity
  8
0
  6
Continuous
 62
     7
370
    25
100
AcDbCircle
 10
116.6026599343
 20
120.3589071549
 30
0.0
 40
5.250000000000009
100
AcDbArc
 50
13.774146998
 51
166.225853002
  0
SPLINE
  5
20D
330
1F
100
AcDbEntity
  8
0
  6
Continuous
 62
     7
370
    25
100
AcDbSpline
210
0.0
220
0.0
230
1.0
 70
     8
 71
     3
 72
    15
 73
    11
 74
     0
 42
0.00000001
 43
0.00000001
 40
0.0
 40
0.0
 40
0.0
 40
0.0
 40
0.0090459071881971
 40
0.1032433785236874
 40
0.1542564497735246
 40
0.313316902671511
 40
0.5243720399414428
 40
0.6678060008509903
 40
0.9918332554187292
 40
1.0
 40
1.0
 40
1.0
 40
1.0
 10
111.3635746016348
 20
122.0328201983855
 30
0.0
 10
111.3635802936015
 20
122.032802552661
 30
0.0
 10
111.3636452575522
 20
122.0326011572485
 30
0.0
 10
111.3656409439881
 20
122.0264115365823
 30
0.0
 10
111.3734579402046
 20
122.0022096047382
 30
0.0
 10
111.3906277639596
 20
121.9491906127365
 30
0.0
 10
111.4172116605271
 20
121.8678197255399
 30
0.0
 10
111.4550409590159
 20
121.7532406535175
 30
0.0
 10
111.4833217390251
 20
121.668815475798
 30
0.0
 10
111.5031528865572
 20
121.6103446178462
 30
0.0
 10
111.5036404207001
 20
121.6089071549072
 30
0.0
  0
ARC
  5
20E
330
1F
100
AcDbEntity
  8
0
  6
Continuous
 62
     7
370
    25
100
AcDbCircle
 10
116.6026599343
 20
120.3589071549
 30
0.0
 40
5.500000000000011
100
AcDbArc
 50
17.7189318734
 51
162.2810681266
  0
ARC
  5
20F
330
1F
100
AcDbEntity
  8
0
  6
Continuous
 62
     7
370
    25
100
AcDbCircle
 10
111.1254343592
 20
122.1089071549
 30
0.0
 40
0.2500000000000169
100
AcDbArc
 50
270.0
 51
342.2810681266
  0
SPLINE
  5
210
330
1F
100
AcDbEntity
  8
0
  6
Continuous
 62
     7
370
    25
100
AcDbSpline
210
0.0
220
0.0
230
1.0
 70
     8
 71
     3
 72
    15
 73
    11
 74
     0
 42
0.00000001
 43
0.00000001
 40
0.0
 40
0.0
 40
0.0
 40
0.0
 40
0.0080847466189818
 40
0.3310106400647567
 40
0.4750333064304972
 40
0.6874363079215137
 40
0.8468367539418253
 40
0.9000996640391794
 40
0.9910442771984082
 40
1.0
 40
1.0
 40
1.0
 40
1.0
 10
111.5036404207001
 20
121.6089071549072
 30
0.0
 10
111.502360589156
 20
121.6097230908955
 30
0.0
 10
111.4499609434322
 20
121.6431296410891
 30
0.0
 10
111.3746058519777
 20
121.691943205824
 30
0.0
 10
111.27268673996
 20
121.7593136780922
 30
0.0
 10
111.2002957949681
 20
121.8078977184356
 30
0.0
 10
111.1525903667032
 20
121.8403465798942
 30
0.0
 10
111.1310548829959
 20
121.8550576209605
 30
0.0
 10
111.1256258669764
 20
121.8587760718786
 30
0.0
 10
111.1254501148198
 20
121.8588963705441
 30
0.0
 10
111.1254343592412
 20
121.8589071549072
 30
0.0
  0
SPLINE
  5
211
330
1F
100
AcDbEntity
  8
0
  6
Continuous
 62
     7
370
    25
100
AcDbSpline
210
0.0
220
0.0
230
1.0
 70
     8
 71
     3
 72
    15
 73
    11
 74
     0
 42
0.00000001
 43
0.00000001
 40
0.0
 40
0.0
 40
0.0
 40
0.0
 40
0.0089557228015919
 40
0.0999003359608209
 40
0.1531632460581751
 40
0.3125636920784904
 40
0.5249666935695061
 40
0.6689893599351777
 40
0.991915253381045
 40
1.0
 40
1.0
 40
1.0
 40
1.0
 10
111.1254343592412
 20
118.8589071549072
 30
0.0
 10
111.1254501148198
 20
118.8589179392704
 30
0.0
 10
111.1256258669764
 20
118.8590382379359
 30
0.0
 10
111.1310548829959
 20
118.862756688854
 30
0.0
 10
111.1525903667032
 20
118.8774677299203
 30
0.0
 10
111.2002957949681
 20
118.9099165913788
 30
0.0
 10
111.27268673996
 20
118.9585006317223
 30
0.0
 10
111.3746058519776
 20
119.0258711039906
 30
0.0
 10
111.4499609434327
 20
119.0746846687245
 30
0.0
 10
111.502360589156
 20
119.108091218919
 30
0.0
 10
111.5036404207001
 20
119.1089071549072
 30
0.0
  0
SPLINE
  5
212
330
1F
100
AcDbEntity
  8
0
  6
Continuous
 62
     7
370
    25
100
AcDbSpline
210
0.0
220
0.0
230
1.0
 70
     8
 71
     3
 72
    15
 73
    11
 74
     0
 42
0.00000001
 43
0.00000001
 40
0.0
 40
0.0
 40
0.0
 40
0.0
 40
0.0081667445812973
 40
0.3321939991490804
 40
0.475627960058556
 40
0.6866830973284891
 40
0.8457435502264751
 40
0.8967566214763124
 40
0.9909540928118028
 40
1.0
 40
1.0
 40
1.0
 40
1.0
 10
111.5036404207001
 20
119.1089071549072
 30
0.0
 10
111.5031528865572
 20
119.1074696919682
 30
0.0
 10
111.483321739026
 20
119.0489988340162
 30
0.0
 10
111.4550409590157
 20
118.964573656297
 30
0.0
 10
111.4172116605271
 20
118.8499945842746
 30
0.0
 10
111.3906277639596
 20
118.768623697078
 30
0.0
 10
111.3734579402046
 20
118.7156047050763
 30
0.0
 10
111.3656409439881
 20
118.6914027732322
 30
0.0
 10
111.3636452575522
 20
118.685213152566
 30
0.0
 10
111.3635802936015
 20
118.6850117571534
 30
0.0
 10
111.3635746016348
 20
118.684994111429
 30
0.0
  0
ARC
  5
213
330
1F
100
AcDbEntity
  8
0
  6
Continuous
 62
     7
370
    25
100
AcDbCircle
 10
111.1254343592
 20
118.6089071549
 30
0.0
 40
0.2500000000000169
100
AcDbArc
 50
17.7189318734
 51
90.0
  0
SPLINE
  5
214
330
1F
100
AcDbEntity
  8
0
  6
Continuous
 62
     7
370
    25
100
AcDbSpline
210
0.0
220
0.0
230
1.0
 70
     8
 71
     3
 72
    15
 73
    11
 74
     0
 42
0.00000001
 43
0.00000001
 40
0.0
 40
0.0
 40
0.0
 40
0.0
 40
0.0090459071881971
 40
0.1032433785236816
 40
0.1542564497735189
 40
0.31331690267151
 40
0.5243720399414428
 40
0.6678060008509183
 40
0.9918332554187028
 40
1.0
 40
1.0
 40
1.0
 40
1.0
 10
121.841745266951
 20
118.684994111429
 30
0.0
 10
121.8417395749843
 20
118.6850117571534
 30
0.0
 10
121.8416746110335
 20
118.685213152566
 30
0.0
 10
121.8396789245976
 20
118.6914027732322
 30
0.0
 10
121.8318619283812
 20
118.7156047050763
 30
0.0
 10
121.8146921046262
 20
118.768623697078
 30
0.0
 10
121.7881082080587
 20
118.8499945842746
 30
0.0
 10
121.7502789095701
 20
118.9645736562971
 30
0.0
 10
121.7219981295598
 20
119.0489988340162
 30
0.0
 10
121.7021669820285
 20
119.1074696919682
 30
0.0
 10
121.7016794478857
 20
119.1089071549072
 30
0.0
  0
SPLINE
  5
215
330
1F
100
AcDbEntity
  8
0
  6
Continuous
 62
     7
370
    25
100
AcDbSpline
210
0.0
220
0.0
230
1.0
 70
     8
 71
     3
 72
    15
 73
    11
 74
     0
 42
0.00000001
 43
0.00000001
 40
0.0
 40
0.0
 40
0.0
 40
0.0
 40
0.0080847466189582
 40
0.3310106400648243
 40
0.4750333064304948
 40
0.6874363079215142
 40
0.8468367539418303
 40
0.9000996640391847
 40
0.9910442771984082
 40
1.0
 40
1.0
 40
1.0
 40
1.0
 10
121.7016794478857
 20
119.1089071549072
 30
0.0
 10
121.7029592794298
 20
119.108091218919
 30
0.0
 10
121.755358925153
 20
119.0746846687244
 30
0.0
 10
121.8307140166082
 20
119.0258711039906
 30
0.0
 10
121.9326331286258
 20
118.9585006317223
 30
0.0
 10
122.0050240736177
 20
118.9099165913788
 30
0.0
 10
122.0527295018826
 20
118.8774677299203
 30
0.0
 10
122.0742649855899
 20
118.862756688854
 30
0.0
 10
122.0796940016094
 20
118.8590382379359
 30
0.0
 10
122.0798697537659
 20
118.8589179392704
 30
0.0
 10
122.0798855093445
 20
118.8589071549072
 30
0.0
  0
ARC
  5
216
330
1F
100
AcDbEntity
  8
0
  6
Continuous
 62
     7
370
    25
100
AcDbCircle
 10
122.0798855093
 20
118.6089071549
 30
0.0
 40
0.25
100
AcDbArc
 50
90.0
 51
162.2810681266
  0
ARC
  5
217
330
1F
100
AcDbEntity
  8
0
  6
Continuous
 62
     7
370
    25
100
AcDbCircle
 10
116.6026599343
 20
120.3589071549
 30
0.0
 40
5.500000000000011
100
AcDbArc
 50
197.7189318734
 51
342.2810681266
  0
ARC
  5
218
330
1F
100
AcDbEntity
  8
0
  6
Continuous
 62
     7
370
    25
100
AcDbCircle
 10
116.6026599343
 20
120.3589071549
 30
0.0
 40
5.250000000000009
100
AcDbArc
 50
193.774146998
 51
346.225853002
  0
ARC
  5
219
330
1F
100
AcDbEntity
  8
0
  6
Continuous
 62
     7
370
    25
100
AcDbCircle
 10
122.0798855093
 20
122.1089071549
 30
0.0
 40
0.25
100
AcDbArc
 50
197.7189318734
 51
270.0
  0
SPLINE
  5
21A
330
1F
100
AcDbEntity
  8
0
  6
Continuous
 62
     7
370
    25
100
AcDbSpline
210
0.0
220
0.0
230
1.0
 70
     8
 71
     3
 72
    15
 73
    11
 74
     0
 42
0.00000001
 43
0.00000001
 40
0.0
 40
0.0
 40
0.0
 40
0.0
 40
0.0089557228015919
 40
0.0999003359608148
 40
0.153163246058169
 40
0.3125636920784848
 40
0.5249666935694999
 40
0.6689893599352451
 40
0.9919152533810159
 40
1.0
 40
1.0
 40
1.0
 40
1.0
 10
122.0798855093445
 20
121.8589071549072
 30
0.0
 10
122.0798697537659
 20
121.8588963705441
 30
0.0
 10
122.0796940016094
 20
121.8587760718786
 30
0.0
 10
122.0742649855899
 20
121.8550576209605
 30
0.0
 10
122.0527295018826
 20
121.8403465798942
 30
0.0
 10
122.0050240736177
 20
121.8078977184356
 30
0.0
 10
121.9326331286258
 20
121.7593136780922
 30
0.0
 10
121.830714016608
 20
121.691943205824
 30
0.0
 10
121.7553589251536
 20
121.6431296410892
 30
0.0
 10
121.7029592794298
 20
121.6097230908955
 30
0.0
 10
121.7016794478857
 20
121.6089071549072
 30
0.0
  0
LINE
  5
21B
330
1F
100
AcDbEntity
  8
0
  6
Continuous
 62
     7
370
    25
100
AcDbLine
 10
121.6026599343
 20
120.9589071549
 30
0.0
 11
111.6026599343
 21
120.9589071549
 31
0.0
  0
LINE
  5
21C
330
1F
100
AcDbEntity
  8
0
  6
Continuous
 62
     7
370
    25
100
AcDbLine
 10
121.6026599343
 20
119.7589071549
 30
0.0
 11
121.6026599343
 21
120.9589071549
 31
0.0
  0
LINE
  5
21D
330
1F
100
AcDbEntity
  8
0
  6
Continuous
 62
     7
370
    25
100
AcDbLine
 10
111.6026599343
 20
119.7589071549
 30
0.0
 11
121.6026599343
 21
119.7589071549
 31
0.0
  0
LINE
  5
21E
330
1F
100
AcDbEntity
  8
0
  6
Continuous
 62
     7
370
    25
100
AcDbLine
 10
111.6026599343
 20
120.9589071549
 30
0.0
 11
111.6026599343
 21
119.7589071549
 31
0.0
  0
LINE
  5
21F
330
1F
100
AcDbEntity
  8
0
  6
Continuous
 62
     7
370
    25
100
AcDbLine
 10
122.3526599343
 20
121.6089071549
 30
0.0
 11
121.7016794479
 21
121.6089071549
 31
0.0
  0
LINE
  5
220
330
1F
100
AcDbEntity
  8
0
  6
Continuous
 62
     7
370
    25
100
AcDbLine
 10
122.3526599343
 20
119.1089071549
 30
0.0
 11
122.3526599343
 21
121.6089071549
 31
0.0
  0
LINE
  5
221
330
1F
100
AcDbEntity
  8
0
  6
Continuous
 62
     7
370
    25
100
AcDbLine
 10
121.7016794479
 20
119.1089071549
 30
0.0
 11
122.3526599343
 21
119.1089071549
 31
0.0
  0
LINE
  5
222
330
1F
100
AcDbEntity
  8
0
  6
Continuous
 62
     7
370
    25
100
AcDbLine
 10
110.8526599343
 20
119.1089071549
 30
0.0
 11
111.5036404207
 21
119.1089071549
 31
0.0
  0
LINE
  5
223
330
1F
100
AcDbEntity
  8
0
  6
Continuous
 62
     7
370
    25
100
AcDbLine
 10
110.8526599343
 20
121.6089071549
 30
0.0
 11
110.8526599343
 21
119.1089071549
 31
0.0
  0
LINE
  5
224
330
1F
100
AcDbEntity
  8
0
  6
Continuous
 62
     7
370
    25
100
AcDbLine
 10
111.5036404207
 20
121.6089071549
 30
0.0
 11
110.8526599343
 21
121.6089071549
 31
0.0
  0
LINE
  5
225
330
1F
100
AcDbEntity
  8
0
  6
Continuous
 62
     7
370
    25
100
AcDbLine
 10
122.3526599343
 20
121.6089071549
 30
0.0
 11
122.3526599343
 21
121.8589071549
 31
0.0
  0
LINE
  5
226
330
1F
100
AcDbEntity
  8
0
  6
Continuous
 62
     7
370
    25
100
AcDbLine
 10
122.0798855093
 20
121.8589071549
 30
0.0
 11
122.3526599343
 21
121.8589071549
 31
0.0
  0
ARC
  5
227
330
1F
100
AcDbEntity
  8
0
  6
Continuous
 62
     7
370
    25
100
AcDbCircle
 10
122.3526599343
 20
121.6089071549
 30
0.0
 40
0.25
100
AcDbArc
 50
0.0
 51
90.0
  0
LINE
  5
228
330
1F
100
AcDbEntity
  8
0
  6
Continuous
 62
     7
370
    25
100
AcDbLine
 10
122.6026599343
 20
121.6089071549
 30
0.0
 11
122.3526599343
 21
121.6089071549
 31
0.0
  0
LINE
  5
229
330
1F
100
AcDbEntity
  8
0
  6
Continuous
 62
     7
370
    25
100
AcDbLine
 10
110.8526599343
 20
121.8589071549
 30
0.0
 11
110.8526599343
 21
121.6089071549
 31
0.0
  0
LINE
  5
22A
330
1F
100
AcDbEntity
  8
0
  6
Continuous
 62
     7
370
    25
100
AcDbLine
 10
110.8526599343
 20
121.6089071549
 30
0.0
 11
110.6026599343
 21
121.6089071549
 31
0.0
  0
ARC
  5
22B
330
1F
100
AcDbEntity
  8
0
  6
Continuous
 62
     7
370
    25
100
AcDbCircle
 10
110.8526599343
 20
121.6089071549
 30
0.0
 40
0.25
100
AcDbArc
 50
90.0
 51
180.0
  0
LINE
  5
22C
330
1F
100
AcDbEntity
  8
0
  6
Continuous
 62
     7
370
    25
100
AcDbLine
 10
110.8526599343
 20
121.8589071549
 30
0.0
 11
111.1254343592
 21
121.8589071549
 31
0.0
  0
LINE
  5
22D
330
1F
100
AcDbEntity
  8
0
  6
Continuous
 62
     7
370
    25
100
AcDbLine
 10
110.6026599343
 20
119.1089071549
 30
0.0
 11
110.8526599343
 21
119.1089071549
 31
0.0
  0
LINE
  5
22E
330
1F
100
AcDbEntity
  8
0
  6
Continuous
 62
     7
370
    25
100
AcDbLine
 10
110.6026599343
 20
119.1089071549
 30
0.0
 11
110.6026599343
 21
121.6089071549
 31
0.0
  0
LINE
  5
22F
330
1F
100
AcDbEntity
  8
0
  6
Continuous
 62
     7
370
    25
100
AcDbLine
 10
122.6026599343
 20
121.6089071549
 30
0.0
 11
122.6026599343
 21
119.1089071549
 31
0.0
  0
LINE
  5
230
330
1F
100
AcDbEntity
  8
0
  6
Continuous
 62
     7
370
    25
100
AcDbLine
 10
122.3526599343
 20
119.1089071549
 30
0.0
 11
122.6026599343
 21
119.1089071549
 31
0.0
  0
LINE
  5
231
330
1F
100
AcDbEntity
  8
0
  6
Continuous
 62
     7
370
    25
100
AcDbLine
 10
122.3526599343
 20
118.8589071549
 30
0.0
 11
122.3526599343
 21
119.1089071549
 31
0.0
  0
LINE
  5
232
330
1F
100
AcDbEntity
  8
0
  6
Continuous
 62
     7
370
    25
100
AcDbLine
 10
122.3526599343
 20
118.8589071549
 30
0.0
 11
122.0798855093
 21
118.8589071549
 31
0.0
  0
ARC
  5
233
330
1F
100
AcDbEntity
  8
0
  6
Continuous
 62
     7
370
    25
100
AcDbCircle
 10
122.3526599343
 20
119.1089071549
 30
0.0
 40
0.25
100
AcDbArc
 50
270.0
 51
0.0
  0
LINE
  5
234
330
1F
100
AcDbEntity
  8
0
  6
Continuous
 62
     7
370
    25
100
AcDbLine
 10
111.1254343592
 20
118.8589071549
 30
0.0
 11
110.8526599343
 21
118.8589071549
 31
0.0
  0
LINE
  5
235
330
1F
100
AcDbEntity
  8
0
  6
Continuous
 62
     7
370
    25
100
AcDbLine
 10
110.8526599343
 20
119.1089071549
 30
0.0
 11
110.8526599343
 21
118.8589071549
 31
0.0
  0
ARC
  5
236
330
1F
100
AcDbEntity
  8
0
  6
Continuous
 62
     7
370
    25
100
AcDbCircle
 10
110.8526599343
 20
119.1089071549
 30
0.0
 40
0.25
100
AcDbArc
 50
180.0
 51
270.0
  0
LINE
  5
237
330
1F
100
AcDbEntity
  8
0
  6
Continuous
 62
     7
370
    25
100
AcDbLine
 10
96.6026599343
 20
123.630606419
 30
0.0
 11
94.4272230728
 21
123.8589071549
 31
0.0
  0
LINE
  5
238
330
1F
100
AcDbEntity
  8
0
  6
Continuous
 62
     7
370
    25
100
AcDbLine
 10
96.6026599343
 20
117.0872078909
 30
0.0
 11
96.6026599343
 21
123.630606419
 31
0.0
  0
LINE
  5
239
330
1F
100
AcDbEntity
  8
0
  6
Continuous
 62
     7
370
    25
100
AcDbLine
 10
94.4272230728
 20
116.8589071549
 30
0.0
 11
96.6026599343
 21
117.0872078909
 31
0.0
  0
LINE
  5
23A
330
1F
100
AcDbEntity
  8
0
  6
Continuous
 62
     7
370
    25
100
AcDbLine
 10
76.6026599343
 20
116.8589071549
 30
0.0
 11
94.4272230728
 21
116.8589071549
 31
0.0
  0
LINE
  5
23B
330
1F
100
AcDbEntity
  8
0
  6
Continuous
 62
     7
370
    25
100
AcDbLine
 10
76.6026599343
 20
123.8589071549
 30
0.0
 11
76.6026599343
 21
116.8589071549
 31
0.0
  0
LINE
  5
23C
330
1F
100
AcDbEntity
  8
0
  6
Continuous
 62
     7
370
    25
100
AcDbLine
 10
94.4272230728
 20
123.8589071549
 30
0.0
 11
76.6026599343
 21
123.8589071549
 31
0.0
  0
LINE
  5
23D
330
1F
100
AcDbEntity
  8
0
  6
Continuous
 62
     7
370
    25
100
AcDbLine
 10
111.3788577599
 20
122.0799216357
 30
0.0
 11
111.2504487213
 21
121.8957800023
 31
0.0
  0
LINE
  5
23E
330
1F
100
AcDbEntity
  8
0
  6
Continuous
 62
     7
370
    25
100
AcDbLine
 10
111.260016062
 20
118.8136894875
 30
0.0
 11
111.3788577599
 21
118.6378926741
 31
0.0
  0
LINE
  5
23F
330
1F
100
AcDbEntity
  8
0
  6
Continuous
 62
     7
370
    25
100
AcDbLine
 10
103.1860902807
 20
122.9397097905
 30
0.0
 11
103.1860902807
 21
117.7781045193
 31
0.0
  0
LINE
  5
240
330
1F
100
AcDbEntity
  8
0
  6
Continuous
 62
     7
370
    25
100
AcDbLine
 10
111.3788577599
 20
118.6378926741
 30
0.0
 11
103.1860902807
 21
117.7781045193
 31
0.0
  0
LINE
  5
241
330
1F
100
AcDbEntity
  8
0
  6
Continuous
 62
     7
370
    25
100
AcDbLine
 10
103.1860902807
 20
122.9397097905
 30
0.0
 11
111.3788577599
 21
122.0799216357
 31
0.0
  0
LINE
  5
242
330
1F
100
AcDbEntity
  8
0
  6
Continuous
 62
     7
370
    25
100
AcDbLine
 10
103.1860902807
 20
117.7781045193
 30
0.0
 11
96.6026599343
 21
117.0872078909
 31
0.0
  0
LINE
  5
243
330
1F
100
AcDbEntity
  8
0
  6
Continuous
 62
     7
370
    25
100
AcDbLine
 10
96.6026599343
 20
123.630606419
 30
0.0
 11
103.1860902807
 21
122.9397097905
 31
0.0
  0
ARC
  5
244
330
1F
100
AcDbEntity
  8
0
  6
Continuous
 62
     7
370
    25
100
AcDbCircle
 10
116.6026599343
 20
120.3589071549
 30
0.0
 40
7.450000000000639
100
AcDbArc
 50
233.0863788866
 51
126.9136211134
  0
ARC
  5
245
330
1F
100
AcDbEntity
  8
0
  6
Continuous
 62
     7
370
    25
100
AcDbCircle
 10
116.6026599343
 20
120.3589071549
 30
0.0
 40
7.207531252870791
100
AcDbArc
 50
195.3041237151
 51
238.9797515565
  0
ARC
  5
246
330
1F
100
AcDbEntity
  8
0
  6
Continuous
 62
     7
370
    25
100
AcDbCircle
 10
116.6026599343
 20
120.3589071549
 30
0.0
 40
7.207531252872426
100
AcDbArc
 50
121.0202484435
 51
164.6958762849
  0
ARC
  5
247
330
1F
100
AcDbEntity
  8
0
  6
Continuous
 62
     7
370
    25
100
AcDbCircle
 10
94.4272230728
 20
188.8589071549
 30
0.0
 40
65.00000000000003
100
AcDbArc
 50
270.0
 51
286.5000949923
  0
ARC
  5
248
330
1F
100
AcDbEntity
  8
0
  6
Continuous
 62
     7
370
    25
100
AcDbCircle
 10
94.4272230728
 20
51.8589071549
 30
0.0
 40
65.0
100
AcDbArc
 50
73.4999050077
 51
90.0
  0
SPLINE
  5
249
330
1F
100
AcDbEntity
  8
0
  6
Continuous
 62
     7
370
    25
100
AcDbSpline
210
0.0
220
0.0
230
1.0
 70
    24
 71
     3
 72
    10
 73
     6
 74
     0
 42
0.00000001
 43
0.00000001
 40
0.0
 40
0.0
 40
0.0
 40
0.0
 40
0.3696333052042208
 40
0.742312288231073
 40
1.0
 40
1.0
 40
1.0
 40
1.0
 10
127.7806009617353
 20
111.8589071549072
 30
0.0
 10
127.9218035242648
 20
111.8589071549072
 30
0.0
 10
128.2053721200044
 20
111.8589071549072
 30
0.0
 10
128.4245057601557
 20
111.8589071549072
 30
0.0
 10
128.4468966817041
 20
111.8589071549072
 30
0.0
 10
128.4560498704525
 20
111.8589071549072
 30
0.0
  0
SPLINE
  5
24A
330
1F
100
AcDbEntity
  8
0
  6
Continuous
 62
     7
370
    25
100
AcDbSpline
210
0.0
220
0.0
230
1.0
 70
     8
 71
     3
 72
    10
 73
     6
 74
     0
 42
0.00000001
 43
0.00000001
 40
0.0
 40
0.0
 40
0.0
 40
0.0
 40
0.5
 40
0.5
 40
1.0
 40
1.0
 40
1.0
 40
1.0
 10
127.7806009617353
 20
112.1089071549072
 30
0.0
 10
127.7569255673109
 20
112.0345267775299
 30
0.0
 10
127.7438344574263
 20
111.9702261387441
 30
0.0
 10
127.743748136138
 20
111.8820104539612
 30
0.0
 10
127.7569170700818
 20
111.8589071549072
 30
0.0
 10
127.7806009617353
 20
111.8589071549072
 30
0.0
  0
SPLINE
  5
24B
330
1F
100
AcDbEntity
  8
0
  6
Continuous
 62
     7
370
    25
100
AcDbSpline
210
0.0
220
0.0
230
1.0
 70
     8
 71
     3
 72
    16
 73
    12
 74
     0
 42
0.00000001
 43
0.00000001
 40
0.0
 40
0.0
 40
0.0
 40
0.0
 40
0.2500000000000001
 40
0.2500000000000001
 40
0.5000000000000001
 40
0.5000000000000001
 40
0.6250000000000001
 40
0.6250000000000001
 40
0.7500000000000002
 40
0.7500000000000002
 40
1.0
 40
1.0
 40
1.0
 40
1.0
 10
127.7806009617353
 20
120.1089071549072
 30
0.0
 10
127.988616409841
 20
119.4553903748664
 30
0.0
 10
128.1588227148141
 20
118.7971699657764
 30
0.0
 10
128.3937587463816
 20
117.4676073824107
 30
0.0
 10
128.4578308780453
 20
116.7961834003401
 30
0.0
 10
128.4585638269663
 20
115.7771823133334
 30
0.0
 10
128.4429043468833
 20
115.4358415310172
 30
0.0
 10
128.3816292202463
 20
114.7602430280468
 30
0.0
 10
128.3360729477472
 20
114.4245838780821
 30
0.0
 10
128.1595869149909
 20
113.4233182415825
 30
0.0
 10
127.9889304615052
 20
112.7634105829793
 30
0.0
 10
127.7806009617353
 20
112.1089071549072
 30
0.0
  0
SPLINE
  5
24C
330
1F
100
AcDbEntity
  8
0
  6
Continuous
 62
     7
370
    25
100
AcDbSpline
210
0.0
220
0.0
230
1.0
 70
     8
 71
     3
 72
    10
 73
     6
 74
     0
 42
0.00000001
 43
0.00000001
 40
0.0
 40
0.0
 40
0.0
 40
0.0
 40
0.5
 40
0.5
 40
1.0
 40
1.0
 40
1.0
 40
1.0
 10
127.7806009617353
 20
120.6089071549072
 30
0.0
 10
127.7569255673109
 20
120.5345267775299
 30
0.0
 10
127.7438344574263
 20
120.4474336894143
 30
0.0
 10
127.743748136138
 20
120.2712753005383
 30
0.0
 10
127.7569170700818
 20
120.1833142278105
 30
0.0
 10
127.7806009617353
 20
120.1089071549072
 30
0.0
  0
SPLINE
  5
24D
330
1F
100
AcDbEntity
  8
0
  6
Continuous
 62
     7
370
    25
100
AcDbSpline
210
0.0
220
0.0
230
1.0
 70
     8
 71
     3
 72
    16
 73
    12
 74
     0
 42
0.00000001
 43
0.00000001
 40
0.0
 40
0.0
 40
0.0
 40
0.0
 40
0.2499999999999997
 40
0.2499999999999997
 40
0.4999999999999993
 40
0.4999999999999993
 40
0.6249999999999993
 40
0.6249999999999993
 40
0.7499999999999996
 40
0.7499999999999996
 40
1.0
 40
1.0
 40
1.0
 40
1.0
 10
127.7806009617353
 20
128.6089071549073
 30
0.0
 10
127.988616409841
 20
127.9553903748664
 30
0.0
 10
128.1588227148141
 20
127.2971699657764
 30
0.0
 10
128.3937587463816
 20
125.9676073824107
 30
0.0
 10
128.4578308780453
 20
125.2961834003401
 30
0.0
 10
128.4585638269663
 20
124.2771823133334
 30
0.0
 10
128.4429043468833
 20
123.9358415310172
 30
0.0
 10
128.3816292202463
 20
123.2602430280468
 30
0.0
 10
128.3360729477472
 20
122.9245838780821
 30
0.0
 10
128.1595869149909
 20
121.9233182415824
 30
0.0
 10
127.9889304615052
 20
121.2634105829793
 30
0.0
 10
127.7806009617353
 20
120.6089071549072
 30
0.0
  0
SPLINE
  5
24E
330
1F
100
AcDbEntity
  8
0
  6
Continuous
 62
     7
370
    25
100
AcDbSpline
210
0.0
220
0.0
230
1.0
 70
     8
 71
     3
 72
    10
 73
     6
 74
     0
 42
0.00000001
 43
0.00000001
 40
0.0
 40
0.0
 40
0.0
 40
0.0
 40
0.5
 40
0.5
 40
1.0
 40
1.0
 40
1.0
 40
1.0
 10
127.7806009617353
 20
128.8589071549073
 30
0.0
 10
127.7569255673109
 20
128.8589071549073
 30
0.0
 10
127.7438344574263
 20
128.8361147055774
 30
0.0
 10
127.743748136138
 20
128.7481720014844
 30
0.0
 10
127.7569170700818
 20
128.6833142278105
 30
0.0
 10
127.7806009617353
 20
128.6089071549073
 30
0.0
  0
SPLINE
  5
24F
330
1F
100
AcDbEntity
  8
0
  6
Continuous
 62
     7
370
    25
100
AcDbSpline
210
0.0
220
0.0
230
1.0
 70
    24
 71
     3
 72
    10
 73
     6
 74
     0
 42
0.00000001
 43
0.00000001
 40
0.0
 40
0.0
 40
0.0
 40
0.0
 40
0.2576845977863296
 40
0.6270644940575981
 40
1.0
 40
1.0
 40
1.0
 40
1.0
 10
128.4547084625142
 20
128.8589071549073
 30
0.0
 10
128.4461056025066
 20
128.8589071549072
 30
0.0
 10
128.4251709090694
 20
128.8589071549073
 30
0.0
 10
128.2062064398995
 20
128.8589071549073
 30
0.0
 10
127.9229217553525
 20
128.8589071549073
 30
0.0
 10
127.7806009617353
 20
128.8589071549073
 30
0.0
  0
LINE
  5
250
330
1F
100
AcDbEntity
  8
0
  6
Continuous
 62
     7
370
    25
100
AcDbLine
 10
128.6026599343
 20
128.6089071549
 30
0.0
 11
128.6026599343
 21
112.1089071549
 31
0.0
  0
SPLINE
  5
251
330
1F
100
AcDbEntity
  8
0
  6
Continuous
 62
     7
370
    25
100
AcDbSpline
210
0.0
220
0.0
230
1.0
 70
     8
 71
     3
 72
    12
 73
     8
 74
     0
 42
0.00000001
 43
0.00000001
 40
0.0
 40
0.0
 40
0.0
 40
0.0
 40
0.0438023726578443
 40
0.2808910652177751
 40
0.5180092040531654
 40
0.7589848743648541
 40
1.0
 40
1.0
 40
1.0
 40
1.0
 10
122.6044428014858
 20
124.7392396929881
 30
0.0
 10
122.6050339443337
 20
124.7965372261749
 30
0.0
 10
122.6088247605419
 20
125.1639685810228
 30
0.0
 10
122.6596381010961
 20
125.8410054324146
 30
0.0
 10
122.7983582155595
 20
126.7692385295739
 30
0.0
 10
123.0039436882683
 20
127.6937409176968
 30
0.0
 10
123.1882304272771
 20
128.3038350952542
 30
0.0
 10
123.2803813395531
 20
128.6089071549073
 30
0.0
  0
LINE
  5
252
330
1F
100
AcDbEntity
  8
0
  6
Continuous
 62
     7
370
    25
100
AcDbLine
 10
127.7806009617
 20
128.6089071549
 30
0.0
 11
123.2803813396
 21
128.6089071549
 31
0.0
  0
SPLINE
  5
253
330
1F
100
AcDbEntity
  8
0
  6
Continuous
 62
     7
370
    25
100
AcDbSpline
210
0.0
220
0.0
230
1.0
 70
     8
 71
     3
 72
    12
 73
     8
 74
     0
 42
0.00000001
 43
0.00000001
 40
0.0
 40
0.0
 40
0.0
 40
0.0
 40
0.089984321509525
 40
0.3158515233112828
 40
0.5417447060369777
 40
0.7708565370274261
 40
1.0
 40
1.0
 40
1.0
 40
1.0
 10
105.1059517284362
 20
124.7550962663811
 30
0.0
 10
105.1077499082803
 20
124.872332406531
 30
0.0
 10
105.1140616505194
 20
125.2838397984
 30
0.0
 10
105.1782159406247
 20
125.9883008939159
 30
0.0
 10
105.3184090827214
 20
126.8673557185413
 30
0.0
 10
105.517928651593
 20
127.7424921349683
 30
0.0
 10
105.6928930844772
 20
128.3200888583405
 30
0.0
 10
105.7803813395531
 20
128.6089071549073
 30
0.0
  0
LINE
  5
254
330
1F
100
AcDbEntity
  8
0
  6
Continuous
 62
     7
370
    25
100
AcDbLine
 10
109.924938529
 20
128.6089071549
 30
0.0
 11
105.7803813396
 21
128.6089071549
 31
0.0
  0
SPLINE
  5
255
330
1F
100
AcDbEntity
  8
0
  6
Continuous
 62
     7
370
    25
100
AcDbSpline
210
0.0
220
0.0
230
1.0
 70
     8
 71
     3
 72
    10
 73
     6
 74
     0
 42
0.00000001
 43
0.00000001
 40
0.0
 40
0.0
 40
0.0
 40
0.0
 40
0.364982535386253
 40
0.7298928654911163
 40
0.9999999999999999
 40
0.9999999999999999
 40
0.9999999999999999
 40
0.9999999999999999
 10
109.9249385290327
 20
128.6089071549073
 30
0.0
 10
110.0220078354415
 20
128.2845999480385
 30
0.0
 10
110.2161272448291
 20
127.6360496926945
 30
0.0
 10
110.4184357598546
 20
126.7335939133407
 30
0.0
 10
110.488275908514
 20
126.1536793912739
 30
0.0
 10
110.5179826858536
 20
125.9070105064884
 30
0.0
  0
SPLINE
  5
256
330
1F
100
AcDbEntity
  8
0
  6
Continuous
 62
     7
370
    25
100
AcDbSpline
210
0.0
220
0.0
230
1.0
 70
     8
 71
     3
 72
    10
 73
     6
 74
     0
 42
0.00000001
 43
0.00000001
 40
0.0
 40
0.0
 40
0.0
 40
0.0
 40
0.3127766111016653
 40
0.6563601778134105
 40
1.0
 40
1.0
 40
1.0
 40
1.0
 10
110.5240338744097
 20
114.8088434470654
 30
0.0
 10
110.4857608591252
 20
114.5237239631128
 30
0.0
 10
110.4054451250644
 20
113.9254021303966
 30
0.0
 10
110.2004520392259
 20
113.0241655654654
 30
0.0
 10
110.0167813774676
 20
112.4140099406861
 30
0.0
 10
109.9249385290327
 20
112.1089071549072
 30
0.0
  0
LINE
  5
257
330
1F
100
AcDbEntity
  8
0
  6
Continuous
 62
     7
370
    25
100
AcDbLine
 10
105.7803813396
 20
112.1089071549
 30
0.0
 11
109.924938529
 21
112.1089071549
 31
0.0
  0
SPLINE
  5
258
330
1F
100
AcDbEntity
  8
0
  6
Continuous
 62
     7
370
    25
100
AcDbSpline
210
0.0
220
0.0
230
1.0
 70
     8
 71
     3
 72
    11
 73
     7
 74
     0
 42
0.00000001
 43
0.00000001
 40
0.0
 40
0.0
 40
0.0
 40
0.0
 40
0.2571424372947443
 40
0.5142340035470633
 40
0.7758067815163677
 40
1.0
 40
1.0
 40
1.0
 40
1.0
 10
105.7803813395531
 20
112.1089071549072
 30
0.0
 10
105.6826192264119
 20
112.4331610347531
 30
0.0
 10
105.487114340619
 20
113.0816046466011
 30
0.0
 10
105.2747893984955
 20
114.0761605721918
 30
0.0
 10
105.1358914288859
 20
115.03791292466
 30
0.0
 10
105.1177773276747
 20
115.6709198477817
 30
0.0
 10
105.1094172146159
 20
115.9630684552457
 30
0.0
  0
LINE
  5
259
330
1F
100
AcDbEntity
  8
0
  6
Continuous
 62
     7
370
    25
100
AcDbLine
 10
123.2803813396
 20
112.1089071549
 30
0.0
 11
127.7806009617
 21
112.1089071549
 31
0.0
  0
SPLINE
  5
25A
330
1F
100
AcDbEntity
  8
0
  6
Continuous
 62
     7
370
    25
100
AcDbSpline
210
0.0
220
0.0
230
1.0
 70
     8
 71
     3
 72
    11
 73
     7
 74
     0
 42
0.00000001
 43
0.00000001
 40
0.0
 40
0.0
 40
0.0
 40
0.0
 40
0.2553105609688295
 40
0.5105706132992743
 40
0.7702799533059198
 40
1.0
 40
1.0
 40
1.0
 40
1.0
 10
123.2803813395531
 20
112.1089071549072
 30
0.0
 10
123.1826263796469
 20
112.4331614383152
 30
0.0
 10
122.987135798909
 20
113.0816058572078
 30
0.0
 10
122.7747029619239
 20
114.0761556957226
 30
0.0
 10
122.6348641616811
 20
115.0472200020595
 30
0.0
 10
122.6166621861326
 20
115.6895870000601
 30
0.0
 10
122.6081188522287
 20
115.9910903032643
 30
0.0
  0
LINE
  5
25B
330
1F
100
AcDbEntity
  8
0
  6
Continuous
 62
     7
370
    25
100
AcDbLine
 10
122.6026599343
 20
115.9427436615
 30
0.0
 11
122.6026599343
 21
112.8589071549
 31
0.0
  0
LINE
  5
25C
330
1F
100
AcDbEntity
  8
0
  6
Continuous
 62
     7
370
    25
100
AcDbLine
 10
122.6026599343
 20
112.8589071549
 30
0.0
 11
110.6026599343
 21
112.8589071549
 31
0.0
  0
LINE
  5
25D
330
1F
100
AcDbEntity
  8
0
  6
Continuous
 62
     7
370
    25
100
AcDbLine
 10
110.6026599343
 20
114.8140915509
 30
0.0
 11
110.6026599343
 21
112.8589071549
 31
0.0
  0
LINE
  5
25E
330
1F
100
AcDbEntity
  8
0
  6
Continuous
 62
     7
370
    25
100
AcDbLine
 10
110.6026599343
 20
127.8589071549
 30
0.0
 11
110.6026599343
 21
125.9037227589
 31
0.0
  0
LINE
  5
25F
330
1F
100
AcDbEntity
  8
0
  6
Continuous
 62
     7
370
    25
100
AcDbLine
 10
110.6026599343
 20
127.8589071549
 30
0.0
 11
122.6026599343
 21
127.8589071549
 31
0.0
  0
LINE
  5
260
330
1F
100
AcDbEntity
  8
0
  6
Continuous
 62
     7
370
    25
100
AcDbLine
 10
122.6026599343
 20
127.8589071549
 30
0.0
 11
122.6026599343
 21
124.7750706483
 31
0.0
  0
SPLINE
  5
261
330
1F
100
AcDbEntity
  8
0
  6
Continuous
 62
     7
370
    25
100
AcDbSpline
210
0.0
220
0.0
230
1.0
 70
     8
 71
     3
 72
     8
 73
     4
 74
     0
 42
0.00000001
 43
0.00000001
 40
0.0
 40
0.0
 40
0.0
 40
0.0
 40
1.0
 40
1.0
 40
1.0
 40
1.0
 10
110.0864238573137
 20
128.8589071549073
 30
0.0
 10
110.2601269335335
 20
128.5263957327718
 30
0.0
 10
110.4324291525962
 20
128.1930686328729
 30
0.0
 10
110.6026599342929
 20
127.8589071549072
 30
0.0
  0
SPLINE
  5
262
330
1F
100
AcDbEntity
  8
0
  6
Continuous
 62
     7
370
    25
100
AcDbSpline
210
0.0
220
0.0
230
1.0
 70
     8
 71
     3
 72
    10
 73
     6
 74
     0
 42
0.00000001
 43
0.00000001
 40
0.0
 40
0.0
 40
0.0
 40
0.0
 40
0.5
 40
0.5
 40
1.0
 40
1.0
 40
1.0
 40
1.0
 10
109.9249385290384
 20
128.8589071549073
 30
0.0
 10
109.901263134614
 20
128.8589071549073
 30
0.0
 10
109.8881720247237
 20
128.8361147055777
 30
0.0
 10
109.8880857034353
 20
128.7481720014847
 30
0.0
 10
109.9012546373792
 20
128.6833142278107
 30
0.0
 10
109.9249385290327
 20
128.6089071549073
 30
0.0
  0
SPLINE
  5
263
330
1F
100
AcDbEntity
  8
0
  6
Continuous
 62
     7
370
    25
100
AcDbSpline
210
0.0
220
0.0
230
1.0
 70
    24
 71
     3
 72
     8
 73
     4
 74
     0
 42
0.00000001
 43
0.00000001
 40
0.0
 40
0.0
 40
0.0
 40
0.0
 40
1.0
 40
1.0
 40
1.0
 40
1.0
 10
110.0864238573137
 20
128.8589071549073
 30
0.0
 10
110.0355251403913
 20
128.8589071549073
 30
0.0
 10
109.9815910041407
 20
128.8589071549073
 30
0.0
 10
109.9249385290331
 20
128.8589071549073
 30
0.0
  0
SPLINE
  5
264
330
1F
100
AcDbEntity
  8
0
  6
Continuous
 62
     7
370
    25
100
AcDbSpline
210
0.0
220
0.0
230
1.0
 70
     8
 71
     3
 72
     8
 73
     4
 74
     0
 42
0.00000001
 43
0.00000001
 40
0.0
 40
0.0
 40
0.0
 40
0.0
 40
1.0
 40
1.0
 40
1.0
 40
1.0
 10
122.6026599342929
 20
127.8589071549072
 30
0.0
 10
122.7729375416366
 20
128.1931605511926
 30
0.0
 10
122.9452092902623
 20
128.5264270407615
 30
0.0
 10
123.1188960112719
 20
128.858907154907
 30
0.0
  0
SPLINE
  5
265
330
1F
100
AcDbEntity
  8
0
  6
Continuous
 62
     7
370
    25
100
AcDbSpline
210
0.0
220
0.0
230
1.0
 70
    24
 71
     3
 72
     8
 73
     4
 74
     0
 42
0.00000001
 43
0.00000001
 40
0.0
 40
0.0
 40
0.0
 40
0.0
 40
1.0
 40
1.0
 40
1.0
 40
1.0
 10
123.1188960112715
 20
128.8589071549073
 30
0.0
 10
123.1697922445268
 20
128.8589071549073
 30
0.0
 10
123.2237261994906
 20
128.8589071549073
 30
0.0
 10
123.2803813395531
 20
128.8589071549073
 30
0.0
  0
SPLINE
  5
266
330
1F
100
AcDbEntity
  8
0
  6
Continuous
 62
     7
370
    25
100
AcDbSpline
210
0.0
220
0.0
230
1.0
 70
     8
 71
     3
 72
    10
 73
     6
 74
     0
 42
0.00000001
 43
0.00000001
 40
0.0
 40
0.0
 40
0.0
 40
0.0
 40
0.5
 40
0.5
 40
1.0
 40
1.0
 40
1.0
 40
1.0
 10
123.2803813395531
 20
128.6089071549073
 30
0.0
 10
123.3040567339775
 20
128.6832875322846
 30
0.0
 10
123.3171478438621
 20
128.7475881710704
 30
0.0
 10
123.3172341651504
 20
128.8358038558533
 30
0.0
 10
123.3040652312066
 20
128.8589071549073
 30
0.0
 10
123.2803813395531
 20
128.8589071549073
 30
0.0
  0
SPLINE
  5
267
330
1F
100
AcDbEntity
  8
0
  6
Continuous
 62
     7
370
    25
100
AcDbSpline
210
0.0
220
0.0
230
1.0
 70
     8
 71
     3
 72
    10
 73
     6
 74
     0
 42
0.00000001
 43
0.00000001
 40
0.0
 40
0.0
 40
0.0
 40
0.0
 40
0.5
 40
0.5
 40
1.0
 40
1.0
 40
1.0
 40
1.0
 10
105.7803813395531
 20
128.8589071549073
 30
0.0
 10
105.804055240109
 20
128.8589071549073
 30
0.0
 10
105.8171477972882
 20
128.8361165832598
 30
0.0
 10
105.8172342112705
 20
128.748170585961
 30
0.0
 10
105.8040638196718
 20
128.6833097932282
 30
0.0
 10
105.7803813395531
 20
128.6089071549073
 30
0.0
  0
SPLINE
  5
268
330
1F
100
AcDbEntity
  8
0
  6
Continuous
 62
     7
370
    25
100
AcDbSpline
210
0.0
220
0.0
230
1.0
 70
    24
 71
     3
 72
    12
 73
     8
 74
     0
 42
0.00000001
 43
0.00000001
 40
0.0
 40
0.0
 40
0.0
 40
0.0
 40
0.2499999999999999
 40
0.2499999999999999
 40
0.4999999999999998
 40
0.4999999999999998
 40
1.0
 40
1.0
 40
1.0
 40
1.0
 10
105.1026599342929
 20
128.8589071549073
 30
0.0
 10
105.1026599342929
 20
128.8589071549073
 30
0.0
 10
105.118658739274
 20
128.8589071549073
 30
0.0
 10
105.1804288775884
 20
128.8589071549072
 30
0.0
 10
105.22617100189
 20
128.8589071549072
 30
0.0
 10
105.4028411492368
 20
128.8589071549073
 30
0.0
 10
105.5730962147171
 20
128.8589071549073
 30
0.0
 10
105.7803813395531
 20
128.8589071549073
 30
0.0
  0
LINE
  5
269
330
1F
100
AcDbEntity
  8
0
  6
Continuous
 62
     7
370
    25
100
AcDbLine
 10
105.1026599343
 20
128.8589071549
 30
0.0
 11
105.1026599343
 21
124.7415534368
 31
0.0
  0
SPLINE
  5
26A
330
1F
100
AcDbEntity
  8
0
  6
Continuous
 62
     7
370
    25
100
AcDbSpline
210
0.0
220
0.0
230
1.0
 70
     8
 71
     3
 72
     8
 73
     4
 74
     0
 42
0.00000001
 43
0.00000001
 40
0.0
 40
0.0
 40
0.0
 40
0.0
 40
1.0
 40
1.0
 40
1.0
 40
1.0
 10
110.6026599342929
 20
112.8589071549072
 30
0.0
 10
110.4323823269491
 20
112.5246537586218
 30
0.0
 10
110.2601105783234
 20
112.1913872690528
 30
0.0
 10
110.0864238573137
 20
111.8589071549072
 30
0.0
  0
SPLINE
  5
26B
330
1F
100
AcDbEntity
  8
0
  6
Continuous
 62
     7
370
    25
100
AcDbSpline
210
0.0
220
0.0
230
1.0
 70
    24
 71
     3
 72
     8
 73
     4
 74
     0
 42
0.00000001
 43
0.00000001
 40
0.0
 40
0.0
 40
0.0
 40
0.0
 40
1.0
 40
1.0
 40
1.0
 40
1.0
 10
110.0864238573137
 20
111.8589071549072
 30
0.0
 10
110.0355251403912
 20
111.8589071549072
 30
0.0
 10
109.9815910041404
 20
111.8589071549072
 30
0.0
 10
109.9249385290327
 20
111.8589071549072
 30
0.0
  0
SPLINE
  5
26C
330
1F
100
AcDbEntity
  8
0
  6
Continuous
 62
     7
370
    25
100
AcDbSpline
210
0.0
220
0.0
230
1.0
 70
     8
 71
     3
 72
    10
 73
     6
 74
     0
 42
0.00000001
 43
0.00000001
 40
0.0
 40
0.0
 40
0.0
 40
0.0
 40
0.5
 40
0.5
 40
1.0
 40
1.0
 40
1.0
 40
1.0
 10
109.9249385290327
 20
112.1089071549072
 30
0.0
 10
109.9012631346083
 20
112.0345267775299
 30
0.0
 10
109.8881720247237
 20
111.9702261387441
 30
0.0
 10
109.8880857034354
 20
111.8820104539612
 30
0.0
 10
109.9012546373792
 20
111.8589071549072
 30
0.0
 10
109.9249385290327
 20
111.8589071549072
 30
0.0
  0
SPLINE
  5
26D
330
1F
100
AcDbEntity
  8
0
  6
Continuous
 62
     7
370
    25
100
AcDbSpline
210
0.0
220
0.0
230
1.0
 70
     8
 71
     3
 72
     8
 73
     4
 74
     0
 42
0.00000001
 43
0.00000001
 40
0.0
 40
0.0
 40
0.0
 40
0.0
 40
1.0
 40
1.0
 40
1.0
 40
1.0
 10
123.1188960112721
 20
111.8589071549072
 30
0.0
 10
122.9451929350523
 20
112.1914185770427
 30
0.0
 10
122.7728907159896
 20
112.5247456769416
 30
0.0
 10
122.6026599342929
 20
112.8589071549072
 30
0.0
  0
SPLINE
  5
26E
330
1F
100
AcDbEntity
  8
0
  6
Continuous
 62
     7
370
    25
100
AcDbSpline
210
0.0
220
0.0
230
1.0
 70
     8
 71
     3
 72
    10
 73
     6
 74
     0
 42
0.00000001
 43
0.00000001
 40
0.0
 40
0.0
 40
0.0
 40
0.0
 40
0.5
 40
0.5
 40
1.0
 40
1.0
 40
1.0
 40
1.0
 10
123.2803813395531
 20
111.8589071549072
 30
0.0
 10
123.3040567339775
 20
111.8589071549072
 30
0.0
 10
123.3171478438621
 20
111.881699604237
 30
0.0
 10
123.3172341651504
 20
111.9696423083301
 30
0.0
 10
123.3040652312066
 20
112.0345000820039
 30
0.0
 10
123.2803813395531
 20
112.1089071549072
 30
0.0
  0
SPLINE
  5
26F
330
1F
100
AcDbEntity
  8
0
  6
Continuous
 62
     7
370
    25
100
AcDbSpline
210
0.0
220
0.0
230
1.0
 70
    24
 71
     3
 72
     8
 73
     4
 74
     0
 42
0.00000001
 43
0.00000001
 40
0.0
 40
0.0
 40
0.0
 40
0.0
 40
1.0
 40
1.0
 40
1.0
 40
1.0
 10
123.1188960112721
 20
111.8589071549072
 30
0.0
 10
123.1697922445272
 20
111.8589071549072
 30
0.0
 10
123.2237261994908
 20
111.8589071549072
 30
0.0
 10
123.2803813395531
 20
111.8589071549072
 30
0.0
  0
SPLINE
  5
270
330
1F
100
AcDbEntity
  8
0
  6
Continuous
 62
     7
370
    25
100
AcDbSpline
210
0.0
220
0.0
230
1.0
 70
     8
 71
     3
 72
    10
 73
     6
 74
     0
 42
0.00000001
 43
0.00000001
 40
0.0
 40
0.0
 40
0.0
 40
0.0
 40
0.5
 40
0.5
 40
1.0
 40
1.0
 40
1.0
 40
1.0
 10
105.7803813395531
 20
112.1089071549072
 30
0.0
 10
105.8040535794647
 20
112.0345366879817
 30
0.0
 10
105.8171475693999
 20
111.9702310916938
 30
0.0
 10
105.8172344368614
 20
111.882008303888
 30
0.0
 10
105.804064647102
 20
111.8589071549072
 30
0.0
 10
105.7803813395531
 20
111.8589071549072
 30
0.0
  0
SPLINE
  5
271
330
1F
100
AcDbEntity
  8
0
  6
Continuous
 62
     7
370
    25
100
AcDbSpline
210
0.0
220
0.0
230
1.0
 70
    24
 71
     3
 72
    12
 73
     8
 74
     0
 42
0.00000001
 43
0.00000001
 40
0.0
 40
0.0
 40
0.0
 40
0.0
 40
0.2500000000000001
 40
0.2500000000000001
 40
0.5000000000000001
 40
0.5000000000000001
 40
1.0
 40
1.0
 40
1.0
 40
1.0
 10
105.1026599342929
 20
111.8589071549072
 30
0.0
 10
105.1026599342929
 20
111.8589071549072
 30
0.0
 10
105.118658739274
 20
111.8589071549072
 30
0.0
 10
105.1804288775884
 20
111.8589071549072
 30
0.0
 10
105.22617100189
 20
111.8589071549072
 30
0.0
 10
105.4028411492368
 20
111.8589071549072
 30
0.0
 10
105.5730962147171
 20
111.8589071549072
 30
0.0
 10
105.7803813395531
 20
111.8589071549072
 30
0.0
  0
LINE
  5
272
330
1F
100
AcDbEntity
  8
0
  6
Continuous
 62
     7
370
    25
100
AcDbLine
 10
123.2803813396
 20
128.8589071549
 30
0.0
 11
127.7806009617
 21
128.8589071549
 31
0.0
  0
LINE
  5
273
330
1F
100
AcDbEntity
  8
0
  6
Continuous
 62
     7
370
    25
100
AcDbLine
 10
105.7803813396
 20
128.8589071549
 30
0.0
 11
109.924938529
 21
128.8589071549
 31
0.0
  0
LINE
  5
274
330
1F
100
AcDbEntity
  8
0
  6
Continuous
 62
     7
370
    25
100
AcDbLine
 10
127.7806009617
 20
111.8589071549
 30
0.0
 11
123.2803813396
 21
111.8589071549
 31
0.0
  0
LINE
  5
275
330
1F
100
AcDbEntity
  8
0
  6
Continuous
 62
     7
370
    25
100
AcDbLine
 10
109.924938529
 20
111.8589071549
 30
0.0
 11
105.7803813396
 21
111.8589071549
 31
0.0
  0
LINE
  5
276
330
1F
100
AcDbEntity
  8
0
  6
Continuous
 62
     7
370
    25
100
AcDbLine
 10
123.1188960113
 20
128.8589071549
 30
0.0
 11
110.0864238573
 21
128.8589071549
 31
0.0
  0
LINE
  5
277
330
1F
100
AcDbEntity
  8
0
  6
Continuous
 62
     7
370
    25
100
AcDbLine
 10
123.1188960113
 20
111.8589071549
 30
0.0
 11
110.0864238573
 21
111.8589071549
 31
0.0
  0
LINE
  5
278
330
1F
100
AcDbEntity
  8
0
  6
Continuous
 62
     7
370
    25
100
AcDbLine
 10
82.4026599343
 20
128.6089071549
 30
0.0
 11
82.4026599343
 21
123.8589071549
 31
0.0
  0
LINE
  5
279
330
1F
100
AcDbEntity
  8
0
  6
Continuous
 62
     7
370
    25
100
AcDbLine
 10
82.4026599343
 20
116.8589071549
 30
0.0
 11
82.4026599343
 21
112.1089071549
 31
0.0
  0
LINE
  5
27A
330
1F
100
AcDbEntity
  8
0
  6
Continuous
 62
     7
370
    25
100
AcDbLine
 10
84.3026599343
 20
128.1089071549
 30
0.0
 11
84.3026599343
 21
123.8589071549
 31
0.0
  0
LINE
  5
27B
330
1F
100
AcDbEntity
  8
0
  6
Continuous
 62
     7
370
    25
100
AcDbLine
 10
84.3026599343
 20
116.8589071549
 30
0.0
 11
84.3026599343
 21
112.6089071549
 31
0.0
  0
LINE
  5
27C
330
1F
100
AcDbEntity
  8
0
  6
Continuous
 62
     7
370
    25
100
AcDbLine
 10
127.7806009617
 20
120.1089071549
 30
0.0
 11
124.0484641219
 21
120.1089071549
 31
0.0
  0
LINE
  5
27D
330
1F
100
AcDbEntity
  8
0
  6
Continuous
 62
     7
370
    25
100
AcDbLine
 10
124.0484641219
 20
120.6089071549
 30
0.0
 11
127.7806009617
 21
120.6089071549
 31
0.0
  0
INSERT
  5
289
330
1F
100
AcDbEntity
  8
FORMAT
100
AcDbBlockReference
  2
SW_CENTERMARKSYMBOL_1
 10
116.6026599343
 20
120.3589071549
 30
0.0
  0
ENDSEC
  0
SECTION
  2
OBJECTS
  0
DICTIONARY
  5
C
330
0
100
AcDbDictionary
281
     1
  3
ACAD_GROUP
350
D
  3
ACAD_LAYOUT
350
1A
  3
ACAD_MLINESTYLE
350
17
  3
ACAD_PLOTSETTINGS
350
19
  3
ACAD_PLOTSTYLENAME
350
E
  3
ACAD_SCALELIST
350
47
  3
DWGPROPS
350
28A
  0
DICTIONARY
  5
D
102
{ACAD_REACTORS
330
C
102
}
330
C
100
AcDbDictionary
281
     1
  0
DICTIONARY
  5
1A
102
{ACAD_REACTORS
330
C
102
}
330
C
100
AcDbDictionary
281
     1
  3
Layout1
350
1E
  3
Layout2
350
26
  3
Model
350
22
  0
DICTIONARY
  5
17
102
{ACAD_REACTORS
330
C
102
}
330
C
100
AcDbDictionary
281
     1
  3
Standard
350
18
  0
DICTIONARY
  5
19
102
{ACAD_REACTORS
330
C
102
}
330
C
100
AcDbDictionary
281
     1
  0
ACDBDICTIONARYWDFLT
  5
E
102
{ACAD_REACTORS
330
C
102
}
330
C
100
AcDbDictionary
281
     1
  3
Normal
350
F
100
AcDbDictionaryWithDefault
340
F
  0
DICTIONARY
  5
47
102
{ACAD_REACTORS
330
C
102
}
330
C
100
AcDbDictionary
281
     1
  3
A0
350
48
  3
A1
350
49
  3
A2
350
4A
  3
A3
350
4B
  3
A4
350
4C
  3
A5
350
4D
  3
A6
350
4E
  3
A7
350
4F
  3
A8
350
50
  3
A9
350
51
  3
B0
350
52
  3
B1
350
53
  3
B2
350
54
  3
B3
350
55
  3
B4
350
56
  3
B5
350
57
  3
B6
350
58
  0
XRECORD
  5
28A
102
{ACAD_REACTORS
330
C
102
}
330
C
100
AcDbXrecord
280
     1
  1
DWGPROPS COOKIE
  2

  3

  4

  6

  7

  8
user28
  9

300
=
301
=
302
=
303
=
304
=
305
=
306
=
307
=
308
=
309
=
 40
0.0
 41
2460426.104744074
 42
2460426.104745347
  1

 90
        0
  0
LAYOUT
  5
1E
102
{ACAD_REACTORS
330
1A
102
}
330
1A
100
AcDbPlotSettings
  1

  2
none_device
  4

  6

 40
0.0
 41
0.0
 42
0.0
 43
0.0
 44
0.0
 45
0.0
 46
0.0
 47
0.0
 48
0.0
 49
0.0
140
0.0
141
0.0
142
1.0
143
1.0
 70
   688
 72
     1
 73
     0
 74
     5
  7

 75
    16
147
1.0
148
0.0
149
0.0
100
AcDbLayout
  1
Layout1
 70
     1
 71
     1
 10
0.0
 20
0.0
 11
420.0
 21
297.0
 12
0.0
 22
0.0
 32
0.0
 14
1.0000000000E+20
 24
1.0000000000E+20
 34
1.0000000000E+20
 15
-1.0000000000E+20
 25
-1.0000000000E+20
 35
-1.0000000000E+20
146
0.0
 13
0.0
 23
0.0
 33
0.0
 16
1.0
 26
0.0
 36
0.0
 17
0.0
 27
1.0
 37
0.0
 76
     0
330
1B
  0
LAYOUT
  5
26
102
{ACAD_REACTORS
330
1A
102
}
330
1A
100
AcDbPlotSettings
  1

  2
none_device
  4

  6

 40
0.0
 41
0.0
 42
0.0
 43
0.0
 44
0.0
 45
0.0
 46
0.0
 47
0.0
 48
0.0
 49
0.0
140
0.0
141
0.0
142
1.0
143
1.0
 70
   688
 72
     1
 73
     0
 74
     5
  7

 75
    16
147
1.0
148
0.0
149
0.0
100
AcDbLayout
  1
Layout2
 70
     1
 71
     2
 10
0.0
 20
0.0
 11
0.0
 21
0.0
 12
0.0
 22
0.0
 32
0.0
 14
0.0
 24
0.0
 34
0.0
 15
0.0
 25
0.0
 35
0.0
146
0.0
 13
0.0
 23
0.0
 33
0.0
 16
1.0
 26
0.0
 36
0.0
 17
0.0
 27
1.0
 37
0.0
 76
     0
330
23
  0
LAYOUT
  5
22
102
{ACAD_REACTORS
330
1A
102
}
330
1A
100
AcDbPlotSettings
  1

  2
none_device
  4
Letter_(8.50_x_11.00_Inches)
  6

 40
6.35
 41
6.35
 42
6.35000508
 43
6.35000508
 44
215.9
 45
279.4
 46
0.0
 47
0.0
 48
0.0
 49
0.0
140
0.0
141
0.0
142
1.0
143
1.0
 70
  1712
 72
     1
 73
     0
 74
     0
  7

 75
     0
147
1.0
148
0.0
149
0.0
100
AcDbLayout
  1
Model
 70
     1
 71
     0
 10
0.0
 20
0.0
 11
297.0
 21
210.0
 12
0.0
 22
0.0
 32
0.0
 14
0.0
 24
0.0
 34
0.0
 15
297.0
 25
210.0
 35
0.0
146
0.0
 13
0.0
 23
0.0
 33
0.0
 16
1.0
 26
0.0
 36
0.0
 17
0.0
 27
1.0
 37
0.0
 76
     0
330
1F
331
29
  0
MLINESTYLE
  5
18
102
{ACAD_REACTORS
330
17
102
}
330
17
100
AcDbMlineStyle
  2
Standard
 70
     0
  3

 62
   256
 51
90.0
 52
90.0
 71
     2
 49
0.5
 62
   256
  6
BYLAYER
 49
-0.5
 62
   256
  6
BYLAYER
  0
ACDBPLACEHOLDER
  5
F
102
{ACAD_REACTORS
330
E
102
}
330
E
  0
SCALE
  5
48
102
{ACAD_REACTORS
330
47
102
}
330
47
100
AcDbScale
 70
     0
300
1:1
140
1.0
141
1.0
290
     1
  0
SCALE
  5
49
102
{ACAD_REACTORS
330
47
102
}
330
47
100
AcDbScale
 70
     0
300
1:2
140
1.0
141
2.0
290
     0
  0
SCALE
  5
4A
102
{ACAD_REACTORS
330
47
102
}
330
47
100
AcDbScale
 70
     0
300
1:4
140
1.0
141
4.0
290
     0
  0
SCALE
  5
4B
102
{ACAD_REACTORS
330
47
102
}
330
47
100
AcDbScale
 70
     0
300
1:5
140
1.0
141
5.0
290
     0
  0
SCALE
  5
4C
102
{ACAD_REACTORS
330
47
102
}
330
47
100
AcDbScale
 70
     0
300
1:8
140
1.0
141
8.0
290
     0
  0
SCALE
  5
4D
102
{ACAD_REACTORS
330
47
102
}
330
47
100
AcDbScale
 70
     0
300
1:10
140
1.0
141
10.0
290
     0
  0
SCALE
  5
4E
102
{ACAD_REACTORS
330
47
102
}
330
47
100
AcDbScale
 70
     0
300
1:16
140
1.0
141
16.0
290
     0
  0
SCALE
  5
4F
102
{ACAD_REACTORS
330
47
102
}
330
47
100
AcDbScale
 70
     0
300
1:20
140
1.0
141
20.0
290
     0
  0
SCALE
  5
50
102
{ACAD_REACTORS
330
47
102
}
330
47
100
AcDbScale
 70
     0
300
1:30
140
1.0
141
30.0
290
     0
  0
SCALE
  5
51
102
{ACAD_REACTORS
330
47
102
}
330
47
100
AcDbScale
 70
     0
300
1:40
140
1.0
141
40.0
290
     0
  0
SCALE
  5
52
102
{ACAD_REACTORS
330
47
102
}
330
47
100
AcDbScale
 70
     0
300
1:50
140
1.0
141
50.0
290
     0
  0
SCALE
  5
53
102
{ACAD_REACTORS
330
47
102
}
330
47
100
AcDbScale
 70
     0
300
1:100
140
1.0
141
100.0
290
     0
  0
SCALE
  5
54
102
{ACAD_REACTORS
330
47
102
}
330
47
100
AcDbScale
 70
     0
300
2:1
140
2.0
141
1.0
290
     0
  0
SCALE
  5
55
102
{ACAD_REACTORS
330
47
102
}
330
47
100
AcDbScale
 70
     0
300
4:1
140
4.0
141
1.0
290
     0
  0
SCALE
  5
56
102
{ACAD_REACTORS
330
47
102
}
330
47
100
AcDbScale
 70
     0
300
8:1
140
8.0
141
1.0
290
     0
  0
SCALE
  5
57
102
{ACAD_REACTORS
330
47
102
}
330
47
100
AcDbScale
 70
     0
300
10:1
140
10.0
141
1.0
290
     0
  0
SCALE
  5
58
102
{ACAD_REACTORS
330
47
102
}
330
47
100
AcDbScale
 70
     0
300
100:1
140
100.0
141
1.0
290
     0
  0
ENDSEC
  0
EOF
